0
SECTION
2
HEADER
9
$MEASUREMENT
70
1
0
ENDSEC
0
SECTION
2
TABLES
0
TABLE
2
LTYPE
0
LTYPE
72
65
70
64
2
CONTINUOUS
3
______
73
0
40
0
0
ENDTAB
0
TABLE
2
LAYER
0
LAYER
2
DEFAULT_255_2_778
70
0
62
255
6
CONTINUOUS
0
LAYER
2
DEFAULT_255_1_234
70
0
62
255
6
CONTINUOUS
0
ENDTAB
0
ENDSEC
0
SECTION
2
ENTITIES
0
ARC
8
DEFAULT_255_2_778
10
3.7023693
20
171.0552017
40
0.7914215
50
129.1312896
51
180.1450914
0
ARC
8
DEFAULT_255_2_778
10
3.7026345
20
171.0556888
40
0.7912112
50
89.854026
51
129.1684493
0
ARC
8
DEFAULT_255_2_778
10
25.9316937
20
171.0553754
40
0.7915249
50
39.4792447
51
90.147911
0
ARC
8
DEFAULT_255_2_778
10
25.9322935
20
171.055222
40
0.7911595
50
359.8533901
51
39.5154338
0
ARC
8
DEFAULT_255_2_778
10
25.9319693
20
-1.9863506
40
0.7914836
50
309.4761667
51
0.1482649
0
ARC
8
DEFAULT_255_2_778
10
25.931698
20
-1.9867816
40
0.7913235
50
269.8517415
51
309.511178
0
ARC
8
DEFAULT_255_2_778
10
3.702642
20
-1.9867235
40
0.7913815
50
219.1282118
51
270.1454017
0
ARC
8
DEFAULT_255_2_778
10
3.7023247
20
-1.986341
40
0.7913769
50
179.8524075
51
219.1641908
0
LINE
8
DEFAULT_255_2_778
10
3.7046503
20
171.8468976
11
25.9296503
21
171.8468976
0
LINE
8
DEFAULT_255_2_778
10
26.7234503
20
171.0531976
11
26.7234503
21
-1.9843024
0
LINE
8
DEFAULT_255_2_778
10
25.9296503
20
-2.7781024
11
3.7046503
21
-2.7781024
0
LINE
8
DEFAULT_255_2_778
10
2.9109503
20
-1.9843024
11
2.9109503
21
171.0531976
0
LINE
8
DEFAULT_255_1_234
10
11.0838392
20
-0.6513
11
10.6782364
21
-0.6513
0
LINE
8
DEFAULT_255_1_234
10
10.6782364
20
-0.6513
11
10.6782364
21
0.5181211
0
LINE
8
DEFAULT_255_1_234
10
10.6782364
20
0.5181211
11
11.0605471
21
0.5181211
0
LINE
8
DEFAULT_255_1_234
10
11.0894614
20
-0.1043386
11
10.8324458
21
-0.1043386
0
LINE
8
DEFAULT_255_1_234
10
10.8324458
20
-0.1043386
11
10.8324458
21
-0.5252017
0
LINE
8
DEFAULT_255_1_234
10
10.8324458
20
-0.5252017
11
11.0870519
21
-0.5252017
0
LINE
8
DEFAULT_255_1_234
10
10.8324458
20
0.3912196
11
10.8324458
21
0.0193501
0
LINE
8
DEFAULT_255_1_234
10
10.8324458
20
0.0193501
11
11.0653662
21
0.0193501
0
LINE
8
DEFAULT_255_1_234
10
11.0605471
20
0.3912196
11
10.8324458
21
0.3912196
0
ARC
8
DEFAULT_255_1_234
10
11.064318
20
-0.2186099
40
0.7367406
50
82.1257326
51
90.2932599
0
ARC
8
DEFAULT_255_1_234
10
11.1032135
20
0.0532013
40
0.4621653
50
69.9044149
51
82.2857423
0
ARC
8
DEFAULT_255_1_234
10
11.1602813
20
0.2074637
40
0.2976871
50
51.1838526
51
70.0181538
0
ARC
8
DEFAULT_255_1_234
10
11.1857779
20
0.244524
40
0.2528517
50
12.1017251
51
50.4214761
0
ARC
8
DEFAULT_255_1_234
10
11.0473653
20
0.2097676
40
0.3955061
50
359.5251267
51
12.8211707
0
ARC
8
DEFAULT_255_1_234
10
11.2053579
20
0.2028344
40
0.2375281
50
323.4908128
51
0.8817314
0
ARC
8
DEFAULT_255_1_234
10
11.1635266
20
0.235155
40
0.2903817
50
298.6825083
51
323.2756573
0
ARC
8
DEFAULT_255_1_234
10
11.1273629
20
0.2952649
40
0.3604842
50
293.1999386
51
299.1396394
0
ARC
8
DEFAULT_255_1_234
10
11.1946602
20
-0.3132874
40
0.2871098
50
54.0011765
51
74.9167975
0
ARC
8
DEFAULT_255_1_234
10
11.2062961
20
-0.2935668
40
0.2643248
50
36.3580696
51
53.5291921
0
ARC
8
DEFAULT_255_1_234
10
11.1936203
20
-0.3026002
40
0.2798884
50
4.8189881
51
36.3089977
0
ARC
8
DEFAULT_255_1_234
10
11.1157038
20
-0.313573
40
0.358478
50
359.9370252
51
5.5204067
0
ARC
8
DEFAULT_255_1_234
10
11.083256
20
-0.3176333
40
0.3909429
50
344.7478609
51
0.5373281
0
ARC
8
DEFAULT_255_1_234
10
11.1823531
20
-0.3443456
40
0.2883093
50
311.1786488
51
344.6886812
0
ARC
8
DEFAULT_255_1_234
10
11.1531578
20
-0.3080013
40
0.3348923
50
286.0418249
51
310.8441291
0
ARC
8
DEFAULT_255_1_234
10
11.102441
20
-0.1433193
40
0.5071869
50
274.1042341
51
286.4071509
0
ARC
8
DEFAULT_255_1_234
10
11.0847666
20
0.0450229
40
0.6963234
50
269.9236873
51
274.445647
0
ARC
8
DEFAULT_255_1_234
10
11.0893667
20
-0.1889463
40
0.3362634
50
269.6055768
51
281.3740047
0
ARC
8
DEFAULT_255_1_234
10
11.1124305
20
-0.2982647
40
0.224546
50
281.1055983
51
302.5132223
0
ARC
8
DEFAULT_255_1_234
10
11.1271204
20
-0.3246177
40
0.1944357
50
303.0368945
51
311.8811219
0
ARC
8
DEFAULT_255_1_234
10
11.1342611
20
-0.333111
40
0.1833454
50
311.9916004
51
351.7143462
0
ARC
8
DEFAULT_255_1_234
10
11.0525841
20
-0.316607
40
0.2665871
50
350.7339597
51
0.2221581
0
ARC
8
DEFAULT_255_1_234
10
11.0418287
20
-0.3109533
40
0.2773789
50
359.0456241
51
17.2296242
0
ARC
8
DEFAULT_255_1_234
10
11.1457404
20
-0.2800837
40
0.1689915
50
17.6685481
51
78.9940892
0
ARC
8
DEFAULT_255_1_234
10
11.0940568
20
-0.4655776
40
0.3612658
50
76.5635957
51
90.6980921
0
LINE
8
DEFAULT_255_1_234
10
11.0896552
20
-0.1043387
11
11.0894614
21
-0.1043386
0
ARC
8
DEFAULT_255_1_234
10
11.0676228
20
0.3479036
40
0.3285612
50
269.6064736
51
281.4533503
0
ARC
8
DEFAULT_255_1_234
10
11.0899048
20
0.2427688
40
0.2210975
50
281.2041486
51
302.5148063
0
ARC
8
DEFAULT_255_1_234
10
11.1035898
20
0.2181241
40
0.1929674
50
303.021671
51
309.8369575
0
ARC
8
DEFAULT_255_1_234
10
11.1219359
20
0.1975488
40
0.1654181
50
309.5228395
51
356.9509836
0
ARC
8
DEFAULT_255_1_234
10
11.0555942
20
0.2070932
40
0.2322512
50
355.4701227
51
0.0492546
0
ARC
8
DEFAULT_255_1_234
10
11.0277033
20
0.2093094
40
0.2601498
50
359.5558597
51
11.2096359
0
ARC
8
DEFAULT_255_1_234
10
11.1234323
20
0.229123
40
0.1623975
50
10.9182341
51
31.3230275
0
ARC
8
DEFAULT_255_1_234
10
11.1520056
20
0.2450214
40
0.1297302
50
31.8852677
51
52.1412565
0
ARC
8
DEFAULT_255_1_234
10
11.1245789
20
0.206275
40
0.1771663
50
52.8285564
51
71.9850297
0
ARC
8
DEFAULT_255_1_234
10
11.0869965
20
0.0956664
40
0.2939794
50
71.6863486
51
82.8455995
0
ARC
8
DEFAULT_255_1_234
10
11.0630501
20
-0.0852851
40
0.476506
50
82.6984714
51
90.1729175
0
ARC
8
DEFAULT_255_1_234
10
11.0608136
20
0.0370623
40
0.3541573
50
89.8708275
51
90.0431131
0
LINE
8
DEFAULT_255_1_234
10
11.8018766
20
0.5181211
11
12.0837906
21
0.0699501
0
LINE
8
DEFAULT_255_1_234
10
12.0837906
20
0.0699501
11
12.3640982
21
0.5181211
0
LINE
8
DEFAULT_255_1_234
10
12.3640982
20
0.5181211
11
12.5456155
21
0.5181211
0
LINE
8
DEFAULT_255_1_234
10
12.5456155
20
0.5181211
11
12.1761556
21
-0.0617704
0
LINE
8
DEFAULT_255_1_234
10
12.1761556
20
-0.0617704
11
12.5544504
21
-0.6513
0
LINE
8
DEFAULT_255_1_234
10
12.5544504
20
-0.6513
11
12.3713268
21
-0.6513
0
LINE
8
DEFAULT_255_1_234
10
12.3713268
20
-0.6513
11
12.0837906
21
-0.1950973
0
LINE
8
DEFAULT_255_1_234
10
12.0837906
20
-0.1950973
11
11.794648
21
-0.6513
0
LINE
8
DEFAULT_255_1_234
10
11.794648
20
-0.6513
11
11.6123275
21
-0.6513
0
LINE
8
DEFAULT_255_1_234
10
11.6123275
20
-0.6513
11
11.9914256
21
-0.0617704
0
LINE
8
DEFAULT_255_1_234
10
11.9914256
20
-0.0617704
11
11.6211625
21
0.5181211
0
LINE
8
DEFAULT_255_1_234
10
11.6211625
20
0.5181211
11
11.8018766
21
0.5181211
0
LINE
8
DEFAULT_255_1_234
10
12.9825421
20
-0.0938974
11
12.9825421
21
-0.2151766
0
LINE
8
DEFAULT_255_1_234
10
12.9825421
20
-0.2151766
11
12.5905933
21
-0.2151766
0
LINE
8
DEFAULT_255_1_234
10
12.5905933
20
-0.2151766
11
12.5905933
21
-0.0938974
0
LINE
8
DEFAULT_255_1_234
10
12.5905933
20
-0.0938974
11
12.9825421
21
-0.0938974
0
LINE
8
DEFAULT_255_1_234
10
13.6001828
20
0.5237433
11
13.6001828
21
-0.6513
0
LINE
8
DEFAULT_255_1_234
10
13.6001828
20
-0.6513
11
13.4507924
21
-0.6513
0
LINE
8
DEFAULT_255_1_234
10
13.4507924
20
-0.6513
11
13.4507924
21
0.3390133
0
LINE
8
DEFAULT_255_1_234
10
13.4507924
20
0.3390133
11
13.1512086
21
0.2289785
0
LINE
8
DEFAULT_255_1_234
10
13.1512086
20
0.2289785
11
13.1512086
21
0.3639117
0
LINE
8
DEFAULT_255_1_234
10
13.1512086
20
0.3639117
11
13.5768907
21
0.5237433
0
LINE
8
DEFAULT_255_1_234
10
13.5768907
20
0.5237433
11
13.6001828
21
0.5237433
0
LINE
8
DEFAULT_255_1_234
10
14.5921024
20
0.5189243
11
14.6186072
21
0.5189243
0
LINE
8
DEFAULT_255_1_234
10
14.6186072
20
0.5189243
11
14.6186072
21
0.392826
0
LINE
8
DEFAULT_255_1_234
10
14.6186072
20
0.392826
11
14.5912993
21
0.392826
0
LINE
8
DEFAULT_255_1_234
10
14.0443379
20
-0.2063417
11
14.0443379
21
-0.1493164
0
LINE
8
DEFAULT_255_1_234
10
14.1937282
20
-0.1685925
11
14.1937282
21
-0.2232083
0
ARC
8
DEFAULT_255_1_234
10
14.5965341
20
-0.1069545
40
0.4998079
50
90.6001036
51
104.514704
0
ARC
8
DEFAULT_255_1_234
10
14.5576856
20
0.0375131
40
0.3502176
50
104.2855254
51
133.862935
0
ARC
8
DEFAULT_255_1_234
10
14.5740614
20
0.026683
40
0.3693984
50
134.5302688
51
161.6210873
0
ARC
8
DEFAULT_255_1_234
10
14.7393802
20
-0.0316105
40
0.5446739
50
161.2849839
51
174.2076652
0
ARC
8
DEFAULT_255_1_234
10
14.8800739
20
-0.0510213
40
0.6866274
50
173.7810589
51
174.9254635
0
ARC
8
DEFAULT_255_1_234
10
14.4250571
20
-0.1893161
40
0.3033419
50
95.8330959
51
138.9954921
0
ARC
8
DEFAULT_255_1_234
10
14.4473927
20
-0.3171625
40
0.4328947
50
89.8753725
51
97.0544009
0
ARC
8
DEFAULT_255_1_234
10
14.4521393
20
-0.2336252
40
0.3493769
50
71.6407809
51
90.6240094
0
ARC
8
DEFAULT_255_1_234
10
14.4671967
20
-0.1781918
40
0.2920396
50
39.6367836
51
71.019018
0
ARC
8
DEFAULT_255_1_234
10
14.403544
20
-0.2332002
40
0.3761538
50
10.658731
51
39.9043955
0
ARC
8
DEFAULT_255_1_234
10
14.2487523
20
-0.2668314
40
0.5345136
50
359.682601
51
11.132623
0
ARC
8
DEFAULT_255_1_234
10
14.2447653
20
-0.273899
40
0.5385081
50
347.2486944
51
0.4369317
0
ARC
8
DEFAULT_255_1_234
10
14.411513
20
-0.3140193
40
0.3670249
50
318.1409698
51
347.6118597
0
ARC
8
DEFAULT_255_1_234
10
14.4440123
20
-0.3407298
40
0.3250007
50
275.6342139
51
317.8248465
0
ARC
8
DEFAULT_255_1_234
10
14.4219235
20
-0.2107781
40
0.4565864
50
269.8874292
51
276.7917694
0
ARC
8
DEFAULT_255_1_234
10
14.4164305
20
-0.3133257
40
0.3540676
50
246.9140195
51
270.7437342
0
ARC
8
DEFAULT_255_1_234
10
14.4170696
20
-0.3275616
40
0.3412781
50
218.1665114
51
245.878116
0
ARC
8
DEFAULT_255_1_234
10
14.5050156
20
-0.2539721
40
0.455911
50
191.4115814
51
218.6077802
0
ARC
8
DEFAULT_255_1_234
10
14.6988246
20
-0.2105167
40
0.6545001
50
179.6345085
51
191.7836486
0
ARC
8
DEFAULT_255_1_234
10
15.2570582
20
-0.1426303
40
1.2127388
50
171.4525249
51
180.3158839
0
ARC
8
DEFAULT_255_1_234
10
14.8175458
20
-0.0742392
40
0.7679464
50
157.9802646
51
171.6246686
0
ARC
8
DEFAULT_255_1_234
10
14.5961479
20
0.0140421
40
0.5296008
50
141.4298019
51
157.854097
0
ARC
8
DEFAULT_255_1_234
10
14.53198
20
0.0594381
40
0.4511509
50
102.8715806
51
140.8564722
0
ARC
8
DEFAULT_255_1_234
10
14.5967415
20
-0.1845448
40
0.7034845
50
90.3778349
51
103.5869322
0
ARC
8
DEFAULT_255_1_234
10
14.4229191
20
-0.245027
40
0.2370698
50
89.8751008
51
126.2071704
0
ARC
8
DEFAULT_255_1_234
10
14.4274981
20
-0.2604697
40
0.2522934
50
124.9745049
51
144.895901
0
ARC
8
DEFAULT_255_1_234
10
14.4099172
20
-0.246144
40
0.2296779
50
145.2974905
51
160.2660252
0
ARC
8
DEFAULT_255_1_234
10
14.7171711
20
-0.2263929
40
0.5234525
50
179.6514266
51
190.2855912
0
ARC
8
DEFAULT_255_1_234
10
14.5477848
20
-0.2583214
40
0.3510893
50
190.0945431
51
207.5098196
0
ARC
8
DEFAULT_255_1_234
10
14.4912118
20
-0.2852377
40
0.288489
50
207.9583163
51
216.3251085
0
ARC
8
DEFAULT_255_1_234
10
14.4572225
20
-0.3131895
40
0.2445587
50
215.7661442
51
232.5456785
0
ARC
8
DEFAULT_255_1_234
10
14.4189208
20
-0.3618518
40
0.1826382
50
232.8005391
51
270.6605633
0
ARC
8
DEFAULT_255_1_234
10
14.4234909
20
-0.3254388
40
0.2190529
50
269.35537
51
288.4744281
0
ARC
8
DEFAULT_255_1_234
10
14.4327806
20
-0.3603882
40
0.1829749
50
289.1833337
51
322.9683818
0
ARC
8
DEFAULT_255_1_234
10
14.3716329
20
-0.3121609
40
0.2608399
50
322.6007884
51
346.5182367
0
ARC
8
DEFAULT_255_1_234
10
14.2558925
20
-0.2826384
40
0.3802777
50
346.2582162
51
358.7741648
0
ARC
8
DEFAULT_255_1_234
10
14.1540593
20
-0.2771035
40
0.4822176
50
358.3755224
51
0.0098023
0
ARC
8
DEFAULT_255_1_234
10
14.2296781
20
-0.2743343
40
0.4066078
50
359.6214041
51
11.2839074
0
ARC
8
DEFAULT_255_1_234
10
14.3573927
20
-0.2476934
40
0.2761514
50
11.0482309
51
31.8146458
0
ARC
8
DEFAULT_255_1_234
10
14.388297
20
-0.2309416
40
0.2410679
50
32.3035391
51
38.082671
0
ARC
8
DEFAULT_255_1_234
10
14.430363
20
-0.1928338
40
0.1844966
50
36.825067
51
85.7415724
0
ARC
8
DEFAULT_255_1_234
10
14.4236464
20
-0.2428699
40
0.2349122
50
85.0140713
51
90.0513278
0
LINE
8
DEFAULT_255_1_234
10
15.8964567
20
0.5181211
11
15.8964567
21
-0.6513
0
LINE
8
DEFAULT_255_1_234
10
15.8964567
20
-0.6513
11
15.7414442
21
-0.6513
0
LINE
8
DEFAULT_255_1_234
10
15.7414442
20
-0.6513
11
15.1527178
21
0.249861
0
LINE
8
DEFAULT_255_1_234
10
15.1527178
20
0.249861
11
15.1527178
21
-0.6513
0
LINE
8
DEFAULT_255_1_234
10
15.1527178
20
-0.6513
11
14.9977052
21
-0.6513
0
LINE
8
DEFAULT_255_1_234
10
14.9977052
20
-0.6513
11
14.9977052
21
0.5181211
0
LINE
8
DEFAULT_255_1_234
10
14.9977052
20
0.5181211
11
15.1527178
21
0.5181211
0
LINE
8
DEFAULT_255_1_234
10
15.1527178
20
0.5181211
11
15.7430505
21
-0.3870558
0
LINE
8
DEFAULT_255_1_234
10
15.7430505
20
-0.3870558
11
15.7430505
21
0.5181211
0
LINE
8
DEFAULT_255_1_234
10
15.7430505
20
0.5181211
11
15.8964567
21
0.5181211
0
LINE
8
DEFAULT_255_1_234
10
16.4940181
20
-0.6513
11
16.170339
21
-0.6513
0
LINE
8
DEFAULT_255_1_234
10
16.170339
20
-0.6513
11
16.170339
21
0.5181211
0
LINE
8
DEFAULT_255_1_234
10
16.170339
20
0.5181211
11
16.5004435
21
0.5181211
0
LINE
8
DEFAULT_255_1_234
10
17.0160811
20
-0.0272339
11
17.0160811
21
-0.1019291
0
LINE
8
DEFAULT_255_1_234
10
16.5044593
20
0.3912196
11
16.3245484
21
0.3912196
0
LINE
8
DEFAULT_255_1_234
10
16.3245484
20
0.3912196
11
16.3245484
21
-0.5252017
0
LINE
8
DEFAULT_255_1_234
10
16.3245484
20
-0.5252017
11
16.4867895
21
-0.5252017
0
LINE
8
DEFAULT_255_1_234
10
16.863478
20
-0.0987164
11
16.863478
21
-0.0304466
0
ARC
8
DEFAULT_255_1_234
10
16.5043377
20
-0.0684106
40
0.5865446
50
75.4101064
51
90.3804066
0
ARC
8
DEFAULT_255_1_234
10
16.5272891
20
0.0272492
40
0.4881916
50
60.145586
51
75.1888407
0
ARC
8
DEFAULT_255_1_234
10
16.5431666
20
0.0549199
40
0.4562893
50
26.5253612
51
60.1450928
0
ARC
8
DEFAULT_255_1_234
10
16.4311415
20
-0.0044842
40
0.5830602
50
7.4030428
51
26.8320788
0
ARC
8
DEFAULT_255_1_234
10
16.2717172
20
-0.0293196
40
0.7443669
50
0.1605367
51
7.7176192
0
ARC
8
DEFAULT_255_1_234
10
16.2881077
20
-0.1057566
40
0.7279835
50
348.7289388
51
0.3012466
0
ARC
8
DEFAULT_255_1_234
10
16.4537507
20
-0.1386614
40
0.559104
50
333.0706509
51
348.7181832
0
ARC
8
DEFAULT_255_1_234
10
16.5504265
20
-0.1911681
40
0.4491417
50
299.2531685
51
333.4571258
0
ARC
8
DEFAULT_255_1_234
10
16.5143404
20
-0.1226172
40
0.5265881
50
278.107187
51
299.0339503
0
ARC
8
DEFAULT_255_1_234
10
16.4887483
20
0.0281216
40
0.679442
50
270.4443897
51
278.4511052
0
ARC
8
DEFAULT_255_1_234
10
16.4908313
20
-0.0647787
40
0.4604407
50
269.4970433
51
284.0205042
0
ARC
8
DEFAULT_255_1_234
10
16.5263614
20
-0.2013022
40
0.3193797
50
283.7700273
51
318.1555492
0
ARC
8
DEFAULT_255_1_234
10
16.4926372
20
-0.1760633
40
0.3613588
50
318.7415601
51
343.6873628
0
ARC
8
DEFAULT_255_1_234
10
16.3122396
20
-0.1197168
40
0.5503313
50
343.3325091
51
355.8548958
0
ARC
8
DEFAULT_255_1_234
10
16.102408
20
-0.0997681
40
0.7610708
50
355.4988528
51
0.0791727
0
ARC
8
DEFAULT_255_1_234
10
16.1806703
20
-0.026222
40
0.6828208
50
359.6455037
51
9.8607896
0
ARC
8
DEFAULT_255_1_234
10
16.41674
20
0.0164099
40
0.4429406
50
9.6571907
51
26.1932807
0
ARC
8
DEFAULT_255_1_234
10
16.5095389
20
0.0595118
40
0.3406537
50
26.5777228
51
40.1532208
0
ARC
8
DEFAULT_255_1_234
10
16.5351116
20
0.0794619
40
0.308246
50
40.3840491
51
80.1431104
0
ARC
8
DEFAULT_255_1_234
10
16.5024233
20
-0.0654667
40
0.4566909
50
79.2152159
51
89.7445637
0
LINE
8
DEFAULT_255_1_234
10
17.4265029
20
-0.1155831
11
17.4265029
21
0.0056962
0
LINE
8
DEFAULT_255_1_234
10
17.4265029
20
0.0056962
11
17.538144
21
0.0056962
0
LINE
8
DEFAULT_255_1_234
10
17.3477918
20
0.2113087
11
17.1992047
21
0.2113087
0
LINE
8
DEFAULT_255_1_234
10
17.1887634
20
-0.3428812
11
17.3381538
21
-0.3428812
0
LINE
8
DEFAULT_255_1_234
10
17.538144
20
-0.1155831
11
17.4265029
21
-0.1155831
0
ARC
8
DEFAULT_255_1_234
10
17.5352307
20
0.3449713
40
0.3392876
50
270.4919872
51
281.8951556
0
ARC
8
DEFAULT_255_1_234
10
17.5593568
20
0.2347702
40
0.2264817
50
281.6691735
51
301.2943132
0
ARC
8
DEFAULT_255_1_234
10
17.5763779
20
0.2036304
40
0.1910381
50
301.7833094
51
311.7545298
0
ARC
8
DEFAULT_255_1_234
10
17.5855354
20
0.1934748
40
0.1773635
50
311.7323931
51
354.2802411
0
ARC
8
DEFAULT_255_1_234
10
17.512898
20
0.2059722
40
0.2509385
50
353.0937916
51
0.1181479
0
ARC
8
DEFAULT_255_1_234
10
17.4667765
20
0.2107386
40
0.2970898
50
359.1805295
51
15.0453146
0
ARC
8
DEFAULT_255_1_234
10
17.6013602
20
0.2499992
40
0.1569564
50
13.9577229
51
77.6713066
0
ARC
8
DEFAULT_255_1_234
10
17.5627131
20
0.1114949
40
0.3006298
50
76.1116566
51
90.7026153
0
ARC
8
DEFAULT_255_1_234
10
17.5567969
20
0.1388545
40
0.2732568
50
89.5324876
51
103.531937
0
ARC
8
DEFAULT_255_1_234
10
17.5367413
20
0.2187884
40
0.1908508
50
103.2931773
51
133.5619022
0
ARC
8
DEFAULT_255_1_234
10
17.5322901
20
0.2247375
40
0.1834746
50
133.8349307
51
173.5344437
0
ARC
8
DEFAULT_255_1_234
10
17.6045945
20
0.2119213
40
0.2568033
50
172.5096846
51
180.1366907
0
ARC
8
DEFAULT_255_1_234
10
17.5094838
20
0.2153622
40
0.3103056
50
155.3484492
51
180.7484736
0
ARC
8
DEFAULT_255_1_234
10
17.5045928
20
0.2124846
40
0.3070957
50
131.5744599
51
154.4798489
0
ARC
8
DEFAULT_255_1_234
10
17.5359075
20
0.180831
40
0.3515643
50
96.9875458
51
131.9690667
0
ARC
8
DEFAULT_255_1_234
10
17.5578555
20
0.0562636
40
0.4779224
50
89.8596053
51
97.7825159
0
ARC
8
DEFAULT_255_1_234
10
17.5626618
20
0.0300616
40
0.5041361
50
78.3655447
51
90.4131539
0
ARC
8
DEFAULT_255_1_234
10
17.5984536
20
0.1959887
40
0.3344039
50
56.6229102
51
78.638727
0
ARC
8
DEFAULT_255_1_234
10
17.6199479
20
0.2335805
40
0.2912001
50
47.0253525
51
56.0854072
0
ARC
8
DEFAULT_255_1_234
10
17.6219259
20
0.2375223
40
0.2869704
50
10.9208013
51
46.7778124
0
ARC
8
DEFAULT_255_1_234
10
17.4855326
20
0.2059857
40
0.426899
50
359.6364486
51
11.6087304
0
ARC
8
DEFAULT_255_1_234
10
17.669017
20
0.2044752
40
0.243409
50
332.3549906
51
359.7179418
0
ARC
8
DEFAULT_255_1_234
10
17.6039771
20
0.2353142
40
0.3153459
50
325.2333722
51
332.8745602
0
ARC
8
DEFAULT_255_1_234
10
17.6192395
20
0.2246828
40
0.2967456
50
292.9802137
51
325.2392345
0
ARC
8
DEFAULT_255_1_234
10
17.5917769
20
0.2780863
40
0.3566604
50
292.5402179
51
293.6924929
0
ARC
8
DEFAULT_255_1_234
10
17.6310365
20
-0.3673909
40
0.3307468
50
57.6435486
51
72.8625112
0
ARC
8
DEFAULT_255_1_234
10
17.6664865
20
-0.3099451
40
0.2632492
50
36.7248896
51
57.4697979
0
ARC
8
DEFAULT_255_1_234
10
17.6653497
20
-0.308678
40
0.2634081
50
8.0545065
51
36.356114
0
ARC
8
DEFAULT_255_1_234
10
17.5790683
20
-0.3241826
40
0.3510261
50
359.8320645
51
8.5869982
0
ARC
8
DEFAULT_255_1_234
10
17.5415459
20
-0.3289899
40
0.3885653
50
343.9829931
51
0.5571613
0
ARC
8
DEFAULT_255_1_234
10
17.6301656
20
-0.3532562
40
0.2966924
50
311.6359546
51
343.7651759
0
ARC
8
DEFAULT_255_1_234
10
17.5923225
20
-0.3105898
40
0.3537231
50
279.7829875
51
311.6255694
0
ARC
8
DEFAULT_255_1_234
10
17.5622001
20
-0.166872
40
0.5004971
50
269.7286406
51
280.3856417
0
ARC
8
DEFAULT_255_1_234
10
17.5560074
20
-0.1710004
40
0.4963778
50
256.6828919
51
270.4412052
0
ARC
8
DEFAULT_255_1_234
10
17.522137
20
-0.3094606
40
0.3538406
50
229.4223008
51
256.8556159
0
ARC
8
DEFAULT_255_1_234
10
17.4806763
20
-0.3561264
40
0.2914296
50
181.818294
51
229.6455059
0
ARC
8
DEFAULT_255_1_234
10
17.5846719
20
-0.3430504
40
0.3959084
50
179.9755256
51
183.2323064
0
ARC
8
DEFAULT_255_1_234
10
17.5674465
20
-0.3450963
40
0.2293034
50
179.4465117
51
196.2869258
0
ARC
8
DEFAULT_255_1_234
10
17.5186873
20
-0.3584349
40
0.1787621
50
196.5661473
51
227.705904
0
ARC
8
DEFAULT_255_1_234
10
17.5350968
20
-0.3400845
40
0.2033784
50
227.7652068
51
257.8762805
0
ARC
8
DEFAULT_255_1_234
10
17.5575938
20
-0.2457844
40
0.3003081
50
257.4584385
51
270.426602
0
ARC
8
DEFAULT_255_1_234
10
17.5621504
20
-0.2168004
40
0.329292
50
269.5962073
51
280.8789248
0
ARC
8
DEFAULT_255_1_234
10
17.5851033
20
-0.3314315
40
0.2123908
50
280.6346389
51
299.8595945
0
ARC
8
DEFAULT_255_1_234
10
17.6041939
20
-0.3676788
40
0.171457
50
300.3576302
51
314.5517981
0
ARC
8
DEFAULT_255_1_234
10
17.5958999
20
-0.3616081
40
0.1816095
50
315.0728369
51
345.0431014
0
ARC
8
DEFAULT_255_1_234
10
17.5035814
20
-0.3347159
40
0.2777492
50
344.5986631
51
357.9269593
0
ARC
8
DEFAULT_255_1_234
10
17.414014
20
-0.3285724
40
0.3674917
50
357.4748886
51
0.0231117
0
ARC
8
DEFAULT_255_1_234
10
17.5163249
20
-0.3261321
40
0.2651907
50
359.5047933
51
13.4239635
0
ARC
8
DEFAULT_255_1_234
10
17.6029893
20
-0.3039522
40
0.1757509
50
12.9498199
51
48.7551375
0
ARC
8
DEFAULT_255_1_234
10
17.5847627
20
-0.32886
40
0.2065134
50
49.5088623
51
72.1836453
0
ARC
8
DEFAULT_255_1_234
10
17.548978
20
-0.4350709
40
0.3185836
50
71.9010081
51
84.3554254
0
ARC
8
DEFAULT_255_1_234
10
17.5328412
20
-0.5711674
40
0.4556151
50
84.0193428
51
89.333121
0
ARC
8
DEFAULT_255_2_778
10
20.3857188
20
168.2366525
40
0.3580657
50
89.9945037
51
180.0054963
0
ARC
8
DEFAULT_255_2_778
10
20.3857875
20
168.2366525
40
0.3580657
50
359.9945037
51
90.0054963
0
ARC
8
DEFAULT_255_2_778
10
20.3857875
20
168.2365838
40
0.3580657
50
269.9945037
51
0.0054963
0
ARC
8
DEFAULT_255_2_778
10
20.3857188
20
168.2365838
40
0.3580657
50
179.9945037
51
270.0054963
0
ARC
8
DEFAULT_255_2_778
10
23.0945406
20
167.968282
40
2.3282817
50
111.9150345
51
128.7655504
0
ARC
8
DEFAULT_255_2_778
10
23.0114007
20
168.100352
40
2.1733214
50
129.2366206
51
154.7721516
0
ARC
8
DEFAULT_255_2_778
10
23.612957
20
167.8045583
40
2.8435961
50
154.5467617
51
165.9285636
0
ARC
8
DEFAULT_255_2_778
10
24.0969902
20
167.6671212
40
3.3465569
50
165.6609748
51
166.525375
0
ARC
8
DEFAULT_255_2_778
10
21.6605291
20
168.8853171
40
1.414623
50
156.0627036
51
175.7189082
0
ARC
8
DEFAULT_255_2_778
10
22.2487502
20
168.631783
40
2.0551309
50
144.7505594
51
156.2560535
0
ARC
8
DEFAULT_255_2_778
10
23.0184799
20
168.0964863
40
2.9926766
50
137.345293
51
144.8863205
0
ARC
8
DEFAULT_255_2_778
10
23.9454446
20
167.2473407
40
4.2497776
50
131.6389266
51
137.393651
0
ARC
8
DEFAULT_255_2_778
10
24.6716492
20
166.4506248
40
5.3277326
50
130.1334351
51
131.7826198
0
LINE
8
DEFAULT_255_2_778
10
20.0276532
20
168.2366182
11
20.0276532
21
168.2366182
0
LINE
8
DEFAULT_255_2_778
10
21.2375532
20
170.5239182
11
22.2255532
21
170.1283182
0
LINE
8
DEFAULT_255_2_778
10
20.8425532
20
168.4469182
11
20.2498532
21
168.9909182
0
LINE
8
DEFAULT_255_2_778
10
21.2375532
20
170.5239182
11
21.2375532
21
170.5239182
0
ARC
8
DEFAULT_255_2_778
10
13.8917907
20
169.0601437
40
0.8717226
50
88.9281645
51
133.9885749
0
ARC
8
DEFAULT_255_2_778
10
13.9080454
20
168.8350604
40
1.0966534
50
88.9487005
51
89.9972984
0
ARC
8
DEFAULT_255_2_778
10
13.9276
20
169.1305011
40
0.8010283
50
72.1310318
51
89.9594908
0
ARC
8
DEFAULT_255_2_778
10
14.0028373
20
169.3875083
40
0.5333823
50
60.6505783
51
71.3519493
0
ARC
8
DEFAULT_255_2_778
10
14.0866387
20
169.5146349
40
0.3816498
50
20.3938858
51
62.2625554
0
ARC
8
DEFAULT_255_2_778
10
15.1027645
20
169.0266628
40
0.9050345
50
89.7568633
51
136.6758865
0
ARC
8
DEFAULT_255_2_778
10
15.1065773
20
168.9090709
40
1.0226182
50
88.9864436
51
89.9984426
0
ARC
8
DEFAULT_255_2_778
10
15.124548
20
169.148192
40
0.7833372
50
71.373585
51
89.9913488
0
ARC
8
DEFAULT_255_2_778
10
15.2164803
20
169.427042
40
0.489734
50
42.2193789
51
71.1458349
0
ARC
8
DEFAULT_255_2_778
10
15.1913908
20
169.4195658
40
0.5134635
50
8.5226311
51
40.9558105
0
ARC
8
DEFAULT_255_2_778
10
14.8690896
20
169.3543045
40
0.8420446
50
359.6942069
51
9.6641803
0
ARC
8
DEFAULT_255_2_778
10
14.5795507
20
169.3513277
40
1.1315727
50
355.5855084
51
359.923173
0
ARC
8
DEFAULT_255_2_778
10
14.3825845
20
169.3236289
40
0.7547163
50
352.4548626
51
359.7652122
0
ARC
8
DEFAULT_255_2_778
10
14.5401893
20
169.3207192
40
0.5971052
50
359.9824407
51
2.1700815
0
ARC
8
DEFAULT_255_2_778
10
14.9490551
20
169.3365752
40
0.1879327
50
2.0595693
51
88.944897
0
ARC
8
DEFAULT_255_2_778
10
14.8852878
20
169.0492725
40
0.4799353
50
81.9476992
51
88.9638763
0
ARC
8
DEFAULT_255_2_778
10
14.8964352
20
169.0431844
40
0.4859511
50
90.2910974
51
140.7094043
0
ARC
8
DEFAULT_255_2_778
10
15.082723
20
168.8503111
40
0.7529164
50
138.3264016
51
141.8088804
0
ARC
8
DEFAULT_255_2_778
10
13.1434845
20
169.3202289
40
0.7547163
50
352.4548626
51
359.7652122
0
ARC
8
DEFAULT_255_2_778
10
13.3010893
20
169.3173192
40
0.5971052
50
359.9824407
51
2.1700815
0
ARC
8
DEFAULT_255_2_778
10
13.7090327
20
169.3341775
40
0.1888212
50
1.7455696
51
88.6065628
0
ARC
8
DEFAULT_255_2_778
10
13.6474974
20
169.0578897
40
0.469731
50
81.9072271
51
88.8693446
0
ARC
8
DEFAULT_255_2_778
10
13.6449914
20
169.0178568
40
0.5098084
50
88.6765396
51
89.9981553
0
ARC
8
DEFAULT_255_2_778
10
13.6502114
20
169.0214569
40
0.5062351
50
90.5889431
51
134.9317856
0
ARC
8
DEFAULT_255_2_778
10
13.8031307
20
168.8310835
40
0.749469
50
132.9288129
51
135.7848647
0
LINE
8
DEFAULT_255_2_778
10
12.8005663
20
169.8974292
11
13.3328663
21
169.8990292
0
LINE
8
DEFAULT_255_2_778
10
13.3328663
20
169.8990292
11
13.2863663
21
169.6873292
0
LINE
8
DEFAULT_255_2_778
10
15.7077663
20
169.2642292
11
15.7038663
21
169.2214292
0
LINE
8
DEFAULT_255_2_778
10
15.7038663
20
169.2214292
11
15.4709663
21
168.0360292
0
LINE
8
DEFAULT_255_2_778
10
15.4709663
20
168.0360292
11
14.8978663
21
168.0360292
0
LINE
8
DEFAULT_255_2_778
10
14.8978663
20
168.0360292
11
15.1307663
21
169.2245292
0
LINE
8
DEFAULT_255_2_778
10
14.4909663
20
169.3158292
11
14.4848663
21
169.2764292
0
LINE
8
DEFAULT_255_2_778
10
14.4848663
20
169.2764292
11
14.2298663
21
168.0360292
0
LINE
8
DEFAULT_255_2_778
10
14.2298663
20
168.0360292
11
13.6588663
21
168.0360292
0
LINE
8
DEFAULT_255_2_778
10
13.6588663
20
168.0360292
11
13.8916663
21
169.2211292
0
LINE
8
DEFAULT_255_2_778
10
13.2659663
20
169.3537292
11
12.9926663
21
168.0360292
0
LINE
8
DEFAULT_255_2_778
10
12.9926663
20
168.0360292
11
12.4216663
21
168.0360292
0
LINE
8
DEFAULT_255_2_778
10
12.4216663
20
168.0360292
11
12.8002663
21
169.8971292
0
LINE
8
DEFAULT_255_2_778
10
12.8002663
20
169.8971292
11
12.8005663
21
169.8974292
0
ARC
8
DEFAULT_255_2_778
10
16.7523314
20
168.7468402
40
1.1831221
50
72.5008211
51
90.0103536
0
ARC
8
DEFAULT_255_2_778
10
16.8270546
20
169.0098399
40
0.9098586
50
60.3242318
51
72.0085714
0
ARC
8
DEFAULT_255_2_778
10
16.9074051
20
169.1303126
40
0.7654736
50
24.9543019
51
61.0852427
0
ARC
8
DEFAULT_255_2_778
10
16.8128787
20
169.0884465
40
0.8688408
50
359.4872778
51
24.8275177
0
ARC
8
DEFAULT_255_2_778
10
16.6059992
20
169.0820476
40
1.0756863
50
353.6171666
51
359.9267064
0
ARC
8
DEFAULT_255_2_778
10
16.6039416
20
169.0520267
40
1.0748142
50
309.833105
51
355.2199932
0
ARC
8
DEFAULT_255_2_778
10
16.5454023
20
169.1186469
40
1.1634726
50
274.0073872
51
309.9453537
0
ARC
8
DEFAULT_255_2_778
10
16.4941881
20
169.4871028
40
1.5348158
50
269.9462811
51
274.9533663
0
ARC
8
DEFAULT_255_2_778
10
16.4927833
20
169.6108871
40
1.6585995
50
269.1686307
51
269.9988202
0
ARC
8
DEFAULT_255_2_778
10
16.4689284
20
169.1233137
40
1.1708514
50
252.109196
51
269.9896888
0
ARC
8
DEFAULT_255_2_778
10
16.3970024
20
168.8739636
40
0.9114995
50
240.54759
51
251.5966758
0
ARC
8
DEFAULT_255_2_778
10
16.317495
20
168.7512089
40
0.7655666
50
205.2400495
51
241.211713
0
ARC
8
DEFAULT_255_2_778
10
16.3979131
20
168.7885634
40
0.8542357
50
179.5359208
51
205.2063167
0
ARC
8
DEFAULT_255_2_778
10
16.5849722
20
168.7941956
40
1.0412677
50
173.5392122
51
179.9291923
0
ARC
8
DEFAULT_255_2_778
10
16.7714822
20
168.7826758
40
1.2279263
50
153.4099026
51
173.9843619
0
ARC
8
DEFAULT_255_2_778
10
16.6118759
20
168.8504448
40
1.0549233
50
129.6863931
51
152.8211827
0
ARC
8
DEFAULT_255_2_778
10
16.6740015
20
168.7798495
40
1.1489256
50
92.7623759
51
129.8224215
0
ARC
8
DEFAULT_255_2_778
10
16.7165324
20
168.4364549
40
1.494196
50
89.9700369
51
93.7568045
0
ARC
8
DEFAULT_255_2_778
10
16.7172025
20
168.3348597
40
1.5957911
50
88.7355209
51
89.9960014
0
ARC
8
DEFAULT_255_2_778
10
16.573241
20
168.7268885
40
0.4286317
50
179.6425826
51
209.446387
0
ARC
8
DEFAULT_255_2_778
10
16.4720227
20
168.6797221
40
0.3174207
50
211.0145463
51
223.1431724
0
ARC
8
DEFAULT_255_2_778
10
16.4796644
20
168.6976914
40
0.3353769
50
224.4904912
51
268.822899
0
ARC
8
DEFAULT_255_2_778
10
16.5096318
20
168.9096578
40
0.5485121
50
266.1471365
51
268.8180779
0
ARC
8
DEFAULT_255_2_778
10
16.5157553
20
169.0392665
40
0.6782284
50
268.5267288
51
269.9955114
0
ARC
8
DEFAULT_255_2_778
10
16.5313244
20
168.8487446
40
0.4879566
50
268.1653241
51
325.4286401
0
ARC
8
DEFAULT_255_2_778
10
16.3027714
20
169.0153589
40
0.7707306
50
324.8706977
51
351.0886768
0
ARC
8
DEFAULT_255_2_778
10
15.8946203
20
169.094259
40
1.1862684
50
350.3775551
51
0.2885744
0
ARC
8
DEFAULT_255_2_778
10
15.6040207
20
169.0999545
40
1.4768528
50
0.0108339
51
1.7075744
0
ARC
8
DEFAULT_255_2_778
10
16.6260051
20
169.1348496
40
0.454304
50
1.1493477
51
31.2464652
0
ARC
8
DEFAULT_255_2_778
10
16.7201645
20
169.1815769
40
0.3496776
50
32.703807
51
41.7810929
0
ARC
8
DEFAULT_255_2_778
10
16.7419538
20
169.1909534
40
0.3272685
50
43.0987922
51
88.7571407
0
ARC
8
DEFAULT_255_2_778
10
16.7112566
20
168.9786359
40
0.5408314
50
85.992647
51
88.8704975
0
ARC
8
DEFAULT_255_2_778
10
16.7048658
20
168.8767668
40
0.6428217
50
88.4799611
51
89.9943311
0
ARC
8
DEFAULT_255_2_778
10
16.6938546
20
169.0300787
40
0.4896349
50
88.7039519
51
145.0513377
0
ARC
8
DEFAULT_255_2_778
10
16.8919375
20
168.8767936
40
0.7399051
50
144.1087108
51
170.2824956
0
ARC
8
DEFAULT_255_2_778
10
17.3184971
20
168.7896764
40
1.1751307
50
169.6063184
51
180.3528002
0
ARC
8
DEFAULT_255_2_778
10
17.6545698
20
168.7828441
40
1.5111813
50
180.0153016
51
182.009194
0
LINE
8
DEFAULT_255_2_778
10
16.7524176
20
169.9302623
11
16.7521176
21
169.9299623
0
LINE
8
DEFAULT_255_2_778
10
16.1443176
20
168.7298623
11
16.1446176
21
168.7295623
0
ARC
8
DEFAULT_255_2_778
10
18.720237
20
167.8080854
40
1.642039
50
81.2830361
51
86.628458
0
ARC
8
DEFAULT_255_2_778
10
18.7752757
20
168.6465313
40
0.8018272
50
87.0310432
51
89.8986713
0
ARC
8
DEFAULT_255_2_778
10
18.7565064
20
168.5578997
40
0.8906863
50
88.7012797
51
89.9954117
0
ARC
8
DEFAULT_255_2_778
10
18.7426452
20
168.8021623
40
0.6465738
50
88.765285
51
116.6201427
0
ARC
8
DEFAULT_255_2_778
10
18.7125548
20
168.8861694
40
0.5580924
50
117.7228833
51
138.7756782
0
ARC
8
DEFAULT_255_2_778
10
18.8913475
20
169.2523707
40
0.6980151
50
116.489914
51
143.0810972
0
ARC
8
DEFAULT_255_2_778
10
18.8376938
20
169.3324223
40
0.6025621
50
89.4580016
51
115.3188873
0
ARC
8
DEFAULT_255_2_778
10
18.8288205
20
168.9976885
40
0.9373821
50
77.9674605
51
89.1092017
0
ARC
8
DEFAULT_255_2_778
10
18.7351478
20
168.4671466
40
1.4759175
50
78.008513
51
78.7045202
0
LINE
8
DEFAULT_255_2_778
10
19.0417938
20
169.9111573
11
18.9690938
21
169.4311573
0
LINE
8
DEFAULT_255_2_778
10
18.2927938
20
169.2539573
11
18.0395938
21
168.0360573
0
LINE
8
DEFAULT_255_2_778
10
18.0395938
20
168.0360573
11
17.4685938
21
168.0360573
0
LINE
8
DEFAULT_255_2_778
10
17.4685938
20
168.0360573
11
17.8492938
21
169.8971573
0
LINE
8
DEFAULT_255_2_778
10
17.8492938
20
169.8971573
11
18.3858938
21
169.8987573
0
LINE
8
DEFAULT_255_2_778
10
18.3858938
20
169.8987573
11
18.3332938
21
169.6716573
0
LINE
8
DEFAULT_255_2_778
10
19.0417938
20
169.9108573
11
19.0417938
21
169.9111573
0
ARC
8
DEFAULT_255_2_778
10
19.2894667
20
169.122675
40
1.1701724
50
250.1393411
51
270.3226852
0
ARC
8
DEFAULT_255_2_778
10
19.2345051
20
168.9428343
40
0.9824012
50
242.0502734
51
249.5907868
0
ARC
8
DEFAULT_255_2_778
10
19.133831
20
168.7833015
40
0.794417
50
208.3292132
51
243.0715083
0
ARC
8
DEFAULT_255_2_778
10
19.1260252
20
168.7742929
40
0.7832826
50
179.5739013
51
208.0201199
0
ARC
8
DEFAULT_255_2_778
10
19.2727713
20
168.7793153
40
0.9300073
50
174.3657638
51
179.9505495
0
ARC
8
DEFAULT_255_2_778
10
19.4545378
20
168.82118
40
1.1074063
50
145.2485417
51
173.7769976
0
ARC
8
DEFAULT_255_2_778
10
19.4366239
20
168.8456177
40
1.0788028
50
116.4826416
51
145.7726174
0
ARC
8
DEFAULT_255_2_778
10
19.4671976
20
168.7759316
40
1.1548163
50
89.3335424
51
116.2986099
0
ARC
8
DEFAULT_255_2_778
10
19.4805483
20
168.5335133
40
1.3971563
50
88.7200635
51
89.9966493
0
ARC
8
DEFAULT_255_2_778
10
19.5062264
20
168.8179187
40
1.1124162
50
73.6937809
51
89.7151452
0
ARC
8
DEFAULT_255_2_778
10
19.6174962
20
169.1898827
40
0.7241771
50
40.439997
51
73.880282
0
ARC
8
DEFAULT_255_2_778
10
19.5837712
20
169.1679387
40
0.7640962
50
0.3370816
51
40.0519836
0
ARC
8
DEFAULT_255_2_778
10
19.3460457
20
169.144313
40
1.0022031
50
359.994028
51
1.6078833
0
ARC
8
DEFAULT_255_2_778
10
19.2169833
20
169.1464808
40
1.1312679
50
353.167063
51
359.8849147
0
ARC
8
DEFAULT_255_2_778
10
19.0729155
20
169.1612227
40
1.2760687
50
352.3939633
51
353.279462
0
ARC
8
DEFAULT_255_2_778
10
19.2858012
20
168.7226797
40
0.3608489
50
171.5634883
51
179.9015639
0
ARC
8
DEFAULT_255_2_778
10
19.2585943
20
168.7268702
40
0.3336607
50
180.6131262
51
227.843893
0
ARC
8
DEFAULT_255_2_778
10
19.3366051
20
168.9885151
40
0.5918171
50
239.3225098
51
268.8255118
0
ARC
8
DEFAULT_255_2_778
10
19.3594512
20
169.2219016
40
0.8258202
50
267.5725716
51
270.0162941
0
ARC
8
DEFAULT_255_2_778
10
19.3591973
20
169.3056346
40
0.9095533
50
270.0307885
51
273.2244191
0
ARC
8
DEFAULT_255_2_778
10
19.3865379
20
168.6452649
40
0.2488861
50
275.4917641
51
302.3582203
0
ARC
8
DEFAULT_255_2_778
10
19.4523418
20
168.5293063
40
0.115896
50
305.561706
51
314.7657745
0
ARC
8
DEFAULT_255_2_778
10
19.4418773
20
168.5621064
40
0.1473882
50
308.6632861
51
359.3837416
0
ARC
8
DEFAULT_255_2_778
10
17.939525
20
170.2847828
40
2.962762
50
318.8021847
51
324.4102292
0
ARC
8
DEFAULT_255_2_778
10
18.9248821
20
169.4164505
40
1.6494092
50
310.4033061
51
318.953359
0
ARC
8
DEFAULT_255_2_778
10
19.4511808
20
168.7898187
40
0.831118
50
295.9312381
51
310.7744109
0
ARC
8
DEFAULT_255_2_778
10
19.5730027
20
168.5609771
40
0.5721233
50
294.3678437
51
294.9811966
0
ARC
8
DEFAULT_255_2_778
10
19.3263828
20
169.3279614
40
1.3756016
50
269.5724547
51
290.5412856
0
ARC
8
DEFAULT_255_2_778
10
19.3161577
20
169.5462488
40
1.5938505
50
269.2881822
51
269.9985732
0
ARC
8
DEFAULT_255_2_778
10
19.4713649
20
168.9596819
40
0.5598634
50
88.7931239
51
89.9984438
0
ARC
8
DEFAULT_255_2_778
10
19.4649983
20
169.0565553
40
0.463034
50
89.2102909
51
125.5845733
0
ARC
8
DEFAULT_255_2_778
10
19.5331068
20
168.9848825
40
0.5611219
50
126.9818839
51
147.669232
0
ARC
8
DEFAULT_255_2_778
10
20.008659
20
168.6651894
40
1.1340353
50
146.870707
51
156.2884785
0
ARC
8
DEFAULT_255_2_778
10
19.3656366
20
169.2433392
40
0.4293753
50
349.7481736
51
359.8266598
0
ARC
8
DEFAULT_255_2_778
10
19.4284469
20
169.2425983
40
0.3665636
50
359.9127606
51
9.1392387
0
ARC
8
DEFAULT_255_2_778
10
19.5454569
20
169.2570587
40
0.2487794
50
10.1315408
51
54.8294252
0
ARC
8
DEFAULT_255_2_778
10
19.4916417
20
169.1612413
40
0.3582778
50
56.6210187
51
91.3472693
0
LINE
8
DEFAULT_255_2_778
10
18.3472569
20
168.8706211
11
18.3536569
21
168.9412211
0
LINE
8
DEFAULT_255_2_778
10
20.3377569
20
168.9923211
11
20.3046569
21
168.7756211
0
LINE
8
DEFAULT_255_2_778
10
20.3046569
20
168.7756211
11
18.9288569
21
168.7756211
0
LINE
8
DEFAULT_255_2_778
10
19.5892569
20
168.5605211
11
20.3488569
21
168.5605211
0
LINE
8
DEFAULT_255_2_778
10
18.9703569
20
169.1212211
11
19.7757569
21
169.1212211
0
LINE
8
DEFAULT_255_2_778
10
19.7757569
20
169.1212211
11
19.7881569
21
169.1669211
0
LINE
8
DEFAULT_255_2_778
10
11.5575281
20
169.7080177
11
12.9404281
21
168.8920177
0
LINE
8
DEFAULT_255_2_778
10
12.9404281
20
168.8920177
11
11.4093281
21
168.2986177
0
LINE
8
DEFAULT_255_2_778
10
11.4093281
20
168.2986177
11
11.7302281
21
169.0156177
0
LINE
8
DEFAULT_255_2_778
10
11.7302281
20
169.0156177
11
11.5575281
21
169.7080177
0
ARC
8
DEFAULT_255_2_778
10
7.9956492
20
169.4276349
40
1.734445
50
345.0500681
51
0.450213
0
ARC
8
DEFAULT_255_2_778
10
8.2747128
20
169.3634315
40
1.4482985
50
339.8011311
51
344.6559926
0
ARC
8
DEFAULT_255_2_778
10
8.3564959
20
169.3179595
40
1.3559213
50
318.9869254
51
340.4112117
0
ARC
8
DEFAULT_255_2_778
10
8.4726786
20
169.2300223
40
1.2105876
50
317.7755753
51
318.5188915
0
ARC
8
DEFAULT_255_2_778
10
8.5000776
20
169.2041224
40
1.1728926
50
293.4453171
51
317.8130059
0
ARC
8
DEFAULT_255_2_778
10
8.4704728
20
169.2823502
40
1.2564472
50
269.4376299
51
293.2645473
0
ARC
8
DEFAULT_255_2_778
10
8.7713116
20
169.4904305
40
1.0182316
50
68.112945
51
90.7974227
0
ARC
8
DEFAULT_255_2_778
10
8.8150218
20
169.6257759
40
0.8764035
50
66.6600337
51
67.4660887
0
ARC
8
DEFAULT_255_2_778
10
8.8273616
20
169.6375129
40
0.860764
50
41.8199578
51
67.1046866
0
ARC
8
DEFAULT_255_2_778
10
8.7262144
20
169.5612866
40
0.9870277
50
18.4442061
51
41.2024761
0
ARC
8
DEFAULT_255_2_778
10
8.4236394
20
169.4576986
40
1.3068358
50
359.9236227
51
18.5554774
0
ARC
8
DEFAULT_255_2_778
10
8.1090371
20
169.4412824
40
1.6215036
50
359.9993331
51
0.5185192
0
ARC
8
DEFAULT_255_2_778
10
8.2484265
20
169.4474191
40
1.1556879
50
359.3527282
51
15.3461488
0
ARC
8
DEFAULT_255_2_778
10
8.4878709
20
169.5025091
40
0.9102591
50
15.9909101
51
17.2384514
0
ARC
8
DEFAULT_255_2_778
10
8.6538656
20
169.5659942
40
0.7329962
50
16.3441173
51
39.0583428
0
ARC
8
DEFAULT_255_2_778
10
8.7708861
20
169.6515513
40
0.5882641
50
39.7694118
51
66.0014919
0
ARC
8
DEFAULT_255_2_778
10
8.7375911
20
169.5585083
40
0.6868457
50
66.6208799
51
90.9301944
0
ARC
8
DEFAULT_255_2_778
10
8.4997619
20
169.1535777
40
0.865983
50
269.2774049
51
294.6427005
0
ARC
8
DEFAULT_255_2_778
10
8.5132787
20
169.1055801
40
0.8167574
50
295.184769
51
321.1699914
0
ARC
8
DEFAULT_255_2_778
10
8.321121
20
169.2520326
40
1.0582969
50
321.5163412
51
341.7776814
0
ARC
8
DEFAULT_255_2_778
10
8.0263618
20
169.3675931
40
1.374523
50
341.044332
51
342.4824039
0
ARC
8
DEFAULT_255_2_778
10
7.9221077
20
169.3892334
40
1.4804949
50
342.8981919
51
356.6952858
0
ARC
8
DEFAULT_255_2_778
10
7.4185441
20
169.4329849
40
1.9857973
50
356.2725814
51
0.0484329
0
LINE
8
DEFAULT_255_2_778
10
8.4581407
20
168.0259635
11
7.4088407
21
168.0016635
0
LINE
8
DEFAULT_255_2_778
10
7.4088407
20
168.0016635
11
7.9181407
21
170.5085635
0
LINE
8
DEFAULT_255_2_778
10
7.9181407
20
170.5085635
11
8.7571407
21
170.5085635
0
LINE
8
DEFAULT_255_2_778
10
9.7305407
20
169.4412635
11
9.7300407
21
169.4412635
0
LINE
8
DEFAULT_255_2_778
10
8.7264407
20
170.2452635
11
8.1285407
21
170.2272635
0
LINE
8
DEFAULT_255_2_778
10
8.1285407
20
170.2272635
11
7.7686407
21
168.2490635
0
LINE
8
DEFAULT_255_2_778
10
7.7686407
20
168.2490635
11
8.4888407
21
168.2876635
0
LINE
8
DEFAULT_255_2_778
10
9.4043407
20
169.4346635
11
9.4040407
21
169.4343635
0
ARC
8
DEFAULT_255_2_778
10
10.434674
20
168.829919
40
0.5777251
50
269.3131992
51
298.9193317
0
ARC
8
DEFAULT_255_2_778
10
10.3745898
20
168.9345114
40
0.6983333
50
299.0845099
51
323.1838183
0
ARC
8
DEFAULT_255_2_778
10
10.2053419
20
169.0584915
40
0.9081244
50
323.3206017
51
342.9705556
0
ARC
8
DEFAULT_255_2_778
10
10.0399255
20
169.1159416
40
1.0831324
50
342.6274164
51
0.2324268
0
ARC
8
DEFAULT_255_2_778
10
10.3756391
20
169.1330185
40
0.7475175
50
359.0278167
51
16.1300251
0
ARC
8
DEFAULT_255_2_778
10
10.6995449
20
169.2261392
40
0.4104922
50
16.2042834
51
41.9480466
0
ARC
8
DEFAULT_255_2_778
10
10.7119118
20
169.2179262
40
0.4070383
50
43.9719544
51
85.3997935
0
ARC
8
DEFAULT_255_2_778
10
10.6645186
20
168.9422297
40
0.686108
50
83.300847
51
90.1477804
0
ARC
8
DEFAULT_255_2_778
10
10.6542616
20
169.0469474
40
0.58145
50
89.163628
51
118.6648078
0
ARC
8
DEFAULT_255_2_778
10
10.713379
20
168.9499564
40
0.6949321
50
119.1056578
51
143.2104754
0
ARC
8
DEFAULT_255_2_778
10
10.8865438
20
168.8229766
40
0.9096571
50
143.3373192
51
162.9538381
0
ARC
8
DEFAULT_255_2_778
10
11.0503519
20
168.7659321
40
1.0830106
50
162.6089297
51
180.2167337
0
ARC
8
DEFAULT_255_2_778
10
10.722432
20
168.7491465
40
0.7551896
50
179.037255
51
196.0102976
0
ARC
8
DEFAULT_255_2_778
10
10.3946689
20
168.6556213
40
0.4143448
50
196.0798237
51
221.5429745
0
ARC
8
DEFAULT_255_2_778
10
10.3758386
20
168.6572741
40
0.4015819
50
223.501568
51
264.945498
0
ARC
8
DEFAULT_255_2_778
10
10.4257062
20
168.937423
40
0.6854906
50
262.8561454
51
270.170743
0
ARC
8
DEFAULT_255_2_778
10
10.3819801
20
168.9951733
40
0.993603
50
251.4783364
51
270.6555979
0
ARC
8
DEFAULT_255_2_778
10
10.2994823
20
168.7494369
40
0.7343883
50
228.2272369
51
251.4910714
0
ARC
8
DEFAULT_255_2_778
10
10.2621392
20
168.6987077
40
0.671704
50
202.6960886
51
227.720176
0
ARC
8
DEFAULT_255_2_778
10
10.3818562
20
168.7440656
40
0.7996635
50
179.6456167
51
202.3846702
0
ARC
8
DEFAULT_255_2_778
10
10.6496927
20
168.7602351
40
1.0675438
50
179.9999853
51
180.6023814
0
ARC
8
DEFAULT_255_2_778
10
10.6859721
20
168.767223
40
1.1038452
50
157.230675
51
180.3627006
0
ARC
8
DEFAULT_255_2_778
10
10.7166324
20
168.7576196
40
1.135837
50
135.6908415
51
157.3825693
0
ARC
8
DEFAULT_255_2_778
10
10.6869282
20
168.784315
40
1.0959349
50
113.1058727
51
135.604761
0
ARC
8
DEFAULT_255_2_778
10
10.6874078
20
168.7885049
40
1.0922713
50
89.5047522
51
113.2152626
0
ARC
8
DEFAULT_255_2_778
10
10.7082287
20
168.8854295
40
0.9953709
50
71.5130801
51
90.6550541
0
ARC
8
DEFAULT_255_2_778
10
10.7896575
20
169.1312115
40
0.7364524
50
48.2602918
51
71.4580165
0
ARC
8
DEFAULT_255_2_778
10
10.8279984
20
169.1846961
40
0.6710546
50
22.5497085
51
47.6627683
0
ARC
8
DEFAULT_255_2_778
10
10.6993556
20
169.1353328
40
0.8088011
50
359.0650515
51
22.2845409
0
ARC
8
DEFAULT_255_2_778
10
10.4090028
20
169.1160709
40
1.0990629
50
337.1812514
51
0.316152
0
ARC
8
DEFAULT_255_2_778
10
10.3735655
20
169.1266512
40
1.135837
50
315.6908415
51
337.3825693
0
ARC
8
DEFAULT_255_2_778
10
10.3954229
20
169.1086107
40
1.1075969
50
293.2336194
51
315.5688359
0
ARC
8
DEFAULT_255_2_778
10
10.401174
20
169.0879991
40
1.0863919
50
269.5873092
51
293.383724
0
LINE
8
DEFAULT_255_2_778
10
10.427749
20
168.2519354
11
10.427749
21
168.2522354
0
LINE
8
DEFAULT_255_2_778
10
10.393349
20
168.0016354
11
10.393349
21
168.0016354
0
LINE
8
DEFAULT_255_1_234
10
10.8303392
20
165.3747
11
10.4247364
21
165.3747
0
LINE
8
DEFAULT_255_1_234
10
10.4247364
20
165.3747
11
10.4247364
21
166.5441211
0
LINE
8
DEFAULT_255_1_234
10
10.4247364
20
166.5441211
11
10.8070471
21
166.5441211
0
LINE
8
DEFAULT_255_1_234
10
10.8359614
20
165.9216614
11
10.5789458
21
165.9216614
0
LINE
8
DEFAULT_255_1_234
10
10.5789458
20
165.9216614
11
10.5789458
21
165.5007983
0
LINE
8
DEFAULT_255_1_234
10
10.5789458
20
165.5007983
11
10.8335519
21
165.5007983
0
LINE
8
DEFAULT_255_1_234
10
10.5789458
20
166.4172196
11
10.5789458
21
166.0453501
0
LINE
8
DEFAULT_255_1_234
10
10.5789458
20
166.0453501
11
10.8118662
21
166.0453501
0
LINE
8
DEFAULT_255_1_234
10
10.8070471
20
166.4172196
11
10.5789458
21
166.4172196
0
ARC
8
DEFAULT_255_1_234
10
10.810818
20
165.8073901
40
0.7367406
50
82.1257326
51
90.2932599
0
ARC
8
DEFAULT_255_1_234
10
10.8497135
20
166.0792013
40
0.4621653
50
69.9044149
51
82.2857423
0
ARC
8
DEFAULT_255_1_234
10
10.9067813
20
166.2334637
40
0.2976871
50
51.1838526
51
70.0181538
0
ARC
8
DEFAULT_255_1_234
10
10.9322779
20
166.270524
40
0.2528517
50
12.1017251
51
50.4214761
0
ARC
8
DEFAULT_255_1_234
10
10.7938653
20
166.2357676
40
0.3955061
50
359.5251267
51
12.8211707
0
ARC
8
DEFAULT_255_1_234
10
10.9518579
20
166.2288344
40
0.2375281
50
323.4908128
51
0.8817314
0
ARC
8
DEFAULT_255_1_234
10
10.9100266
20
166.261155
40
0.2903817
50
298.6825083
51
323.2756573
0
ARC
8
DEFAULT_255_1_234
10
10.8738629
20
166.3212649
40
0.3604842
50
293.1999386
51
299.1396394
0
ARC
8
DEFAULT_255_1_234
10
10.9411602
20
165.7127126
40
0.2871098
50
54.0011765
51
74.9167975
0
ARC
8
DEFAULT_255_1_234
10
10.9527961
20
165.7324332
40
0.2643248
50
36.3580696
51
53.5291921
0
ARC
8
DEFAULT_255_1_234
10
10.9401203
20
165.7233998
40
0.2798884
50
4.8189881
51
36.3089977
0
ARC
8
DEFAULT_255_1_234
10
10.8622038
20
165.712427
40
0.358478
50
359.9370252
51
5.5204067
0
ARC
8
DEFAULT_255_1_234
10
10.829756
20
165.7083667
40
0.3909429
50
344.7478609
51
0.5373281
0
ARC
8
DEFAULT_255_1_234
10
10.9288531
20
165.6816544
40
0.2883093
50
311.1786488
51
344.6886812
0
ARC
8
DEFAULT_255_1_234
10
10.8996578
20
165.7179987
40
0.3348923
50
286.0418249
51
310.8441291
0
ARC
8
DEFAULT_255_1_234
10
10.848941
20
165.8826807
40
0.5071869
50
274.1042341
51
286.4071509
0
ARC
8
DEFAULT_255_1_234
10
10.8312666
20
166.0710229
40
0.6963234
50
269.9236873
51
274.445647
0
ARC
8
DEFAULT_255_1_234
10
10.8358667
20
165.8370537
40
0.3362634
50
269.6055768
51
281.3740047
0
ARC
8
DEFAULT_255_1_234
10
10.8589305
20
165.7277353
40
0.224546
50
281.1055983
51
302.5132223
0
ARC
8
DEFAULT_255_1_234
10
10.8736204
20
165.7013823
40
0.1944357
50
303.0368945
51
311.8811219
0
ARC
8
DEFAULT_255_1_234
10
10.8807611
20
165.692889
40
0.1833454
50
311.9916004
51
351.7143462
0
ARC
8
DEFAULT_255_1_234
10
10.7990841
20
165.709393
40
0.2665871
50
350.7339597
51
0.2221581
0
ARC
8
DEFAULT_255_1_234
10
10.7883287
20
165.7150467
40
0.2773789
50
359.0456241
51
17.2296242
0
ARC
8
DEFAULT_255_1_234
10
10.8922404
20
165.7459163
40
0.1689915
50
17.6685481
51
78.9940892
0
ARC
8
DEFAULT_255_1_234
10
10.8405568
20
165.5604224
40
0.3612658
50
76.5635957
51
90.6980921
0
LINE
8
DEFAULT_255_1_234
10
10.8361552
20
165.9216613
11
10.8359614
21
165.9216614
0
ARC
8
DEFAULT_255_1_234
10
10.8141228
20
166.3739036
40
0.3285612
50
269.6064736
51
281.4533503
0
ARC
8
DEFAULT_255_1_234
10
10.8364048
20
166.2687688
40
0.2210975
50
281.2041486
51
302.5148063
0
ARC
8
DEFAULT_255_1_234
10
10.8500898
20
166.2441241
40
0.1929674
50
303.021671
51
309.8369575
0
ARC
8
DEFAULT_255_1_234
10
10.8684359
20
166.2235488
40
0.1654181
50
309.5228395
51
356.9509836
0
ARC
8
DEFAULT_255_1_234
10
10.8020942
20
166.2330932
40
0.2322512
50
355.4701227
51
0.0492546
0
ARC
8
DEFAULT_255_1_234
10
10.7742033
20
166.2353094
40
0.2601498
50
359.5558597
51
11.2096359
0
ARC
8
DEFAULT_255_1_234
10
10.8699323
20
166.255123
40
0.1623975
50
10.9182341
51
31.3230275
0
ARC
8
DEFAULT_255_1_234
10
10.8985056
20
166.2710214
40
0.1297302
50
31.8852677
51
52.1412565
0
ARC
8
DEFAULT_255_1_234
10
10.8710789
20
166.232275
40
0.1771663
50
52.8285564
51
71.9850297
0
ARC
8
DEFAULT_255_1_234
10
10.8334965
20
166.1216664
40
0.2939794
50
71.6863486
51
82.8455995
0
ARC
8
DEFAULT_255_1_234
10
10.8095501
20
165.9407149
40
0.476506
50
82.6984714
51
90.1729175
0
ARC
8
DEFAULT_255_1_234
10
10.8073136
20
166.0630623
40
0.3541573
50
89.8708275
51
90.0431131
0
LINE
8
DEFAULT_255_1_234
10
12.1314808
20
165.3747
11
11.8776778
21
165.8477694
0
LINE
8
DEFAULT_255_1_234
10
11.8776778
20
165.8477694
11
11.6029924
21
165.8477694
0
LINE
8
DEFAULT_255_1_234
10
11.6029924
20
165.8477694
11
11.6029924
21
165.3747
0
LINE
8
DEFAULT_255_1_234
10
11.6029924
20
165.3747
11
11.4479798
21
165.3747
0
LINE
8
DEFAULT_255_1_234
10
11.4479798
20
165.3747
11
11.4479798
21
166.5441211
0
LINE
8
DEFAULT_255_1_234
10
11.4479798
20
166.5441211
11
11.8351096
21
166.5441211
0
LINE
8
DEFAULT_255_1_234
10
12.0222491
20
165.8806995
11
12.2969346
21
165.3843381
0
LINE
8
DEFAULT_255_1_234
10
12.2969346
20
165.3843381
11
12.2969346
21
165.3747
0
LINE
8
DEFAULT_255_1_234
10
12.2969346
20
165.3747
11
12.1314808
21
165.3747
0
LINE
8
DEFAULT_255_1_234
10
11.6029924
20
166.4172196
11
11.6029924
21
165.9738677
0
LINE
8
DEFAULT_255_1_234
10
11.6029924
20
165.9738677
11
11.8399287
21
165.9738677
0
LINE
8
DEFAULT_255_1_234
10
11.8391255
20
166.4172196
11
11.6029924
21
166.4172196
0
ARC
8
DEFAULT_255_1_234
10
11.8392736
20
165.8479761
40
0.6961575
50
80.653586
51
90.3427061
0
ARC
8
DEFAULT_255_1_234
10
11.881221
20
166.0942348
40
0.4463577
50
65.6987447
51
80.8329603
0
ARC
8
DEFAULT_255_1_234
10
11.9289851
20
166.2037322
40
0.3269094
50
50.0017161
51
65.4305835
0
ARC
8
DEFAULT_255_1_234
10
11.9508315
20
166.2332482
40
0.2902647
50
11.628416
51
49.5603263
0
ARC
8
DEFAULT_255_1_234
10
11.7972651
20
166.1957299
40
0.4482792
50
359.5655735
51
12.3691
0
ARC
8
DEFAULT_255_1_234
10
11.9049511
20
166.1894644
40
0.3405924
50
341.9983148
51
0.4822259
0
ARC
8
DEFAULT_255_1_234
10
11.9444351
20
166.1787471
40
0.2997359
50
323.8609373
51
341.61416
0
ARC
8
DEFAULT_255_1_234
10
11.9142595
20
166.2020484
40
0.3378487
50
296.7018614
51
323.6876402
0
ARC
8
DEFAULT_255_1_234
10
11.8701491
20
166.2809235
40
0.4281516
50
290.8086567
51
297.2323311
0
ARC
8
DEFAULT_255_1_234
10
11.842502
20
166.3332351
40
0.3593766
50
269.589728
51
281.8058135
0
ARC
8
DEFAULT_255_1_234
10
11.8675919
20
166.2184743
40
0.2419125
50
281.5501019
51
303.9357432
0
ARC
8
DEFAULT_255_1_234
10
11.8813107
20
166.1946936
40
0.2145323
50
304.4415616
51
311.2106213
0
ARC
8
DEFAULT_255_1_234
10
11.8945212
20
166.1807632
40
0.1953505
50
310.9875673
51
356.2715578
0
ARC
8
DEFAULT_255_1_234
10
11.8188861
20
166.1920422
40
0.2716331
50
354.9348262
51
0.0609027
0
ARC
8
DEFAULT_255_1_234
10
11.8001735
20
166.1947435
40
0.2903554
50
359.5239371
51
12.8808918
0
ARC
8
DEFAULT_255_1_234
10
11.8979291
20
166.2186728
40
0.1897315
50
12.4173452
51
43.1022135
0
ARC
8
DEFAULT_255_1_234
10
11.9040895
20
166.2223724
40
0.1827118
50
43.5751728
51
48.203944
0
ARC
8
DEFAULT_255_1_234
10
11.8871387
20
166.2002302
40
0.2105272
50
48.7809703
51
72.6969569
0
ARC
8
DEFAULT_255_1_234
10
11.8517012
20
166.092682
40
0.3237537
50
72.3702241
51
84.8791103
0
ARC
8
DEFAULT_255_1_234
10
11.8369488
20
165.9584769
40
0.4587478
50
84.5400526
51
89.7281406
0
LINE
8
DEFAULT_255_1_234
10
12.5611788
20
166.5441211
11
12.8430928
21
166.0959501
0
LINE
8
DEFAULT_255_1_234
10
12.8430928
20
166.0959501
11
13.1234004
21
166.5441211
0
LINE
8
DEFAULT_255_1_234
10
13.1234004
20
166.5441211
11
13.3049177
21
166.5441211
0
LINE
8
DEFAULT_255_1_234
10
13.3049177
20
166.5441211
11
12.9354578
21
165.9642296
0
LINE
8
DEFAULT_255_1_234
10
12.9354578
20
165.9642296
11
13.3137526
21
165.3747
0
LINE
8
DEFAULT_255_1_234
10
13.3137526
20
165.3747
11
13.130629
21
165.3747
0
LINE
8
DEFAULT_255_1_234
10
13.130629
20
165.3747
11
12.8430928
21
165.8309027
0
LINE
8
DEFAULT_255_1_234
10
12.8430928
20
165.8309027
11
12.5539502
21
165.3747
0
LINE
8
DEFAULT_255_1_234
10
12.5539502
20
165.3747
11
12.3716297
21
165.3747
0
LINE
8
DEFAULT_255_1_234
10
12.3716297
20
165.3747
11
12.7507278
21
165.9642296
0
LINE
8
DEFAULT_255_1_234
10
12.7507278
20
165.9642296
11
12.3804646
21
166.5441211
0
LINE
8
DEFAULT_255_1_234
10
12.3804646
20
166.5441211
11
12.5611788
21
166.5441211
0
LINE
8
DEFAULT_255_1_234
10
14.6759354
20
166.2059849
11
14.5209229
21
166.2059849
0
LINE
8
DEFAULT_255_1_234
10
13.8285871
20
165.7136394
11
13.9835996
21
165.7136394
0
ARC
8
DEFAULT_255_1_234
10
14.5868042
20
167.1006768
40
1.252368
50
248.9199003
51
254.1439814
0
ARC
8
DEFAULT_255_1_234
10
14.4187537
20
166.6680234
40
0.788226
50
241.633709
51
249.0064503
0
ARC
8
DEFAULT_255_1_234
10
14.2658931
20
166.3879317
40
0.4691427
50
230.498225
51
241.8087113
0
ARC
8
DEFAULT_255_1_234
10
14.1874505
20
166.2879906
40
0.3421437
50
227.4064532
51
229.9881192
0
ARC
8
DEFAULT_255_1_234
10
14.1387026
20
166.2404088
40
0.2741476
50
200.6781896
51
228.1763934
0
ARC
8
DEFAULT_255_1_234
10
14.1459337
20
166.2389077
40
0.2804109
50
179.5061581
51
199.8694617
0
ARC
8
DEFAULT_255_1_234
10
14.1450088
20
166.246321
40
0.2795204
50
132.4834203
51
181.0242172
0
ARC
8
DEFAULT_255_1_234
10
14.2045671
20
166.1900704
40
0.3612768
50
129.2532479
51
133.4242687
0
ARC
8
DEFAULT_255_1_234
10
14.219212
20
166.1680965
40
0.3875675
50
101.98776
51
128.8742646
0
ARC
8
DEFAULT_255_1_234
10
14.2590731
20
165.9959741
40
0.5642249
50
89.5906553
51
102.3169264
0
ARC
8
DEFAULT_255_1_234
10
14.2661223
20
166.0278148
40
0.5323783
50
77.2360837
51
90.3248275
0
ARC
8
DEFAULT_255_1_234
10
14.2868302
20
166.12454
40
0.4334697
50
63.837784
51
77.0809408
0
ARC
8
DEFAULT_255_1_234
10
14.3146064
20
166.1762911
40
0.3747796
50
45.9864267
51
64.1607727
0
ARC
8
DEFAULT_255_1_234
10
14.3406945
20
166.2060866
40
0.3352302
50
32.2747395
51
45.6547121
0
ARC
8
DEFAULT_255_1_234
10
14.3473386
20
166.207988
40
0.328603
50
359.6507365
51
32.6130309
0
ARC
8
DEFAULT_255_1_234
10
14.2530481
20
166.208466
40
0.2678863
50
359.469343
51
14.9832209
0
ARC
8
DEFAULT_255_1_234
10
14.3235544
20
166.2273539
40
0.1948938
50
14.9781179
51
48.2004265
0
ARC
8
DEFAULT_255_1_234
10
14.3071188
20
166.2066983
40
0.2212521
50
48.5927837
51
74.1241538
0
ARC
8
DEFAULT_255_1_234
10
14.2737677
20
166.0966248
40
0.3362561
50
73.7888341
51
86.6652678
0
ARC
8
DEFAULT_255_1_234
10
14.2635243
20
165.9758881
40
0.4573953
50
86.2640471
51
90.0526343
0
ARC
8
DEFAULT_255_1_234
10
14.2606955
20
166.0154192
40
0.4178709
50
89.6697524
51
99.2309573
0
ARC
8
DEFAULT_255_1_234
10
14.2364406
20
166.1598964
40
0.2713749
50
99.069534
51
113.7658566
0
ARC
8
DEFAULT_255_1_234
10
14.2090597
20
166.2244677
40
0.2012469
50
114.0401004
51
127.9850673
0
ARC
8
DEFAULT_255_1_234
10
14.1850161
20
166.254073
40
0.1631167
50
127.7287463
51
176.7105154
0
ARC
8
DEFAULT_255_1_234
10
14.2528879
20
166.2439693
40
0.2315392
50
175.1779447
51
180.0581938
0
ARC
8
DEFAULT_255_1_234
10
14.1685726
20
166.2427428
40
0.1472271
50
179.6142195
51
228.1246017
0
ARC
8
DEFAULT_255_1_234
10
14.2127394
20
166.2836308
40
0.2072299
50
226.5779593
51
230.8800004
0
ARC
8
DEFAULT_255_1_234
10
14.2598473
20
166.3461636
40
0.2854818
50
231.4635071
51
241.9260842
0
ARC
8
DEFAULT_255_1_234
10
14.3795651
20
166.56648
40
0.53622
50
241.7178533
51
248.3259551
0
ARC
8
DEFAULT_255_1_234
10
14.5181023
20
166.9097064
40
0.9063478
50
248.2007737
51
252.4528373
0
ARC
8
DEFAULT_255_1_234
10
14.6384748
20
167.2818441
40
1.2974635
50
252.3391078
51
254.3469452
0
ARC
8
DEFAULT_255_1_234
10
13.884245
20
164.5841148
40
1.5037162
50
71.0197183
51
74.4087047
0
ARC
8
DEFAULT_255_1_234
10
14.0537136
20
165.0733111
40
0.9859993
50
66.1847285
51
71.086374
0
ARC
8
DEFAULT_255_1_234
10
14.2093448
20
165.42372
40
0.6025855
50
59.3536294
51
66.2691831
0
ARC
8
DEFAULT_255_1_234
10
14.29821
20
165.5740609
40
0.4279449
50
49.1020879
51
59.3293958
0
ARC
8
DEFAULT_255_1_234
10
14.380084
20
165.6673834
40
0.3038015
50
32.7919921
51
49.2505539
0
ARC
8
DEFAULT_255_1_234
10
14.412193
20
165.6902191
40
0.264448
50
31.1181161
51
32.4005348
0
ARC
8
DEFAULT_255_1_234
10
14.4033468
20
165.6866779
40
0.2738556
50
8.1116974
51
30.7958831
0
ARC
8
DEFAULT_255_1_234
10
14.3223136
20
165.6728753
40
0.3560327
50
359.8389159
51
8.4706516
0
ARC
8
DEFAULT_255_1_234
10
14.3848927
20
165.6680137
40
0.2934776
50
337.4731098
51
0.7537279
0
ARC
8
DEFAULT_255_1_234
10
14.4027622
20
165.6660387
40
0.2762607
50
307.5917067
51
336.4315538
0
ARC
8
DEFAULT_255_1_234
10
14.356745
20
165.7173102
40
0.3449979
50
307.6551545
51
308.4529766
0
ARC
8
DEFAULT_255_1_234
10
14.3337169
20
165.752825
40
0.3871988
50
284.3734338
51
307.1424381
0
ARC
8
DEFAULT_255_1_234
10
14.2841999
20
165.9349932
40
0.5759636
50
272.4382747
51
284.646547
0
ARC
8
DEFAULT_255_1_234
10
14.2715208
20
166.1149893
40
0.7563528
50
269.9708387
51
272.8178037
0
ARC
8
DEFAULT_255_1_234
10
14.2672248
20
165.9111716
40
0.5525489
50
248.2707594
51
270.4055579
0
ARC
8
DEFAULT_255_1_234
10
14.2617989
20
165.8921192
40
0.5328452
50
246.1383403
51
248.0542782
0
ARC
8
DEFAULT_255_1_234
10
14.2199368
20
165.8041843
40
0.4355005
50
233.1670131
51
246.4950969
0
ARC
8
DEFAULT_255_1_234
10
14.1645273
20
165.7293812
40
0.3424126
50
215.3403242
51
233.0843104
0
ARC
8
DEFAULT_255_1_234
10
14.1372704
20
165.7095549
40
0.3087104
50
179.2419209
51
215.2648451
0
ARC
8
DEFAULT_255_1_234
10
14.2140298
20
165.7109666
40
0.2304457
50
179.335461
51
199.1045811
0
ARC
8
DEFAULT_255_1_234
10
14.1807974
20
165.7022766
40
0.1962176
50
199.8828939
51
232.7063202
0
ARC
8
DEFAULT_255_1_234
10
14.2280243
20
165.7616788
40
0.2720938
50
232.3738199
51
255.5136649
0
ARC
8
DEFAULT_255_1_234
10
14.2621109
20
165.8860835
40
0.4010747
50
255.2446292
51
267.5320849
0
ARC
8
DEFAULT_255_1_234
10
14.2708733
20
166.0093702
40
0.5246356
50
267.1557994
51
270.0286766
0
ARC
8
DEFAULT_255_1_234
10
14.2736505
20
165.964995
40
0.4802668
50
269.7000017
51
278.1660162
0
ARC
8
DEFAULT_255_1_234
10
14.299251
20
165.7919515
40
0.3053425
50
278.0231263
51
290.625471
0
ARC
8
DEFAULT_255_1_234
10
14.3340197
20
165.6992025
40
0.206291
50
290.6619762
51
307.0370976
0
ARC
8
DEFAULT_255_1_234
10
14.3640586
20
165.6623504
40
0.1587906
50
306.3943566
51
355.3030547
0
ARC
8
DEFAULT_255_1_234
10
14.3128518
20
165.6700113
40
0.2104809
50
354.3660432
51
0.0698737
0
ARC
8
DEFAULT_255_1_234
10
14.3270863
20
165.6722617
40
0.1962563
50
359.417946
51
16.1971788
0
ARC
8
DEFAULT_255_1_234
10
14.3726173
20
165.6847418
40
0.149053
50
16.4723299
51
52.6262157
0
ARC
8
DEFAULT_255_1_234
10
14.2905227
20
165.5763433
40
0.2850296
50
52.7386432
51
62.4979148
0
ARC
8
DEFAULT_255_1_234
10
14.1520304
20
165.3157283
40
0.5801521
50
62.2515216
51
68.1220564
0
ARC
8
DEFAULT_255_1_234
10
13.9800215
20
164.8929872
40
1.0365451
50
68.0062803
51
71.8053402
0
ARC
8
DEFAULT_255_1_234
10
13.8004586
20
164.3544758
40
1.6042013
50
71.7183119
51
73.9258742
0
LINE
8
DEFAULT_255_1_234
10
14.8148845
20
165.7851218
11
14.8148845
21
165.8124297
0
LINE
8
DEFAULT_255_1_234
10
15.5521981
20
165.8284932
11
15.5521981
21
165.7666488
0
LINE
8
DEFAULT_255_1_234
10
15.5521981
20
165.7666488
11
14.9634717
21
165.7666488
0
LINE
8
DEFAULT_255_1_234
10
15.450195
20
165.5971792
11
15.5409537
21
165.5264999
0
LINE
8
DEFAULT_255_1_234
10
14.9682907
20
165.8887313
11
15.4036109
21
165.8887313
0
LINE
8
DEFAULT_255_1_234
10
15.4036109
20
165.8887313
11
15.4036109
21
165.8999757
0
ARC
8
DEFAULT_255_1_234
10
15.208821
20
165.7962332
40
0.4376191
50
252.3266134
51
270.5810217
0
ARC
8
DEFAULT_255_1_234
10
15.1883299
20
165.7221644
40
0.3608374
50
223.3000567
51
251.8561855
0
ARC
8
DEFAULT_255_1_234
10
15.209466
20
165.7426937
40
0.3902993
50
190.9374509
51
223.3654032
0
ARC
8
DEFAULT_255_1_234
10
15.3819632
20
165.7816885
40
0.5670891
50
179.6531105
51
191.4989439
0
ARC
8
DEFAULT_255_1_234
10
15.3941645
20
165.8156417
40
0.5792888
50
167.4007466
51
180.3176909
0
ARC
8
DEFAULT_255_1_234
10
15.2889706
20
165.8378885
40
0.471777
50
154.1835823
51
167.250763
0
ARC
8
DEFAULT_255_1_234
10
15.2258174
20
165.8711417
40
0.4004528
50
134.3149965
51
154.5315275
0
ARC
8
DEFAULT_255_1_234
10
15.2040669
20
165.8902228
40
0.371612
50
122.8616532
51
133.9707695
0
ARC
8
DEFAULT_255_1_234
10
15.1937243
20
165.9124703
40
0.3473289
50
89.8249009
51
123.4199222
0
ARC
8
DEFAULT_255_1_234
10
15.1987284
20
165.8477967
40
0.4120197
50
74.7876118
51
90.5482747
0
ARC
8
DEFAULT_255_1_234
10
15.2281027
20
165.956303
40
0.2996077
50
39.8178249
51
74.7633718
0
ARC
8
DEFAULT_255_1_234
10
15.1768347
20
165.9163351
40
0.3645855
50
16.8990863
51
39.4829761
0
ARC
8
DEFAULT_255_1_234
10
14.9873644
20
165.8556526
40
0.5635218
50
4.9636328
51
17.2026414
0
ARC
8
DEFAULT_255_1_234
10
14.7455714
20
165.830134
40
0.8066286
50
359.8834553
51
5.2834307
0
ARC
8
DEFAULT_255_1_234
10
15.3493238
20
165.7732803
40
0.3859091
50
180.9846213
51
194.9401313
0
ARC
8
DEFAULT_255_1_234
10
15.2443516
20
165.7445849
40
0.2770883
50
194.80314
51
222.0412631
0
ARC
8
DEFAULT_255_1_234
10
15.2139398
20
165.7144116
40
0.2343055
50
221.5417084
51
268.8614402
0
ARC
8
DEFAULT_255_1_234
10
15.2212393
20
165.7820686
40
0.3021528
50
267.732405
51
270.0097136
0
ARC
8
DEFAULT_255_1_234
10
15.2230203
20
165.8022105
40
0.3222994
50
269.6924892
51
280.4117579
0
ARC
8
DEFAULT_255_1_234
10
15.2406609
20
165.7103193
40
0.2287344
50
280.2255091
51
298.6338936
0
ARC
8
DEFAULT_255_1_234
10
15.2523401
20
165.6859223
40
0.2017294
50
299.0430333
51
300.4643464
0
ARC
8
DEFAULT_255_1_234
10
15.1843407
20
165.7993038
40
0.3339357
50
300.6577328
51
322.0378878
0
ARC
8
DEFAULT_255_1_234
10
15.1492946
20
165.8297021
40
0.3802736
50
321.6750233
51
322.3046845
0
ARC
8
DEFAULT_255_1_234
10
15.2423907
20
165.713037
40
0.3520454
50
276.9728461
51
328.0035423
0
ARC
8
DEFAULT_255_1_234
10
15.214696
20
165.8610841
40
0.5024498
50
269.8361028
51
278.0581756
0
ARC
8
DEFAULT_255_1_234
10
15.1919698
20
165.9355757
40
0.202159
50
89.2018686
51
117.2851756
0
ARC
8
DEFAULT_255_1_234
10
15.1972867
20
165.9313752
40
0.2083484
50
118.0551165
51
137.4540413
0
ARC
8
DEFAULT_255_1_234
10
15.2347607
20
165.8973304
40
0.2589774
50
137.5109581
51
158.8516286
0
ARC
8
DEFAULT_255_1_234
10
15.3485442
20
165.8514074
40
0.38167
50
158.5845963
51
170.1721436
0
ARC
8
DEFAULT_255_1_234
10
15.4654831
20
165.8281823
40
0.5008657
50
169.8376422
51
173.0566086
0
ARC
8
DEFAULT_255_1_234
10
14.9957905
20
165.8792509
40
0.4083467
50
2.9091802
51
12.8847116
0
ARC
8
DEFAULT_255_1_234
10
15.1328582
20
165.9115101
40
0.2675383
50
12.6957781
51
28.6404489
0
ARC
8
DEFAULT_255_1_234
10
15.1870253
20
165.9395458
40
0.2065654
50
29.0169854
51
41.1487595
0
ARC
8
DEFAULT_255_1_234
10
15.2073038
20
165.9572003
40
0.1796786
50
41.1646065
51
85.0013516
0
ARC
8
DEFAULT_255_1_234
10
15.1952134
20
165.8837431
40
0.2539726
50
83.7280015
51
90.0964893
0
LINE
8
DEFAULT_255_1_234
10
16.1441372
20
166.2485531
11
16.1441372
21
166.1104072
0
LINE
8
DEFAULT_255_1_234
10
15.8726645
20
165.9915375
11
15.8726645
21
165.3747
0
LINE
8
DEFAULT_255_1_234
10
15.8726645
20
165.3747
11
15.7240773
21
165.3747
0
LINE
8
DEFAULT_255_1_234
10
15.7240773
20
165.3747
11
15.7240773
21
166.2437341
0
LINE
8
DEFAULT_255_1_234
10
15.7240773
20
166.2437341
11
15.8686486
21
166.2437341
0
LINE
8
DEFAULT_255_1_234
10
15.8686486
20
166.2437341
11
15.8710581
21
166.1433374
0
ARC
8
DEFAULT_255_1_234
10
16.0774778
20
165.7044342
40
0.4114092
50
80.6754243
51
86.8932892
0
ARC
8
DEFAULT_255_1_234
10
16.0714312
20
165.60767
40
0.5083596
50
86.8038578
51
90.0431435
0
ARC
8
DEFAULT_255_1_234
10
16.0677293
20
165.8533866
40
0.2626638
50
89.2759698
51
106.6213787
0
ARC
8
DEFAULT_255_1_234
10
16.0472857
20
165.927683
40
0.1856317
50
107.1346045
51
157.6458115
0
ARC
8
DEFAULT_255_1_234
10
16.1164458
20
165.8893311
40
0.2643398
50
155.6586782
51
157.2539184
0
ARC
8
DEFAULT_255_1_234
10
16.095966
20
166.0062157
40
0.2634121
50
127.8165941
51
148.6302098
0
ARC
8
DEFAULT_255_1_234
10
16.0706129
20
166.0322218
40
0.2273596
50
91.3329982
51
126.7875809
0
ARC
8
DEFAULT_255_1_234
10
16.078207
20
165.9607195
40
0.299078
50
89.986594
51
92.4688449
0
ARC
8
DEFAULT_255_1_234
10
16.0790465
20
165.9882078
40
0.2715908
50
85.3589899
51
90.1623399
0
ARC
8
DEFAULT_255_1_234
10
16.087498
20
166.0886164
40
0.1708278
50
78.401942
51
85.4594656
0
ARC
8
DEFAULT_255_1_234
10
16.1019864
20
166.1577236
40
0.1002194
50
67.7858312
51
78.5728455
0
ARC
8
DEFAULT_255_1_234
10
16.1127717
20
166.1856887
40
0.0702548
50
63.4835954
51
67.3062642
0
LINE
8
DEFAULT_255_1_234
10
16.4421147
20
166.2437341
11
16.4421147
21
165.3747
0
LINE
8
DEFAULT_255_1_234
10
16.4421147
20
165.3747
11
16.2935275
21
165.3747
0
LINE
8
DEFAULT_255_1_234
10
16.2935275
20
165.3747
11
16.2935275
21
166.2437341
0
LINE
8
DEFAULT_255_1_234
10
16.2935275
20
166.2437341
11
16.4421147
21
166.2437341
0
ARC
8
DEFAULT_255_1_234
10
16.3793424
20
166.4751889
40
0.097867
50
161.415052
51
180.5526306
0
ARC
8
DEFAULT_255_1_234
10
16.3669202
20
166.4786077
40
0.0850062
50
138.1827368
51
160.9307106
0
ARC
8
DEFAULT_255_1_234
10
16.3559148
20
166.4881588
40
0.0704362
50
104.6368899
51
138.0039868
0
ARC
8
DEFAULT_255_1_234
10
16.3666303
20
166.4514963
40
0.1086221
50
92.0600725
51
105.2189128
0
ARC
8
DEFAULT_255_1_234
10
16.3689651
20
166.4172117
40
0.1429728
50
89.9756393
51
92.5012496
0
ARC
8
DEFAULT_255_1_234
10
16.369967
20
166.4397731
40
0.1204151
50
78.0235316
51
90.4478182
0
ARC
8
DEFAULT_255_1_234
10
16.3791762
20
166.4811295
40
0.0780493
50
55.051506
51
78.3369085
0
ARC
8
DEFAULT_255_1_234
10
16.3842037
20
166.4895711
40
0.0682538
50
42.0501187
51
54.4513741
0
ARC
8
DEFAULT_255_1_234
10
16.3706904
20
166.4771798
40
0.0865878
50
1.7497075
51
42.1496013
0
ARC
8
DEFAULT_255_1_234
10
16.3452237
20
166.4742738
40
0.1121515
50
359.9852656
51
2.8364544
0
ARC
8
DEFAULT_255_1_234
10
16.3618229
20
166.4733229
40
0.0955566
50
342.1070653
51
0.552888
0
ARC
8
DEFAULT_255_1_234
10
16.3760926
20
166.4693904
40
0.0807713
50
316.7107116
51
341.6516965
0
ARC
8
DEFAULT_255_1_234
10
16.3827963
20
166.4633823
40
0.0717724
50
285.4397031
51
316.5324284
0
ARC
8
DEFAULT_255_1_234
10
16.371788
20
166.4999554
40
0.1099597
50
272.3547054
51
285.8953117
0
ARC
8
DEFAULT_255_1_234
10
16.3691038
20
166.5365048
40
0.1465932
50
269.9695369
51
272.8160237
0
ARC
8
DEFAULT_255_1_234
10
16.368122
20
166.5145863
40
0.1246779
50
258.8431134
51
270.4153935
0
ARC
8
DEFAULT_255_1_234
10
16.3591262
20
166.4710414
40
0.0802162
50
238.5431189
51
259.1288175
0
ARC
8
DEFAULT_255_1_234
10
16.3523147
20
166.4586856
40
0.0661247
50
222.5062634
51
237.9906969
0
ARC
8
DEFAULT_255_1_234
10
16.3650734
20
166.4702889
40
0.0833707
50
184.1069131
51
222.460413
0
ARC
8
DEFAULT_255_1_234
10
16.3919975
20
166.4741349
40
0.1105176
50
179.9429482
51
185.0960898
0
LINE
8
DEFAULT_255_1_234
10
16.642105
20
165.7851218
11
16.642105
21
165.8124297
0
LINE
8
DEFAULT_255_1_234
10
17.3794186
20
165.8284932
11
17.3794186
21
165.7666488
0
LINE
8
DEFAULT_255_1_234
10
17.3794186
20
165.7666488
11
16.7906921
21
165.7666488
0
LINE
8
DEFAULT_255_1_234
10
17.2774155
20
165.5971792
11
17.3681741
21
165.5264999
0
LINE
8
DEFAULT_255_1_234
10
16.7955112
20
165.8887313
11
17.2308314
21
165.8887313
0
LINE
8
DEFAULT_255_1_234
10
17.2308314
20
165.8887313
11
17.2308314
21
165.8999757
0
ARC
8
DEFAULT_255_1_234
10
17.0360415
20
165.7962332
40
0.4376191
50
252.3266134
51
270.5810217
0
ARC
8
DEFAULT_255_1_234
10
17.0155504
20
165.7221644
40
0.3608374
50
223.3000567
51
251.8561855
0
ARC
8
DEFAULT_255_1_234
10
17.0366865
20
165.7426937
40
0.3902993
50
190.9374509
51
223.3654032
0
ARC
8
DEFAULT_255_1_234
10
17.2091837
20
165.7816885
40
0.5670891
50
179.6531105
51
191.4989439
0
ARC
8
DEFAULT_255_1_234
10
17.2213849
20
165.8156417
40
0.5792888
50
167.4007466
51
180.3176909
0
ARC
8
DEFAULT_255_1_234
10
17.1161911
20
165.8378885
40
0.471777
50
154.1835823
51
167.250763
0
ARC
8
DEFAULT_255_1_234
10
17.0530378
20
165.8711417
40
0.4004528
50
134.3149965
51
154.5315275
0
ARC
8
DEFAULT_255_1_234
10
17.0312873
20
165.8902228
40
0.371612
50
122.8616532
51
133.9707695
0
ARC
8
DEFAULT_255_1_234
10
17.0209447
20
165.9124703
40
0.3473289
50
89.8249009
51
123.4199222
0
ARC
8
DEFAULT_255_1_234
10
17.0259488
20
165.8477967
40
0.4120197
50
74.7876118
51
90.5482747
0
ARC
8
DEFAULT_255_1_234
10
17.0553232
20
165.956303
40
0.2996077
50
39.8178249
51
74.7633718
0
ARC
8
DEFAULT_255_1_234
10
17.0040552
20
165.9163351
40
0.3645855
50
16.8990863
51
39.4829761
0
ARC
8
DEFAULT_255_1_234
10
16.8145848
20
165.8556526
40
0.5635218
50
4.9636328
51
17.2026414
0
ARC
8
DEFAULT_255_1_234
10
16.5727918
20
165.830134
40
0.8066286
50
359.8834553
51
5.2834307
0
ARC
8
DEFAULT_255_1_234
10
17.1765443
20
165.7732803
40
0.3859091
50
180.9846213
51
194.9401313
0
ARC
8
DEFAULT_255_1_234
10
17.0715721
20
165.7445849
40
0.2770883
50
194.80314
51
222.0412631
0
ARC
8
DEFAULT_255_1_234
10
17.0411603
20
165.7144116
40
0.2343055
50
221.5417084
51
268.8614402
0
ARC
8
DEFAULT_255_1_234
10
17.0484597
20
165.7820686
40
0.3021528
50
267.732405
51
270.0097136
0
ARC
8
DEFAULT_255_1_234
10
17.0502407
20
165.8022105
40
0.3222994
50
269.6924892
51
280.4117579
0
ARC
8
DEFAULT_255_1_234
10
17.0678814
20
165.7103193
40
0.2287344
50
280.2255091
51
298.6338936
0
ARC
8
DEFAULT_255_1_234
10
17.0795606
20
165.6859223
40
0.2017294
50
299.0430333
51
300.4643464
0
ARC
8
DEFAULT_255_1_234
10
17.0115611
20
165.7993038
40
0.3339357
50
300.6577328
51
322.0378878
0
ARC
8
DEFAULT_255_1_234
10
16.9765151
20
165.8297021
40
0.3802736
50
321.6750233
51
322.3046845
0
ARC
8
DEFAULT_255_1_234
10
17.0696112
20
165.713037
40
0.3520454
50
276.9728461
51
328.0035423
0
ARC
8
DEFAULT_255_1_234
10
17.0419165
20
165.8610841
40
0.5024498
50
269.8361028
51
278.0581756
0
ARC
8
DEFAULT_255_1_234
10
17.0191902
20
165.9355757
40
0.202159
50
89.2018686
51
117.2851756
0
ARC
8
DEFAULT_255_1_234
10
17.0245071
20
165.9313752
40
0.2083484
50
118.0551165
51
137.4540413
0
ARC
8
DEFAULT_255_1_234
10
17.0619811
20
165.8973304
40
0.2589774
50
137.5109581
51
158.8516286
0
ARC
8
DEFAULT_255_1_234
10
17.1757647
20
165.8514074
40
0.38167
50
158.5845963
51
170.1721436
0
ARC
8
DEFAULT_255_1_234
10
17.2927036
20
165.8281823
40
0.5008657
50
169.8376422
51
173.0566086
0
ARC
8
DEFAULT_255_1_234
10
16.823011
20
165.8792509
40
0.4083467
50
2.9091802
51
12.8847116
0
ARC
8
DEFAULT_255_1_234
10
16.9600786
20
165.9115101
40
0.2675383
50
12.6957781
51
28.6404489
0
ARC
8
DEFAULT_255_1_234
10
17.0142457
20
165.9395458
40
0.2065654
50
29.0169854
51
41.1487595
0
ARC
8
DEFAULT_255_1_234
10
17.0345242
20
165.9572003
40
0.1796786
50
41.1646065
51
85.0013516
0
ARC
8
DEFAULT_255_1_234
10
17.0224339
20
165.8837431
40
0.2539726
50
83.7280015
51
90.0964893
0
LINE
8
DEFAULT_255_1_234
10
18.1978527
20
165.9883248
11
18.0484624
21
165.9883248
0
LINE
8
DEFAULT_255_1_234
10
17.5151549
20
165.6421569
11
17.6637421
21
165.6421569
0
ARC
8
DEFAULT_255_1_234
10
17.9296442
20
165.6066959
40
0.1276617
50
359.3334982
51
18.5871358
0
ARC
8
DEFAULT_255_1_234
10
17.9505079
20
165.6122133
40
0.1061371
50
19.3540742
51
54.6485071
0
ARC
8
DEFAULT_255_1_234
10
17.9000981
20
165.5426919
40
0.1920087
50
54.3827097
51
65.0622807
0
ARC
8
DEFAULT_255_1_234
10
17.8232378
20
165.38099
40
0.3710447
50
64.8282493
51
71.4200025
0
ARC
8
DEFAULT_255_1_234
10
17.7330253
20
165.1163107
40
0.6506741
50
71.3164301
51
75.8006402
0
ARC
8
DEFAULT_255_1_234
10
17.6489073
20
164.7922561
40
0.9854641
50
75.6809531
51
78.0061883
0
ARC
8
DEFAULT_255_1_234
10
18.0937606
20
166.890177
40
1.1591028
50
254.6901892
51
258.0466452
0
ARC
8
DEFAULT_255_1_234
10
17.9899515
20
166.5142781
40
0.7691345
50
249.9010773
51
254.755261
0
ARC
8
DEFAULT_255_1_234
10
17.8895857
20
166.2416982
40
0.478665
50
243.3097214
51
249.9709442
0
ARC
8
DEFAULT_255_1_234
10
17.8266878
20
166.1162778
40
0.3383568
50
234.4047477
51
243.2862168
0
ARC
8
DEFAULT_255_1_234
10
17.7644401
20
166.0303232
40
0.2322322
50
220.8667099
51
234.5493881
0
ARC
8
DEFAULT_255_1_234
10
17.7302342
20
165.9991817
40
0.1859923
50
214.3062465
51
220.5065136
0
ARC
8
DEFAULT_255_1_234
10
17.7276422
20
165.996088
40
0.1821108
50
186.912965
51
213.9618616
0
ARC
8
DEFAULT_255_1_234
10
17.7808516
20
166.0047009
40
0.2359799
50
179.8808832
51
187.4339886
0
ARC
8
DEFAULT_255_1_234
10
17.765365
20
166.0067088
40
0.2204978
50
132.005434
51
180.3942919
0
ARC
8
DEFAULT_255_1_234
10
17.8310263
20
165.9461083
40
0.3095791
50
129.2319861
51
133.5302299
0
ARC
8
DEFAULT_255_1_234
10
17.8363771
20
165.9366928
40
0.3202615
50
100.4410011
51
128.9081242
0
ARC
8
DEFAULT_255_1_234
10
17.8637655
20
165.8081455
40
0.4516583
50
89.6985377
51
100.9026564
0
ARC
8
DEFAULT_255_1_234
10
17.8694697
20
165.7921166
40
0.4676928
50
77.6965325
51
90.4076836
0
ARC
8
DEFAULT_255_1_234
10
17.9025681
20
165.9348413
40
0.3211988
50
50.7276602
51
78.0399361
0
ARC
8
DEFAULT_255_1_234
10
17.947014
20
165.9866296
40
0.2529778
50
25.7545084
51
51.0957453
0
ARC
8
DEFAULT_255_1_234
10
17.9471364
20
165.9916206
40
0.250738
50
359.2468627
51
24.7394243
0
ARC
8
DEFAULT_255_1_234
10
17.9186816
20
165.9887664
40
0.1297815
50
359.8050318
51
45.1544908
0
ARC
8
DEFAULT_255_1_234
10
17.8779958
20
165.9539794
40
0.1831883
50
43.8047702
51
49.6271585
0
ARC
8
DEFAULT_255_1_234
10
17.878786
20
165.9540678
40
0.18261
50
49.7980766
51
82.1218353
0
ARC
8
DEFAULT_255_1_234
10
17.8668831
20
165.8893998
40
0.2483163
50
81.4465357
51
90.1710293
0
ARC
8
DEFAULT_255_1_234
10
17.8644434
20
165.836788
40
0.300932
50
89.6766211
51
99.1264602
0
ARC
8
DEFAULT_255_1_234
10
17.8472896
20
165.9401537
40
0.1961547
50
98.968313
51
113.4570237
0
ARC
8
DEFAULT_255_1_234
10
17.8276981
20
165.9869965
40
0.1453859
50
113.722589
51
127.4763106
0
ARC
8
DEFAULT_255_1_234
10
17.8108627
20
166.0070124
40
0.1192639
50
126.9083309
51
150.3165862
0
ARC
8
DEFAULT_255_1_234
10
17.806096
20
166.0120981
40
0.112623
50
151.3635175
51
180.0701457
0
ARC
8
DEFAULT_255_1_234
10
17.8369745
20
166.009999
40
0.1435149
50
179.2169974
51
179.9954013
0
ARC
8
DEFAULT_255_1_234
10
17.8008802
20
166.0087056
40
0.1074286
50
179.3040112
51
198.4225446
0
ARC
8
DEFAULT_255_1_234
10
17.7816936
20
166.0037127
40
0.0876573
50
199.2895851
51
238.6034594
0
ARC
8
DEFAULT_255_1_234
10
17.8419782
20
166.098345
40
0.1998512
50
237.9846301
51
246.8744712
0
ARC
8
DEFAULT_255_1_234
10
17.9277727
20
166.2946205
40
0.4140547
50
246.6234531
51
251.8168941
0
ARC
8
DEFAULT_255_1_234
10
18.0308271
20
166.6040905
40
0.7402308
50
251.713434
51
255.0778414
0
ARC
8
DEFAULT_255_1_234
10
18.1507533
20
167.0507563
40
1.2027155
50
255.0367487
51
257.4705983
0
ARC
8
DEFAULT_255_1_234
10
17.6399543
20
164.7493863
40
1.1546601
50
73.6837552
51
77.5016755
0
ARC
8
DEFAULT_255_1_234
10
17.7488318
20
165.1193581
40
0.7690009
50
68.7044154
51
73.7249639
0
ARC
8
DEFAULT_255_1_234
10
17.8391339
20
165.3520654
40
0.5193873
50
63.590599
51
68.6626804
0
ARC
8
DEFAULT_255_1_234
10
17.9162358
20
165.5058123
40
0.3473927
50
54.7106439
51
63.7013633
0
ARC
8
DEFAULT_255_1_234
10
17.9786812
20
165.59304
40
0.2401192
50
41.0622434
51
54.8487496
0
ARC
8
DEFAULT_255_1_234
10
18.0128199
20
165.6243592
40
0.1938094
50
34.4950568
51
40.7105546
0
ARC
8
DEFAULT_255_1_234
10
18.0175006
20
165.6292078
40
0.1872106
50
9.3763373
51
34.0833615
0
ARC
8
DEFAULT_255_1_234
10
17.9521876
20
165.6166728
40
0.2536988
50
359.7694872
51
9.7663171
0
ARC
8
DEFAULT_255_1_234
10
17.9719377
20
165.6123764
40
0.2339696
50
335.8654732
51
0.8022045
0
ARC
8
DEFAULT_255_1_234
10
17.9794422
20
165.6137197
40
0.2277108
50
307.7357725
51
334.7849066
0
ARC
8
DEFAULT_255_1_234
10
17.9393597
20
165.6587645
40
0.2878951
50
307.0241536
51
308.5578354
0
ARC
8
DEFAULT_255_1_234
10
17.9135929
20
165.6973801
40
0.3342515
50
282.9362969
51
306.5646424
0
ARC
8
DEFAULT_255_1_234
10
17.8774226
20
165.8441108
40
0.4853615
50
271.1026298
51
283.2200835
0
ARC
8
DEFAULT_255_1_234
10
17.871047
20
165.9682418
40
0.6096052
50
269.9919117
51
271.4772449
0
ARC
8
DEFAULT_255_1_234
10
17.8684225
20
165.8604436
40
0.5018135
50
259.0723564
51
270.289833
0
ARC
8
DEFAULT_255_1_234
10
17.8471957
20
165.7487271
40
0.388099
50
245.4963068
51
259.0227342
0
ARC
8
DEFAULT_255_1_234
10
17.8193914
20
165.6905615
40
0.3236422
50
228.9684658
51
245.7044727
0
ARC
8
DEFAULT_255_1_234
10
17.7928357
20
165.6578575
40
0.2815426
50
214.4011705
51
228.6759915
0
ARC
8
DEFAULT_255_1_234
10
17.7639098
20
165.642029
40
0.2487548
50
179.9705531
51
215.1572795
0
ARC
8
DEFAULT_255_1_234
10
17.8339698
20
165.6493806
40
0.1703809
50
182.4299387
51
203.0329699
0
ARC
8
DEFAULT_255_1_234
10
17.8155355
20
165.6437396
40
0.1512226
50
203.798802
51
232.548466
0
ARC
8
DEFAULT_255_1_234
10
17.8431877
20
165.6788826
40
0.1959374
50
232.3782728
51
256.3934612
0
ARC
8
DEFAULT_255_1_234
10
17.8662238
20
165.7678842
40
0.2878639
50
256.104506
51
268.4626716
0
ARC
8
DEFAULT_255_1_234
10
17.8708723
20
165.8475487
40
0.3676329
50
268.0715632
51
270.0138206
0
ARC
8
DEFAULT_255_1_234
10
17.8727247
20
165.8203083
40
0.3403971
50
269.7031147
51
278.8341955
0
ARC
8
DEFAULT_255_1_234
10
17.8909341
20
165.7072876
40
0.2259217
50
278.6728789
51
292.8232582
0
ARC
8
DEFAULT_255_1_234
10
17.9109879
20
165.6571449
40
0.171929
50
293.1452328
51
303.6655899
0
ARC
8
DEFAULT_255_1_234
10
17.9374758
20
165.6195204
40
0.1259367
50
303.1248165
51
321.742847
0
ARC
8
DEFAULT_255_1_234
10
17.9560638
20
165.6032156
40
0.1012531
50
322.4748573
51
1.1291126
0
LINE
8
DEFAULT_255_2_778
10
9.5255417
20
155.9718479
11
10.8484417
21
155.9718479
0
LINE
8
DEFAULT_255_2_778
10
10.8484417
20
155.9718479
11
10.8484417
21
83.2114479
0
LINE
8
DEFAULT_255_2_778
10
10.8484417
20
77.9197479
11
10.8484417
21
5.1593479
0
LINE
8
DEFAULT_255_2_778
10
10.8484417
20
5.1593479
11
9.5255417
21
5.1593479
0
LINE
8
DEFAULT_255_2_778
10
9.5254834
20
83.2114333
11
12.1712834
21
83.2114333
0
LINE
8
DEFAULT_255_2_778
10
12.1712834
20
83.2114333
11
12.1712834
21
77.9197333
0
LINE
8
DEFAULT_255_2_778
10
12.1712834
20
77.9197333
11
9.5254834
21
77.9197333
0
LINE
8
DEFAULT_255_2_778
10
9.5254834
20
77.9197333
11
9.5254834
21
83.2114333
0
LINE
8
DEFAULT_255_2_778
10
10.3193
20
78.4489666
11
10.3193
21
82.6822666
0
LINE
8
DEFAULT_255_2_778
10
10.0547167
20
81.888575
11
10.3193167
21
82.682275
0
LINE
8
DEFAULT_255_2_778
10
10.3193167
20
82.682275
11
10.5839167
21
81.888575
0
LINE
8
DEFAULT_255_2_778
10
10.5839167
20
81.888575
11
10.0547167
21
81.888575
0
LINE
8
DEFAULT_255_2_778
10
11.3776
20
82.6822666
11
11.3776
21
78.4489666
0
LINE
8
DEFAULT_255_2_778
10
11.1130167
20
79.242675
11
11.3776167
21
78.448975
0
LINE
8
DEFAULT_255_2_778
10
11.3776167
20
78.448975
11
11.6422167
21
79.242675
0
LINE
8
DEFAULT_255_2_778
10
11.6422167
20
79.242675
11
11.1130167
21
79.242675
0
LINE
8
DEFAULT_255_1_234
10
4.3933522
20
164.5598211
11
4.7258662
21
163.5952093
0
LINE
8
DEFAULT_255_1_234
10
4.7258662
20
163.5952093
11
5.0599865
21
164.5598211
0
LINE
8
DEFAULT_255_1_234
10
5.0599865
20
164.5598211
11
5.228653
21
164.5598211
0
LINE
8
DEFAULT_255_1_234
10
5.228653
20
164.5598211
11
4.7949391
21
163.3904
0
LINE
8
DEFAULT_255_1_234
10
4.7949391
20
163.3904
11
4.6583996
21
163.3904
0
LINE
8
DEFAULT_255_1_234
10
4.6583996
20
163.3904
11
4.2254889
21
164.5598211
0
LINE
8
DEFAULT_255_1_234
10
4.2254889
20
164.5598211
11
4.3933522
21
164.5598211
0
LINE
8
DEFAULT_255_1_234
10
5.787662
20
164.3590276
11
5.787662
21
164.0176788
0
LINE
8
DEFAULT_255_1_234
10
5.787662
20
164.0176788
11
6.1137505
21
164.0176788
0
LINE
8
DEFAULT_255_1_234
10
6.1137505
20
164.0176788
11
6.1137505
21
163.8771233
0
LINE
8
DEFAULT_255_1_234
10
6.1137505
20
163.8771233
11
5.787662
21
163.8771233
0
LINE
8
DEFAULT_255_1_234
10
5.787662
20
163.8771233
11
5.787662
21
163.5076634
0
LINE
8
DEFAULT_255_1_234
10
5.787662
20
163.5076634
11
5.6382716
21
163.5076634
0
LINE
8
DEFAULT_255_1_234
10
5.6382716
20
163.5076634
11
5.6382716
21
163.8771233
0
LINE
8
DEFAULT_255_1_234
10
5.6382716
20
163.8771233
11
5.3121831
21
163.8771233
0
LINE
8
DEFAULT_255_1_234
10
5.3121831
20
163.8771233
11
5.3121831
21
164.0176788
0
LINE
8
DEFAULT_255_1_234
10
5.3121831
20
164.0176788
11
5.6382716
21
164.0176788
0
LINE
8
DEFAULT_255_1_234
10
5.6382716
20
164.0176788
11
5.6382716
21
164.3590276
0
LINE
8
DEFAULT_255_1_234
10
5.6382716
20
164.3590276
11
5.787662
21
164.3590276
0
LINE
8
DEFAULT_255_1_234
10
4.5004299
20
5.8098211
11
4.7823439
21
5.3616501
0
LINE
8
DEFAULT_255_1_234
10
4.7823439
20
5.3616501
11
5.0626516
21
5.8098211
0
LINE
8
DEFAULT_255_1_234
10
5.0626516
20
5.8098211
11
5.2441689
21
5.8098211
0
LINE
8
DEFAULT_255_1_234
10
5.2441689
20
5.8098211
11
4.8747089
21
5.2299296
0
LINE
8
DEFAULT_255_1_234
10
4.8747089
20
5.2299296
11
5.2530038
21
4.6404
0
LINE
8
DEFAULT_255_1_234
10
5.2530038
20
4.6404
11
5.0698802
21
4.6404
0
LINE
8
DEFAULT_255_1_234
10
5.0698802
20
4.6404
11
4.7823439
21
5.0966027
0
LINE
8
DEFAULT_255_1_234
10
4.7823439
20
5.0966027
11
4.4932014
21
4.6404
0
LINE
8
DEFAULT_255_1_234
10
4.4932014
20
4.6404
11
4.3108809
21
4.6404
0
LINE
8
DEFAULT_255_1_234
10
4.3108809
20
4.6404
11
4.689979
21
5.2299296
0
LINE
8
DEFAULT_255_1_234
10
4.689979
20
5.2299296
11
4.3197158
21
5.8098211
0
LINE
8
DEFAULT_255_1_234
10
4.3197158
20
5.8098211
11
4.5004299
21
5.8098211
0
LINE
8
DEFAULT_255_1_234
10
5.8818889
20
5.8154433
11
5.8818889
21
4.6404
0
LINE
8
DEFAULT_255_1_234
10
5.8818889
20
4.6404
11
5.7324986
21
4.6404
0
LINE
8
DEFAULT_255_1_234
10
5.7324986
20
4.6404
11
5.7324986
21
5.6307133
0
LINE
8
DEFAULT_255_1_234
10
5.7324986
20
5.6307133
11
5.4329147
21
5.5206785
0
LINE
8
DEFAULT_255_1_234
10
5.4329147
20
5.5206785
11
5.4329147
21
5.6556117
0
LINE
8
DEFAULT_255_1_234
10
5.4329147
20
5.6556117
11
5.8585969
21
5.8154433
0
LINE
8
DEFAULT_255_1_234
10
5.8585969
20
5.8154433
11
5.8818889
21
5.8154433
0
LINE
8
DEFAULT_255_1_234
10
6.5043486
20
5.1961963
11
6.3854789
21
5.2267169
0
LINE
8
DEFAULT_255_1_234
10
6.3854789
20
5.2267169
11
6.4449138
21
5.8098211
0
LINE
8
DEFAULT_255_1_234
10
6.4449138
20
5.8098211
11
7.0440814
21
5.8098211
0
LINE
8
DEFAULT_255_1_234
10
7.0440814
20
5.8098211
11
7.0440814
21
5.6724784
0
LINE
8
DEFAULT_255_1_234
10
7.0440814
20
5.6724784
11
6.5710121
21
5.6724784
0
LINE
8
DEFAULT_255_1_234
10
6.5710121
20
5.6724784
11
6.5356724
21
5.3536184
0
LINE
8
DEFAULT_255_1_234
10
6.3437139
20
4.9480156
11
6.4842693
21
4.9480156
0
LINE
8
DEFAULT_255_1_234
10
6.5437042
20
5.2283232
11
6.5043486
21
5.1961963
0
ARC
8
DEFAULT_255_1_234
10
6.7211508
20
5.035623
40
0.3681349
50
93.7182161
51
120.2538958
0
ARC
8
DEFAULT_255_1_234
10
6.7305771
20
4.9548394
40
0.449379
50
89.9660152
51
94.2496022
0
ARC
8
DEFAULT_255_1_234
10
6.7346505
20
5.0137549
40
0.390482
50
73.8043271
51
90.5585896
0
ARC
8
DEFAULT_255_1_234
10
6.7581402
20
5.0995602
40
0.3015334
50
41.3071453
51
73.5430202
0
ARC
8
DEFAULT_255_1_234
10
6.7165229
20
5.0637324
40
0.3564457
50
13.5075983
51
41.2174222
0
ARC
8
DEFAULT_255_1_234
10
6.5523433
20
5.0207486
40
0.5261351
50
1.1331335
51
13.8829381
0
ARC
8
DEFAULT_255_1_234
10
6.4111802
20
5.0131665
40
0.6674378
50
359.9919444
51
1.544251
0
ARC
8
DEFAULT_255_1_234
10
6.5388628
20
5.009028
40
0.5397702
50
347.8572367
51
0.4293338
0
ARC
8
DEFAULT_255_1_234
10
6.7138946
20
4.9693736
40
0.3603188
50
323.673004
51
348.1672506
0
ARC
8
DEFAULT_255_1_234
10
6.7433454
20
4.9514168
40
0.3259678
50
316.8171152
51
323.1492751
0
ARC
8
DEFAULT_255_1_234
10
6.7494643
20
4.947746
40
0.3189975
50
281.8396411
51
316.5457803
0
ARC
8
DEFAULT_255_1_234
10
6.7118907
20
5.1032762
40
0.4789527
50
269.5770101
51
282.4214771
0
ARC
8
DEFAULT_255_1_234
10
6.7047718
20
5.0819125
40
0.45759
50
256.2427136
51
270.4486331
0
ARC
8
DEFAULT_255_1_234
10
6.674862
20
4.9619229
40
0.3339303
50
228.9023911
51
256.3314342
0
ARC
8
DEFAULT_255_1_234
10
6.6674853
20
4.9502746
40
0.32031
50
193.753695
51
228.5271154
0
ARC
8
DEFAULT_255_1_234
10
6.7912807
20
4.98658
40
0.4492253
50
184.924711
51
194.497588
0
ARC
8
DEFAULT_255_1_234
10
6.8105374
20
4.9901591
40
0.3289787
50
187.3600538
51
198.6732863
0
ARC
8
DEFAULT_255_1_234
10
6.7055668
20
4.9537674
40
0.217884
50
198.4451669
51
217.794479
0
ARC
8
DEFAULT_255_1_234
10
6.6759843
20
4.9328085
40
0.1816698
50
218.2887171
51
228.5612368
0
ARC
8
DEFAULT_255_1_234
10
6.685763
20
4.9459963
40
0.1980329
50
228.9654866
51
258.1234728
0
ARC
8
DEFAULT_255_1_234
10
6.706334
20
5.0340833
40
0.2884748
50
257.7258293
51
270.401361
0
ARC
8
DEFAULT_255_1_234
10
6.7108226
20
4.9895821
40
0.2439788
50
269.4204404
51
286.4209037
0
ARC
8
DEFAULT_255_1_234
10
6.7256714
20
4.9356657
40
0.1880666
50
286.7251356
51
320.600362
0
ARC
8
DEFAULT_255_1_234
10
6.6873539
20
4.9667595
40
0.2374121
50
320.6712579
51
344.5441685
0
ARC
8
DEFAULT_255_1_234
10
6.5716865
20
5.0007045
40
0.3579479
50
344.2412205
51
356.7357071
0
ARC
8
DEFAULT_255_1_234
10
6.4468014
20
5.0110444
40
0.4832297
50
356.3548756
51
0.0500261
0
ARC
8
DEFAULT_255_1_234
10
6.5804523
20
5.014165
40
0.3495889
50
359.5576869
51
12.953486
0
ARC
8
DEFAULT_255_1_234
10
6.685942
20
5.0397434
40
0.2410532
50
12.6490276
51
41.6081334
0
ARC
8
DEFAULT_255_1_234
10
6.7089791
20
5.0593321
40
0.2108218
50
41.7850273
51
85.9892764
0
ARC
8
DEFAULT_255_1_234
10
6.6966528
20
4.9780462
40
0.2928454
50
84.6957577
51
90.0676183
0
ARC
8
DEFAULT_255_1_234
10
6.6943012
20
4.9111716
40
0.3597255
50
89.6804936
51
99.1614436
0
ARC
8
DEFAULT_255_1_234
10
6.6737643
20
5.0339131
40
0.235281
50
98.9830931
51
113.8908934
0
ARC
8
DEFAULT_255_1_234
10
6.6508053
20
5.0880587
40
0.176479
50
114.1950727
51
127.3641004
0
LINE
8
DEFAULT_255_1_234
10
4.6063299
20
13.7473211
11
4.8882439
21
13.2991501
0
LINE
8
DEFAULT_255_1_234
10
4.8882439
20
13.2991501
11
5.1685516
21
13.7473211
0
LINE
8
DEFAULT_255_1_234
10
5.1685516
20
13.7473211
11
5.3500689
21
13.7473211
0
LINE
8
DEFAULT_255_1_234
10
5.3500689
20
13.7473211
11
4.9806089
21
13.1674296
0
LINE
8
DEFAULT_255_1_234
10
4.9806089
20
13.1674296
11
5.3589038
21
12.5779
0
LINE
8
DEFAULT_255_1_234
10
5.3589038
20
12.5779
11
5.1757802
21
12.5779
0
LINE
8
DEFAULT_255_1_234
10
5.1757802
20
12.5779
11
4.8882439
21
13.0341027
0
LINE
8
DEFAULT_255_1_234
10
4.8882439
20
13.0341027
11
4.5991014
21
12.5779
0
LINE
8
DEFAULT_255_1_234
10
4.5991014
20
12.5779
11
4.4167809
21
12.5779
0
LINE
8
DEFAULT_255_1_234
10
4.4167809
20
12.5779
11
4.795879
21
13.1674296
0
LINE
8
DEFAULT_255_1_234
10
4.795879
20
13.1674296
11
4.4256158
21
13.7473211
0
LINE
8
DEFAULT_255_1_234
10
4.4256158
20
13.7473211
11
4.6063299
21
13.7473211
0
LINE
8
DEFAULT_255_1_234
10
5.9877889
20
13.7529433
11
5.9877889
21
12.5779
0
LINE
8
DEFAULT_255_1_234
10
5.9877889
20
12.5779
11
5.8383986
21
12.5779
0
LINE
8
DEFAULT_255_1_234
10
5.8383986
20
12.5779
11
5.8383986
21
13.5682133
0
LINE
8
DEFAULT_255_1_234
10
5.8383986
20
13.5682133
11
5.5388147
21
13.4581785
0
LINE
8
DEFAULT_255_1_234
10
5.5388147
20
13.4581785
11
5.5388147
21
13.5931117
0
LINE
8
DEFAULT_255_1_234
10
5.5388147
20
13.5931117
11
5.9644969
21
13.7529433
0
LINE
8
DEFAULT_255_1_234
10
5.9644969
20
13.7529433
11
5.9877889
21
13.7529433
0
LINE
8
DEFAULT_255_1_234
10
7.0503879
20
13.7473211
11
7.0503879
21
12.970652
0
LINE
8
DEFAULT_255_1_234
10
7.0503879
20
12.970652
11
7.212629
21
12.970652
0
LINE
8
DEFAULT_255_1_234
10
7.212629
20
12.970652
11
7.212629
21
12.8493728
0
LINE
8
DEFAULT_255_1_234
10
7.212629
20
12.8493728
11
7.0503879
21
12.8493728
0
LINE
8
DEFAULT_255_1_234
10
7.0503879
20
12.8493728
11
7.0503879
21
12.5779
0
LINE
8
DEFAULT_255_1_234
10
7.0503879
20
12.5779
11
6.9009976
21
12.5779
0
LINE
8
DEFAULT_255_1_234
10
6.9009976
20
12.5779
11
6.9009976
21
12.8493728
0
LINE
8
DEFAULT_255_1_234
10
6.9009976
20
12.8493728
11
6.3684933
21
12.8493728
0
LINE
8
DEFAULT_255_1_234
10
6.3684933
20
12.8493728
11
6.3684933
21
12.9369187
0
LINE
8
DEFAULT_255_1_234
10
6.3684933
20
12.9369187
11
6.8921626
21
13.7473211
0
LINE
8
DEFAULT_255_1_234
10
6.8921626
20
13.7473211
11
7.0503879
21
13.7473211
0
LINE
8
DEFAULT_255_1_234
10
6.8833277
20
13.5119912
11
6.5371598
21
12.970652
0
LINE
8
DEFAULT_255_1_234
10
6.5371598
20
12.970652
11
6.9009976
21
12.970652
0
LINE
8
DEFAULT_255_1_234
10
6.9009976
20
12.970652
11
6.9009976
21
13.5441181
0
LINE
8
DEFAULT_255_1_234
10
6.9009976
20
13.5441181
11
6.8833277
21
13.5119912
0
LINE
8
DEFAULT_255_1_234
10
4.5004299
20
21.6848211
11
4.7823439
21
21.2366501
0
LINE
8
DEFAULT_255_1_234
10
4.7823439
20
21.2366501
11
5.0626516
21
21.6848211
0
LINE
8
DEFAULT_255_1_234
10
5.0626516
20
21.6848211
11
5.2441689
21
21.6848211
0
LINE
8
DEFAULT_255_1_234
10
5.2441689
20
21.6848211
11
4.8747089
21
21.1049296
0
LINE
8
DEFAULT_255_1_234
10
4.8747089
20
21.1049296
11
5.2530038
21
20.5154
0
LINE
8
DEFAULT_255_1_234
10
5.2530038
20
20.5154
11
5.0698802
21
20.5154
0
LINE
8
DEFAULT_255_1_234
10
5.0698802
20
20.5154
11
4.7823439
21
20.9716027
0
LINE
8
DEFAULT_255_1_234
10
4.7823439
20
20.9716027
11
4.4932014
21
20.5154
0
LINE
8
DEFAULT_255_1_234
10
4.4932014
20
20.5154
11
4.3108809
21
20.5154
0
LINE
8
DEFAULT_255_1_234
10
4.3108809
20
20.5154
11
4.689979
21
21.1049296
0
LINE
8
DEFAULT_255_1_234
10
4.689979
20
21.1049296
11
4.3197158
21
21.6848211
0
LINE
8
DEFAULT_255_1_234
10
4.3197158
20
21.6848211
11
4.5004299
21
21.6848211
0
LINE
8
DEFAULT_255_1_234
10
5.8818889
20
21.6904433
11
5.8818889
21
20.5154
0
LINE
8
DEFAULT_255_1_234
10
5.8818889
20
20.5154
11
5.7324986
21
20.5154
0
LINE
8
DEFAULT_255_1_234
10
5.7324986
20
20.5154
11
5.7324986
21
21.5057133
0
LINE
8
DEFAULT_255_1_234
10
5.7324986
20
21.5057133
11
5.4329147
21
21.3956785
0
LINE
8
DEFAULT_255_1_234
10
5.4329147
20
21.3956785
11
5.4329147
21
21.5306117
0
LINE
8
DEFAULT_255_1_234
10
5.4329147
20
21.5306117
11
5.8585969
21
21.6904433
0
LINE
8
DEFAULT_255_1_234
10
5.8585969
20
21.6904433
11
5.8818889
21
21.6904433
0
LINE
8
DEFAULT_255_1_234
10
6.5332629
20
21.0511169
11
6.5332629
21
21.1723962
0
LINE
8
DEFAULT_255_1_234
10
6.5332629
20
21.1723962
11
6.6449041
21
21.1723962
0
LINE
8
DEFAULT_255_1_234
10
6.4545519
20
21.3780087
11
6.3059647
21
21.3780087
0
LINE
8
DEFAULT_255_1_234
10
6.2955234
20
20.8238188
11
6.4449138
21
20.8238188
0
LINE
8
DEFAULT_255_1_234
10
6.6449041
20
21.0511169
11
6.5332629
21
21.0511169
0
ARC
8
DEFAULT_255_1_234
10
6.6419907
20
21.5116713
40
0.3392876
50
270.4919872
51
281.8951556
0
ARC
8
DEFAULT_255_1_234
10
6.6661169
20
21.4014702
40
0.2264817
50
281.6691735
51
301.2943132
0
ARC
8
DEFAULT_255_1_234
10
6.6831379
20
21.3703304
40
0.1910381
50
301.7833094
51
311.7545298
0
ARC
8
DEFAULT_255_1_234
10
6.6922955
20
21.3601748
40
0.1773635
50
311.7323931
51
354.2802411
0
ARC
8
DEFAULT_255_1_234
10
6.619658
20
21.3726722
40
0.2509385
50
353.0937916
51
0.1181479
0
ARC
8
DEFAULT_255_1_234
10
6.5735365
20
21.3774386
40
0.2970898
50
359.1805295
51
15.0453146
0
ARC
8
DEFAULT_255_1_234
10
6.7081202
20
21.4166992
40
0.1569564
50
13.9577229
51
77.6713066
0
ARC
8
DEFAULT_255_1_234
10
6.6694731
20
21.2781949
40
0.3006298
50
76.1116566
51
90.7026153
0
ARC
8
DEFAULT_255_1_234
10
6.6635569
20
21.3055545
40
0.2732568
50
89.5324876
51
103.531937
0
ARC
8
DEFAULT_255_1_234
10
6.6435013
20
21.3854884
40
0.1908508
50
103.2931773
51
133.5619022
0
ARC
8
DEFAULT_255_1_234
10
6.6390502
20
21.3914375
40
0.1834746
50
133.8349307
51
173.5344437
0
ARC
8
DEFAULT_255_1_234
10
6.7113545
20
21.3786213
40
0.2568033
50
172.5096846
51
180.1366907
0
ARC
8
DEFAULT_255_1_234
10
6.6162439
20
21.3820622
40
0.3103056
50
155.3484492
51
180.7484736
0
ARC
8
DEFAULT_255_1_234
10
6.6113528
20
21.3791846
40
0.3070957
50
131.5744599
51
154.4798489
0
ARC
8
DEFAULT_255_1_234
10
6.6426675
20
21.347531
40
0.3515643
50
96.9875458
51
131.9690667
0
ARC
8
DEFAULT_255_1_234
10
6.6646155
20
21.2229636
40
0.4779224
50
89.8596053
51
97.7825159
0
ARC
8
DEFAULT_255_1_234
10
6.6694218
20
21.1967616
40
0.5041361
50
78.3655447
51
90.4131539
0
ARC
8
DEFAULT_255_1_234
10
6.7052136
20
21.3626887
40
0.3344039
50
56.6229102
51
78.638727
0
ARC
8
DEFAULT_255_1_234
10
6.726708
20
21.4002805
40
0.2912001
50
47.0253525
51
56.0854072
0
ARC
8
DEFAULT_255_1_234
10
6.728686
20
21.4042223
40
0.2869704
50
10.9208013
51
46.7778124
0
ARC
8
DEFAULT_255_1_234
10
6.5922926
20
21.3726857
40
0.426899
50
359.6364486
51
11.6087304
0
ARC
8
DEFAULT_255_1_234
10
6.775777
20
21.3711752
40
0.243409
50
332.3549906
51
359.7179418
0
ARC
8
DEFAULT_255_1_234
10
6.7107372
20
21.4020142
40
0.3153459
50
325.2333722
51
332.8745602
0
ARC
8
DEFAULT_255_1_234
10
6.7259995
20
21.3913828
40
0.2967456
50
292.9802137
51
325.2392345
0
ARC
8
DEFAULT_255_1_234
10
6.6985369
20
21.4447863
40
0.3566604
50
292.5402179
51
293.6924929
0
ARC
8
DEFAULT_255_1_234
10
6.7377965
20
20.7993091
40
0.3307468
50
57.6435486
51
72.8625112
0
ARC
8
DEFAULT_255_1_234
10
6.7732465
20
20.8567549
40
0.2632492
50
36.7248896
51
57.4697979
0
ARC
8
DEFAULT_255_1_234
10
6.7721098
20
20.858022
40
0.2634081
50
8.0545065
51
36.356114
0
ARC
8
DEFAULT_255_1_234
10
6.6858283
20
20.8425174
40
0.3510261
50
359.8320645
51
8.5869982
0
ARC
8
DEFAULT_255_1_234
10
6.6483059
20
20.8377101
40
0.3885653
50
343.9829931
51
0.5571613
0
ARC
8
DEFAULT_255_1_234
10
6.7369256
20
20.8134438
40
0.2966924
50
311.6359546
51
343.7651759
0
ARC
8
DEFAULT_255_1_234
10
6.6990825
20
20.8561102
40
0.3537231
50
279.7829875
51
311.6255694
0
ARC
8
DEFAULT_255_1_234
10
6.6689601
20
20.999828
40
0.5004971
50
269.7286406
51
280.3856417
0
ARC
8
DEFAULT_255_1_234
10
6.6627674
20
20.9956996
40
0.4963778
50
256.6828919
51
270.4412052
0
ARC
8
DEFAULT_255_1_234
10
6.628897
20
20.8572394
40
0.3538406
50
229.4223008
51
256.8556159
0
ARC
8
DEFAULT_255_1_234
10
6.5874363
20
20.8105736
40
0.2914296
50
181.818294
51
229.6455059
0
ARC
8
DEFAULT_255_1_234
10
6.6914319
20
20.8236496
40
0.3959084
50
179.9755256
51
183.2323064
0
ARC
8
DEFAULT_255_1_234
10
6.6742065
20
20.8216037
40
0.2293034
50
179.4465117
51
196.2869258
0
ARC
8
DEFAULT_255_1_234
10
6.6254473
20
20.8082651
40
0.1787621
50
196.5661473
51
227.705904
0
ARC
8
DEFAULT_255_1_234
10
6.6418568
20
20.8266155
40
0.2033784
50
227.7652068
51
257.8762805
0
ARC
8
DEFAULT_255_1_234
10
6.6643538
20
20.9209156
40
0.3003081
50
257.4584385
51
270.426602
0
ARC
8
DEFAULT_255_1_234
10
6.6689104
20
20.9498996
40
0.329292
50
269.5962073
51
280.8789248
0
ARC
8
DEFAULT_255_1_234
10
6.6918633
20
20.8352685
40
0.2123908
50
280.6346389
51
299.8595945
0
ARC
8
DEFAULT_255_1_234
10
6.710954
20
20.7990212
40
0.171457
50
300.3576302
51
314.5517981
0
ARC
8
DEFAULT_255_1_234
10
6.70266
20
20.8050919
40
0.1816095
50
315.0728369
51
345.0431014
0
ARC
8
DEFAULT_255_1_234
10
6.6103414
20
20.8319841
40
0.2777492
50
344.5986631
51
357.9269593
0
ARC
8
DEFAULT_255_1_234
10
6.520774
20
20.8381276
40
0.3674917
50
357.4748886
51
0.0231117
0
ARC
8
DEFAULT_255_1_234
10
6.623085
20
20.8405679
40
0.2651907
50
359.5047933
51
13.4239635
0
ARC
8
DEFAULT_255_1_234
10
6.7097493
20
20.8627478
40
0.1757509
50
12.9498199
51
48.7551375
0
ARC
8
DEFAULT_255_1_234
10
6.6915227
20
20.83784
40
0.2065134
50
49.5088623
51
72.1836453
0
ARC
8
DEFAULT_255_1_234
10
6.655738
20
20.7316291
40
0.3185836
50
71.9010081
51
84.3554254
0
ARC
8
DEFAULT_255_1_234
10
6.6396012
20
20.5955326
40
0.4556151
50
84.0193428
51
89.333121
0
LINE
8
DEFAULT_255_1_234
10
4.5004299
20
29.6223211
11
4.7823439
21
29.1741501
0
LINE
8
DEFAULT_255_1_234
10
4.7823439
20
29.1741501
11
5.0626516
21
29.6223211
0
LINE
8
DEFAULT_255_1_234
10
5.0626516
20
29.6223211
11
5.2441689
21
29.6223211
0
LINE
8
DEFAULT_255_1_234
10
5.2441689
20
29.6223211
11
4.8747089
21
29.0424296
0
LINE
8
DEFAULT_255_1_234
10
4.8747089
20
29.0424296
11
5.2530038
21
28.4529
0
LINE
8
DEFAULT_255_1_234
10
5.2530038
20
28.4529
11
5.0698802
21
28.4529
0
LINE
8
DEFAULT_255_1_234
10
5.0698802
20
28.4529
11
4.7823439
21
28.9091027
0
LINE
8
DEFAULT_255_1_234
10
4.7823439
20
28.9091027
11
4.4932014
21
28.4529
0
LINE
8
DEFAULT_255_1_234
10
4.4932014
20
28.4529
11
4.3108809
21
28.4529
0
LINE
8
DEFAULT_255_1_234
10
4.3108809
20
28.4529
11
4.689979
21
29.0424296
0
LINE
8
DEFAULT_255_1_234
10
4.689979
20
29.0424296
11
4.3197158
21
29.6223211
0
LINE
8
DEFAULT_255_1_234
10
4.3197158
20
29.6223211
11
4.5004299
21
29.6223211
0
LINE
8
DEFAULT_255_1_234
10
5.8818889
20
29.6279433
11
5.8818889
21
28.4529
0
LINE
8
DEFAULT_255_1_234
10
5.8818889
20
28.4529
11
5.7324986
21
28.4529
0
LINE
8
DEFAULT_255_1_234
10
5.7324986
20
28.4529
11
5.7324986
21
29.4432133
0
LINE
8
DEFAULT_255_1_234
10
5.7324986
20
29.4432133
11
5.4329147
21
29.3331785
0
LINE
8
DEFAULT_255_1_234
10
5.4329147
20
29.3331785
11
5.4329147
21
29.4681117
0
LINE
8
DEFAULT_255_1_234
10
5.4329147
20
29.4681117
11
5.8585969
21
29.6279433
0
LINE
8
DEFAULT_255_1_234
10
5.8585969
20
29.6279433
11
5.8818889
21
29.6279433
0
LINE
8
DEFAULT_255_1_234
10
7.083437
20
28.5741792
11
7.083437
21
28.4529
0
LINE
8
DEFAULT_255_1_234
10
7.083437
20
28.4529
11
6.3172091
21
28.4529
0
LINE
8
DEFAULT_255_1_234
10
6.3172091
20
28.4529
11
6.3172091
21
28.5597221
0
LINE
8
DEFAULT_255_1_234
10
6.3172091
20
28.5597221
11
6.7220087
21
29.0094995
0
LINE
8
DEFAULT_255_1_234
10
6.4433074
20
29.2777595
11
6.2947203
21
29.2777595
0
LINE
8
DEFAULT_255_1_234
10
6.8095547
20
28.9139218
11
6.4963169
21
28.5741792
0
LINE
8
DEFAULT_255_1_234
10
6.4963169
20
28.5741792
11
7.083437
21
28.5741792
0
ARC
8
DEFAULT_255_1_234
10
5.3729921
20
30.2024527
40
1.8008286
50
318.5132453
51
320.7828378
0
ARC
8
DEFAULT_255_1_234
10
5.9016895
20
29.7721426
40
1.1191493
50
320.7372736
51
323.9737074
0
ARC
8
DEFAULT_255_1_234
10
6.2936751
20
29.4881361
40
0.6350923
50
323.8961724
51
328.6421089
0
ARC
8
DEFAULT_255_1_234
10
6.4983347
20
29.3619031
40
0.3946393
50
328.8299013
51
331.789948
0
ARC
8
DEFAULT_255_1_234
10
6.5980525
20
29.3104509
40
0.2824501
50
331.4255242
51
352.9364833
0
ARC
8
DEFAULT_255_1_234
10
6.6117026
20
29.3073976
40
0.2685315
50
353.2248685
51
0.0169286
0
ARC
8
DEFAULT_255_1_234
10
6.6326903
20
29.309695
40
0.2475536
50
359.4866256
51
15.9339782
0
ARC
8
DEFAULT_255_1_234
10
6.6833888
20
29.3233286
40
0.1950618
50
16.1714718
51
43.5284424
0
ARC
8
DEFAULT_255_1_234
10
6.6911197
20
29.3310573
40
0.184134
50
43.4415429
51
83.1661404
0
ARC
8
DEFAULT_255_1_234
10
6.6777115
20
29.2573771
40
0.258926
50
82.160215
51
90.1505798
0
ARC
8
DEFAULT_255_1_234
10
6.6745542
20
29.2036865
40
0.3126255
50
89.5460705
51
102.5418777
0
ARC
8
DEFAULT_255_1_234
10
6.6502628
20
29.3067665
40
0.2067346
50
102.1739365
51
129.2061916
0
ARC
8
DEFAULT_255_1_234
10
6.64237
20
29.3192094
40
0.1921118
50
129.7279328
51
135.7542026
0
ARC
8
DEFAULT_255_1_234
10
6.6545228
20
29.3095045
40
0.2075944
50
136.175737
51
166.3674722
0
ARC
8
DEFAULT_255_1_234
10
6.7552147
20
29.2825182
40
0.3118201
50
165.9092917
51
178.8683903
0
ARC
8
DEFAULT_255_1_234
10
6.8417008
20
29.2778179
40
0.3983935
50
178.438168
51
180.0083905
0
ARC
8
DEFAULT_255_1_234
10
6.701561
20
29.2817231
40
0.4068601
50
163.2878735
51
180.5581814
0
ARC
8
DEFAULT_255_1_234
10
6.6213872
20
29.303784
40
0.3237344
50
133.454115
51
162.9470031
0
ARC
8
DEFAULT_255_1_234
10
6.6392413
20
29.2848
40
0.349795
50
100.7869394
51
133.4384016
0
ARC
8
DEFAULT_255_1_234
10
6.6740185
20
29.1299319
40
0.5084616
50
89.6605301
51
101.3704185
0
ARC
8
DEFAULT_255_1_234
10
6.6806523
20
29.1360496
40
0.502348
50
78.2171172
51
90.4130393
0
ARC
8
DEFAULT_255_1_234
10
6.7161602
20
29.2984637
40
0.3361092
50
55.9268222
51
78.4888551
0
ARC
8
DEFAULT_255_1_234
10
6.7358042
20
29.3323324
40
0.2970617
50
47.9292255
51
55.4054003
0
ARC
8
DEFAULT_255_1_234
10
6.7459603
20
29.3426502
40
0.2825983
50
4.3347696
51
48.0560701
0
ARC
8
DEFAULT_255_1_234
10
6.6363996
20
29.3256601
40
0.393225
50
359.925209
51
5.5967654
0
ARC
8
DEFAULT_255_1_234
10
6.6792888
20
29.3312816
40
0.3503892
50
337.8914096
51
358.9967724
0
ARC
8
DEFAULT_255_1_234
10
6.40793
20
29.4359706
40
0.6412172
50
326.9135351
51
338.3505194
0
ARC
8
DEFAULT_255_1_234
10
6.0093604
20
29.6914284
40
1.1146189
50
319.6472867
51
327.095818
0
ARC
8
DEFAULT_255_1_234
10
5.6260607
20
30.0076
40
1.6114559
50
317.2586784
51
319.9046139
0
LINE
8
DEFAULT_255_1_234
10
4.9557628
20
37.5598211
11
4.9557628
21
36.783152
0
LINE
8
DEFAULT_255_1_234
10
4.9557628
20
36.783152
11
5.1180039
21
36.783152
0
LINE
8
DEFAULT_255_1_234
10
5.1180039
20
36.783152
11
5.1180039
21
36.6618728
0
LINE
8
DEFAULT_255_1_234
10
5.1180039
20
36.6618728
11
4.9557628
21
36.6618728
0
LINE
8
DEFAULT_255_1_234
10
4.9557628
20
36.6618728
11
4.9557628
21
36.3904
0
LINE
8
DEFAULT_255_1_234
10
4.9557628
20
36.3904
11
4.8063725
21
36.3904
0
LINE
8
DEFAULT_255_1_234
10
4.8063725
20
36.3904
11
4.8063725
21
36.6618728
0
LINE
8
DEFAULT_255_1_234
10
4.8063725
20
36.6618728
11
4.2738682
21
36.6618728
0
LINE
8
DEFAULT_255_1_234
10
4.2738682
20
36.6618728
11
4.2738682
21
36.7494187
0
LINE
8
DEFAULT_255_1_234
10
4.2738682
20
36.7494187
11
4.7975375
21
37.5598211
0
LINE
8
DEFAULT_255_1_234
10
4.7975375
20
37.5598211
11
4.9557628
21
37.5598211
0
LINE
8
DEFAULT_255_1_234
10
4.7887026
20
37.3244912
11
4.4425347
21
36.783152
0
LINE
8
DEFAULT_255_1_234
10
4.4425347
20
36.783152
11
4.8063725
21
36.783152
0
LINE
8
DEFAULT_255_1_234
10
4.8063725
20
36.783152
11
4.8063725
21
37.3566181
0
LINE
8
DEFAULT_255_1_234
10
4.8063725
20
37.3566181
11
4.7887026
21
37.3244912
0
LINE
8
DEFAULT_255_1_234
10
5.9958729
20
36.7614663
11
6.1508854
21
36.7614663
0
LINE
8
DEFAULT_255_1_234
10
5.2505276
20
36.9204947
11
5.2505276
21
37.0329391
0
LINE
8
DEFAULT_255_1_234
10
6.1508854
20
37.1839357
11
5.9958729
21
37.1839357
0
LINE
8
DEFAULT_255_1_234
10
5.4055401
20
37.0289232
11
5.4055401
21
36.9156757
0
ARC
8
DEFAULT_255_1_234
10
5.6028241
20
36.8211846
40
0.5513052
50
340.1774281
51
353.7814284
0
ARC
8
DEFAULT_255_1_234
10
5.7599594
20
36.7626582
40
0.3836379
50
311.4558989
51
340.4421614
0
ARC
8
DEFAULT_255_1_234
10
5.7566262
20
36.7737528
40
0.3941894
50
282.4333181
51
310.7513653
0
ARC
8
DEFAULT_255_1_234
10
5.7127001
20
36.9552679
40
0.5809175
50
269.9358511
51
282.809604
0
ARC
8
DEFAULT_255_1_234
10
5.7075067
20
37.1010212
40
0.7266847
50
270.0021091
51
270.3581957
0
ARC
8
DEFAULT_255_1_234
10
5.7022484
20
36.8409585
40
0.4666519
50
250.7884749
51
270.6489167
0
ARC
8
DEFAULT_255_1_234
10
5.6854319
20
36.7772319
40
0.4009729
50
219.3627325
51
250.0611886
0
ARC
8
DEFAULT_255_1_234
10
5.768353
20
36.8477042
40
0.5097822
50
193.5479632
51
219.5756669
0
ARC
8
DEFAULT_255_1_234
10
6.0055151
20
36.9092919
40
0.7547848
50
181.1218675
51
193.87563
0
ARC
8
DEFAULT_255_1_234
10
6.2125332
20
36.920358
40
0.9620055
50
179.9918545
51
181.5394234
0
ARC
8
DEFAULT_255_1_234
10
6.0274434
20
37.0366788
40
0.7769248
50
169.5837241
51
180.2757934
0
ARC
8
DEFAULT_255_1_234
10
5.8437372
20
37.0706229
40
0.590109
50
155.0365899
51
169.6003176
0
ARC
8
DEFAULT_255_1_234
10
5.7301836
20
37.1253677
40
0.4640625
50
136.783148
51
155.2472683
0
ARC
8
DEFAULT_255_1_234
10
5.6912313
20
37.1584562
40
0.4130255
50
121.7633186
51
136.428115
0
ARC
8
DEFAULT_255_1_234
10
5.7047275
20
37.1335227
40
0.4413323
50
95.6459699
51
121.5490577
0
ARC
8
DEFAULT_255_1_234
10
5.7204557
20
37.0226949
40
0.55319
50
89.924208
51
96.1377933
0
ARC
8
DEFAULT_255_1_234
10
5.725499
20
37.0345542
40
0.5413475
50
76.6779277
51
90.4563316
0
ARC
8
DEFAULT_255_1_234
10
5.7648613
20
37.1936114
40
0.3775041
50
47.485847
51
76.9287264
0
ARC
8
DEFAULT_255_1_234
10
5.7501586
20
37.1836159
40
0.3948286
50
16.5424086
51
46.8933463
0
ARC
8
DEFAULT_255_1_234
10
5.5893743
20
37.1307861
40
0.564021
50
5.4072051
51
17.0365086
0
ARC
8
DEFAULT_255_1_234
10
5.445476
20
37.1076679
40
0.5556559
50
7.8891745
51
15.9239216
0
ARC
8
DEFAULT_255_1_234
10
5.6441773
20
37.1653631
40
0.3487515
50
15.7653144
51
27.9410532
0
ARC
8
DEFAULT_255_1_234
10
5.7545991
20
37.224479
40
0.2235026
50
27.8166557
51
46.4008329
0
ARC
8
DEFAULT_255_1_234
10
5.7595634
20
37.2239082
40
0.2205286
50
47.4371857
51
75.0698205
0
ARC
8
DEFAULT_255_1_234
10
5.7287029
20
37.1164765
40
0.3322915
50
74.7008593
51
87.8124495
0
ARC
8
DEFAULT_255_1_234
10
5.7213716
20
37.0108844
40
0.4380987
50
87.3814673
51
90.0240855
0
ARC
8
DEFAULT_255_1_234
10
5.7175259
20
37.1286291
40
0.3203749
50
89.3451631
51
108.5745436
0
ARC
8
DEFAULT_255_1_234
10
5.7038365
20
37.1799908
40
0.2673494
50
109.2998449
51
143.3037509
0
ARC
8
DEFAULT_255_1_234
10
5.7800437
20
37.1213881
40
0.3634757
50
143.0753173
51
163.1916937
0
ARC
8
DEFAULT_255_1_234
10
5.9752165
20
37.0597967
40
0.5681262
50
162.9373603
51
174.6208611
0
ARC
8
DEFAULT_255_1_234
10
6.2378207
20
37.031001
40
0.8322832
50
174.3419979
51
180.1430411
0
ARC
8
DEFAULT_255_1_234
10
6.1447363
20
36.9115698
40
0.7392076
50
179.6817502
51
189.150529
0
ARC
8
DEFAULT_255_1_234
10
5.8946611
20
36.869919
40
0.4856932
50
188.9910863
51
203.5773039
0
ARC
8
DEFAULT_255_1_234
10
5.7866944
20
36.8251211
40
0.3688271
50
203.9077269
51
215.1312379
0
ARC
8
DEFAULT_255_1_234
10
5.6944038
20
36.7535941
40
0.2522457
50
213.9071664
51
263.8849284
0
ARC
8
DEFAULT_255_1_234
10
5.7069367
20
36.8320518
40
0.3316174
50
263.1758525
51
270.1031083
0
ARC
8
DEFAULT_255_1_234
10
5.7101459
20
36.9567365
40
0.4563091
50
269.6719807
51
279.0609165
0
ARC
8
DEFAULT_255_1_234
10
5.7368227
20
36.7954907
40
0.2928759
50
278.8750225
51
293.6346586
0
ARC
8
DEFAULT_255_1_234
10
5.7688435
20
36.72029
40
0.2111472
50
293.8553404
51
310.0518804
0
ARC
8
DEFAULT_255_1_234
10
5.7693289
20
36.7140516
40
0.2060917
50
311.0646779
51
332.0108348
0
ARC
8
DEFAULT_255_1_234
10
5.6501016
20
36.7797978
40
0.3422352
50
331.6588543
51
343.2878891
0
ARC
8
DEFAULT_255_1_234
10
5.4438531
20
36.8431798
40
0.5580003
50
343.1446044
51
351.010618
0
ARC
8
DEFAULT_255_1_234
10
5.2897177
20
36.8712871
40
0.7146438
50
350.7157277
51
351.1602153
0
LINE
8
DEFAULT_255_1_234
10
4.4913299
20
45.4973211
11
4.7732439
21
45.0491501
0
LINE
8
DEFAULT_255_1_234
10
4.7732439
20
45.0491501
11
5.0535516
21
45.4973211
0
LINE
8
DEFAULT_255_1_234
10
5.0535516
20
45.4973211
11
5.2350689
21
45.4973211
0
LINE
8
DEFAULT_255_1_234
10
5.2350689
20
45.4973211
11
4.8656089
21
44.9174296
0
LINE
8
DEFAULT_255_1_234
10
4.8656089
20
44.9174296
11
5.2439038
21
44.3279
0
LINE
8
DEFAULT_255_1_234
10
5.2439038
20
44.3279
11
5.0607802
21
44.3279
0
LINE
8
DEFAULT_255_1_234
10
5.0607802
20
44.3279
11
4.7732439
21
44.7841027
0
LINE
8
DEFAULT_255_1_234
10
4.7732439
20
44.7841027
11
4.4841014
21
44.3279
0
LINE
8
DEFAULT_255_1_234
10
4.4841014
20
44.3279
11
4.3017809
21
44.3279
0
LINE
8
DEFAULT_255_1_234
10
4.3017809
20
44.3279
11
4.680879
21
44.9174296
0
LINE
8
DEFAULT_255_1_234
10
4.680879
20
44.9174296
11
4.3106158
21
45.4973211
0
LINE
8
DEFAULT_255_1_234
10
4.3106158
20
45.4973211
11
4.4913299
21
45.4973211
0
LINE
8
DEFAULT_255_1_234
10
5.8727889
20
45.5029433
11
5.8727889
21
44.3279
0
LINE
8
DEFAULT_255_1_234
10
5.8727889
20
44.3279
11
5.7233986
21
44.3279
0
LINE
8
DEFAULT_255_1_234
10
5.7233986
20
44.3279
11
5.7233986
21
45.3182133
0
LINE
8
DEFAULT_255_1_234
10
5.7233986
20
45.3182133
11
5.4238147
21
45.2081785
0
LINE
8
DEFAULT_255_1_234
10
5.4238147
20
45.2081785
11
5.4238147
21
45.3431117
0
LINE
8
DEFAULT_255_1_234
10
5.4238147
20
45.3431117
11
5.8494969
21
45.5029433
0
LINE
8
DEFAULT_255_1_234
10
5.8494969
20
45.5029433
11
5.8727889
21
45.5029433
0
LINE
8
DEFAULT_255_1_234
10
6.7964388
20
45.5029433
11
6.7964388
21
44.3279
0
LINE
8
DEFAULT_255_1_234
10
6.7964388
20
44.3279
11
6.6470485
21
44.3279
0
LINE
8
DEFAULT_255_1_234
10
6.6470485
20
44.3279
11
6.6470485
21
45.3182133
0
LINE
8
DEFAULT_255_1_234
10
6.6470485
20
45.3182133
11
6.3474646
21
45.2081785
0
LINE
8
DEFAULT_255_1_234
10
6.3474646
20
45.2081785
11
6.3474646
21
45.3431117
0
LINE
8
DEFAULT_255_1_234
10
6.3474646
20
45.3431117
11
6.7731468
21
45.5029433
0
LINE
8
DEFAULT_255_1_234
10
6.7731468
20
45.5029433
11
6.7964388
21
45.5029433
0
LINE
8
DEFAULT_255_1_234
10
4.5004299
20
53.4348211
11
4.7823439
21
52.9866501
0
LINE
8
DEFAULT_255_1_234
10
4.7823439
20
52.9866501
11
5.0626516
21
53.4348211
0
LINE
8
DEFAULT_255_1_234
10
5.0626516
20
53.4348211
11
5.2441689
21
53.4348211
0
LINE
8
DEFAULT_255_1_234
10
5.2441689
20
53.4348211
11
4.8747089
21
52.8549296
0
LINE
8
DEFAULT_255_1_234
10
4.8747089
20
52.8549296
11
5.2530038
21
52.2654
0
LINE
8
DEFAULT_255_1_234
10
5.2530038
20
52.2654
11
5.0698802
21
52.2654
0
LINE
8
DEFAULT_255_1_234
10
5.0698802
20
52.2654
11
4.7823439
21
52.7216027
0
LINE
8
DEFAULT_255_1_234
10
4.7823439
20
52.7216027
11
4.4932014
21
52.2654
0
LINE
8
DEFAULT_255_1_234
10
4.4932014
20
52.2654
11
4.3108809
21
52.2654
0
LINE
8
DEFAULT_255_1_234
10
4.3108809
20
52.2654
11
4.689979
21
52.8549296
0
LINE
8
DEFAULT_255_1_234
10
4.689979
20
52.8549296
11
4.3197158
21
53.4348211
0
LINE
8
DEFAULT_255_1_234
10
4.3197158
20
53.4348211
11
4.5004299
21
53.4348211
0
LINE
8
DEFAULT_255_1_234
10
5.8818889
20
53.4404433
11
5.8818889
21
52.2654
0
LINE
8
DEFAULT_255_1_234
10
5.8818889
20
52.2654
11
5.7324986
21
52.2654
0
LINE
8
DEFAULT_255_1_234
10
5.7324986
20
52.2654
11
5.7324986
21
53.2557133
0
LINE
8
DEFAULT_255_1_234
10
5.7324986
20
53.2557133
11
5.4329147
21
53.1456785
0
LINE
8
DEFAULT_255_1_234
10
5.4329147
20
53.1456785
11
5.4329147
21
53.2806117
0
LINE
8
DEFAULT_255_1_234
10
5.4329147
20
53.2806117
11
5.8585969
21
53.4404433
0
LINE
8
DEFAULT_255_1_234
10
5.8585969
20
53.4404433
11
5.8818889
21
53.4404433
0
LINE
8
DEFAULT_255_1_234
10
7.0505068
20
52.9569327
11
7.0505068
21
52.7641709
0
LINE
8
DEFAULT_255_1_234
10
6.3123901
20
52.7440916
11
6.3123901
21
52.9424755
0
LINE
8
DEFAULT_255_1_234
10
6.9019197
20
52.7240123
11
6.9019197
21
52.9673739
0
LINE
8
DEFAULT_255_1_234
10
6.4609772
20
52.9786184
11
6.4609772
21
52.7408789
0
ARC
8
DEFAULT_255_1_234
10
5.8257958
20
52.7592805
40
1.2247208
50
353.8441951
51
0.2287902
0
ARC
8
DEFAULT_255_1_234
10
6.2897462
20
52.7074806
40
0.7578929
50
344.4934747
51
353.9765454
0
ARC
8
DEFAULT_255_1_234
10
6.5890052
20
52.6223981
40
0.4467846
50
329.2803592
51
344.7472793
0
ARC
8
DEFAULT_255_1_234
10
6.6882877
20
52.5679018
40
0.3336173
50
324.9352394
51
328.6160465
0
ARC
8
DEFAULT_255_1_234
10
6.7259985
20
52.5415427
40
0.2876076
50
280.580143
51
324.9173126
0
ARC
8
DEFAULT_255_1_234
10
6.6858778
20
52.7086099
40
0.4592847
50
269.5977311
51
281.6734359
0
ARC
8
DEFAULT_255_1_234
10
6.6786684
20
52.6966173
40
0.4472986
50
256.6228859
51
270.51044
0
ARC
8
DEFAULT_255_1_234
10
6.6384661
20
52.5417877
40
0.2873874
50
215.8618325
51
257.2788573
0
ARC
8
DEFAULT_255_1_234
10
6.7405693
20
52.6102977
40
0.4102928
50
197.9693508
51
215.2623606
0
ARC
8
DEFAULT_255_1_234
10
6.9890809
20
52.6941709
40
0.6725652
50
187.8816417
51
198.2346507
0
ARC
8
DEFAULT_255_1_234
10
7.3849017
20
52.7513079
40
1.0724845
50
180.8976217
51
188.0055519
0
ARC
8
DEFAULT_255_1_234
10
7.6649205
20
52.7616777
40
1.3526448
50
180.7449369
51
181.1510016
0
ARC
8
DEFAULT_255_1_234
10
7.5071934
20
52.9473042
40
1.1948131
50
173.7675579
51
180.231553
0
ARC
8
DEFAULT_255_1_234
10
7.0554081
20
52.9983666
40
0.7401564
50
164.3058563
51
173.9002247
0
ARC
8
DEFAULT_255_1_234
10
6.764215
20
53.0822656
40
0.4371288
50
148.7922025
51
164.568378
0
ARC
8
DEFAULT_255_1_234
10
6.6690602
20
53.1353929
40
0.3282386
50
144.5883898
51
148.1176286
0
ARC
8
DEFAULT_255_1_234
10
6.63475
20
53.1593315
40
0.2864044
50
101.6440918
51
144.514236
0
ARC
8
DEFAULT_255_1_234
10
6.6772566
20
52.9904069
40
0.4604934
50
89.5284041
51
102.5819763
0
ARC
8
DEFAULT_255_1_234
10
6.6851654
20
52.9865018
40
0.464401
50
77.0437873
51
90.5081339
0
ARC
8
DEFAULT_255_1_234
10
6.7253656
20
53.1507615
40
0.2953195
50
48.2778575
51
77.4994676
0
ARC
8
DEFAULT_255_1_234
10
6.7326287
20
53.1636746
40
0.2808655
50
36.3142134
51
47.6305865
0
ARC
8
DEFAULT_255_1_234
10
6.6457594
20
53.1051515
40
0.3855453
50
18.2931786
51
35.6769206
0
ARC
8
DEFAULT_255_1_234
10
6.3914353
20
53.0178593
40
0.654423
50
8.024666
51
18.5605216
0
ARC
8
DEFAULT_255_1_234
10
5.9751273
20
52.9563792
40
1.0752407
50
1.1274072
51
8.1718305
0
ARC
8
DEFAULT_255_1_234
10
5.6515464
20
52.9436885
40
1.3990231
50
0.5424119
51
1.3863029
0
ARC
8
DEFAULT_255_1_234
10
5.8336841
20
52.9709342
40
1.0682415
50
359.8090433
51
4.9407866
0
ARC
8
DEFAULT_255_1_234
10
6.2546855
20
53.0085113
40
0.6455691
50
4.8362157
51
12.2904523
0
ARC
8
DEFAULT_255_1_234
10
6.530197
20
53.0698965
40
0.3633074
50
12.0805627
51
23.8173984
0
ARC
8
DEFAULT_255_1_234
10
6.6475676
20
53.1195919
40
0.2358723
50
24.2871213
51
31.3935614
0
ARC
8
DEFAULT_255_1_234
10
6.7000373
20
53.1539233
40
0.1732111
50
30.7407893
51
82.4657128
0
ARC
8
DEFAULT_255_1_234
10
6.6820507
20
53.0655691
40
0.263235
50
81.1060089
51
90.2184952
0
ARC
8
DEFAULT_255_1_234
10
6.6784806
20
53.0913924
40
0.2374236
50
89.3806855
51
105.6762551
0
ARC
8
DEFAULT_255_1_234
10
6.6601437
20
53.1580567
40
0.1682847
50
105.7981136
51
149.7388061
0
ARC
8
DEFAULT_255_1_234
10
6.7665515
20
53.094095
40
0.2924306
50
149.4208916
51
163.6286378
0
ARC
8
DEFAULT_255_1_234
10
6.9756403
20
53.030325
40
0.5110213
50
163.3763315
51
172.1410975
0
ARC
8
DEFAULT_255_1_234
10
7.3057122
20
52.9830518
40
0.8444586
50
172.0259487
51
178.0703232
0
ARC
8
DEFAULT_255_1_234
10
7.6087211
20
52.9686906
40
1.1477868
50
177.8631668
51
179.5044149
0
ARC
8
DEFAULT_255_1_234
10
7.5014616
20
52.7372389
40
1.0404907
50
179.7995573
51
185.2460446
0
ARC
8
DEFAULT_255_1_234
10
7.0971655
20
52.6989513
40
0.6343885
50
185.1411642
51
193.0079639
0
ARC
8
DEFAULT_255_1_234
10
6.8328128
20
52.6364641
40
0.3627568
50
192.7897626
51
205.2507664
0
ARC
8
DEFAULT_255_1_234
10
6.7281675
20
52.5897415
40
0.2481908
50
205.8005384
51
211.2537509
0
ARC
8
DEFAULT_255_1_234
10
6.6758115
20
52.554658
40
0.1852521
50
210.3789793
51
238.4008143
0
ARC
8
DEFAULT_255_1_234
10
6.6738637
20
52.5593376
40
0.1882621
50
239.6520629
51
265.9793761
0
ARC
8
DEFAULT_255_1_234
10
6.6823837
20
52.6265427
40
0.2559272
50
265.1315437
51
270.060332
0
ARC
8
DEFAULT_255_1_234
10
6.6852616
20
52.5941534
40
0.2235528
50
269.3314664
51
287.2178029
0
ARC
8
DEFAULT_255_1_234
10
6.6990468
20
52.5438279
40
0.1714108
50
287.7958004
51
329.080874
0
ARC
8
DEFAULT_255_1_234
10
6.6032925
20
52.603593
40
0.2842745
50
328.6634704
51
343.3325132
0
ARC
8
DEFAULT_255_1_234
10
6.3859945
20
52.6712863
40
0.5118644
50
343.0499468
51
351.9393422
0
ARC
8
DEFAULT_255_1_234
10
6.0393245
20
52.7223949
40
0.8622784
50
351.8069023
51
357.7959224
0
ARC
8
DEFAULT_255_1_234
10
5.7157801
20
52.7391721
40
1.1862365
50
357.5871873
51
359.2677531
0
LINE
8
DEFAULT_255_1_234
10
4.4407299
20
61.3723211
11
4.7226439
21
60.9241501
0
LINE
8
DEFAULT_255_1_234
10
4.7226439
20
60.9241501
11
5.0029516
21
61.3723211
0
LINE
8
DEFAULT_255_1_234
10
5.0029516
20
61.3723211
11
5.1844689
21
61.3723211
0
LINE
8
DEFAULT_255_1_234
10
5.1844689
20
61.3723211
11
4.8150089
21
60.7924296
0
LINE
8
DEFAULT_255_1_234
10
4.8150089
20
60.7924296
11
5.1933038
21
60.2029
0
LINE
8
DEFAULT_255_1_234
10
5.1933038
20
60.2029
11
5.0101802
21
60.2029
0
LINE
8
DEFAULT_255_1_234
10
5.0101802
20
60.2029
11
4.7226439
21
60.6591027
0
LINE
8
DEFAULT_255_1_234
10
4.7226439
20
60.6591027
11
4.4335014
21
60.2029
0
LINE
8
DEFAULT_255_1_234
10
4.4335014
20
60.2029
11
4.2511809
21
60.2029
0
LINE
8
DEFAULT_255_1_234
10
4.2511809
20
60.2029
11
4.630279
21
60.7924296
0
LINE
8
DEFAULT_255_1_234
10
4.630279
20
60.7924296
11
4.2600158
21
61.3723211
0
LINE
8
DEFAULT_255_1_234
10
4.2600158
20
61.3723211
11
4.4407299
21
61.3723211
0
LINE
8
DEFAULT_255_1_234
10
6.0526998
20
60.9048739
11
6.0526998
21
60.8615025
0
LINE
8
DEFAULT_255_1_234
10
5.5105575
20
60.2020968
11
5.4816432
21
60.2020968
0
LINE
8
DEFAULT_255_1_234
10
5.4816432
20
60.2020968
11
5.4816432
21
60.3273919
0
LINE
8
DEFAULT_255_1_234
10
5.4816432
20
60.3273919
11
5.512967
21
60.3273919
0
LINE
8
DEFAULT_255_1_234
10
5.9041126
20
60.8759597
11
5.9041126
21
60.9353945
0
ARC
8
DEFAULT_255_1_234
10
5.6247396
20
60.9505403
40
0.3635579
50
297.4037347
51
320.016758
0
ARC
8
DEFAULT_255_1_234
10
5.6537345
20
60.894824
40
0.3007486
50
270.2633101
51
297.3851877
0
ARC
8
DEFAULT_255_1_234
10
5.65033
20
60.9411904
40
0.3471448
50
269.9966443
51
270.7900392
0
ARC
8
DEFAULT_255_1_234
10
5.6477782
20
60.9410143
40
0.3469779
50
254.5999133
51
270.4180344
0
ARC
8
DEFAULT_255_1_234
10
5.6335141
20
60.8845647
40
0.2887697
50
236.4717942
51
254.3541279
0
ARC
8
DEFAULT_255_1_234
10
5.6491359
20
60.9055711
40
0.3149125
50
208.4727207
51
236.2134933
0
ARC
8
DEFAULT_255_1_234
10
5.7130134
20
60.9446455
40
0.3897115
50
204.3447514
51
209.0453999
0
ARC
8
DEFAULT_255_1_234
10
5.780971
20
60.9734656
40
0.4635101
50
183.9375985
51
204.1276318
0
ARC
8
DEFAULT_255_1_234
10
5.8717961
20
60.9832482
40
0.5548037
50
179.9652252
51
184.3013875
0
ARC
8
DEFAULT_255_1_234
10
5.8478007
20
60.9865507
40
0.5308164
50
166.7585989
51
180.3201225
0
ARC
8
DEFAULT_255_1_234
10
5.7631621
20
61.0049488
40
0.4442163
50
154.6955053
51
166.5679793
0
ARC
8
DEFAULT_255_1_234
10
5.6778491
20
61.047921
40
0.3487299
50
136.3324195
51
155.0871442
0
ARC
8
DEFAULT_255_1_234
10
5.6497564
20
61.0719954
40
0.3117924
50
121.236733
51
135.9680508
0
ARC
8
DEFAULT_255_1_234
10
5.6638062
20
61.0459743
40
0.3413302
50
96.845628
51
120.9881519
0
ARC
8
DEFAULT_255_1_234
10
5.6783643
20
60.9524515
40
0.4359341
50
89.8870174
51
97.2802754
0
ARC
8
DEFAULT_255_1_234
10
5.6836082
20
61.0162095
40
0.3722009
50
70.6505584
51
90.6749113
0
ARC
8
DEFAULT_255_1_234
10
5.6967361
20
61.0675361
40
0.3194571
50
36.7492984
51
69.8219918
0
ARC
8
DEFAULT_255_1_234
10
5.5968525
20
60.9896993
40
0.4460685
50
15.39587
51
37.0840084
0
ARC
8
DEFAULT_255_1_234
10
5.3838959
20
60.9276242
40
0.6678714
50
3.9488873
51
15.6798563
0
ARC
8
DEFAULT_255_1_234
10
5.1437587
20
60.9059964
40
0.9089418
50
359.929245
51
4.2665314
0
ARC
8
DEFAULT_255_1_234
10
4.6832024
20
60.8548513
40
1.3695135
50
352.8366322
51
0.2782669
0
ARC
8
DEFAULT_255_1_234
10
5.2119703
20
60.7861629
40
0.8363105
50
341.8359505
51
352.9884176
0
ARC
8
DEFAULT_255_1_234
10
5.5338422
20
60.67767
40
0.4966642
50
322.8578092
51
342.1527901
0
ARC
8
DEFAULT_255_1_234
10
5.6202378
20
60.6187384
40
0.3922466
50
319.334325
51
322.0998941
0
ARC
8
DEFAULT_255_1_234
10
5.5892715
20
60.6498209
40
0.4360033
50
285.9541367
51
318.8878087
0
ARC
8
DEFAULT_255_1_234
10
5.5165976
20
60.88086
40
0.678149
50
272.9281676
51
286.4922826
0
ARC
8
DEFAULT_255_1_234
10
5.4976094
20
61.1059587
40
0.9039547
50
270.8207226
51
273.4012994
0
ARC
8
DEFAULT_255_1_234
10
5.5064945
20
60.9240666
40
0.5967098
50
270.6214993
51
281.4062806
0
ARC
8
DEFAULT_255_1_234
10
5.5494925
20
60.7184833
40
0.3866861
50
281.1852553
51
299.0621114
0
ARC
8
DEFAULT_255_1_234
10
5.5868497
20
60.6463798
40
0.3055236
50
299.5067782
51
313.1200873
0
ARC
8
DEFAULT_255_1_234
10
5.5890464
20
60.6384554
40
0.2982623
50
313.8526205
51
338.5989322
0
ARC
8
DEFAULT_255_1_234
10
5.4266538
20
60.7051781
40
0.4738131
50
338.2523585
51
351.2430902
0
ARC
8
DEFAULT_255_1_234
10
5.1855834
20
60.7461447
40
0.7183203
50
350.9409515
51
357.6691871
0
ARC
8
DEFAULT_255_1_234
10
5.6746264
20
60.9463764
40
0.2294452
50
269.9447023
51
306.8248917
0
ARC
8
DEFAULT_255_1_234
10
5.6509179
20
60.9886898
40
0.2775994
50
305.5072438
51
327.0773448
0
ARC
8
DEFAULT_255_1_234
10
5.662762
20
60.9792025
40
0.2625056
50
327.4104943
51
336.840169
0
ARC
8
DEFAULT_255_1_234
10
5.3533685
20
60.9386302
40
0.5507537
50
359.6633817
51
10.117533
0
ARC
8
DEFAULT_255_1_234
10
5.5287483
20
60.9710777
40
0.372403
50
9.9430141
51
26.7700076
0
ARC
8
DEFAULT_255_1_234
10
5.5884695
20
60.9986187
40
0.3066865
50
27.2015464
51
34.6829435
0
ARC
8
DEFAULT_255_1_234
10
5.6374175
20
61.0353977
40
0.245519
50
34.1250343
51
50.3070065
0
ARC
8
DEFAULT_255_1_234
10
5.6820855
20
61.0888385
40
0.1758693
50
50.3851167
51
90.6705993
0
ARC
8
DEFAULT_255_1_234
10
5.6774088
20
61.0583799
40
0.2063326
50
89.272901
51
111.9140407
0
ARC
8
DEFAULT_255_1_234
10
5.6754616
20
61.072444
40
0.1925887
50
112.9382311
51
142.5320782
0
ARC
8
DEFAULT_255_1_234
10
5.7300796
20
61.0280969
40
0.2629232
50
142.1021256
51
166.3835592
0
ARC
8
DEFAULT_255_1_234
10
5.8482101
20
60.9975915
40
0.3849193
50
166.1100289
51
178.665427
0
ARC
8
DEFAULT_255_1_234
10
5.952969
20
60.9917117
40
0.4897989
50
178.2632126
51
180.0111093
0
ARC
8
DEFAULT_255_1_234
10
5.8727811
20
60.9888728
40
0.40962
50
179.6161962
51
191.8787166
0
ARC
8
DEFAULT_255_1_234
10
5.750765
20
60.9618896
40
0.2846655
50
191.6191692
51
215.2972286
0
ARC
8
DEFAULT_255_1_234
10
5.7310841
20
60.9503918
40
0.2619665
50
215.7320102
51
216.5355409
0
ARC
8
DEFAULT_255_1_234
10
5.6771927
20
60.9071647
40
0.1929497
50
215.7486685
51
239.9727502
0
ARC
8
DEFAULT_255_1_234
10
5.6701843
20
60.9020894
40
0.1850822
50
241.0650169
51
269.2810483
0
ARC
8
DEFAULT_255_1_234
10
5.6743758
20
60.9511371
40
0.2342059
50
268.4062526
51
270.0071348
0
LINE
8
DEFAULT_255_1_234
10
4.4407299
20
69.3098211
11
4.7226439
21
68.8616501
0
LINE
8
DEFAULT_255_1_234
10
4.7226439
20
68.8616501
11
5.0029516
21
69.3098211
0
LINE
8
DEFAULT_255_1_234
10
5.0029516
20
69.3098211
11
5.1844689
21
69.3098211
0
LINE
8
DEFAULT_255_1_234
10
5.1844689
20
69.3098211
11
4.8150089
21
68.7299296
0
LINE
8
DEFAULT_255_1_234
10
4.8150089
20
68.7299296
11
5.1933038
21
68.1404
0
LINE
8
DEFAULT_255_1_234
10
5.1933038
20
68.1404
11
5.0101802
21
68.1404
0
LINE
8
DEFAULT_255_1_234
10
5.0101802
20
68.1404
11
4.7226439
21
68.5966027
0
LINE
8
DEFAULT_255_1_234
10
4.7226439
20
68.5966027
11
4.4335014
21
68.1404
0
LINE
8
DEFAULT_255_1_234
10
4.4335014
20
68.1404
11
4.2511809
21
68.1404
0
LINE
8
DEFAULT_255_1_234
10
4.2511809
20
68.1404
11
4.630279
21
68.7299296
0
LINE
8
DEFAULT_255_1_234
10
4.630279
20
68.7299296
11
4.2600158
21
69.3098211
0
LINE
8
DEFAULT_255_1_234
10
4.2600158
20
69.3098211
11
4.4407299
21
69.3098211
0
ARC
8
DEFAULT_255_1_234
10
5.7608376
20
69.0020703
40
0.2822356
50
338.8763615
51
0.5166041
0
ARC
8
DEFAULT_255_1_234
10
5.777703
20
68.9975208
40
0.2648703
50
325.8412414
51
338.4795939
0
ARC
8
DEFAULT_255_1_234
10
5.7386398
20
69.0246042
40
0.3124019
50
296.7586019
51
325.753654
0
ARC
8
DEFAULT_255_1_234
10
5.7098506
20
69.0730789
40
0.368668
50
296.0902311
51
297.3618122
0
ARC
8
DEFAULT_255_1_234
10
5.7355964
20
68.4176041
40
0.3518806
50
47.9009248
51
67.1946869
0
ARC
8
DEFAULT_255_1_234
10
5.7552206
20
68.4422395
40
0.320451
50
35.236241
51
47.551371
0
ARC
8
DEFAULT_255_1_234
10
5.7813824
20
68.4596993
40
0.2890103
50
359.2759738
51
35.4014081
0
ARC
8
DEFAULT_255_1_234
10
5.7068855
20
68.4523826
40
0.3635026
50
343.1294516
51
0.5776525
0
ARC
8
DEFAULT_255_1_234
10
5.77934
20
68.432433
40
0.2883832
50
310.8497458
51
342.744803
0
ARC
8
DEFAULT_255_1_234
10
5.7375513
20
68.4801294
40
0.3517954
50
281.5473923
51
310.9169905
0
ARC
8
DEFAULT_255_1_234
10
5.7018962
20
68.6354084
40
0.5110832
50
269.6192722
51
281.9789957
0
ARC
8
DEFAULT_255_1_234
10
5.6946752
20
68.6354828
40
0.5111606
50
257.4584469
51
270.4287458
0
ARC
8
DEFAULT_255_1_234
10
5.6565895
20
68.4751344
40
0.3463762
50
228.7553743
51
257.8484423
0
ARC
8
DEFAULT_255_1_234
10
5.6256093
20
68.4378442
40
0.297916
50
184.0104442
51
228.5071787
0
ARC
8
DEFAULT_255_1_234
10
5.7419037
20
68.4555512
40
0.4152734
50
179.9315461
51
185.3254504
0
ARC
8
DEFAULT_255_1_234
10
5.6242683
20
68.4592992
40
0.2976554
50
145.6795913
51
180.6259649
0
ARC
8
DEFAULT_255_1_234
10
5.6406032
20
68.4478929
40
0.3175776
50
115.5537925
51
145.6416199
0
ARC
8
DEFAULT_255_1_234
10
5.6746962
20
68.3868028
40
0.3874232
50
113.2437915
51
116.2054627
0
ARC
8
DEFAULT_255_1_234
10
5.6594175
20
69.026658
40
0.3154751
50
222.9548379
51
244.1372485
0
ARC
8
DEFAULT_255_1_234
10
5.647225
20
69.0129834
40
0.2972382
50
213.3439227
51
222.6271327
0
ARC
8
DEFAULT_255_1_234
10
5.6280184
20
68.9999308
40
0.274019
50
180.4316517
51
213.2713999
0
ARC
8
DEFAULT_255_1_234
10
5.6855186
20
69.004611
40
0.33158
50
179.9992944
51
181.1655061
0
ARC
8
DEFAULT_255_1_234
10
5.7264603
20
69.0080561
40
0.3725376
50
164.6186108
51
180.5292368
0
ARC
8
DEFAULT_255_1_234
10
5.6366466
20
69.0322101
40
0.2795349
50
132.2454369
51
164.5092287
0
ARC
8
DEFAULT_255_1_234
10
5.665357
20
68.9997028
40
0.3229019
50
100.7052766
51
132.1387266
0
ARC
8
DEFAULT_255_1_234
10
5.6958542
20
68.8619086
40
0.4639835
50
89.6732617
51
101.2449487
0
ARC
8
DEFAULT_255_1_234
10
5.702074
20
68.879399
40
0.4464999
50
76.2876631
51
90.4586123
0
ARC
8
DEFAULT_255_1_234
10
5.7326972
20
69.001622
40
0.3205023
50
47.8240157
51
76.4266918
0
ARC
8
DEFAULT_255_1_234
10
5.7549522
20
69.027659
40
0.2862661
50
6.9168658
51
47.6261438
0
ARC
8
DEFAULT_255_1_234
10
5.6362925
20
69.005737
40
0.4067708
50
359.8419705
51
7.9694496
0
ARC
8
DEFAULT_255_1_234
10
5.6704822
20
68.4616925
40
0.2513121
50
359.4454068
51
16.9256425
0
ARC
8
DEFAULT_255_1_234
10
5.7173633
20
68.4746033
40
0.2027071
50
17.292259
51
45.462717
0
ARC
8
DEFAULT_255_1_234
10
5.7119569
20
68.4699434
40
0.2098212
50
45.3028762
51
83.1921472
0
ARC
8
DEFAULT_255_1_234
10
5.6976253
20
68.3897895
40
0.2911472
50
82.2614531
51
90.143954
0
ARC
8
DEFAULT_255_1_234
10
5.6945373
20
68.413095
40
0.2678513
50
89.4959189
51
104.8579811
0
ARC
8
DEFAULT_255_1_234
10
5.6768632
20
68.480089
40
0.1985654
50
104.8855873
51
135.2448349
0
ARC
8
DEFAULT_255_1_234
10
5.6818405
20
68.4756336
40
0.2052373
50
135.3398955
51
172.104394
0
ARC
8
DEFAULT_255_1_234
10
5.7625463
20
68.4601925
40
0.2873299
50
171.2651929
51
180.1859362
0
ARC
8
DEFAULT_255_1_234
10
5.7456164
20
68.4569733
40
0.2704083
50
179.515471
51
193.6466734
0
ARC
8
DEFAULT_255_1_234
10
5.6639933
20
68.4361777
40
0.1861855
50
193.3540587
51
225.8256931
0
ARC
8
DEFAULT_255_1_234
10
5.668069
20
68.4432524
40
0.1941102
50
226.418029
51
255.8553723
0
ARC
8
DEFAULT_255_1_234
10
5.6937123
20
68.5368998
40
0.2911917
50
255.4655572
51
268.7985967
0
ARC
8
DEFAULT_255_1_234
10
5.6984315
20
68.6207491
40
0.3751331
50
268.3464808
51
270.0104874
0
ARC
8
DEFAULT_255_1_234
10
5.7007703
20
68.5523138
40
0.3067064
50
269.575914
51
282.0823146
0
ARC
8
DEFAULT_255_1_234
10
5.7232612
20
68.4528803
40
0.2047712
50
281.7522535
51
306.6056425
0
ARC
8
DEFAULT_255_1_234
10
5.7331038
20
68.4367487
40
0.1859604
50
307.1350025
51
314.0277951
0
ARC
8
DEFAULT_255_1_234
10
5.7295122
20
68.4393766
40
0.1903475
50
314.2553419
51
350.169324
0
ARC
8
DEFAULT_255_1_234
10
5.6443591
20
68.4578409
40
0.2774269
50
349.4145679
51
0.2930737
0
ARC
8
DEFAULT_255_1_234
10
5.6964024
20
68.9737353
40
0.2300764
50
89.477591
51
105.729794
0
ARC
8
DEFAULT_255_1_234
10
5.6827937
20
69.0242637
40
0.1777519
50
105.922966
51
135.1662921
0
ARC
8
DEFAULT_255_1_234
10
5.684844
20
69.0228419
40
0.1802087
50
135.3053131
51
168.9882338
0
ARC
8
DEFAULT_255_1_234
10
5.7676012
20
69.0038721
40
0.2650806
50
168.3802067
51
180.3602358
0
ARC
8
DEFAULT_255_1_234
10
5.7447592
20
69.0001041
40
0.2422425
50
179.5029707
51
194.9126783
0
ARC
8
DEFAULT_255_1_234
10
5.6862253
20
68.984711
40
0.1817188
50
194.9722181
51
224.1943972
0
ARC
8
DEFAULT_255_1_234
10
5.683412
20
68.9824169
40
0.1781027
50
224.2961434
51
262.0157375
0
ARC
8
DEFAULT_255_1_234
10
5.6976363
20
69.0555661
40
0.2525492
50
261.1250369
51
270.1959853
0
ARC
8
DEFAULT_255_1_234
10
5.7006118
20
69.0368339
40
0.233825
50
269.4825617
51
285.0988277
0
ARC
8
DEFAULT_255_1_234
10
5.7160277
20
68.978999
40
0.1739712
50
285.1585659
51
315.9484648
0
ARC
8
DEFAULT_255_1_234
10
5.7071289
20
68.9871886
40
0.1860616
50
316.0412958
51
351.9162715
0
ARC
8
DEFAULT_255_1_234
10
5.6338244
20
69.0013245
40
0.2606517
50
351.1056823
51
0.1936567
0
ARC
8
DEFAULT_255_1_234
10
5.6601073
20
69.0043369
40
0.234377
50
359.4789506
51
16.0679113
0
ARC
8
DEFAULT_255_1_234
10
5.7077032
20
69.017181
40
0.1850875
50
16.3251951
51
44.791304
0
ARC
8
DEFAULT_255_1_234
10
5.7059313
20
69.0172339
40
0.186312
50
44.3958661
51
88.2498933
0
ARC
8
DEFAULT_255_1_234
10
5.6985867
20
68.9561154
40
0.2476868
50
86.9833827
51
90.0200148
0
LINE
8
DEFAULT_255_1_234
10
4.4387378
20
76.6136169
11
4.4387378
21
76.7348962
0
LINE
8
DEFAULT_255_1_234
10
4.4387378
20
76.7348962
11
4.550379
21
76.7348962
0
LINE
8
DEFAULT_255_1_234
10
4.3600268
20
76.9405087
11
4.2114396
21
76.9405087
0
LINE
8
DEFAULT_255_1_234
10
4.2009983
20
76.3863188
11
4.3503887
21
76.3863188
0
LINE
8
DEFAULT_255_1_234
10
4.550379
20
76.6136169
11
4.4387378
21
76.6136169
0
ARC
8
DEFAULT_255_1_234
10
4.5474656
20
77.0741713
40
0.3392876
50
270.4919872
51
281.8951556
0
ARC
8
DEFAULT_255_1_234
10
4.5715918
20
76.9639702
40
0.2264817
50
281.6691735
51
301.2943132
0
ARC
8
DEFAULT_255_1_234
10
4.5886128
20
76.9328304
40
0.1910381
50
301.7833094
51
311.7545298
0
ARC
8
DEFAULT_255_1_234
10
4.5977704
20
76.9226748
40
0.1773635
50
311.7323931
51
354.2802411
0
ARC
8
DEFAULT_255_1_234
10
4.5251329
20
76.9351722
40
0.2509385
50
353.0937916
51
0.1181479
0
ARC
8
DEFAULT_255_1_234
10
4.4790114
20
76.9399386
40
0.2970898
50
359.1805295
51
15.0453146
0
ARC
8
DEFAULT_255_1_234
10
4.6135951
20
76.9791992
40
0.1569564
50
13.9577229
51
77.6713066
0
ARC
8
DEFAULT_255_1_234
10
4.574948
20
76.8406949
40
0.3006298
50
76.1116566
51
90.7026153
0
ARC
8
DEFAULT_255_1_234
10
4.5690318
20
76.8680545
40
0.2732568
50
89.5324876
51
103.531937
0
ARC
8
DEFAULT_255_1_234
10
4.5489762
20
76.9479884
40
0.1908508
50
103.2931773
51
133.5619022
0
ARC
8
DEFAULT_255_1_234
10
4.5445251
20
76.9539375
40
0.1834746
50
133.8349307
51
173.5344437
0
ARC
8
DEFAULT_255_1_234
10
4.6168294
20
76.9411213
40
0.2568033
50
172.5096846
51
180.1366907
0
ARC
8
DEFAULT_255_1_234
10
4.5217188
20
76.9445622
40
0.3103056
50
155.3484492
51
180.7484736
0
ARC
8
DEFAULT_255_1_234
10
4.5168277
20
76.9416846
40
0.3070957
50
131.5744599
51
154.4798489
0
ARC
8
DEFAULT_255_1_234
10
4.5481424
20
76.910031
40
0.3515643
50
96.9875458
51
131.9690667
0
ARC
8
DEFAULT_255_1_234
10
4.5700904
20
76.7854636
40
0.4779224
50
89.8596053
51
97.7825159
0
ARC
8
DEFAULT_255_1_234
10
4.5748967
20
76.7592616
40
0.5041361
50
78.3655447
51
90.4131539
0
ARC
8
DEFAULT_255_1_234
10
4.6106885
20
76.9251887
40
0.3344039
50
56.6229102
51
78.638727
0
ARC
8
DEFAULT_255_1_234
10
4.6321829
20
76.9627805
40
0.2912001
50
47.0253525
51
56.0854072
0
ARC
8
DEFAULT_255_1_234
10
4.6341609
20
76.9667223
40
0.2869704
50
10.9208013
51
46.7778124
0
ARC
8
DEFAULT_255_1_234
10
4.4977675
20
76.9351857
40
0.426899
50
359.6364486
51
11.6087304
0
ARC
8
DEFAULT_255_1_234
10
4.6812519
20
76.9336752
40
0.243409
50
332.3549906
51
359.7179418
0
ARC
8
DEFAULT_255_1_234
10
4.6162121
20
76.9645142
40
0.3153459
50
325.2333722
51
332.8745602
0
ARC
8
DEFAULT_255_1_234
10
4.6314744
20
76.9538828
40
0.2967456
50
292.9802137
51
325.2392345
0
ARC
8
DEFAULT_255_1_234
10
4.6040118
20
77.0072863
40
0.3566604
50
292.5402179
51
293.6924929
0
ARC
8
DEFAULT_255_1_234
10
4.6432714
20
76.3618091
40
0.3307468
50
57.6435486
51
72.8625112
0
ARC
8
DEFAULT_255_1_234
10
4.6787214
20
76.4192549
40
0.2632492
50
36.7248896
51
57.4697979
0
ARC
8
DEFAULT_255_1_234
10
4.6775847
20
76.420522
40
0.2634081
50
8.0545065
51
36.356114
0
ARC
8
DEFAULT_255_1_234
10
4.5913032
20
76.4050174
40
0.3510261
50
359.8320645
51
8.5869982
0
ARC
8
DEFAULT_255_1_234
10
4.5537808
20
76.4002101
40
0.3885653
50
343.9829931
51
0.5571613
0
ARC
8
DEFAULT_255_1_234
10
4.6424005
20
76.3759438
40
0.2966924
50
311.6359546
51
343.7651759
0
ARC
8
DEFAULT_255_1_234
10
4.6045574
20
76.4186102
40
0.3537231
50
279.7829875
51
311.6255694
0
ARC
8
DEFAULT_255_1_234
10
4.5744351
20
76.562328
40
0.5004971
50
269.7286406
51
280.3856417
0
ARC
8
DEFAULT_255_1_234
10
4.5682423
20
76.5581996
40
0.4963778
50
256.6828919
51
270.4412052
0
ARC
8
DEFAULT_255_1_234
10
4.5343719
20
76.4197394
40
0.3538406
50
229.4223008
51
256.8556159
0
ARC
8
DEFAULT_255_1_234
10
4.4929112
20
76.3730736
40
0.2914296
50
181.818294
51
229.6455059
0
ARC
8
DEFAULT_255_1_234
10
4.5969068
20
76.3861496
40
0.3959084
50
179.9755256
51
183.2323064
0
ARC
8
DEFAULT_255_1_234
10
4.5796814
20
76.3841037
40
0.2293034
50
179.4465117
51
196.2869258
0
ARC
8
DEFAULT_255_1_234
10
4.5309222
20
76.3707651
40
0.1787621
50
196.5661473
51
227.705904
0
ARC
8
DEFAULT_255_1_234
10
4.5473317
20
76.3891155
40
0.2033784
50
227.7652068
51
257.8762805
0
ARC
8
DEFAULT_255_1_234
10
4.5698287
20
76.4834156
40
0.3003081
50
257.4584385
51
270.426602
0
ARC
8
DEFAULT_255_1_234
10
4.5743853
20
76.5123996
40
0.329292
50
269.5962073
51
280.8789248
0
ARC
8
DEFAULT_255_1_234
10
4.5973382
20
76.3977685
40
0.2123908
50
280.6346389
51
299.8595945
0
ARC
8
DEFAULT_255_1_234
10
4.6164289
20
76.3615212
40
0.171457
50
300.3576302
51
314.5517981
0
ARC
8
DEFAULT_255_1_234
10
4.6081349
20
76.3675919
40
0.1816095
50
315.0728369
51
345.0431014
0
ARC
8
DEFAULT_255_1_234
10
4.5158163
20
76.3944841
40
0.2777492
50
344.5986631
51
357.9269593
0
ARC
8
DEFAULT_255_1_234
10
4.4262489
20
76.4006276
40
0.3674917
50
357.4748886
51
0.0231117
0
ARC
8
DEFAULT_255_1_234
10
4.5285599
20
76.4030679
40
0.2651907
50
359.5047933
51
13.4239635
0
ARC
8
DEFAULT_255_1_234
10
4.6152242
20
76.4252478
40
0.1757509
50
12.9498199
51
48.7551375
0
ARC
8
DEFAULT_255_1_234
10
4.5969976
20
76.40034
40
0.2065134
50
49.5088623
51
72.1836453
0
ARC
8
DEFAULT_255_1_234
10
4.5612129
20
76.2941291
40
0.3185836
50
71.9010081
51
84.3554254
0
ARC
8
DEFAULT_255_1_234
10
4.5450761
20
76.1580326
40
0.4556151
50
84.0193428
51
89.333121
0
LINE
8
DEFAULT_255_1_234
10
5.8900729
20
76.4489663
11
6.0450854
21
76.4489663
0
LINE
8
DEFAULT_255_1_234
10
5.1447276
20
76.6079947
11
5.1447276
21
76.7204391
0
LINE
8
DEFAULT_255_1_234
10
6.0450854
20
76.8714357
11
5.8900729
21
76.8714357
0
LINE
8
DEFAULT_255_1_234
10
5.2997401
20
76.7164232
11
5.2997401
21
76.6031757
0
ARC
8
DEFAULT_255_1_234
10
5.4970241
20
76.5086846
40
0.5513052
50
340.1774281
51
353.7814284
0
ARC
8
DEFAULT_255_1_234
10
5.6541594
20
76.4501582
40
0.3836379
50
311.4558989
51
340.4421614
0
ARC
8
DEFAULT_255_1_234
10
5.6508262
20
76.4612528
40
0.3941894
50
282.4333181
51
310.7513653
0
ARC
8
DEFAULT_255_1_234
10
5.6069001
20
76.6427679
40
0.5809175
50
269.9358511
51
282.809604
0
ARC
8
DEFAULT_255_1_234
10
5.6017067
20
76.7885212
40
0.7266847
50
270.0021091
51
270.3581957
0
ARC
8
DEFAULT_255_1_234
10
5.5964484
20
76.5284585
40
0.4666519
50
250.7884749
51
270.6489167
0
ARC
8
DEFAULT_255_1_234
10
5.5796319
20
76.4647319
40
0.4009729
50
219.3627325
51
250.0611886
0
ARC
8
DEFAULT_255_1_234
10
5.662553
20
76.5352042
40
0.5097822
50
193.5479632
51
219.5756669
0
ARC
8
DEFAULT_255_1_234
10
5.8997151
20
76.5967919
40
0.7547848
50
181.1218675
51
193.87563
0
ARC
8
DEFAULT_255_1_234
10
6.1067332
20
76.607858
40
0.9620055
50
179.9918545
51
181.5394234
0
ARC
8
DEFAULT_255_1_234
10
5.9216434
20
76.7241788
40
0.7769248
50
169.5837241
51
180.2757934
0
ARC
8
DEFAULT_255_1_234
10
5.7379372
20
76.7581229
40
0.590109
50
155.0365899
51
169.6003176
0
ARC
8
DEFAULT_255_1_234
10
5.6243836
20
76.8128677
40
0.4640625
50
136.783148
51
155.2472683
0
ARC
8
DEFAULT_255_1_234
10
5.5854313
20
76.8459562
40
0.4130255
50
121.7633186
51
136.428115
0
ARC
8
DEFAULT_255_1_234
10
5.5989275
20
76.8210227
40
0.4413323
50
95.6459699
51
121.5490577
0
ARC
8
DEFAULT_255_1_234
10
5.6146557
20
76.7101949
40
0.55319
50
89.924208
51
96.1377933
0
ARC
8
DEFAULT_255_1_234
10
5.619699
20
76.7220542
40
0.5413475
50
76.6779277
51
90.4563316
0
ARC
8
DEFAULT_255_1_234
10
5.6590613
20
76.8811114
40
0.3775041
50
47.485847
51
76.9287264
0
ARC
8
DEFAULT_255_1_234
10
5.6443586
20
76.8711159
40
0.3948286
50
16.5424086
51
46.8933463
0
ARC
8
DEFAULT_255_1_234
10
5.4835743
20
76.8182861
40
0.564021
50
5.4072051
51
17.0365086
0
ARC
8
DEFAULT_255_1_234
10
5.339676
20
76.7951679
40
0.5556559
50
7.8891745
51
15.9239216
0
ARC
8
DEFAULT_255_1_234
10
5.5383773
20
76.8528631
40
0.3487515
50
15.7653144
51
27.9410532
0
ARC
8
DEFAULT_255_1_234
10
5.6487991
20
76.911979
40
0.2235026
50
27.8166557
51
46.4008329
0
ARC
8
DEFAULT_255_1_234
10
5.6537634
20
76.9114082
40
0.2205286
50
47.4371857
51
75.0698205
0
ARC
8
DEFAULT_255_1_234
10
5.6229029
20
76.8039765
40
0.3322915
50
74.7008593
51
87.8124495
0
ARC
8
DEFAULT_255_1_234
10
5.6155716
20
76.6983844
40
0.4380987
50
87.3814673
51
90.0240855
0
ARC
8
DEFAULT_255_1_234
10
5.6117259
20
76.8161291
40
0.3203749
50
89.3451631
51
108.5745436
0
ARC
8
DEFAULT_255_1_234
10
5.5980365
20
76.8674908
40
0.2673494
50
109.2998449
51
143.3037509
0
ARC
8
DEFAULT_255_1_234
10
5.6742437
20
76.8088881
40
0.3634757
50
143.0753173
51
163.1916937
0
ARC
8
DEFAULT_255_1_234
10
5.8694165
20
76.7472967
40
0.5681262
50
162.9373603
51
174.6208611
0
ARC
8
DEFAULT_255_1_234
10
6.1320207
20
76.718501
40
0.8322832
50
174.3419979
51
180.1430411
0
ARC
8
DEFAULT_255_1_234
10
6.0389363
20
76.5990698
40
0.7392076
50
179.6817502
51
189.150529
0
ARC
8
DEFAULT_255_1_234
10
5.7888611
20
76.557419
40
0.4856932
50
188.9910863
51
203.5773039
0
ARC
8
DEFAULT_255_1_234
10
5.6808944
20
76.5126211
40
0.3688271
50
203.9077269
51
215.1312379
0
ARC
8
DEFAULT_255_1_234
10
5.5886038
20
76.4410941
40
0.2522457
50
213.9071664
51
263.8849284
0
ARC
8
DEFAULT_255_1_234
10
5.6011367
20
76.5195518
40
0.3316174
50
263.1758525
51
270.1031083
0
ARC
8
DEFAULT_255_1_234
10
5.6043459
20
76.6442365
40
0.4563091
50
269.6719807
51
279.0609165
0
ARC
8
DEFAULT_255_1_234
10
5.6310227
20
76.4829907
40
0.2928759
50
278.8750225
51
293.6346586
0
ARC
8
DEFAULT_255_1_234
10
5.6630435
20
76.40779
40
0.2111472
50
293.8553404
51
310.0518804
0
ARC
8
DEFAULT_255_1_234
10
5.6635289
20
76.4015516
40
0.2060917
50
311.0646779
51
332.0108348
0
ARC
8
DEFAULT_255_1_234
10
5.5443016
20
76.4672978
40
0.3422352
50
331.6588543
51
343.2878891
0
ARC
8
DEFAULT_255_1_234
10
5.3380531
20
76.5306798
40
0.5580003
50
343.1446044
51
351.010618
0
ARC
8
DEFAULT_255_1_234
10
5.1839177
20
76.5587871
40
0.7146438
50
350.7157277
51
351.1602153
0
LINE
8
DEFAULT_255_1_234
10
4.4407299
20
85.1848211
11
4.7226439
21
84.7366501
0
LINE
8
DEFAULT_255_1_234
10
4.7226439
20
84.7366501
11
5.0029516
21
85.1848211
0
LINE
8
DEFAULT_255_1_234
10
5.0029516
20
85.1848211
11
5.1844689
21
85.1848211
0
LINE
8
DEFAULT_255_1_234
10
5.1844689
20
85.1848211
11
4.8150089
21
84.6049296
0
LINE
8
DEFAULT_255_1_234
10
4.8150089
20
84.6049296
11
5.1933038
21
84.0154
0
LINE
8
DEFAULT_255_1_234
10
5.1933038
20
84.0154
11
5.0101802
21
84.0154
0
LINE
8
DEFAULT_255_1_234
10
5.0101802
20
84.0154
11
4.7226439
21
84.4716027
0
LINE
8
DEFAULT_255_1_234
10
4.7226439
20
84.4716027
11
4.4335014
21
84.0154
0
LINE
8
DEFAULT_255_1_234
10
4.4335014
20
84.0154
11
4.2511809
21
84.0154
0
LINE
8
DEFAULT_255_1_234
10
4.2511809
20
84.0154
11
4.630279
21
84.6049296
0
LINE
8
DEFAULT_255_1_234
10
4.630279
20
84.6049296
11
4.2600158
21
85.1848211
0
LINE
8
DEFAULT_255_1_234
10
4.2600158
20
85.1848211
11
4.4407299
21
85.1848211
0
LINE
8
DEFAULT_255_1_234
10
6.0888426
20
85.1848211
11
6.0888426
21
85.101291
0
LINE
8
DEFAULT_255_1_234
10
6.0888426
20
85.101291
11
5.6045288
21
84.0154
0
LINE
8
DEFAULT_255_1_234
10
5.6045288
20
84.0154
11
5.4487131
21
84.0154
0
LINE
8
DEFAULT_255_1_234
10
5.4487131
20
84.0154
11
5.9314206
21
85.0627387
0
LINE
8
DEFAULT_255_1_234
10
5.9314206
20
85.0627387
11
5.2985196
21
85.0627387
0
LINE
8
DEFAULT_255_1_234
10
5.2985196
20
85.0627387
11
5.2985196
21
85.1848211
0
LINE
8
DEFAULT_255_1_234
10
5.2985196
20
85.1848211
11
6.0888426
21
85.1848211
0
LINE
8
DEFAULT_255_1_234
10
4.4407299
20
93.1223211
11
4.7226439
21
92.6741501
0
LINE
8
DEFAULT_255_1_234
10
4.7226439
20
92.6741501
11
5.0029516
21
93.1223211
0
LINE
8
DEFAULT_255_1_234
10
5.0029516
20
93.1223211
11
5.1844689
21
93.1223211
0
LINE
8
DEFAULT_255_1_234
10
5.1844689
20
93.1223211
11
4.8150089
21
92.5424296
0
LINE
8
DEFAULT_255_1_234
10
4.8150089
20
92.5424296
11
5.1933038
21
91.9529
0
LINE
8
DEFAULT_255_1_234
10
5.1933038
20
91.9529
11
5.0101802
21
91.9529
0
LINE
8
DEFAULT_255_1_234
10
5.0101802
20
91.9529
11
4.7226439
21
92.4091027
0
LINE
8
DEFAULT_255_1_234
10
4.7226439
20
92.4091027
11
4.4335014
21
91.9529
0
LINE
8
DEFAULT_255_1_234
10
4.4335014
20
91.9529
11
4.2511809
21
91.9529
0
LINE
8
DEFAULT_255_1_234
10
4.2511809
20
91.9529
11
4.630279
21
92.5424296
0
LINE
8
DEFAULT_255_1_234
10
4.630279
20
92.5424296
11
4.2600158
21
93.1223211
0
LINE
8
DEFAULT_255_1_234
10
4.2600158
20
93.1223211
11
4.4407299
21
93.1223211
0
LINE
8
DEFAULT_255_1_234
10
5.8904587
20
93.1231243
11
5.9169634
21
93.1231243
0
LINE
8
DEFAULT_255_1_234
10
5.9169634
20
93.1231243
11
5.9169634
21
92.997026
0
LINE
8
DEFAULT_255_1_234
10
5.9169634
20
92.997026
11
5.8896555
21
92.997026
0
LINE
8
DEFAULT_255_1_234
10
5.3426941
20
92.3978583
11
5.3426941
21
92.4548836
0
LINE
8
DEFAULT_255_1_234
10
5.4920845
20
92.4356075
11
5.4920845
21
92.3809917
0
ARC
8
DEFAULT_255_1_234
10
5.8948903
20
92.4972455
40
0.4998079
50
90.6001036
51
104.514704
0
ARC
8
DEFAULT_255_1_234
10
5.8560419
20
92.6417131
40
0.3502176
50
104.2855254
51
133.862935
0
ARC
8
DEFAULT_255_1_234
10
5.8724176
20
92.630883
40
0.3693984
50
134.5302688
51
161.6210873
0
ARC
8
DEFAULT_255_1_234
10
6.0377365
20
92.5725895
40
0.5446739
50
161.2849839
51
174.2076652
0
ARC
8
DEFAULT_255_1_234
10
6.1784302
20
92.5531787
40
0.6866274
50
173.7810589
51
174.9254635
0
ARC
8
DEFAULT_255_1_234
10
5.7234134
20
92.4148839
40
0.3033419
50
95.8330959
51
138.9954921
0
ARC
8
DEFAULT_255_1_234
10
5.745749
20
92.2870375
40
0.4328947
50
89.8753725
51
97.0544009
0
ARC
8
DEFAULT_255_1_234
10
5.7504956
20
92.3705748
40
0.3493769
50
71.6407809
51
90.6240094
0
ARC
8
DEFAULT_255_1_234
10
5.7655529
20
92.4260082
40
0.2920396
50
39.6367836
51
71.019018
0
ARC
8
DEFAULT_255_1_234
10
5.7019002
20
92.3709998
40
0.3761538
50
10.658731
51
39.9043955
0
ARC
8
DEFAULT_255_1_234
10
5.5471085
20
92.3373686
40
0.5345136
50
359.682601
51
11.132623
0
ARC
8
DEFAULT_255_1_234
10
5.5431216
20
92.330301
40
0.5385081
50
347.2486944
51
0.4369317
0
ARC
8
DEFAULT_255_1_234
10
5.7098693
20
92.2901807
40
0.3670249
50
318.1409698
51
347.6118597
0
ARC
8
DEFAULT_255_1_234
10
5.7423686
20
92.2634702
40
0.3250007
50
275.6342139
51
317.8248465
0
ARC
8
DEFAULT_255_1_234
10
5.7202797
20
92.3934219
40
0.4565864
50
269.8874292
51
276.7917694
0
ARC
8
DEFAULT_255_1_234
10
5.7147868
20
92.2908743
40
0.3540676
50
246.9140195
51
270.7437342
0
ARC
8
DEFAULT_255_1_234
10
5.7154258
20
92.2766384
40
0.3412781
50
218.1665114
51
245.878116
0
ARC
8
DEFAULT_255_1_234
10
5.8033719
20
92.3502279
40
0.455911
50
191.4115814
51
218.6077802
0
ARC
8
DEFAULT_255_1_234
10
5.9971808
20
92.3936833
40
0.6545001
50
179.6345085
51
191.7836486
0
ARC
8
DEFAULT_255_1_234
10
6.5554145
20
92.4615697
40
1.2127388
50
171.4525249
51
180.3158839
0
ARC
8
DEFAULT_255_1_234
10
6.1159021
20
92.5299608
40
0.7679464
50
157.9802646
51
171.6246686
0
ARC
8
DEFAULT_255_1_234
10
5.8945042
20
92.6182421
40
0.5296008
50
141.4298019
51
157.854097
0
ARC
8
DEFAULT_255_1_234
10
5.8303362
20
92.6636381
40
0.4511509
50
102.8715806
51
140.8564722
0
ARC
8
DEFAULT_255_1_234
10
5.8950978
20
92.4196552
40
0.7034845
50
90.3778349
51
103.5869322
0
ARC
8
DEFAULT_255_1_234
10
5.7212754
20
92.359173
40
0.2370698
50
89.8751008
51
126.2071704
0
ARC
8
DEFAULT_255_1_234
10
5.7258544
20
92.3437303
40
0.2522934
50
124.9745049
51
144.895901
0
ARC
8
DEFAULT_255_1_234
10
5.7082734
20
92.358056
40
0.2296779
50
145.2974905
51
160.2660252
0
ARC
8
DEFAULT_255_1_234
10
6.0155273
20
92.3778071
40
0.5234525
50
179.6514266
51
190.2855912
0
ARC
8
DEFAULT_255_1_234
10
5.846141
20
92.3458786
40
0.3510893
50
190.0945431
51
207.5098196
0
ARC
8
DEFAULT_255_1_234
10
5.789568
20
92.3189623
40
0.288489
50
207.9583163
51
216.3251085
0
ARC
8
DEFAULT_255_1_234
10
5.7555788
20
92.2910105
40
0.2445587
50
215.7661442
51
232.5456785
0
ARC
8
DEFAULT_255_1_234
10
5.7172771
20
92.2423482
40
0.1826382
50
232.8005391
51
270.6605633
0
ARC
8
DEFAULT_255_1_234
10
5.7218472
20
92.2787612
40
0.2190529
50
269.35537
51
288.4744281
0
ARC
8
DEFAULT_255_1_234
10
5.7311369
20
92.2438118
40
0.1829749
50
289.1833337
51
322.9683818
0
ARC
8
DEFAULT_255_1_234
10
5.6699891
20
92.2920391
40
0.2608399
50
322.6007884
51
346.5182367
0
ARC
8
DEFAULT_255_1_234
10
5.5542487
20
92.3215616
40
0.3802777
50
346.2582162
51
358.7741648
0
ARC
8
DEFAULT_255_1_234
10
5.4524156
20
92.3270965
40
0.4822176
50
358.3755224
51
0.0098023
0
ARC
8
DEFAULT_255_1_234
10
5.5280343
20
92.3298657
40
0.4066078
50
359.6214041
51
11.2839074
0
ARC
8
DEFAULT_255_1_234
10
5.655749
20
92.3565066
40
0.2761514
50
11.0482309
51
31.8146458
0
ARC
8
DEFAULT_255_1_234
10
5.6866533
20
92.3732584
40
0.2410679
50
32.3035391
51
38.082671
0
ARC
8
DEFAULT_255_1_234
10
5.7287193
20
92.4113662
40
0.1844966
50
36.825067
51
85.7415724
0
ARC
8
DEFAULT_255_1_234
10
5.7220026
20
92.3613301
40
0.2349122
50
85.0140713
51
90.0513278
0
LINE
8
DEFAULT_255_1_234
10
4.4407299
20
101.0598211
11
4.7226439
21
100.6116501
0
LINE
8
DEFAULT_255_1_234
10
4.7226439
20
100.6116501
11
5.0029516
21
101.0598211
0
LINE
8
DEFAULT_255_1_234
10
5.0029516
20
101.0598211
11
5.1844689
21
101.0598211
0
LINE
8
DEFAULT_255_1_234
10
5.1844689
20
101.0598211
11
4.8150089
21
100.4799296
0
LINE
8
DEFAULT_255_1_234
10
4.8150089
20
100.4799296
11
5.1933038
21
99.8904
0
LINE
8
DEFAULT_255_1_234
10
5.1933038
20
99.8904
11
5.0101802
21
99.8904
0
LINE
8
DEFAULT_255_1_234
10
5.0101802
20
99.8904
11
4.7226439
21
100.3466027
0
LINE
8
DEFAULT_255_1_234
10
4.7226439
20
100.3466027
11
4.4335014
21
99.8904
0
LINE
8
DEFAULT_255_1_234
10
4.4335014
20
99.8904
11
4.2511809
21
99.8904
0
LINE
8
DEFAULT_255_1_234
10
4.2511809
20
99.8904
11
4.630279
21
100.4799296
0
LINE
8
DEFAULT_255_1_234
10
4.630279
20
100.4799296
11
4.2600158
21
101.0598211
0
LINE
8
DEFAULT_255_1_234
10
4.2600158
20
101.0598211
11
4.4407299
21
101.0598211
0
LINE
8
DEFAULT_255_1_234
10
5.5209987
20
100.4461963
11
5.402129
21
100.4767169
0
LINE
8
DEFAULT_255_1_234
10
5.402129
20
100.4767169
11
5.4615639
21
101.0598211
0
LINE
8
DEFAULT_255_1_234
10
5.4615639
20
101.0598211
11
6.0607315
21
101.0598211
0
LINE
8
DEFAULT_255_1_234
10
6.0607315
20
101.0598211
11
6.0607315
21
100.9224784
0
LINE
8
DEFAULT_255_1_234
10
6.0607315
20
100.9224784
11
5.5876622
21
100.9224784
0
LINE
8
DEFAULT_255_1_234
10
5.5876622
20
100.9224784
11
5.5523225
21
100.6036184
0
LINE
8
DEFAULT_255_1_234
10
5.360364
20
100.1980156
11
5.5009194
21
100.1980156
0
LINE
8
DEFAULT_255_1_234
10
5.5603542
20
100.4783232
11
5.5209987
21
100.4461963
0
ARC
8
DEFAULT_255_1_234
10
5.7378009
20
100.285623
40
0.3681349
50
93.7182161
51
120.2538958
0
ARC
8
DEFAULT_255_1_234
10
5.7472272
20
100.2048394
40
0.449379
50
89.9660152
51
94.2496022
0
ARC
8
DEFAULT_255_1_234
10
5.7513006
20
100.2637549
40
0.390482
50
73.8043271
51
90.5585896
0
ARC
8
DEFAULT_255_1_234
10
5.7747903
20
100.3495602
40
0.3015334
50
41.3071453
51
73.5430202
0
ARC
8
DEFAULT_255_1_234
10
5.733173
20
100.3137324
40
0.3564457
50
13.5075983
51
41.2174222
0
ARC
8
DEFAULT_255_1_234
10
5.5689934
20
100.2707486
40
0.5261351
50
1.1331335
51
13.8829381
0
ARC
8
DEFAULT_255_1_234
10
5.4278303
20
100.2631665
40
0.6674378
50
359.9919444
51
1.544251
0
ARC
8
DEFAULT_255_1_234
10
5.5555129
20
100.259028
40
0.5397702
50
347.8572367
51
0.4293338
0
ARC
8
DEFAULT_255_1_234
10
5.7305447
20
100.2193736
40
0.3603188
50
323.673004
51
348.1672506
0
ARC
8
DEFAULT_255_1_234
10
5.7599955
20
100.2014168
40
0.3259678
50
316.8171152
51
323.1492751
0
ARC
8
DEFAULT_255_1_234
10
5.7661144
20
100.197746
40
0.3189975
50
281.8396411
51
316.5457803
0
ARC
8
DEFAULT_255_1_234
10
5.7285408
20
100.3532762
40
0.4789527
50
269.5770101
51
282.4214771
0
ARC
8
DEFAULT_255_1_234
10
5.7214219
20
100.3319125
40
0.45759
50
256.2427136
51
270.4486331
0
ARC
8
DEFAULT_255_1_234
10
5.6915121
20
100.2119229
40
0.3339303
50
228.9023911
51
256.3314342
0
ARC
8
DEFAULT_255_1_234
10
5.6841354
20
100.2002746
40
0.32031
50
193.753695
51
228.5271154
0
ARC
8
DEFAULT_255_1_234
10
5.8079308
20
100.23658
40
0.4492253
50
184.924711
51
194.497588
0
ARC
8
DEFAULT_255_1_234
10
5.8271875
20
100.2401591
40
0.3289787
50
187.3600538
51
198.6732863
0
ARC
8
DEFAULT_255_1_234
10
5.7222169
20
100.2037674
40
0.217884
50
198.4451669
51
217.794479
0
ARC
8
DEFAULT_255_1_234
10
5.6926344
20
100.1828085
40
0.1816698
50
218.2887171
51
228.5612368
0
ARC
8
DEFAULT_255_1_234
10
5.7024131
20
100.1959963
40
0.1980329
50
228.9654866
51
258.1234728
0
ARC
8
DEFAULT_255_1_234
10
5.7229841
20
100.2840833
40
0.2884748
50
257.7258293
51
270.401361
0
ARC
8
DEFAULT_255_1_234
10
5.7274727
20
100.2395821
40
0.2439788
50
269.4204404
51
286.4209037
0
ARC
8
DEFAULT_255_1_234
10
5.7423215
20
100.1856657
40
0.1880666
50
286.7251356
51
320.600362
0
ARC
8
DEFAULT_255_1_234
10
5.704004
20
100.2167595
40
0.2374121
50
320.6712579
51
344.5441685
0
ARC
8
DEFAULT_255_1_234
10
5.5883366
20
100.2507045
40
0.3579479
50
344.2412205
51
356.7357071
0
ARC
8
DEFAULT_255_1_234
10
5.4634515
20
100.2610444
40
0.4832297
50
356.3548756
51
0.0500261
0
ARC
8
DEFAULT_255_1_234
10
5.5971024
20
100.264165
40
0.3495889
50
359.5576869
51
12.953486
0
ARC
8
DEFAULT_255_1_234
10
5.7025921
20
100.2897434
40
0.2410532
50
12.6490276
51
41.6081334
0
ARC
8
DEFAULT_255_1_234
10
5.7256292
20
100.3093321
40
0.2108218
50
41.7850273
51
85.9892764
0
ARC
8
DEFAULT_255_1_234
10
5.7133029
20
100.2280462
40
0.2928454
50
84.6957577
51
90.0676183
0
ARC
8
DEFAULT_255_1_234
10
5.7109513
20
100.1611716
40
0.3597255
50
89.6804936
51
99.1614436
0
ARC
8
DEFAULT_255_1_234
10
5.6904144
20
100.2839131
40
0.235281
50
98.9830931
51
113.8908934
0
ARC
8
DEFAULT_255_1_234
10
5.6674554
20
100.3380587
40
0.176479
50
114.1950727
51
127.3641004
0
LINE
8
DEFAULT_255_1_234
10
4.5465299
20
108.9973211
11
4.8284439
21
108.5491501
0
LINE
8
DEFAULT_255_1_234
10
4.8284439
20
108.5491501
11
5.1087516
21
108.9973211
0
LINE
8
DEFAULT_255_1_234
10
5.1087516
20
108.9973211
11
5.2902689
21
108.9973211
0
LINE
8
DEFAULT_255_1_234
10
5.2902689
20
108.9973211
11
4.9208089
21
108.4174296
0
LINE
8
DEFAULT_255_1_234
10
4.9208089
20
108.4174296
11
5.2991038
21
107.8279
0
LINE
8
DEFAULT_255_1_234
10
5.2991038
20
107.8279
11
5.1159802
21
107.8279
0
LINE
8
DEFAULT_255_1_234
10
5.1159802
20
107.8279
11
4.8284439
21
108.2841027
0
LINE
8
DEFAULT_255_1_234
10
4.8284439
20
108.2841027
11
4.5393014
21
107.8279
0
LINE
8
DEFAULT_255_1_234
10
4.5393014
20
107.8279
11
4.3569809
21
107.8279
0
LINE
8
DEFAULT_255_1_234
10
4.3569809
20
107.8279
11
4.736079
21
108.4174296
0
LINE
8
DEFAULT_255_1_234
10
4.736079
20
108.4174296
11
4.3658158
21
108.9973211
0
LINE
8
DEFAULT_255_1_234
10
4.3658158
20
108.9973211
11
4.5465299
21
108.9973211
0
LINE
8
DEFAULT_255_1_234
10
6.066938
20
108.9973211
11
6.066938
21
108.220652
0
LINE
8
DEFAULT_255_1_234
10
6.066938
20
108.220652
11
6.2291791
21
108.220652
0
LINE
8
DEFAULT_255_1_234
10
6.2291791
20
108.220652
11
6.2291791
21
108.0993728
0
LINE
8
DEFAULT_255_1_234
10
6.2291791
20
108.0993728
11
6.066938
21
108.0993728
0
LINE
8
DEFAULT_255_1_234
10
6.066938
20
108.0993728
11
6.066938
21
107.8279
0
LINE
8
DEFAULT_255_1_234
10
6.066938
20
107.8279
11
5.9175477
21
107.8279
0
LINE
8
DEFAULT_255_1_234
10
5.9175477
20
107.8279
11
5.9175477
21
108.0993728
0
LINE
8
DEFAULT_255_1_234
10
5.9175477
20
108.0993728
11
5.3850434
21
108.0993728
0
LINE
8
DEFAULT_255_1_234
10
5.3850434
20
108.0993728
11
5.3850434
21
108.1869187
0
LINE
8
DEFAULT_255_1_234
10
5.3850434
20
108.1869187
11
5.9087127
21
108.9973211
0
LINE
8
DEFAULT_255_1_234
10
5.9087127
20
108.9973211
11
6.066938
21
108.9973211
0
LINE
8
DEFAULT_255_1_234
10
5.8998778
20
108.7619912
11
5.5537099
21
108.220652
0
LINE
8
DEFAULT_255_1_234
10
5.5537099
20
108.220652
11
5.9175477
21
108.220652
0
LINE
8
DEFAULT_255_1_234
10
5.9175477
20
108.220652
11
5.9175477
21
108.7941181
0
LINE
8
DEFAULT_255_1_234
10
5.9175477
20
108.7941181
11
5.8998778
21
108.7619912
0
LINE
8
DEFAULT_255_1_234
10
4.9889119
20
115.8866792
11
4.9889119
21
115.7654
0
LINE
8
DEFAULT_255_1_234
10
4.9889119
20
115.7654
11
4.222684
21
115.7654
0
LINE
8
DEFAULT_255_1_234
10
4.222684
20
115.7654
11
4.222684
21
115.8722221
0
LINE
8
DEFAULT_255_1_234
10
4.222684
20
115.8722221
11
4.6274836
21
116.3219995
0
LINE
8
DEFAULT_255_1_234
10
4.3487823
20
116.5902595
11
4.2001952
21
116.5902595
0
LINE
8
DEFAULT_255_1_234
10
4.7150296
20
116.2264218
11
4.4017918
21
115.8866792
0
LINE
8
DEFAULT_255_1_234
10
4.4017918
20
115.8866792
11
4.9889119
21
115.8866792
0
ARC
8
DEFAULT_255_1_234
10
3.278467
20
117.5149527
40
1.8008286
50
318.5132453
51
320.7828378
0
ARC
8
DEFAULT_255_1_234
10
3.8071644
20
117.0846426
40
1.1191493
50
320.7372736
51
323.9737074
0
ARC
8
DEFAULT_255_1_234
10
4.1991501
20
116.8006361
40
0.6350923
50
323.8961724
51
328.6421089
0
ARC
8
DEFAULT_255_1_234
10
4.4038096
20
116.6744031
40
0.3946393
50
328.8299013
51
331.789948
0
ARC
8
DEFAULT_255_1_234
10
4.5035274
20
116.6229509
40
0.2824501
50
331.4255242
51
352.9364833
0
ARC
8
DEFAULT_255_1_234
10
4.5171775
20
116.6198976
40
0.2685315
50
353.2248685
51
0.0169286
0
ARC
8
DEFAULT_255_1_234
10
4.5381652
20
116.622195
40
0.2475536
50
359.4866256
51
15.9339782
0
ARC
8
DEFAULT_255_1_234
10
4.5888637
20
116.6358286
40
0.1950618
50
16.1714718
51
43.5284424
0
ARC
8
DEFAULT_255_1_234
10
4.5965946
20
116.6435573
40
0.184134
50
43.4415429
51
83.1661404
0
ARC
8
DEFAULT_255_1_234
10
4.5831864
20
116.5698771
40
0.258926
50
82.160215
51
90.1505798
0
ARC
8
DEFAULT_255_1_234
10
4.5800291
20
116.5161865
40
0.3126255
50
89.5460705
51
102.5418777
0
ARC
8
DEFAULT_255_1_234
10
4.5557377
20
116.6192665
40
0.2067346
50
102.1739365
51
129.2061916
0
ARC
8
DEFAULT_255_1_234
10
4.5478449
20
116.6317094
40
0.1921118
50
129.7279328
51
135.7542026
0
ARC
8
DEFAULT_255_1_234
10
4.5599977
20
116.6220045
40
0.2075944
50
136.175737
51
166.3674722
0
ARC
8
DEFAULT_255_1_234
10
4.6606896
20
116.5950182
40
0.3118201
50
165.9092917
51
178.8683903
0
ARC
8
DEFAULT_255_1_234
10
4.7471757
20
116.5903179
40
0.3983935
50
178.438168
51
180.0083905
0
ARC
8
DEFAULT_255_1_234
10
4.6070359
20
116.5942231
40
0.4068601
50
163.2878735
51
180.5581814
0
ARC
8
DEFAULT_255_1_234
10
4.5268621
20
116.616284
40
0.3237344
50
133.454115
51
162.9470031
0
ARC
8
DEFAULT_255_1_234
10
4.5447162
20
116.5973
40
0.349795
50
100.7869394
51
133.4384016
0
ARC
8
DEFAULT_255_1_234
10
4.5794934
20
116.4424319
40
0.5084616
50
89.6605301
51
101.3704185
0
ARC
8
DEFAULT_255_1_234
10
4.5861273
20
116.4485496
40
0.502348
50
78.2171172
51
90.4130393
0
ARC
8
DEFAULT_255_1_234
10
4.6216351
20
116.6109637
40
0.3361092
50
55.9268222
51
78.4888551
0
ARC
8
DEFAULT_255_1_234
10
4.6412791
20
116.6448324
40
0.2970617
50
47.9292255
51
55.4054003
0
ARC
8
DEFAULT_255_1_234
10
4.6514352
20
116.6551502
40
0.2825983
50
4.3347696
51
48.0560701
0
ARC
8
DEFAULT_255_1_234
10
4.5418745
20
116.6381601
40
0.393225
50
359.925209
51
5.5967654
0
ARC
8
DEFAULT_255_1_234
10
4.5847637
20
116.6437816
40
0.3503892
50
337.8914096
51
358.9967724
0
ARC
8
DEFAULT_255_1_234
10
4.3134049
20
116.7484706
40
0.6412172
50
326.9135351
51
338.3505194
0
ARC
8
DEFAULT_255_1_234
10
3.9148353
20
117.0039284
40
1.1146189
50
319.6472867
51
327.095818
0
ARC
8
DEFAULT_255_1_234
10
3.5315356
20
117.3201
40
1.6114559
50
317.2586784
51
319.9046139
0
LINE
8
DEFAULT_255_1_234
10
5.8900729
20
116.1364663
11
6.0450854
21
116.1364663
0
LINE
8
DEFAULT_255_1_234
10
5.1447276
20
116.2954947
11
5.1447276
21
116.4079391
0
LINE
8
DEFAULT_255_1_234
10
6.0450854
20
116.5589357
11
5.8900729
21
116.5589357
0
LINE
8
DEFAULT_255_1_234
10
5.2997401
20
116.4039232
11
5.2997401
21
116.2906757
0
ARC
8
DEFAULT_255_1_234
10
5.4970241
20
116.1961846
40
0.5513052
50
340.1774281
51
353.7814284
0
ARC
8
DEFAULT_255_1_234
10
5.6541594
20
116.1376582
40
0.3836379
50
311.4558989
51
340.4421614
0
ARC
8
DEFAULT_255_1_234
10
5.6508262
20
116.1487528
40
0.3941894
50
282.4333181
51
310.7513653
0
ARC
8
DEFAULT_255_1_234
10
5.6069001
20
116.3302679
40
0.5809175
50
269.9358511
51
282.809604
0
ARC
8
DEFAULT_255_1_234
10
5.6017067
20
116.4760212
40
0.7266847
50
270.0021091
51
270.3581957
0
ARC
8
DEFAULT_255_1_234
10
5.5964484
20
116.2159585
40
0.4666519
50
250.7884749
51
270.6489167
0
ARC
8
DEFAULT_255_1_234
10
5.5796319
20
116.1522319
40
0.4009729
50
219.3627325
51
250.0611886
0
ARC
8
DEFAULT_255_1_234
10
5.662553
20
116.2227042
40
0.5097822
50
193.5479632
51
219.5756669
0
ARC
8
DEFAULT_255_1_234
10
5.8997151
20
116.2842919
40
0.7547848
50
181.1218675
51
193.87563
0
ARC
8
DEFAULT_255_1_234
10
6.1067332
20
116.295358
40
0.9620055
50
179.9918545
51
181.5394234
0
ARC
8
DEFAULT_255_1_234
10
5.9216434
20
116.4116788
40
0.7769248
50
169.5837241
51
180.2757934
0
ARC
8
DEFAULT_255_1_234
10
5.7379372
20
116.4456229
40
0.590109
50
155.0365899
51
169.6003176
0
ARC
8
DEFAULT_255_1_234
10
5.6243836
20
116.5003677
40
0.4640625
50
136.783148
51
155.2472683
0
ARC
8
DEFAULT_255_1_234
10
5.5854313
20
116.5334562
40
0.4130255
50
121.7633186
51
136.428115
0
ARC
8
DEFAULT_255_1_234
10
5.5989275
20
116.5085227
40
0.4413323
50
95.6459699
51
121.5490577
0
ARC
8
DEFAULT_255_1_234
10
5.6146557
20
116.3976949
40
0.55319
50
89.924208
51
96.1377933
0
ARC
8
DEFAULT_255_1_234
10
5.619699
20
116.4095542
40
0.5413475
50
76.6779277
51
90.4563316
0
ARC
8
DEFAULT_255_1_234
10
5.6590613
20
116.5686114
40
0.3775041
50
47.485847
51
76.9287264
0
ARC
8
DEFAULT_255_1_234
10
5.6443586
20
116.5586159
40
0.3948286
50
16.5424086
51
46.8933463
0
ARC
8
DEFAULT_255_1_234
10
5.4835743
20
116.5057861
40
0.564021
50
5.4072051
51
17.0365086
0
ARC
8
DEFAULT_255_1_234
10
5.339676
20
116.4826679
40
0.5556559
50
7.8891745
51
15.9239216
0
ARC
8
DEFAULT_255_1_234
10
5.5383773
20
116.5403631
40
0.3487515
50
15.7653144
51
27.9410532
0
ARC
8
DEFAULT_255_1_234
10
5.6487991
20
116.599479
40
0.2235026
50
27.8166557
51
46.4008329
0
ARC
8
DEFAULT_255_1_234
10
5.6537634
20
116.5989082
40
0.2205286
50
47.4371857
51
75.0698205
0
ARC
8
DEFAULT_255_1_234
10
5.6229029
20
116.4914765
40
0.3322915
50
74.7008593
51
87.8124495
0
ARC
8
DEFAULT_255_1_234
10
5.6155716
20
116.3858844
40
0.4380987
50
87.3814673
51
90.0240855
0
ARC
8
DEFAULT_255_1_234
10
5.6117259
20
116.5036291
40
0.3203749
50
89.3451631
51
108.5745436
0
ARC
8
DEFAULT_255_1_234
10
5.5980365
20
116.5549908
40
0.2673494
50
109.2998449
51
143.3037509
0
ARC
8
DEFAULT_255_1_234
10
5.6742437
20
116.4963881
40
0.3634757
50
143.0753173
51
163.1916937
0
ARC
8
DEFAULT_255_1_234
10
5.8694165
20
116.4347967
40
0.5681262
50
162.9373603
51
174.6208611
0
ARC
8
DEFAULT_255_1_234
10
6.1320207
20
116.406001
40
0.8322832
50
174.3419979
51
180.1430411
0
ARC
8
DEFAULT_255_1_234
10
6.0389363
20
116.2865698
40
0.7392076
50
179.6817502
51
189.150529
0
ARC
8
DEFAULT_255_1_234
10
5.7888611
20
116.244919
40
0.4856932
50
188.9910863
51
203.5773039
0
ARC
8
DEFAULT_255_1_234
10
5.6808944
20
116.2001211
40
0.3688271
50
203.9077269
51
215.1312379
0
ARC
8
DEFAULT_255_1_234
10
5.5886038
20
116.1285941
40
0.2522457
50
213.9071664
51
263.8849284
0
ARC
8
DEFAULT_255_1_234
10
5.6011367
20
116.2070518
40
0.3316174
50
263.1758525
51
270.1031083
0
ARC
8
DEFAULT_255_1_234
10
5.6043459
20
116.3317365
40
0.4563091
50
269.6719807
51
279.0609165
0
ARC
8
DEFAULT_255_1_234
10
5.6310227
20
116.1704907
40
0.2928759
50
278.8750225
51
293.6346586
0
ARC
8
DEFAULT_255_1_234
10
5.6630435
20
116.09529
40
0.2111472
50
293.8553404
51
310.0518804
0
ARC
8
DEFAULT_255_1_234
10
5.6635289
20
116.0890516
40
0.2060917
50
311.0646779
51
332.0108348
0
ARC
8
DEFAULT_255_1_234
10
5.5443016
20
116.1547978
40
0.3422352
50
331.6588543
51
343.2878891
0
ARC
8
DEFAULT_255_1_234
10
5.3380531
20
116.2181798
40
0.5580003
50
343.1446044
51
351.010618
0
ARC
8
DEFAULT_255_1_234
10
5.1839177
20
116.2462871
40
0.7146438
50
350.7157277
51
351.1602153
0
LINE
8
DEFAULT_255_1_234
10
4.4407299
20
124.8723211
11
4.7226439
21
124.4241501
0
LINE
8
DEFAULT_255_1_234
10
4.7226439
20
124.4241501
11
5.0029516
21
124.8723211
0
LINE
8
DEFAULT_255_1_234
10
5.0029516
20
124.8723211
11
5.1844689
21
124.8723211
0
LINE
8
DEFAULT_255_1_234
10
5.1844689
20
124.8723211
11
4.8150089
21
124.2924296
0
LINE
8
DEFAULT_255_1_234
10
4.8150089
20
124.2924296
11
5.1933038
21
123.7029
0
LINE
8
DEFAULT_255_1_234
10
5.1933038
20
123.7029
11
5.0101802
21
123.7029
0
LINE
8
DEFAULT_255_1_234
10
5.0101802
20
123.7029
11
4.7226439
21
124.1591027
0
LINE
8
DEFAULT_255_1_234
10
4.7226439
20
124.1591027
11
4.4335014
21
123.7029
0
LINE
8
DEFAULT_255_1_234
10
4.4335014
20
123.7029
11
4.2511809
21
123.7029
0
LINE
8
DEFAULT_255_1_234
10
4.2511809
20
123.7029
11
4.630279
21
124.2924296
0
LINE
8
DEFAULT_255_1_234
10
4.630279
20
124.2924296
11
4.2600158
21
124.8723211
0
LINE
8
DEFAULT_255_1_234
10
4.2600158
20
124.8723211
11
4.4407299
21
124.8723211
0
LINE
8
DEFAULT_255_1_234
10
5.549913
20
124.2386169
11
5.549913
21
124.3598962
0
LINE
8
DEFAULT_255_1_234
10
5.549913
20
124.3598962
11
5.6615542
21
124.3598962
0
LINE
8
DEFAULT_255_1_234
10
5.471202
20
124.5655087
11
5.3226148
21
124.5655087
0
LINE
8
DEFAULT_255_1_234
10
5.3121735
20
124.0113188
11
5.4615639
21
124.0113188
0
LINE
8
DEFAULT_255_1_234
10
5.6615542
20
124.2386169
11
5.549913
21
124.2386169
0
ARC
8
DEFAULT_255_1_234
10
5.6586408
20
124.6991713
40
0.3392876
50
270.4919872
51
281.8951556
0
ARC
8
DEFAULT_255_1_234
10
5.682767
20
124.5889702
40
0.2264817
50
281.6691735
51
301.2943132
0
ARC
8
DEFAULT_255_1_234
10
5.699788
20
124.5578304
40
0.1910381
50
301.7833094
51
311.7545298
0
ARC
8
DEFAULT_255_1_234
10
5.7089456
20
124.5476748
40
0.1773635
50
311.7323931
51
354.2802411
0
ARC
8
DEFAULT_255_1_234
10
5.6363081
20
124.5601722
40
0.2509385
50
353.0937916
51
0.1181479
0
ARC
8
DEFAULT_255_1_234
10
5.5901866
20
124.5649386
40
0.2970898
50
359.1805295
51
15.0453146
0
ARC
8
DEFAULT_255_1_234
10
5.7247703
20
124.6041992
40
0.1569564
50
13.9577229
51
77.6713066
0
ARC
8
DEFAULT_255_1_234
10
5.6861232
20
124.4656949
40
0.3006298
50
76.1116566
51
90.7026153
0
ARC
8
DEFAULT_255_1_234
10
5.680207
20
124.4930545
40
0.2732568
50
89.5324876
51
103.531937
0
ARC
8
DEFAULT_255_1_234
10
5.6601514
20
124.5729884
40
0.1908508
50
103.2931773
51
133.5619022
0
ARC
8
DEFAULT_255_1_234
10
5.6557003
20
124.5789375
40
0.1834746
50
133.8349307
51
173.5344437
0
ARC
8
DEFAULT_255_1_234
10
5.7280046
20
124.5661213
40
0.2568033
50
172.5096846
51
180.1366907
0
ARC
8
DEFAULT_255_1_234
10
5.632894
20
124.5695622
40
0.3103056
50
155.3484492
51
180.7484736
0
ARC
8
DEFAULT_255_1_234
10
5.6280029
20
124.5666846
40
0.3070957
50
131.5744599
51
154.4798489
0
ARC
8
DEFAULT_255_1_234
10
5.6593176
20
124.535031
40
0.3515643
50
96.9875458
51
131.9690667
0
ARC
8
DEFAULT_255_1_234
10
5.6812656
20
124.4104636
40
0.4779224
50
89.8596053
51
97.7825159
0
ARC
8
DEFAULT_255_1_234
10
5.6860719
20
124.3842616
40
0.5041361
50
78.3655447
51
90.4131539
0
ARC
8
DEFAULT_255_1_234
10
5.7218637
20
124.5501887
40
0.3344039
50
56.6229102
51
78.638727
0
ARC
8
DEFAULT_255_1_234
10
5.7433581
20
124.5877805
40
0.2912001
50
47.0253525
51
56.0854072
0
ARC
8
DEFAULT_255_1_234
10
5.7453361
20
124.5917223
40
0.2869704
50
10.9208013
51
46.7778124
0
ARC
8
DEFAULT_255_1_234
10
5.6089427
20
124.5601857
40
0.426899
50
359.6364486
51
11.6087304
0
ARC
8
DEFAULT_255_1_234
10
5.7924271
20
124.5586752
40
0.243409
50
332.3549906
51
359.7179418
0
ARC
8
DEFAULT_255_1_234
10
5.7273873
20
124.5895142
40
0.3153459
50
325.2333722
51
332.8745602
0
ARC
8
DEFAULT_255_1_234
10
5.7426496
20
124.5788828
40
0.2967456
50
292.9802137
51
325.2392345
0
ARC
8
DEFAULT_255_1_234
10
5.715187
20
124.6322863
40
0.3566604
50
292.5402179
51
293.6924929
0
ARC
8
DEFAULT_255_1_234
10
5.7544466
20
123.9868091
40
0.3307468
50
57.6435486
51
72.8625112
0
ARC
8
DEFAULT_255_1_234
10
5.7898966
20
124.0442549
40
0.2632492
50
36.7248896
51
57.4697979
0
ARC
8
DEFAULT_255_1_234
10
5.7887598
20
124.045522
40
0.2634081
50
8.0545065
51
36.356114
0
ARC
8
DEFAULT_255_1_234
10
5.7024784
20
124.0300174
40
0.3510261
50
359.8320645
51
8.5869982
0
ARC
8
DEFAULT_255_1_234
10
5.664956
20
124.0252101
40
0.3885653
50
343.9829931
51
0.5571613
0
ARC
8
DEFAULT_255_1_234
10
5.7535757
20
124.0009438
40
0.2966924
50
311.6359546
51
343.7651759
0
ARC
8
DEFAULT_255_1_234
10
5.7157326
20
124.0436102
40
0.3537231
50
279.7829875
51
311.6255694
0
ARC
8
DEFAULT_255_1_234
10
5.6856102
20
124.187328
40
0.5004971
50
269.7286406
51
280.3856417
0
ARC
8
DEFAULT_255_1_234
10
5.6794175
20
124.1831996
40
0.4963778
50
256.6828919
51
270.4412052
0
ARC
8
DEFAULT_255_1_234
10
5.6455471
20
124.0447394
40
0.3538406
50
229.4223008
51
256.8556159
0
ARC
8
DEFAULT_255_1_234
10
5.6040864
20
123.9980736
40
0.2914296
50
181.818294
51
229.6455059
0
ARC
8
DEFAULT_255_1_234
10
5.708082
20
124.0111496
40
0.3959084
50
179.9755256
51
183.2323064
0
ARC
8
DEFAULT_255_1_234
10
5.6908566
20
124.0091037
40
0.2293034
50
179.4465117
51
196.2869258
0
ARC
8
DEFAULT_255_1_234
10
5.6420974
20
123.9957651
40
0.1787621
50
196.5661473
51
227.705904
0
ARC
8
DEFAULT_255_1_234
10
5.6585069
20
124.0141155
40
0.2033784
50
227.7652068
51
257.8762805
0
ARC
8
DEFAULT_255_1_234
10
5.6810039
20
124.1084156
40
0.3003081
50
257.4584385
51
270.426602
0
ARC
8
DEFAULT_255_1_234
10
5.6855605
20
124.1373996
40
0.329292
50
269.5962073
51
280.8789248
0
ARC
8
DEFAULT_255_1_234
10
5.7085134
20
124.0227685
40
0.2123908
50
280.6346389
51
299.8595945
0
ARC
8
DEFAULT_255_1_234
10
5.727604
20
123.9865212
40
0.171457
50
300.3576302
51
314.5517981
0
ARC
8
DEFAULT_255_1_234
10
5.7193101
20
123.9925919
40
0.1816095
50
315.0728369
51
345.0431014
0
ARC
8
DEFAULT_255_1_234
10
5.6269915
20
124.0194841
40
0.2777492
50
344.5986631
51
357.9269593
0
ARC
8
DEFAULT_255_1_234
10
5.5374241
20
124.0256276
40
0.3674917
50
357.4748886
51
0.0231117
0
ARC
8
DEFAULT_255_1_234
10
5.6397351
20
124.0280679
40
0.2651907
50
359.5047933
51
13.4239635
0
ARC
8
DEFAULT_255_1_234
10
5.7263994
20
124.0502478
40
0.1757509
50
12.9498199
51
48.7551375
0
ARC
8
DEFAULT_255_1_234
10
5.7081728
20
124.02534
40
0.2065134
50
49.5088623
51
72.1836453
0
ARC
8
DEFAULT_255_1_234
10
5.6723881
20
123.9191291
40
0.3185836
50
71.9010081
51
84.3554254
0
ARC
8
DEFAULT_255_1_234
10
5.6562513
20
123.7830326
40
0.4556151
50
84.0193428
51
89.333121
0
LINE
8
DEFAULT_255_1_234
10
4.4407299
20
132.8098211
11
4.7226439
21
132.3616501
0
LINE
8
DEFAULT_255_1_234
10
4.7226439
20
132.3616501
11
5.0029516
21
132.8098211
0
LINE
8
DEFAULT_255_1_234
10
5.0029516
20
132.8098211
11
5.1844689
21
132.8098211
0
LINE
8
DEFAULT_255_1_234
10
5.1844689
20
132.8098211
11
4.8150089
21
132.2299296
0
LINE
8
DEFAULT_255_1_234
10
4.8150089
20
132.2299296
11
5.1933038
21
131.6404
0
LINE
8
DEFAULT_255_1_234
10
5.1933038
20
131.6404
11
5.0101802
21
131.6404
0
LINE
8
DEFAULT_255_1_234
10
5.0101802
20
131.6404
11
4.7226439
21
132.0966027
0
LINE
8
DEFAULT_255_1_234
10
4.7226439
20
132.0966027
11
4.4335014
21
131.6404
0
LINE
8
DEFAULT_255_1_234
10
4.4335014
20
131.6404
11
4.2511809
21
131.6404
0
LINE
8
DEFAULT_255_1_234
10
4.2511809
20
131.6404
11
4.630279
21
132.2299296
0
LINE
8
DEFAULT_255_1_234
10
4.630279
20
132.2299296
11
4.2600158
21
132.8098211
0
LINE
8
DEFAULT_255_1_234
10
4.2600158
20
132.8098211
11
4.4407299
21
132.8098211
0
LINE
8
DEFAULT_255_1_234
10
6.1000871
20
131.7616792
11
6.1000871
21
131.6404
0
LINE
8
DEFAULT_255_1_234
10
6.1000871
20
131.6404
11
5.3338592
21
131.6404
0
LINE
8
DEFAULT_255_1_234
10
5.3338592
20
131.6404
11
5.3338592
21
131.7472221
0
LINE
8
DEFAULT_255_1_234
10
5.3338592
20
131.7472221
11
5.7386588
21
132.1969995
0
LINE
8
DEFAULT_255_1_234
10
5.4599575
20
132.4652595
11
5.3113704
21
132.4652595
0
LINE
8
DEFAULT_255_1_234
10
5.8262048
20
132.1014218
11
5.512967
21
131.7616792
0
LINE
8
DEFAULT_255_1_234
10
5.512967
20
131.7616792
11
6.1000871
21
131.7616792
0
ARC
8
DEFAULT_255_1_234
10
4.3896422
20
133.3899527
40
1.8008286
50
318.5132453
51
320.7828378
0
ARC
8
DEFAULT_255_1_234
10
4.9183396
20
132.9596426
40
1.1191493
50
320.7372736
51
323.9737074
0
ARC
8
DEFAULT_255_1_234
10
5.3103252
20
132.6756361
40
0.6350923
50
323.8961724
51
328.6421089
0
ARC
8
DEFAULT_255_1_234
10
5.5149848
20
132.5494031
40
0.3946393
50
328.8299013
51
331.789948
0
ARC
8
DEFAULT_255_1_234
10
5.6147026
20
132.4979509
40
0.2824501
50
331.4255242
51
352.9364833
0
ARC
8
DEFAULT_255_1_234
10
5.6283527
20
132.4948976
40
0.2685315
50
353.2248685
51
0.0169286
0
ARC
8
DEFAULT_255_1_234
10
5.6493404
20
132.497195
40
0.2475536
50
359.4866256
51
15.9339782
0
ARC
8
DEFAULT_255_1_234
10
5.7000389
20
132.5108286
40
0.1950618
50
16.1714718
51
43.5284424
0
ARC
8
DEFAULT_255_1_234
10
5.7077698
20
132.5185573
40
0.184134
50
43.4415429
51
83.1661404
0
ARC
8
DEFAULT_255_1_234
10
5.6943616
20
132.4448771
40
0.258926
50
82.160215
51
90.1505798
0
ARC
8
DEFAULT_255_1_234
10
5.6912043
20
132.3911865
40
0.3126255
50
89.5460705
51
102.5418777
0
ARC
8
DEFAULT_255_1_234
10
5.6669129
20
132.4942665
40
0.2067346
50
102.1739365
51
129.2061916
0
ARC
8
DEFAULT_255_1_234
10
5.6590201
20
132.5067094
40
0.1921118
50
129.7279328
51
135.7542026
0
ARC
8
DEFAULT_255_1_234
10
5.6711729
20
132.4970045
40
0.2075944
50
136.175737
51
166.3674722
0
ARC
8
DEFAULT_255_1_234
10
5.7718648
20
132.4700182
40
0.3118201
50
165.9092917
51
178.8683903
0
ARC
8
DEFAULT_255_1_234
10
5.8583509
20
132.4653179
40
0.3983935
50
178.438168
51
180.0083905
0
ARC
8
DEFAULT_255_1_234
10
5.7182111
20
132.4692231
40
0.4068601
50
163.2878735
51
180.5581814
0
ARC
8
DEFAULT_255_1_234
10
5.6380373
20
132.491284
40
0.3237344
50
133.454115
51
162.9470031
0
ARC
8
DEFAULT_255_1_234
10
5.6558914
20
132.4723
40
0.349795
50
100.7869394
51
133.4384016
0
ARC
8
DEFAULT_255_1_234
10
5.6906686
20
132.3174319
40
0.5084616
50
89.6605301
51
101.3704185
0
ARC
8
DEFAULT_255_1_234
10
5.6973024
20
132.3235496
40
0.502348
50
78.2171172
51
90.4130393
0
ARC
8
DEFAULT_255_1_234
10
5.7328103
20
132.4859637
40
0.3361092
50
55.9268222
51
78.4888551
0
ARC
8
DEFAULT_255_1_234
10
5.7524543
20
132.5198324
40
0.2970617
50
47.9292255
51
55.4054003
0
ARC
8
DEFAULT_255_1_234
10
5.7626103
20
132.5301502
40
0.2825983
50
4.3347696
51
48.0560701
0
ARC
8
DEFAULT_255_1_234
10
5.6530497
20
132.5131601
40
0.393225
50
359.925209
51
5.5967654
0
ARC
8
DEFAULT_255_1_234
10
5.6959389
20
132.5187816
40
0.3503892
50
337.8914096
51
358.9967724
0
ARC
8
DEFAULT_255_1_234
10
5.4245801
20
132.6234706
40
0.6412172
50
326.9135351
51
338.3505194
0
ARC
8
DEFAULT_255_1_234
10
5.0260105
20
132.8789284
40
1.1146189
50
319.6472867
51
327.095818
0
ARC
8
DEFAULT_255_1_234
10
4.6427108
20
133.1951
40
1.6114559
50
317.2586784
51
319.9046139
0
LINE
8
DEFAULT_255_1_234
10
4.4323299
20
140.7473211
11
4.7142439
21
140.2991501
0
LINE
8
DEFAULT_255_1_234
10
4.7142439
20
140.2991501
11
4.9945516
21
140.7473211
0
LINE
8
DEFAULT_255_1_234
10
4.9945516
20
140.7473211
11
5.1760689
21
140.7473211
0
LINE
8
DEFAULT_255_1_234
10
5.1760689
20
140.7473211
11
4.8066089
21
140.1674296
0
LINE
8
DEFAULT_255_1_234
10
4.8066089
20
140.1674296
11
5.1849038
21
139.5779
0
LINE
8
DEFAULT_255_1_234
10
5.1849038
20
139.5779
11
5.0017802
21
139.5779
0
LINE
8
DEFAULT_255_1_234
10
5.0017802
20
139.5779
11
4.7142439
21
140.0341027
0
LINE
8
DEFAULT_255_1_234
10
4.7142439
20
140.0341027
11
4.4251014
21
139.5779
0
LINE
8
DEFAULT_255_1_234
10
4.4251014
20
139.5779
11
4.2427809
21
139.5779
0
LINE
8
DEFAULT_255_1_234
10
4.2427809
20
139.5779
11
4.621879
21
140.1674296
0
LINE
8
DEFAULT_255_1_234
10
4.621879
20
140.1674296
11
4.2516158
21
140.7473211
0
LINE
8
DEFAULT_255_1_234
10
4.2516158
20
140.7473211
11
4.4323299
21
140.7473211
0
LINE
8
DEFAULT_255_1_234
10
5.8137889
20
140.7529433
11
5.8137889
21
139.5779
0
LINE
8
DEFAULT_255_1_234
10
5.8137889
20
139.5779
11
5.6643986
21
139.5779
0
LINE
8
DEFAULT_255_1_234
10
5.6643986
20
139.5779
11
5.6643986
21
140.5682133
0
LINE
8
DEFAULT_255_1_234
10
5.6643986
20
140.5682133
11
5.3648147
21
140.4581785
0
LINE
8
DEFAULT_255_1_234
10
5.3648147
20
140.4581785
11
5.3648147
21
140.5931117
0
LINE
8
DEFAULT_255_1_234
10
5.3648147
20
140.5931117
11
5.7904969
21
140.7529433
0
LINE
8
DEFAULT_255_1_234
10
5.7904969
20
140.7529433
11
5.8137889
21
140.7529433
0
LINE
8
DEFAULT_255_1_234
10
4.4407299
20
148.6848211
11
4.7226439
21
148.2366501
0
LINE
8
DEFAULT_255_1_234
10
4.7226439
20
148.2366501
11
5.0029516
21
148.6848211
0
LINE
8
DEFAULT_255_1_234
10
5.0029516
20
148.6848211
11
5.1844689
21
148.6848211
0
LINE
8
DEFAULT_255_1_234
10
5.1844689
20
148.6848211
11
4.8150089
21
148.1049296
0
LINE
8
DEFAULT_255_1_234
10
4.8150089
20
148.1049296
11
5.1933038
21
147.5154
0
LINE
8
DEFAULT_255_1_234
10
5.1933038
20
147.5154
11
5.0101802
21
147.5154
0
LINE
8
DEFAULT_255_1_234
10
5.0101802
20
147.5154
11
4.7226439
21
147.9716027
0
LINE
8
DEFAULT_255_1_234
10
4.7226439
20
147.9716027
11
4.4335014
21
147.5154
0
LINE
8
DEFAULT_255_1_234
10
4.4335014
20
147.5154
11
4.2511809
21
147.5154
0
LINE
8
DEFAULT_255_1_234
10
4.2511809
20
147.5154
11
4.630279
21
148.1049296
0
LINE
8
DEFAULT_255_1_234
10
4.630279
20
148.1049296
11
4.2600158
21
148.6848211
0
LINE
8
DEFAULT_255_1_234
10
4.2600158
20
148.6848211
11
4.4407299
21
148.6848211
0
LINE
8
DEFAULT_255_1_234
10
6.0671569
20
148.2069327
11
6.0671569
21
148.0141709
0
LINE
8
DEFAULT_255_1_234
10
5.3290402
20
147.9940916
11
5.3290402
21
148.1924755
0
LINE
8
DEFAULT_255_1_234
10
5.9185698
20
147.9740123
11
5.9185698
21
148.2173739
0
LINE
8
DEFAULT_255_1_234
10
5.4776273
20
148.2286184
11
5.4776273
21
147.9908789
0
ARC
8
DEFAULT_255_1_234
10
4.8424459
20
148.0092805
40
1.2247208
50
353.8441951
51
0.2287902
0
ARC
8
DEFAULT_255_1_234
10
5.3063963
20
147.9574806
40
0.7578929
50
344.4934747
51
353.9765454
0
ARC
8
DEFAULT_255_1_234
10
5.6056553
20
147.8723981
40
0.4467846
50
329.2803592
51
344.7472793
0
ARC
8
DEFAULT_255_1_234
10
5.7049378
20
147.8179018
40
0.3336173
50
324.9352394
51
328.6160465
0
ARC
8
DEFAULT_255_1_234
10
5.7426486
20
147.7915427
40
0.2876076
50
280.580143
51
324.9173126
0
ARC
8
DEFAULT_255_1_234
10
5.7025279
20
147.9586099
40
0.4592847
50
269.5977311
51
281.6734359
0
ARC
8
DEFAULT_255_1_234
10
5.6953185
20
147.9466173
40
0.4472986
50
256.6228859
51
270.51044
0
ARC
8
DEFAULT_255_1_234
10
5.6551162
20
147.7917877
40
0.2873874
50
215.8618325
51
257.2788573
0
ARC
8
DEFAULT_255_1_234
10
5.7572194
20
147.8602977
40
0.4102928
50
197.9693508
51
215.2623606
0
ARC
8
DEFAULT_255_1_234
10
6.005731
20
147.9441709
40
0.6725652
50
187.8816417
51
198.2346507
0
ARC
8
DEFAULT_255_1_234
10
6.4015518
20
148.0013079
40
1.0724845
50
180.8976217
51
188.0055519
0
ARC
8
DEFAULT_255_1_234
10
6.6815706
20
148.0116777
40
1.3526448
50
180.7449369
51
181.1510016
0
ARC
8
DEFAULT_255_1_234
10
6.5238435
20
148.1973042
40
1.1948131
50
173.7675579
51
180.231553
0
ARC
8
DEFAULT_255_1_234
10
6.0720582
20
148.2483666
40
0.7401564
50
164.3058563
51
173.9002247
0
ARC
8
DEFAULT_255_1_234
10
5.780865
20
148.3322656
40
0.4371288
50
148.7922025
51
164.568378
0
ARC
8
DEFAULT_255_1_234
10
5.6857103
20
148.3853929
40
0.3282386
50
144.5883898
51
148.1176286
0
ARC
8
DEFAULT_255_1_234
10
5.6514001
20
148.4093315
40
0.2864044
50
101.6440918
51
144.514236
0
ARC
8
DEFAULT_255_1_234
10
5.6939067
20
148.2404069
40
0.4604934
50
89.5284041
51
102.5819763
0
ARC
8
DEFAULT_255_1_234
10
5.7018155
20
148.2365018
40
0.464401
50
77.0437873
51
90.5081339
0
ARC
8
DEFAULT_255_1_234
10
5.7420157
20
148.4007615
40
0.2953195
50
48.2778575
51
77.4994676
0
ARC
8
DEFAULT_255_1_234
10
5.7492788
20
148.4136746
40
0.2808655
50
36.3142134
51
47.6305865
0
ARC
8
DEFAULT_255_1_234
10
5.6624095
20
148.3551515
40
0.3855453
50
18.2931786
51
35.6769206
0
ARC
8
DEFAULT_255_1_234
10
5.4080854
20
148.2678593
40
0.654423
50
8.024666
51
18.5605216
0
ARC
8
DEFAULT_255_1_234
10
4.9917774
20
148.2063792
40
1.0752407
50
1.1274072
51
8.1718305
0
ARC
8
DEFAULT_255_1_234
10
4.6681964
20
148.1936885
40
1.3990231
50
0.5424119
51
1.3863029
0
ARC
8
DEFAULT_255_1_234
10
4.8503342
20
148.2209342
40
1.0682415
50
359.8090433
51
4.9407866
0
ARC
8
DEFAULT_255_1_234
10
5.2713356
20
148.2585113
40
0.6455691
50
4.8362157
51
12.2904523
0
ARC
8
DEFAULT_255_1_234
10
5.5468471
20
148.3198965
40
0.3633074
50
12.0805627
51
23.8173984
0
ARC
8
DEFAULT_255_1_234
10
5.6642176
20
148.3695919
40
0.2358723
50
24.2871213
51
31.3935614
0
ARC
8
DEFAULT_255_1_234
10
5.7166874
20
148.4039233
40
0.1732111
50
30.7407893
51
82.4657128
0
ARC
8
DEFAULT_255_1_234
10
5.6987008
20
148.3155691
40
0.263235
50
81.1060089
51
90.2184952
0
ARC
8
DEFAULT_255_1_234
10
5.6951307
20
148.3413924
40
0.2374236
50
89.3806855
51
105.6762551
0
ARC
8
DEFAULT_255_1_234
10
5.6767938
20
148.4080567
40
0.1682847
50
105.7981136
51
149.7388061
0
ARC
8
DEFAULT_255_1_234
10
5.7832016
20
148.344095
40
0.2924306
50
149.4208916
51
163.6286378
0
ARC
8
DEFAULT_255_1_234
10
5.9922904
20
148.280325
40
0.5110213
50
163.3763315
51
172.1410975
0
ARC
8
DEFAULT_255_1_234
10
6.3223623
20
148.2330518
40
0.8444586
50
172.0259487
51
178.0703232
0
ARC
8
DEFAULT_255_1_234
10
6.6253712
20
148.2186906
40
1.1477868
50
177.8631668
51
179.5044149
0
ARC
8
DEFAULT_255_1_234
10
6.5181117
20
147.9872389
40
1.0404907
50
179.7995573
51
185.2460446
0
ARC
8
DEFAULT_255_1_234
10
6.1138156
20
147.9489513
40
0.6343885
50
185.1411642
51
193.0079639
0
ARC
8
DEFAULT_255_1_234
10
5.8494629
20
147.8864641
40
0.3627568
50
192.7897626
51
205.2507664
0
ARC
8
DEFAULT_255_1_234
10
5.7448176
20
147.8397415
40
0.2481908
50
205.8005384
51
211.2537509
0
ARC
8
DEFAULT_255_1_234
10
5.6924616
20
147.804658
40
0.1852521
50
210.3789793
51
238.4008143
0
ARC
8
DEFAULT_255_1_234
10
5.6905138
20
147.8093376
40
0.1882621
50
239.6520629
51
265.9793761
0
ARC
8
DEFAULT_255_1_234
10
5.6990338
20
147.8765427
40
0.2559272
50
265.1315437
51
270.060332
0
ARC
8
DEFAULT_255_1_234
10
5.7019117
20
147.8441534
40
0.2235528
50
269.3314664
51
287.2178029
0
ARC
8
DEFAULT_255_1_234
10
5.7156969
20
147.7938279
40
0.1714108
50
287.7958004
51
329.080874
0
ARC
8
DEFAULT_255_1_234
10
5.6199426
20
147.853593
40
0.2842745
50
328.6634704
51
343.3325132
0
ARC
8
DEFAULT_255_1_234
10
5.4026446
20
147.9212863
40
0.5118644
50
343.0499468
51
351.9393422
0
ARC
8
DEFAULT_255_1_234
10
5.0559746
20
147.9723949
40
0.8622784
50
351.8069023
51
357.7959224
0
ARC
8
DEFAULT_255_1_234
10
4.7324302
20
147.9891721
40
1.1862365
50
357.5871873
51
359.2677531
0
LINE
8
DEFAULT_255_1_234
10
4.7110137
20
156.6279433
11
4.7110137
21
155.4529
0
LINE
8
DEFAULT_255_1_234
10
4.7110137
20
155.4529
11
4.5616234
21
155.4529
0
LINE
8
DEFAULT_255_1_234
10
4.5616234
20
155.4529
11
4.5616234
21
156.4432133
0
LINE
8
DEFAULT_255_1_234
10
4.5616234
20
156.4432133
11
4.2620396
21
156.3331785
0
LINE
8
DEFAULT_255_1_234
10
4.2620396
20
156.3331785
11
4.2620396
21
156.4681117
0
LINE
8
DEFAULT_255_1_234
10
4.2620396
20
156.4681117
11
4.6877217
21
156.6279433
0
LINE
8
DEFAULT_255_1_234
10
4.6877217
20
156.6279433
11
4.7110137
21
156.6279433
0
LINE
8
DEFAULT_255_1_234
10
5.8900729
20
155.8239663
11
6.0450854
21
155.8239663
0
LINE
8
DEFAULT_255_1_234
10
5.1447276
20
155.9829947
11
5.1447276
21
156.0954391
0
LINE
8
DEFAULT_255_1_234
10
6.0450854
20
156.2464357
11
5.8900729
21
156.2464357
0
LINE
8
DEFAULT_255_1_234
10
5.2997401
20
156.0914232
11
5.2997401
21
155.9781757
0
ARC
8
DEFAULT_255_1_234
10
5.4970241
20
155.8836846
40
0.5513052
50
340.1774281
51
353.7814284
0
ARC
8
DEFAULT_255_1_234
10
5.6541594
20
155.8251582
40
0.3836379
50
311.4558989
51
340.4421614
0
ARC
8
DEFAULT_255_1_234
10
5.6508262
20
155.8362528
40
0.3941894
50
282.4333181
51
310.7513653
0
ARC
8
DEFAULT_255_1_234
10
5.6069001
20
156.0177679
40
0.5809175
50
269.9358511
51
282.809604
0
ARC
8
DEFAULT_255_1_234
10
5.6017067
20
156.1635212
40
0.7266847
50
270.0021091
51
270.3581957
0
ARC
8
DEFAULT_255_1_234
10
5.5964484
20
155.9034585
40
0.4666519
50
250.7884749
51
270.6489167
0
ARC
8
DEFAULT_255_1_234
10
5.5796319
20
155.8397319
40
0.4009729
50
219.3627325
51
250.0611886
0
ARC
8
DEFAULT_255_1_234
10
5.662553
20
155.9102042
40
0.5097822
50
193.5479632
51
219.5756669
0
ARC
8
DEFAULT_255_1_234
10
5.8997151
20
155.9717919
40
0.7547848
50
181.1218675
51
193.87563
0
ARC
8
DEFAULT_255_1_234
10
6.1067332
20
155.982858
40
0.9620055
50
179.9918545
51
181.5394234
0
ARC
8
DEFAULT_255_1_234
10
5.9216434
20
156.0991788
40
0.7769248
50
169.5837241
51
180.2757934
0
ARC
8
DEFAULT_255_1_234
10
5.7379372
20
156.1331229
40
0.590109
50
155.0365899
51
169.6003176
0
ARC
8
DEFAULT_255_1_234
10
5.6243836
20
156.1878677
40
0.4640625
50
136.783148
51
155.2472683
0
ARC
8
DEFAULT_255_1_234
10
5.5854313
20
156.2209562
40
0.4130255
50
121.7633186
51
136.428115
0
ARC
8
DEFAULT_255_1_234
10
5.5989275
20
156.1960227
40
0.4413323
50
95.6459699
51
121.5490577
0
ARC
8
DEFAULT_255_1_234
10
5.6146557
20
156.0851949
40
0.55319
50
89.924208
51
96.1377933
0
ARC
8
DEFAULT_255_1_234
10
5.619699
20
156.0970542
40
0.5413475
50
76.6779277
51
90.4563316
0
ARC
8
DEFAULT_255_1_234
10
5.6590613
20
156.2561114
40
0.3775041
50
47.485847
51
76.9287264
0
ARC
8
DEFAULT_255_1_234
10
5.6443586
20
156.2461159
40
0.3948286
50
16.5424086
51
46.8933463
0
ARC
8
DEFAULT_255_1_234
10
5.4835743
20
156.1932861
40
0.564021
50
5.4072051
51
17.0365086
0
ARC
8
DEFAULT_255_1_234
10
5.339676
20
156.1701679
40
0.5556559
50
7.8891745
51
15.9239216
0
ARC
8
DEFAULT_255_1_234
10
5.5383773
20
156.2278631
40
0.3487515
50
15.7653144
51
27.9410532
0
ARC
8
DEFAULT_255_1_234
10
5.6487991
20
156.286979
40
0.2235026
50
27.8166557
51
46.4008329
0
ARC
8
DEFAULT_255_1_234
10
5.6537634
20
156.2864082
40
0.2205286
50
47.4371857
51
75.0698205
0
ARC
8
DEFAULT_255_1_234
10
5.6229029
20
156.1789765
40
0.3322915
50
74.7008593
51
87.8124495
0
ARC
8
DEFAULT_255_1_234
10
5.6155716
20
156.0733844
40
0.4380987
50
87.3814673
51
90.0240855
0
ARC
8
DEFAULT_255_1_234
10
5.6117259
20
156.1911291
40
0.3203749
50
89.3451631
51
108.5745436
0
ARC
8
DEFAULT_255_1_234
10
5.5980365
20
156.2424908
40
0.2673494
50
109.2998449
51
143.3037509
0
ARC
8
DEFAULT_255_1_234
10
5.6742437
20
156.1838881
40
0.3634757
50
143.0753173
51
163.1916937
0
ARC
8
DEFAULT_255_1_234
10
5.8694165
20
156.1222967
40
0.5681262
50
162.9373603
51
174.6208611
0
ARC
8
DEFAULT_255_1_234
10
6.1320207
20
156.093501
40
0.8322832
50
174.3419979
51
180.1430411
0
ARC
8
DEFAULT_255_1_234
10
6.0389363
20
155.9740698
40
0.7392076
50
179.6817502
51
189.150529
0
ARC
8
DEFAULT_255_1_234
10
5.7888611
20
155.932419
40
0.4856932
50
188.9910863
51
203.5773039
0
ARC
8
DEFAULT_255_1_234
10
5.6808944
20
155.8876211
40
0.3688271
50
203.9077269
51
215.1312379
0
ARC
8
DEFAULT_255_1_234
10
5.5886038
20
155.8160941
40
0.2522457
50
213.9071664
51
263.8849284
0
ARC
8
DEFAULT_255_1_234
10
5.6011367
20
155.8945518
40
0.3316174
50
263.1758525
51
270.1031083
0
ARC
8
DEFAULT_255_1_234
10
5.6043459
20
156.0192365
40
0.4563091
50
269.6719807
51
279.0609165
0
ARC
8
DEFAULT_255_1_234
10
5.6310227
20
155.8579907
40
0.2928759
50
278.8750225
51
293.6346586
0
ARC
8
DEFAULT_255_1_234
10
5.6630435
20
155.78279
40
0.2111472
50
293.8553404
51
310.0518804
0
ARC
8
DEFAULT_255_1_234
10
5.6635289
20
155.7765516
40
0.2060917
50
311.0646779
51
332.0108348
0
ARC
8
DEFAULT_255_1_234
10
5.5443016
20
155.8422978
40
0.3422352
50
331.6588543
51
343.2878891
0
ARC
8
DEFAULT_255_1_234
10
5.3380531
20
155.9056798
40
0.5580003
50
343.1446044
51
351.010618
0
ARC
8
DEFAULT_255_1_234
10
5.1839177
20
155.9337871
40
0.7146438
50
350.7157277
51
351.1602153
0
LINE
8
DEFAULT_255_1_234
10
23.0665522
20
164.5598211
11
23.3990662
21
163.5952093
0
LINE
8
DEFAULT_255_1_234
10
23.3990662
20
163.5952093
11
23.7331865
21
164.5598211
0
LINE
8
DEFAULT_255_1_234
10
23.7331865
20
164.5598211
11
23.901853
21
164.5598211
0
LINE
8
DEFAULT_255_1_234
10
23.901853
20
164.5598211
11
23.4681391
21
163.3904
0
LINE
8
DEFAULT_255_1_234
10
23.4681391
20
163.3904
11
23.3315996
21
163.3904
0
LINE
8
DEFAULT_255_1_234
10
23.3315996
20
163.3904
11
22.8986889
21
164.5598211
0
LINE
8
DEFAULT_255_1_234
10
22.8986889
20
164.5598211
11
23.0665522
21
164.5598211
0
LINE
8
DEFAULT_255_1_234
10
24.3146843
20
163.9478026
11
24.3146843
21
163.8265234
0
LINE
8
DEFAULT_255_1_234
10
24.3146843
20
163.8265234
11
23.9227355
21
163.8265234
0
LINE
8
DEFAULT_255_1_234
10
23.9227355
20
163.8265234
11
23.9227355
21
163.9478026
0
LINE
8
DEFAULT_255_1_234
10
23.9227355
20
163.9478026
11
24.3146843
21
163.9478026
0
ENDSEC
0
EOF