0
SECTION
2
HEADER
9
$MEASUREMENT
70
1
0
ENDSEC
0
SECTION
2
TABLES
0
TABLE
2
LTYPE
0
LTYPE
72
65
70
64
2
CONTINUOUS
3
______
73
0
40
0
0
ENDTAB
0
TABLE
2
LAYER
0
LAYER
2
DEFAULT_255_2_778
70
0
62
255
6
CONTINUOUS
0
LAYER
2
DEFAULT_255_1_604
70
0
62
255
6
CONTINUOUS
0
LAYER
2
DEFAULT_255_1_234
70
0
62
255
6
CONTINUOUS
0
ENDTAB
0
ENDSEC
0
SECTION
2
ENTITIES
0
ARC
8
DEFAULT_255_2_778
10
3.5700693
20
181.6384682
40
0.7914215
50
129.1312896
51
180.1450914
0
ARC
8
DEFAULT_255_2_778
10
3.5703345
20
181.6389553
40
0.7912112
50
89.854026
51
129.1684493
0
ARC
8
DEFAULT_255_2_778
10
25.7993937
20
181.6386419
40
0.7915249
50
39.4792447
51
90.147911
0
ARC
8
DEFAULT_255_2_778
10
25.7999935
20
181.6384885
40
0.7911595
50
359.8533901
51
39.5154338
0
ARC
8
DEFAULT_255_2_778
10
25.7997714
20
-1.9864442
40
0.7913815
50
309.1282118
51
0.1454017
0
ARC
8
DEFAULT_255_2_778
10
25.7993889
20
-1.9867615
40
0.7913769
50
269.8524075
51
309.1641908
0
ARC
8
DEFAULT_255_2_778
10
3.5703462
20
-1.9867169
40
0.7914215
50
219.1312896
51
270.1450914
0
ARC
8
DEFAULT_255_2_778
10
3.5698591
20
-1.9864517
40
0.7912112
50
179.854026
51
219.1684493
0
LINE
8
DEFAULT_255_2_778
10
3.5723503
20
182.4301641
11
25.7973503
21
182.4301641
0
LINE
8
DEFAULT_255_2_778
10
26.5911503
20
181.6364641
11
26.5911503
21
-1.9844359
0
LINE
8
DEFAULT_255_2_778
10
25.7973503
20
-2.7781359
11
3.5723503
21
-2.7781359
0
LINE
8
DEFAULT_255_2_778
10
2.7786503
20
-1.9844359
11
2.7786503
21
181.6364641
0
LINE
8
DEFAULT_255_1_604
10
8.1655179
20
-0.711
11
7.6382515
21
-0.711
0
LINE
8
DEFAULT_255_1_604
10
7.6382515
20
-0.711
11
7.6382515
21
0.8091977
0
LINE
8
DEFAULT_255_1_604
10
7.6382515
20
0.8091977
11
8.1352392
21
0.8091977
0
LINE
8
DEFAULT_255_1_604
10
8.1728265
20
0.0000265
11
7.8387171
21
0.0000265
0
LINE
8
DEFAULT_255_1_604
10
7.8387171
20
0.0000265
11
7.8387171
21
-0.5470776
0
LINE
8
DEFAULT_255_1_604
10
7.8387171
20
-0.5470776
11
8.1696942
21
-0.5470776
0
LINE
8
DEFAULT_255_1_604
10
7.8387171
20
0.6442312
11
7.8387171
21
0.1608167
0
LINE
8
DEFAULT_255_1_604
10
7.8387171
20
0.1608167
11
8.1415038
21
0.1608167
0
LINE
8
DEFAULT_255_1_604
10
8.1352392
20
0.6442312
11
7.8387171
21
0.6442312
0
ARC
8
DEFAULT_255_1_604
10
8.1401381
20
-0.1485275
40
0.9577377
50
82.1256031
51
90.2930757
0
ARC
8
DEFAULT_255_1_604
10
8.1907017
20
0.2048161
40
0.600801
50
69.9044245
51
82.2856314
0
ARC
8
DEFAULT_255_1_604
10
8.2648902
20
0.4053576
40
0.386979
50
51.1838307
51
70.0182091
0
ARC
8
DEFAULT_255_1_604
10
8.2980314
20
0.4535319
40
0.328699
50
12.1018414
51
50.4212805
0
ARC
8
DEFAULT_255_1_604
10
8.1180948
20
0.4083494
40
0.5141499
50
359.5253348
51
12.821154
0
ARC
8
DEFAULT_255_1_604
10
8.3234875
20
0.3993386
40
0.3087759
50
323.4907457
51
0.8817067
0
ARC
8
DEFAULT_255_1_604
10
8.2691105
20
0.4413508
40
0.3774801
50
298.6824188
51
323.2758135
0
ARC
8
DEFAULT_255_1_604
10
8.2221031
20
0.5194869
40
0.4686048
50
293.1995883
51
299.1394057
0
ARC
8
DEFAULT_255_1_604
10
8.3095811
20
-0.2715951
40
0.3732275
50
54.0009817
51
74.9167658
0
ARC
8
DEFAULT_255_1_604
10
8.3247131
20
-0.2459554
40
0.3436018
50
36.3578154
51
53.5293992
0
ARC
8
DEFAULT_255_1_604
10
8.3082301
20
-0.2577045
40
0.3638415
50
4.8189087
51
36.3090464
0
ARC
8
DEFAULT_255_1_604
10
8.2069715
20
-0.2719673
40
0.4659752
50
359.9367765
51
5.5205294
0
ARC
8
DEFAULT_255_1_604
10
8.1647576
20
-0.2772481
40
0.5082112
50
344.7479939
51
0.537398
0
ARC
8
DEFAULT_255_1_604
10
8.2935819
20
-0.3119721
40
0.3747897
50
311.178628
51
344.6886592
0
ARC
8
DEFAULT_255_1_604
10
8.2556293
20
-0.2647257
40
0.4353462
50
286.0417887
51
310.8440647
0
ARC
8
DEFAULT_255_1_604
10
8.1896964
20
-0.0506311
40
0.6593372
50
274.1043995
51
286.4070195
0
ARC
8
DEFAULT_255_1_604
10
8.166726
20
0.1941336
40
0.9051344
50
269.9235231
51
274.4457651
0
ARC
8
DEFAULT_255_1_604
10
8.1727035
20
-0.1099566
40
0.4371314
50
269.6055605
51
281.3739019
0
ARC
8
DEFAULT_255_1_604
10
8.2026869
20
-0.2520731
40
0.291896
50
281.1054628
51
302.5133988
0
ARC
8
DEFAULT_255_1_604
10
8.221777
20
-0.2863221
40
0.2527647
50
303.0371934
51
311.8811868
0
ARC
8
DEFAULT_255_1_604
10
8.2310641
20
-0.2973681
40
0.238341
50
311.9916739
51
351.7144321
0
ARC
8
DEFAULT_255_1_604
10
8.1248878
20
-0.2759148
40
0.3465515
50
350.7341957
51
0.2224023
0
ARC
8
DEFAULT_255_1_604
10
8.1109034
20
-0.2685643
40
0.3605834
50
359.0457196
51
17.2295835
0
ARC
8
DEFAULT_255_1_604
10
8.2459871
20
-0.2284341
40
0.2196814
50
17.6684379
51
78.9941241
0
ARC
8
DEFAULT_255_1_604
10
8.1788001
20
-0.4695733
40
0.4696345
50
76.5636957
51
90.6980584
0
LINE
8
DEFAULT_255_1_604
10
8.1730785
20
0.0000265
11
8.1728265
21
0.0000265
0
ARC
8
DEFAULT_255_1_604
10
8.1444384
20
0.5879112
40
0.4271046
50
269.6063106
51
281.4534923
0
ARC
8
DEFAULT_255_1_604
10
8.1734012
20
0.4512562
40
0.2874224
50
281.2042928
51
302.5145739
0
ARC
8
DEFAULT_255_1_604
10
8.1912245
20
0.4191716
40
0.2507964
50
303.020928
51
309.8376581
0
ARC
8
DEFAULT_255_1_604
10
8.2150412
20
0.392468
40
0.2150376
50
309.5229262
51
356.9508422
0
ARC
8
DEFAULT_255_1_604
10
8.1288214
20
0.4048739
40
0.3018958
50
355.4699421
51
0.0493903
0
ARC
8
DEFAULT_255_1_604
10
8.0925264
20
0.4077547
40
0.338201
50
359.5560369
51
11.2092191
0
ARC
8
DEFAULT_255_1_604
10
8.2169794
20
0.4335098
40
0.2111181
50
10.9185365
51
31.3225373
0
ARC
8
DEFAULT_255_1_604
10
8.2541304
20
0.4541785
40
0.1686451
50
31.8854132
51
52.1412247
0
ARC
8
DEFAULT_255_1_604
10
8.2184745
20
0.4038058
40
0.2303149
50
52.8286942
51
71.984654
0
ARC
8
DEFAULT_255_1_604
10
8.1696216
20
0.2600177
40
0.3821676
50
71.686566
51
82.8456151
0
ARC
8
DEFAULT_255_1_604
10
8.1384954
20
0.0248135
40
0.6194192
50
82.698473
51
90.1731399
0
ARC
8
DEFAULT_255_1_604
10
8.1355857
20
0.1655161
40
0.4787149
50
89.8757807
51
90.0414711
0
LINE
8
DEFAULT_255_1_604
10
9.0989359
20
0.8091977
11
9.4654122
21
0.2265944
0
LINE
8
DEFAULT_255_1_604
10
9.4654122
20
0.2265944
11
9.8298002
21
0.8091977
0
LINE
8
DEFAULT_255_1_604
10
9.8298002
20
0.8091977
11
10.0657649
21
0.8091977
0
LINE
8
DEFAULT_255_1_604
10
10.0657649
20
0.8091977
11
9.5854827
21
0.0553634
0
LINE
8
DEFAULT_255_1_604
10
9.5854827
20
0.0553634
11
10.07725
21
-0.711
0
LINE
8
DEFAULT_255_1_604
10
10.07725
20
-0.711
11
9.839197
21
-0.711
0
LINE
8
DEFAULT_255_1_604
10
9.839197
20
-0.711
11
9.4654122
21
-0.1179559
0
LINE
8
DEFAULT_255_1_604
10
9.4654122
20
-0.1179559
11
9.0895391
21
-0.711
0
LINE
8
DEFAULT_255_1_604
10
9.0895391
20
-0.711
11
8.8525303
21
-0.711
0
LINE
8
DEFAULT_255_1_604
10
8.8525303
20
-0.711
11
9.3453416
21
0.0553634
0
LINE
8
DEFAULT_255_1_604
10
9.3453416
20
0.0553634
11
8.8640153
21
0.8091977
0
LINE
8
DEFAULT_255_1_604
10
8.8640153
20
0.8091977
11
9.0989359
21
0.8091977
0
LINE
8
DEFAULT_255_1_604
10
10.6337509
20
0.0135997
11
10.6337509
21
-0.1440582
0
LINE
8
DEFAULT_255_1_604
10
10.6337509
20
-0.1440582
11
10.1242341
21
-0.1440582
0
LINE
8
DEFAULT_255_1_604
10
10.1242341
20
-0.1440582
11
10.1242341
21
0.0135997
0
LINE
8
DEFAULT_255_1_604
10
10.1242341
20
0.0135997
11
10.6337509
21
0.0135997
0
LINE
8
DEFAULT_255_1_604
10
11.2727351
20
-0.711
11
10.8519661
21
-0.711
0
LINE
8
DEFAULT_255_1_604
10
10.8519661
20
-0.711
11
10.8519661
21
0.8091977
0
LINE
8
DEFAULT_255_1_604
10
10.8519661
20
0.8091977
11
11.2810878
21
0.8091977
0
LINE
8
DEFAULT_255_1_604
10
11.9513947
20
0.1002593
11
11.9513947
21
0.0031588
0
LINE
8
DEFAULT_255_1_604
10
11.2863083
20
0.6442312
11
11.0524317
21
0.6442312
0
LINE
8
DEFAULT_255_1_604
10
11.0524317
20
0.6442312
11
11.0524317
21
-0.5470776
0
LINE
8
DEFAULT_255_1_604
10
11.0524317
20
-0.5470776
11
11.2633382
21
-0.5470776
0
LINE
8
DEFAULT_255_1_604
10
11.7530173
20
0.0073352
11
11.7530173
21
0.096083
0
ARC
8
DEFAULT_255_1_604
10
11.2861499
20
0.0467318
40
0.7624827
50
75.4100774
51
90.3803846
0
ARC
8
DEFAULT_255_1_604
10
11.3159861
20
0.1710839
40
0.6346294
50
60.1456505
51
75.1888808
0
ARC
8
DEFAULT_255_1_604
10
11.3366254
20
0.2070547
40
0.5931579
50
26.5254235
51
60.1450903
0
ARC
8
DEFAULT_255_1_604
10
11.1910094
20
0.1298364
40
0.757942
50
7.4029017
51
26.832236
0
ARC
8
DEFAULT_255_1_604
10
10.9837455
20
0.097549
40
0.967653
50
0.1604823
51
7.717504
0
ARC
8
DEFAULT_255_1_604
10
11.0050597
20
-0.001818
40
0.9463482
50
348.7290162
51
0.3013178
0
ARC
8
DEFAULT_255_1_604
10
11.220391
20
-0.0445929
40
0.7268094
50
333.0706801
51
348.7182579
0
ARC
8
DEFAULT_255_1_604
10
11.3460645
20
-0.1128487
40
0.583864
50
299.2531206
51
333.4571395
0
ARC
8
DEFAULT_255_1_604
10
11.2991527
20
-0.0237358
40
0.6845416
50
278.1072459
51
299.0340304
0
ARC
8
DEFAULT_255_1_604
10
11.2658834
20
0.1722393
40
0.8832658
50
270.4444611
51
278.4509945
0
ARC
8
DEFAULT_255_1_604
10
11.2685931
20
0.0514535
40
0.5985542
50
269.4969829
51
284.020426
0
ARC
8
DEFAULT_255_1_604
10
11.31478
20
-0.1260224
40
0.4151796
50
283.7700501
51
318.1556027
0
ARC
8
DEFAULT_255_1_604
10
11.2709371
20
-0.0932109
40
0.4697543
50
318.7416475
51
343.6872757
0
ARC
8
DEFAULT_255_1_604
10
11.036416
20
-0.0199609
40
0.7154224
50
343.3325746
51
355.8546968
0
ARC
8
DEFAULT_255_1_604
10
10.763559
20
0.005971
40
0.9894591
50
355.4991336
51
0.0789924
0
ARC
8
DEFAULT_255_1_604
10
10.8653996
20
0.1015758
40
0.8876346
50
359.6454412
51
9.8607665
0
ARC
8
DEFAULT_255_1_604
10
11.1722734
20
0.1569934
40
0.5758076
50
9.657244
51
26.1932279
0
ARC
8
DEFAULT_255_1_604
10
11.2929174
20
0.2130282
40
0.4428288
50
26.5777141
51
40.1534131
0
ARC
8
DEFAULT_255_1_604
10
11.3261554
20
0.2389604
40
0.4007056
50
40.3839847
51
80.1431575
0
ARC
8
DEFAULT_255_1_604
10
11.283663
20
0.0505702
40
0.5936668
50
79.2151462
51
89.7447056
0
LINE
8
DEFAULT_255_1_604
10
12.2541813
20
0.8091977
11
12.5131161
21
0.8091977
0
LINE
8
DEFAULT_255_1_604
10
12.5131161
20
0.8091977
11
13.0101038
21
-0.4311834
0
LINE
8
DEFAULT_255_1_604
10
13.0101038
20
-0.4311834
11
13.5070915
21
0.8091977
0
LINE
8
DEFAULT_255_1_604
10
13.5070915
20
0.8091977
11
13.7670704
21
0.8091977
0
LINE
8
DEFAULT_255_1_604
10
13.7670704
20
0.8091977
11
13.7670704
21
-0.711
0
LINE
8
DEFAULT_255_1_604
10
13.7670704
20
-0.711
11
13.5666047
21
-0.711
0
LINE
8
DEFAULT_255_1_604
10
13.5666047
20
-0.711
11
13.5666047
21
-0.119
0
LINE
8
DEFAULT_255_1_604
10
13.5666047
20
-0.119
11
13.5853984
21
0.5199842
0
LINE
8
DEFAULT_255_1_604
10
13.5853984
20
0.5199842
11
13.0863225
21
-0.711
0
LINE
8
DEFAULT_255_1_604
10
13.0863225
20
-0.711
11
12.932841
21
-0.711
0
LINE
8
DEFAULT_255_1_604
10
12.932841
20
-0.711
11
12.4348092
21
0.516852
0
LINE
8
DEFAULT_255_1_604
10
12.4348092
20
0.516852
11
12.454647
21
-0.119
0
LINE
8
DEFAULT_255_1_604
10
12.454647
20
-0.119
11
12.454647
21
-0.711
0
LINE
8
DEFAULT_255_1_604
10
12.454647
20
-0.711
11
12.2541813
21
-0.711
0
LINE
8
DEFAULT_255_1_604
10
12.2541813
20
-0.711
11
12.2541813
21
0.8091977
0
LINE
8
DEFAULT_255_1_604
10
14.7057089
20
0.8165063
11
14.7057089
21
-0.711
0
LINE
8
DEFAULT_255_1_604
10
14.7057089
20
-0.711
11
14.5115078
21
-0.711
0
LINE
8
DEFAULT_255_1_604
10
14.5115078
20
-0.711
11
14.5115078
21
0.5763652
0
LINE
8
DEFAULT_255_1_604
10
14.5115078
20
0.5763652
11
14.1220616
21
0.4333246
0
LINE
8
DEFAULT_255_1_604
10
14.1220616
20
0.4333246
11
14.1220616
21
0.608732
0
LINE
8
DEFAULT_255_1_604
10
14.1220616
20
0.608732
11
14.6754302
21
0.8165063
0
LINE
8
DEFAULT_255_1_604
10
14.6754302
20
0.8165063
11
14.7057089
21
0.8165063
0
LINE
8
DEFAULT_255_1_604
10
15.6934197
20
0.0135997
11
15.6934197
21
-0.1440582
0
LINE
8
DEFAULT_255_1_604
10
15.6934197
20
-0.1440582
11
15.1839029
21
-0.1440582
0
LINE
8
DEFAULT_255_1_604
10
15.1839029
20
-0.1440582
11
15.1839029
21
0.0135997
0
LINE
8
DEFAULT_255_1_604
10
15.1839029
20
0.0135997
11
15.6934197
21
0.0135997
0
LINE
8
DEFAULT_255_1_604
10
16.1423792
20
-0.0145908
11
16.1423792
21
0.1430671
0
LINE
8
DEFAULT_255_1_604
10
16.1423792
20
0.1430671
11
16.287508
21
0.1430671
0
LINE
8
DEFAULT_255_1_604
10
16.0400582
20
0.4103546
11
15.8469012
21
0.4103546
0
LINE
8
DEFAULT_255_1_604
10
15.833328
20
-0.3100687
11
16.0275291
21
-0.3100687
0
LINE
8
DEFAULT_255_1_604
10
16.287508
20
-0.0145908
11
16.1423792
21
-0.0145908
0
ARC
8
DEFAULT_255_1_604
10
16.2837224
20
0.5840885
40
0.4410377
50
270.4917931
51
281.8955255
0
ARC
8
DEFAULT_255_1_604
10
16.315083
20
0.4408544
40
0.2944175
50
281.6692752
51
301.2943474
0
ARC
8
DEFAULT_255_1_604
10
16.3372201
20
0.4003586
40
0.2483239
50
301.7831626
51
311.755085
0
ARC
8
DEFAULT_255_1_604
10
16.3491153
20
0.3871706
40
0.2305641
50
311.7324029
51
354.280397
0
ARC
8
DEFAULT_255_1_604
10
16.2546342
20
0.4034209
40
0.3262644
50
353.0943421
51
0.1175127
0
ARC
8
DEFAULT_255_1_604
10
16.1947305
20
0.4096134
40
0.3862068
50
359.1805545
51
15.045231
0
ARC
8
DEFAULT_255_1_604
10
16.3696865
20
0.4606505
40
0.2040365
50
13.9577888
51
77.6713864
0
ARC
8
DEFAULT_255_1_604
10
16.3194469
20
0.2806065
40
0.3908005
50
76.1114895
51
90.7026544
0
ARC
8
DEFAULT_255_1_604
10
16.3117541
20
0.3161731
40
0.3552163
50
89.5321917
51
103.5318778
0
ARC
8
DEFAULT_255_1_604
10
16.285683
20
0.4200807
40
0.2480949
50
103.2929833
51
133.5620906
0
ARC
8
DEFAULT_255_1_604
10
16.2798982
20
0.4278115
40
0.2385092
50
133.8349262
51
173.5344277
0
ARC
8
DEFAULT_255_1_604
10
16.3739277
20
0.4111478
40
0.3338705
50
172.509964
51
180.1361221
0
ARC
8
DEFAULT_255_1_604
10
16.2502504
20
0.4156239
40
0.4033836
50
155.3484128
51
180.7484661
0
ARC
8
DEFAULT_255_1_604
10
16.243892
20
0.4118839
40
0.3992104
50
131.5744451
51
154.4798899
0
ARC
8
DEFAULT_255_1_604
10
16.2846009
20
0.3707339
40
0.4570196
50
96.9875663
51
131.9690047
0
ARC
8
DEFAULT_255_1_604
10
16.3131316
20
0.2088086
40
0.6212727
50
89.8595695
51
97.7825579
0
ARC
8
DEFAULT_255_1_604
10
16.3193791
20
0.1747321
40
0.6553644
50
78.3656283
51
90.4130722
0
ARC
8
DEFAULT_255_1_604
10
16.365907
20
0.3904367
40
0.4347135
50
56.6230012
51
78.6386856
0
ARC
8
DEFAULT_255_1_604
10
16.3938535
20
0.4393122
40
0.3785411
50
47.025243
51
56.0854554
0
ARC
8
DEFAULT_255_1_604
10
16.3964218
20
0.4444317
40
0.3730483
50
10.9207383
51
46.7778494
0
ARC
8
DEFAULT_255_1_604
10
16.2191212
20
0.4034352
40
0.5549448
50
359.6364104
51
11.6088183
0
ARC
8
DEFAULT_255_1_604
10
16.4576366
20
0.4014715
40
0.3164219
50
332.3550143
51
359.7179091
0
ARC
8
DEFAULT_255_1_604
10
16.3730701
20
0.4415727
40
0.4099577
50
325.2334469
51
332.8742316
0
ARC
8
DEFAULT_255_1_604
10
16.3929281
20
0.4277409
40
0.3857574
50
292.9802575
51
325.2392188
0
ARC
8
DEFAULT_255_1_604
10
16.3577179
20
0.4959941
40
0.4623766
50
292.5397005
51
293.6951325
0
ARC
8
DEFAULT_255_1_604
10
16.4082655
20
-0.341927
40
0.4299532
50
57.6434548
51
72.8625415
0
ARC
8
DEFAULT_255_1_604
10
16.4543528
20
-0.2672481
40
0.3422057
50
36.7247113
51
57.470055
0
ARC
8
DEFAULT_255_1_604
10
16.4528711
20
-0.2656056
40
0.3424183
50
8.054472
51
36.3561744
0
ARC
8
DEFAULT_255_1_604
10
16.3407254
20
-0.2857609
40
0.4563015
50
359.8320155
51
8.5872874
0
ARC
8
DEFAULT_255_1_604
10
16.291922
20
-0.2920099
40
0.5051266
50
343.9831713
51
0.5570701
0
ARC
8
DEFAULT_255_1_604
10
16.4071341
20
-0.3235565
40
0.3856853
50
311.6358104
51
343.7652042
0
ARC
8
DEFAULT_255_1_604
10
16.3579384
20
-0.2680928
40
0.4598234
50
279.7829357
51
311.6256315
0
ARC
8
DEFAULT_255_1_604
10
16.3187813
20
-0.0812739
40
0.6506151
50
269.7285106
51
280.3856721
0
ARC
8
DEFAULT_255_1_604
10
16.3107288
20
-0.086642
40
0.645259
50
256.6827358
51
270.441285
0
ARC
8
DEFAULT_255_1_604
10
16.2667002
20
-0.2666218
40
0.4599794
50
229.4223584
51
256.8555742
0
ARC
8
DEFAULT_255_1_604
10
16.2128029
20
-0.3272864
40
0.3788469
50
181.8183621
51
229.6454778
0
ARC
8
DEFAULT_255_1_604
10
16.3481073
20
-0.3102804
40
0.5147794
50
179.9764391
51
183.2324908
0
ARC
8
DEFAULT_255_1_604
10
16.3255961
20
-0.3129475
40
0.2980809
50
179.446648
51
196.2872674
0
ARC
8
DEFAULT_255_1_604
10
16.2622173
20
-0.330286
40
0.2323859
50
196.5664017
51
227.7057733
0
ARC
8
DEFAULT_255_1_604
10
16.2835457
20
-0.3064345
40
0.2643817
50
227.765162
51
257.8764148
0
ARC
8
DEFAULT_255_1_604
10
16.3127899
20
-0.1838591
40
0.3903756
50
257.4583202
51
270.426888
0
ARC
8
DEFAULT_255_1_604
10
16.318715
20
-0.1461744
40
0.4280602
50
269.5962314
51
280.8790916
0
ARC
8
DEFAULT_255_1_604
10
16.3485535
20
-0.2951864
40
0.2760972
50
280.6346017
51
299.8596852
0
ARC
8
DEFAULT_255_1_604
10
16.3733689
20
-0.3423029
40
0.2228889
50
300.3576585
51
314.5516986
0
ARC
8
DEFAULT_255_1_604
10
16.3625861
20
-0.3344117
40
0.2360868
50
315.0729815
51
345.0429514
0
ARC
8
DEFAULT_255_1_604
10
16.2425882
20
-0.2994554
40
0.3610519
50
344.5984288
51
357.9271052
0
ARC
8
DEFAULT_255_1_604
10
16.1259127
20
-0.2914634
40
0.4779551
50
357.4755864
51
0.0225749
0
ARC
8
DEFAULT_255_1_604
10
16.2591322
20
-0.2882964
40
0.3447484
50
359.5049532
51
13.4236458
0
ARC
8
DEFAULT_255_1_604
10
16.3718029
20
-0.259463
40
0.2284699
50
12.9498462
51
48.7549767
0
ARC
8
DEFAULT_255_1_604
10
16.3481083
20
-0.2918451
40
0.2684625
50
49.5090124
51
72.1834674
0
ARC
8
DEFAULT_255_1_604
10
16.3015953
20
-0.4298964
40
0.4141297
50
71.9008481
51
84.3557294
0
ARC
8
DEFAULT_255_1_604
10
16.2806086
20
-0.6068913
40
0.5923407
50
84.0193937
51
89.3326292
0
LINE
8
DEFAULT_255_1_604
10
17.7857797
20
0.8102417
11
17.8202347
21
0.8102417
0
LINE
8
DEFAULT_255_1_604
10
17.8202347
20
0.8102417
11
17.8202347
21
0.6463193
0
LINE
8
DEFAULT_255_1_604
10
17.8202347
20
0.6463193
11
17.7847356
21
0.6463193
0
LINE
8
DEFAULT_255_1_604
10
17.0737091
20
-0.1325731
11
17.0737091
21
-0.0584426
0
LINE
8
DEFAULT_255_1_604
10
17.2679102
20
-0.0835008
11
17.2679102
21
-0.1544991
0
ARC
8
DEFAULT_255_1_604
10
17.7915404
20
-0.0033766
40
0.6497316
50
90.6000832
51
104.5146297
0
ARC
8
DEFAULT_255_1_604
10
17.7410387
20
0.1844298
40
0.4552658
50
104.2855267
51
133.8630714
0
ARC
8
DEFAULT_255_1_604
10
17.7623268
20
0.1703494
40
0.4802017
50
134.5302776
51
161.6211184
0
ARC
8
DEFAULT_255_1_604
10
17.9772488
20
0.0945661
40
0.7080677
50
161.2850611
51
174.2074729
0
ARC
8
DEFAULT_255_1_604
10
18.1609418
20
0.0692552
40
0.893402
50
173.7814907
51
174.9248506
0
ARC
8
DEFAULT_255_1_604
10
17.5686284
20
-0.1104414
40
0.3943324
50
95.8331611
51
138.9954585
0
ARC
8
DEFAULT_255_1_604
10
17.5976631
20
-0.2766672
40
0.5627761
50
89.8753659
51
97.0539913
0
ARC
8
DEFAULT_255_1_604
10
17.6038336
20
-0.1680401
40
0.4541748
50
71.6407637
51
90.624006
0
ARC
8
DEFAULT_255_1_604
10
17.6234078
20
-0.0959793
40
0.3796388
50
39.6367886
51
71.0190541
0
ARC
8
DEFAULT_255_1_604
10
17.5406609
20
-0.1674887
40
0.4889851
50
10.6587975
51
39.9044015
0
ARC
8
DEFAULT_255_1_604
10
17.3394323
20
-0.2112093
40
0.694852
50
359.6827733
51
11.1326812
0
ARC
8
DEFAULT_255_1_604
10
17.3342647
20
-0.2203951
40
0.7000292
50
347.2485661
51
0.4369619
0
ARC
8
DEFAULT_255_1_604
10
17.5510227
20
-0.2725498
40
0.4771152
50
318.1408756
51
347.611859
0
ARC
8
DEFAULT_255_1_604
10
17.5932687
20
-0.3072711
40
0.4224878
50
275.634222
51
317.8247771
0
ARC
8
DEFAULT_255_1_604
10
17.5645543
20
-0.1383352
40
0.5935479
50
269.8874263
51
276.7917079
0
ARC
8
DEFAULT_255_1_604
10
17.5574132
20
-0.2716496
40
0.4602711
50
246.9139864
51
270.7437966
0
ARC
8
DEFAULT_255_1_604
10
17.5582479
20
-0.2901489
40
0.4436529
50
218.1667392
51
245.8779694
0
ARC
8
DEFAULT_255_1_604
10
17.6725719
20
-0.1944908
40
0.5926658
50
191.4115405
51
218.6076887
0
ARC
8
DEFAULT_255_1_604
10
17.924503
20
-0.1380025
40
0.8508112
50
179.6343721
51
191.78367
0
ARC
8
DEFAULT_255_1_604
10
18.6501987
20
-0.0497524
40
1.5765135
50
171.4524999
51
180.3158318
0
ARC
8
DEFAULT_255_1_604
10
18.078833
20
0.0391588
40
0.9982837
50
157.9802049
51
171.6248009
0
ARC
8
DEFAULT_255_1_604
10
17.7910419
20
0.1539149
40
0.6884621
50
141.4298684
51
157.8540769
0
ARC
8
DEFAULT_255_1_604
10
17.7076223
20
0.2129305
40
0.5864756
50
102.8715332
51
140.8565167
0
ARC
8
DEFAULT_255_1_604
10
17.7918088
20
-0.1042311
40
0.9144928
50
90.3777448
51
103.5869442
0
ARC
8
DEFAULT_255_1_604
10
17.5658489
20
-0.1828615
40
0.3081798
50
89.8751467
51
126.2073013
0
ARC
8
DEFAULT_255_1_604
10
17.5717967
20
-0.2029334
40
0.3279651
50
124.9742745
51
144.8960214
0
ARC
8
DEFAULT_255_1_604
10
17.5489473
20
-0.184315
40
0.2985723
50
145.2974858
51
160.2659776
0
ARC
8
DEFAULT_255_1_604
10
17.9483568
20
-0.1586401
40
0.6804593
50
179.651315
51
190.285586
0
ARC
8
DEFAULT_255_1_604
10
17.728163
20
-0.2001457
40
0.4563955
50
190.0945246
51
207.5100169
0
ARC
8
DEFAULT_255_1_604
10
17.654616
20
-0.2351396
40
0.3750121
50
207.9583664
51
216.3254093
0
ARC
8
DEFAULT_255_1_604
10
17.6104422
20
-0.2714703
40
0.3179167
50
215.7661473
51
232.5456418
0
ARC
8
DEFAULT_255_1_604
10
17.5606513
20
-0.3347288
40
0.2374228
50
232.8006051
51
270.6604754
0
ARC
8
DEFAULT_255_1_604
10
17.5665932
20
-0.2874029
40
0.2847509
50
269.3550916
51
288.4747303
0
ARC
8
DEFAULT_255_1_604
10
17.5786683
20
-0.3328272
40
0.2378594
50
289.1833058
51
322.9683803
0
ARC
8
DEFAULT_255_1_604
10
17.4991846
20
-0.2701365
40
0.3390743
50
322.6005668
51
346.5184776
0
ARC
8
DEFAULT_255_1_604
10
17.3487067
20
-0.2317543
40
0.494359
50
346.2584658
51
358.7740518
0
ARC
8
DEFAULT_255_1_604
10
17.2158775
20
-0.2245515
40
0.6273272
50
358.3759058
51
0.0089746
0
ARC
8
DEFAULT_255_1_604
10
17.3146591
20
-0.2209583
40
0.5285572
50
359.6211517
51
11.2840036
0
ARC
8
DEFAULT_255_1_604
10
17.4806644
20
-0.1863297
40
0.358988
50
11.0483326
51
31.8145783
0
ARC
8
DEFAULT_255_1_604
10
17.5208598
20
-0.1645366
40
0.3133542
50
32.3029694
51
38.0825427
0
ARC
8
DEFAULT_255_1_604
10
17.5755255
20
-0.1150129
40
0.2398374
50
36.8249897
51
85.7415937
0
ARC
8
DEFAULT_255_1_604
10
17.5667962
20
-0.180008
40
0.3053257
50
85.0136622
51
90.0517472
0
LINE
8
DEFAULT_255_1_604
10
19.2976246
20
-0.711
11
19.1524958
21
-0.3142451
0
LINE
8
DEFAULT_255_1_604
10
19.1524958
20
-0.3142451
11
18.5155999
21
-0.3142451
0
LINE
8
DEFAULT_255_1_604
10
18.5155999
20
-0.3142451
11
18.3725593
21
-0.711
0
LINE
8
DEFAULT_255_1_604
10
18.3725593
20
-0.711
11
18.1658291
21
-0.711
0
LINE
8
DEFAULT_255_1_604
10
18.1658291
20
-0.711
11
18.7463441
21
0.8091977
0
LINE
8
DEFAULT_255_1_604
10
18.7463441
20
0.8091977
11
18.9217516
21
0.8091977
0
LINE
8
DEFAULT_255_1_604
10
18.9217516
20
0.8091977
11
19.5033107
21
-0.711
0
LINE
8
DEFAULT_255_1_604
10
19.5033107
20
-0.711
11
19.2976246
21
-0.711
0
LINE
8
DEFAULT_255_1_604
10
18.8340479
20
0.5617479
11
18.5761572
21
-0.1492786
0
LINE
8
DEFAULT_255_1_604
10
18.5761572
20
-0.1492786
11
19.0929826
21
-0.1492786
0
LINE
8
DEFAULT_255_1_604
10
19.0929826
20
-0.1492786
11
18.8340479
21
0.5617479
0
LINE
8
DEFAULT_255_1_604
10
20.5954307
20
-0.711
11
20.2654977
21
-0.0960299
0
LINE
8
DEFAULT_255_1_604
10
20.2654977
20
-0.0960299
11
19.9084183
21
-0.0960299
0
LINE
8
DEFAULT_255_1_604
10
19.9084183
20
-0.0960299
11
19.9084183
21
-0.711
0
LINE
8
DEFAULT_255_1_604
10
19.9084183
20
-0.711
11
19.7069086
21
-0.711
0
LINE
8
DEFAULT_255_1_604
10
19.7069086
20
-0.711
11
19.7069086
21
0.8091977
0
LINE
8
DEFAULT_255_1_604
10
19.7069086
20
0.8091977
11
20.2101608
21
0.8091977
0
LINE
8
DEFAULT_255_1_604
10
20.4534342
20
-0.0532222
11
20.8105136
21
-0.6984709
0
LINE
8
DEFAULT_255_1_604
10
20.8105136
20
-0.6984709
11
20.8105136
21
-0.711
0
LINE
8
DEFAULT_255_1_604
10
20.8105136
20
-0.711
11
20.5954307
21
-0.711
0
LINE
8
DEFAULT_255_1_604
10
19.9084183
20
0.6442312
11
19.9084183
21
0.0678925
0
LINE
8
DEFAULT_255_1_604
10
19.9084183
20
0.0678925
11
20.2164254
21
0.0678925
0
LINE
8
DEFAULT_255_1_604
10
20.2153813
20
0.6442312
11
19.9084183
21
0.6442312
0
ARC
8
DEFAULT_255_1_604
10
20.2155763
20
-0.0957306
40
0.9049445
50
80.6534298
51
90.3428782
0
ARC
8
DEFAULT_255_1_604
10
20.2701065
20
0.2243757
40
0.5802347
50
65.6985442
51
80.8330543
0
ARC
8
DEFAULT_255_1_604
10
20.3321968
20
0.3667087
40
0.4249655
50
50.0017241
51
65.4306932
0
ARC
8
DEFAULT_255_1_604
10
20.3605943
20
0.4050758
40
0.3773321
50
11.6284612
51
49.5603452
0
ARC
8
DEFAULT_255_1_604
10
20.1609764
20
0.3563057
40
0.582732
50
359.5653823
51
12.369169
0
ARC
8
DEFAULT_255_1_604
10
20.3009522
20
0.3481591
40
0.4427552
50
341.9982919
51
0.4822194
0
ARC
8
DEFAULT_255_1_604
10
20.3522789
20
0.3342279
40
0.3896446
50
323.8608663
51
341.6140542
0
ARC
8
DEFAULT_255_1_604
10
20.3130513
20
0.3645195
40
0.4391908
50
296.7018753
51
323.6875271
0
ARC
8
DEFAULT_255_1_604
10
20.2557268
20
0.4670173
40
0.5565405
50
290.808375
51
297.2324914
0
ARC
8
DEFAULT_255_1_604
10
20.2197706
20
0.5350525
40
0.467172
50
269.5897295
51
281.8058768
0
ARC
8
DEFAULT_255_1_604
10
20.2523877
20
0.3858688
40
0.3144739
50
281.5499349
51
303.935729
0
ARC
8
DEFAULT_255_1_604
10
20.2702517
20
0.3549133
40
0.2788292
50
304.4412701
51
311.2116295
0
ARC
8
DEFAULT_255_1_604
10
20.2873942
20
0.3368478
40
0.2539468
50
310.987447
51
356.2715628
0
ARC
8
DEFAULT_255_1_604
10
20.1890505
20
0.3515074
40
0.3531316
50
354.9355631
51
0.0613455
0
ARC
8
DEFAULT_255_1_604
10
20.1647521
20
0.3550218
40
0.377443
50
359.5238974
51
12.8810874
0
ARC
8
DEFAULT_255_1_604
10
20.2918222
20
0.3861279
40
0.2466444
50
12.4174629
51
43.1021461
0
ARC
8
DEFAULT_255_1_604
10
20.2998035
20
0.3909061
40
0.2375601
50
43.5760474
51
48.2039879
0
ARC
8
DEFAULT_255_1_604
10
20.2777952
20
0.3621524
40
0.2736785
50
48.7810032
51
72.6968122
0
ARC
8
DEFAULT_255_1_604
10
20.2317321
20
0.2223606
40
0.4208513
50
72.3699971
51
84.8793256
0
ARC
8
DEFAULT_255_1_604
10
20.2125538
20
0.0479341
40
0.5963037
50
84.5398091
51
89.728323
0
ARC
8
DEFAULT_255_2_778
10
20.2534188
20
178.8199525
40
0.3580657
50
89.9945037
51
180.0054963
0
ARC
8
DEFAULT_255_2_778
10
20.2534875
20
178.8199525
40
0.3580657
50
359.9945037
51
90.0054963
0
ARC
8
DEFAULT_255_2_778
10
20.2534875
20
178.8198838
40
0.3580657
50
269.9945037
51
0.0054963
0
ARC
8
DEFAULT_255_2_778
10
20.2534188
20
178.8198838
40
0.3580657
50
179.9945037
51
270.0054963
0
ARC
8
DEFAULT_255_2_778
10
22.9622406
20
178.551582
40
2.3282817
50
111.9150345
51
128.7655504
0
ARC
8
DEFAULT_255_2_778
10
22.8791007
20
178.683652
40
2.1733214
50
129.2366206
51
154.7721516
0
ARC
8
DEFAULT_255_2_778
10
23.480657
20
178.3878583
40
2.8435961
50
154.5467617
51
165.9285636
0
ARC
8
DEFAULT_255_2_778
10
23.9646902
20
178.2504212
40
3.3465569
50
165.6609748
51
166.525375
0
ARC
8
DEFAULT_255_2_778
10
21.5282291
20
179.4686171
40
1.414623
50
156.0627036
51
175.7189082
0
ARC
8
DEFAULT_255_2_778
10
22.1164502
20
179.215083
40
2.0551309
50
144.7505594
51
156.2560535
0
ARC
8
DEFAULT_255_2_778
10
22.8861799
20
178.6797863
40
2.9926766
50
137.345293
51
144.8863205
0
ARC
8
DEFAULT_255_2_778
10
23.8131446
20
177.8306407
40
4.2497776
50
131.6389266
51
137.393651
0
ARC
8
DEFAULT_255_2_778
10
24.5393492
20
177.0339248
40
5.3277326
50
130.1334351
51
131.7826198
0
LINE
8
DEFAULT_255_2_778
10
19.8953532
20
178.8199182
11
19.8953532
21
178.8199182
0
LINE
8
DEFAULT_255_2_778
10
21.1052532
20
181.1072182
11
22.0932532
21
180.7116182
0
LINE
8
DEFAULT_255_2_778
10
20.7102532
20
179.0302182
11
20.1175532
21
179.5742182
0
LINE
8
DEFAULT_255_2_778
10
21.1052532
20
181.1072182
11
21.1052532
21
181.1072182
0
ARC
8
DEFAULT_255_2_778
10
13.7594907
20
179.6434437
40
0.8717226
50
88.9281645
51
133.9885749
0
ARC
8
DEFAULT_255_2_778
10
13.7757454
20
179.4183604
40
1.0966534
50
88.9487005
51
89.9972984
0
ARC
8
DEFAULT_255_2_778
10
13.7953
20
179.7138011
40
0.8010283
50
72.1310318
51
89.9594908
0
ARC
8
DEFAULT_255_2_778
10
13.8705373
20
179.9708083
40
0.5333823
50
60.6505783
51
71.3519493
0
ARC
8
DEFAULT_255_2_778
10
13.9543387
20
180.0979349
40
0.3816498
50
20.3938858
51
62.2625554
0
ARC
8
DEFAULT_255_2_778
10
14.9704645
20
179.6099628
40
0.9050345
50
89.7568633
51
136.6758865
0
ARC
8
DEFAULT_255_2_778
10
14.9742773
20
179.4923709
40
1.0226182
50
88.9864436
51
89.9984426
0
ARC
8
DEFAULT_255_2_778
10
14.992248
20
179.731492
40
0.7833372
50
71.373585
51
89.9913488
0
ARC
8
DEFAULT_255_2_778
10
15.0841803
20
180.010342
40
0.489734
50
42.2193789
51
71.1458349
0
ARC
8
DEFAULT_255_2_778
10
15.0590908
20
180.0028658
40
0.5134635
50
8.5226311
51
40.9558105
0
ARC
8
DEFAULT_255_2_778
10
14.7367896
20
179.9376045
40
0.8420446
50
359.6942069
51
9.6641803
0
ARC
8
DEFAULT_255_2_778
10
14.4472507
20
179.9346277
40
1.1315727
50
355.5855084
51
359.923173
0
ARC
8
DEFAULT_255_2_778
10
14.2502845
20
179.9069289
40
0.7547163
50
352.4548626
51
359.7652122
0
ARC
8
DEFAULT_255_2_778
10
14.4078893
20
179.9040192
40
0.5971052
50
359.9824407
51
2.1700815
0
ARC
8
DEFAULT_255_2_778
10
14.8167551
20
179.9198752
40
0.1879327
50
2.0595693
51
88.944897
0
ARC
8
DEFAULT_255_2_778
10
14.7529878
20
179.6325725
40
0.4799353
50
81.9476992
51
88.9638763
0
ARC
8
DEFAULT_255_2_778
10
14.7641352
20
179.6264844
40
0.4859511
50
90.2910974
51
140.7094043
0
ARC
8
DEFAULT_255_2_778
10
14.950423
20
179.4336111
40
0.7529164
50
138.3264016
51
141.8088804
0
ARC
8
DEFAULT_255_2_778
10
13.0111845
20
179.9035289
40
0.7547163
50
352.4548626
51
359.7652122
0
ARC
8
DEFAULT_255_2_778
10
13.1687893
20
179.9006192
40
0.5971052
50
359.9824407
51
2.1700815
0
ARC
8
DEFAULT_255_2_778
10
13.5767327
20
179.9174775
40
0.1888212
50
1.7455696
51
88.6065628
0
ARC
8
DEFAULT_255_2_778
10
13.5151974
20
179.6411897
40
0.469731
50
81.9072271
51
88.8693446
0
ARC
8
DEFAULT_255_2_778
10
13.5126914
20
179.6011568
40
0.5098084
50
88.6765396
51
89.9981553
0
ARC
8
DEFAULT_255_2_778
10
13.5179114
20
179.6047569
40
0.5062351
50
90.5889431
51
134.9317856
0
ARC
8
DEFAULT_255_2_778
10
13.6708307
20
179.4143835
40
0.749469
50
132.9288129
51
135.7848647
0
LINE
8
DEFAULT_255_2_778
10
12.6682663
20
180.4807292
11
13.2005663
21
180.4823292
0
LINE
8
DEFAULT_255_2_778
10
13.2005663
20
180.4823292
11
13.1540663
21
180.2706292
0
LINE
8
DEFAULT_255_2_778
10
15.5754663
20
179.8475292
11
15.5715663
21
179.8047292
0
LINE
8
DEFAULT_255_2_778
10
15.5715663
20
179.8047292
11
15.3386663
21
178.6193292
0
LINE
8
DEFAULT_255_2_778
10
15.3386663
20
178.6193292
11
14.7655663
21
178.6193292
0
LINE
8
DEFAULT_255_2_778
10
14.7655663
20
178.6193292
11
14.9984663
21
179.8078292
0
LINE
8
DEFAULT_255_2_778
10
14.3586663
20
179.8991292
11
14.3525663
21
179.8597292
0
LINE
8
DEFAULT_255_2_778
10
14.3525663
20
179.8597292
11
14.0975663
21
178.6193292
0
LINE
8
DEFAULT_255_2_778
10
14.0975663
20
178.6193292
11
13.5265663
21
178.6193292
0
LINE
8
DEFAULT_255_2_778
10
13.5265663
20
178.6193292
11
13.7593663
21
179.8044292
0
LINE
8
DEFAULT_255_2_778
10
13.1336663
20
179.9370292
11
12.8603663
21
178.6193292
0
LINE
8
DEFAULT_255_2_778
10
12.8603663
20
178.6193292
11
12.2893663
21
178.6193292
0
LINE
8
DEFAULT_255_2_778
10
12.2893663
20
178.6193292
11
12.6679663
21
180.4804292
0
LINE
8
DEFAULT_255_2_778
10
12.6679663
20
180.4804292
11
12.6682663
21
180.4807292
0
ARC
8
DEFAULT_255_2_778
10
16.6200275
20
179.3301402
40
1.1831221
50
72.5008211
51
90.0103536
0
ARC
8
DEFAULT_255_2_778
10
16.6947507
20
179.5931399
40
0.9098586
50
60.3242318
51
72.0085714
0
ARC
8
DEFAULT_255_2_778
10
16.7751012
20
179.7136126
40
0.7654736
50
24.9543019
51
61.0852427
0
ARC
8
DEFAULT_255_2_778
10
16.6805748
20
179.6717465
40
0.8688408
50
359.4872778
51
24.8275177
0
ARC
8
DEFAULT_255_2_778
10
16.4736953
20
179.6653476
40
1.0756863
50
353.6171666
51
359.9267064
0
ARC
8
DEFAULT_255_2_778
10
16.4716377
20
179.6353267
40
1.0748142
50
309.833105
51
355.2199932
0
ARC
8
DEFAULT_255_2_778
10
16.4130984
20
179.7019469
40
1.1634726
50
274.0073872
51
309.9453537
0
ARC
8
DEFAULT_255_2_778
10
16.3618842
20
180.0704028
40
1.5348158
50
269.9462811
51
274.9533663
0
ARC
8
DEFAULT_255_2_778
10
16.3604794
20
180.1941871
40
1.6585995
50
269.1686307
51
269.9988202
0
ARC
8
DEFAULT_255_2_778
10
16.3365813
20
179.7066263
40
1.170864
50
252.1092944
51
269.9918014
0
ARC
8
DEFAULT_255_2_778
10
16.2643696
20
179.4563397
40
0.9105332
50
240.5370236
51
251.5952644
0
ARC
8
DEFAULT_255_2_778
10
16.1851911
20
179.3345089
40
0.7655666
50
205.2400495
51
241.211713
0
ARC
8
DEFAULT_255_2_778
10
16.2644037
20
179.3716751
40
0.8530649
50
179.5368594
51
205.2293562
0
ARC
8
DEFAULT_255_2_778
10
16.4511084
20
179.3772748
40
1.0397424
50
173.5174505
51
179.9285896
0
ARC
8
DEFAULT_255_2_778
10
16.6391783
20
179.3659758
40
1.2279263
50
153.4099026
51
173.9843619
0
ARC
8
DEFAULT_255_2_778
10
16.479572
20
179.4337448
40
1.0549233
50
129.6863931
51
152.8211827
0
ARC
8
DEFAULT_255_2_778
10
16.5416975
20
179.3631495
40
1.1489256
50
92.7623759
51
129.8224215
0
ARC
8
DEFAULT_255_2_778
10
16.5842285
20
179.0197549
40
1.494196
50
89.9700369
51
93.7568045
0
ARC
8
DEFAULT_255_2_778
10
16.5848986
20
178.9181597
40
1.5957911
50
88.7355209
51
89.9960014
0
ARC
8
DEFAULT_255_2_778
10
16.4400613
20
179.309903
40
0.4277578
50
179.6036168
51
209.4859363
0
ARC
8
DEFAULT_255_2_778
10
16.339416
20
179.2629836
40
0.3171735
50
211.0570865
51
223.1755117
0
ARC
8
DEFAULT_255_2_778
10
16.3473605
20
179.2809914
40
0.3353769
50
224.4904912
51
268.822899
0
ARC
8
DEFAULT_255_2_778
10
16.3773279
20
179.4929578
40
0.5485121
50
266.1471365
51
268.8180779
0
ARC
8
DEFAULT_255_2_778
10
16.3834514
20
179.6225665
40
0.6782284
50
268.5267288
51
269.9955114
0
ARC
8
DEFAULT_255_2_778
10
16.3990205
20
179.4320446
40
0.4879566
50
268.1653241
51
325.4286401
0
ARC
8
DEFAULT_255_2_778
10
16.1704675
20
179.5986589
40
0.7707306
50
324.8706977
51
351.0886768
0
ARC
8
DEFAULT_255_2_778
10
15.7623164
20
179.677559
40
1.1862684
50
350.3775551
51
0.2885744
0
ARC
8
DEFAULT_255_2_778
10
15.4717168
20
179.6832545
40
1.4768528
50
0.0108339
51
1.7075744
0
ARC
8
DEFAULT_255_2_778
10
16.4932944
20
179.7181407
40
0.4547108
50
1.1494496
51
31.2166939
0
ARC
8
DEFAULT_255_2_778
10
16.5878459
20
179.7650329
40
0.3496592
50
32.6753678
51
41.7495025
0
ARC
8
DEFAULT_255_2_778
10
16.6094593
20
179.7736938
40
0.3278631
50
43.1354862
51
88.8367492
0
ARC
8
DEFAULT_255_2_778
10
16.5789315
20
179.5613566
40
0.5414112
50
86.0618601
51
88.8694569
0
ARC
8
DEFAULT_255_2_778
10
16.5725619
20
179.4600668
40
0.6428217
50
88.4799611
51
89.9943311
0
ARC
8
DEFAULT_255_2_778
10
16.5615507
20
179.6133787
40
0.4896349
50
88.7039519
51
145.0513377
0
ARC
8
DEFAULT_255_2_778
10
16.7596336
20
179.4600936
40
0.7399051
50
144.1087108
51
170.2824956
0
ARC
8
DEFAULT_255_2_778
10
17.1861932
20
179.3729764
40
1.1751307
50
169.6063184
51
180.3528002
0
ARC
8
DEFAULT_255_2_778
10
17.5222659
20
179.3661441
40
1.5111813
50
180.0153016
51
182.009194
0
LINE
8
DEFAULT_255_2_778
10
16.6201137
20
180.5135623
11
16.6198137
21
180.5132623
0
LINE
8
DEFAULT_255_2_778
10
16.0120137
20
179.3131623
11
16.0123137
21
179.3128623
0
ARC
8
DEFAULT_255_2_778
10
18.587937
20
178.3913854
40
1.642039
50
81.2830361
51
86.628458
0
ARC
8
DEFAULT_255_2_778
10
18.6429757
20
179.2298313
40
0.8018272
50
87.0310432
51
89.8986713
0
ARC
8
DEFAULT_255_2_778
10
18.6242064
20
179.1411997
40
0.8906863
50
88.7012797
51
89.9954117
0
ARC
8
DEFAULT_255_2_778
10
18.6103452
20
179.3854623
40
0.6465738
50
88.765285
51
116.6201427
0
ARC
8
DEFAULT_255_2_778
10
18.5802548
20
179.4694694
40
0.5580924
50
117.7228833
51
138.7756782
0
ARC
8
DEFAULT_255_2_778
10
18.7590475
20
179.8356707
40
0.6980151
50
116.489914
51
143.0810972
0
ARC
8
DEFAULT_255_2_778
10
18.7053938
20
179.9157223
40
0.6025621
50
89.4580016
51
115.3188873
0
ARC
8
DEFAULT_255_2_778
10
18.6965205
20
179.5809885
40
0.9373821
50
77.9674605
51
89.1092017
0
ARC
8
DEFAULT_255_2_778
10
18.6028478
20
179.0504466
40
1.4759175
50
78.008513
51
78.7045202
0
LINE
8
DEFAULT_255_2_778
10
18.9094938
20
180.4944573
11
18.8367938
21
180.0144573
0
LINE
8
DEFAULT_255_2_778
10
18.1604938
20
179.8372573
11
17.9072938
21
178.6193573
0
LINE
8
DEFAULT_255_2_778
10
17.9072938
20
178.6193573
11
17.3362938
21
178.6193573
0
LINE
8
DEFAULT_255_2_778
10
17.3362938
20
178.6193573
11
17.7169938
21
180.4804573
0
LINE
8
DEFAULT_255_2_778
10
17.7169938
20
180.4804573
11
18.2535938
21
180.4820573
0
LINE
8
DEFAULT_255_2_778
10
18.2535938
20
180.4820573
11
18.2009938
21
180.2549573
0
LINE
8
DEFAULT_255_2_778
10
18.9094938
20
180.4941573
11
18.9094938
21
180.4944573
0
ARC
8
DEFAULT_255_2_778
10
19.1571667
20
179.705975
40
1.1701724
50
250.1393411
51
270.3226852
0
ARC
8
DEFAULT_255_2_778
10
19.1022051
20
179.5261343
40
0.9824012
50
242.0502734
51
249.5907868
0
ARC
8
DEFAULT_255_2_778
10
19.001531
20
179.3666015
40
0.794417
50
208.3292132
51
243.0715083
0
ARC
8
DEFAULT_255_2_778
10
18.9937252
20
179.3575929
40
0.7832826
50
179.5739013
51
208.0201199
0
ARC
8
DEFAULT_255_2_778
10
19.1404713
20
179.3626153
40
0.9300073
50
174.3657638
51
179.9505495
0
ARC
8
DEFAULT_255_2_778
10
19.3222378
20
179.40448
40
1.1074063
50
145.2485417
51
173.7769976
0
ARC
8
DEFAULT_255_2_778
10
19.3043239
20
179.4289177
40
1.0788028
50
116.4826416
51
145.7726174
0
ARC
8
DEFAULT_255_2_778
10
19.3348976
20
179.3592316
40
1.1548163
50
89.3335424
51
116.2986099
0
ARC
8
DEFAULT_255_2_778
10
19.3482483
20
179.1168133
40
1.3971563
50
88.7200635
51
89.9966493
0
ARC
8
DEFAULT_255_2_778
10
19.3739264
20
179.4012187
40
1.1124162
50
73.6937809
51
89.7151452
0
ARC
8
DEFAULT_255_2_778
10
19.4851962
20
179.7731827
40
0.7241771
50
40.439997
51
73.880282
0
ARC
8
DEFAULT_255_2_778
10
19.4519455
20
179.7513624
40
0.7636535
50
0.3396925
51
40.0677766
0
ARC
8
DEFAULT_255_2_778
10
19.2144824
20
179.7277788
40
1.0014977
50
359.9940332
51
1.608453
0
ARC
8
DEFAULT_255_2_778
10
19.0855644
20
179.7299523
40
1.1304181
50
353.1542739
51
359.8845474
0
ARC
8
DEFAULT_255_2_778
10
18.9436927
20
179.7444317
40
1.2730067
50
352.3796891
51
353.2683443
0
ARC
8
DEFAULT_255_2_778
10
19.1535012
20
179.3059797
40
0.3608489
50
171.5634883
51
179.9015639
0
ARC
8
DEFAULT_255_2_778
10
19.1262943
20
179.3101702
40
0.3336607
50
180.6131262
51
227.843893
0
ARC
8
DEFAULT_255_2_778
10
19.2043051
20
179.5718151
40
0.5918171
50
239.3225098
51
268.8255118
0
ARC
8
DEFAULT_255_2_778
10
19.2271512
20
179.8052016
40
0.8258202
50
267.5725716
51
270.0162941
0
ARC
8
DEFAULT_255_2_778
10
19.2268973
20
179.8889346
40
0.9095533
50
270.0307885
51
273.2244191
0
ARC
8
DEFAULT_255_2_778
10
19.2542379
20
179.2285649
40
0.2488861
50
275.4917641
51
302.3582203
0
ARC
8
DEFAULT_255_2_778
10
19.3200418
20
179.1126063
40
0.115896
50
305.561706
51
314.7657745
0
ARC
8
DEFAULT_255_2_778
10
19.3095773
20
179.1454064
40
0.1473882
50
308.6632861
51
359.3837416
0
ARC
8
DEFAULT_255_2_778
10
17.807225
20
180.8680828
40
2.962762
50
318.8021847
51
324.4102292
0
ARC
8
DEFAULT_255_2_778
10
18.7925821
20
179.9997505
40
1.6494092
50
310.4033061
51
318.953359
0
ARC
8
DEFAULT_255_2_778
10
19.3188808
20
179.3731187
40
0.831118
50
295.9312381
51
310.7744109
0
ARC
8
DEFAULT_255_2_778
10
19.4407027
20
179.1442771
40
0.5721233
50
294.3678437
51
294.9811966
0
ARC
8
DEFAULT_255_2_778
10
19.1940828
20
179.9112614
40
1.3756016
50
269.5724547
51
290.5412856
0
ARC
8
DEFAULT_255_2_778
10
19.1838577
20
180.1295488
40
1.5938505
50
269.2881822
51
269.9985732
0
ARC
8
DEFAULT_255_2_778
10
19.3390649
20
179.5429819
40
0.5598634
50
88.7931239
51
89.9984438
0
ARC
8
DEFAULT_255_2_778
10
19.3326983
20
179.6398553
40
0.463034
50
89.2102909
51
125.5845733
0
ARC
8
DEFAULT_255_2_778
10
19.4008068
20
179.5681825
40
0.5611219
50
126.9818839
51
147.669232
0
ARC
8
DEFAULT_255_2_778
10
19.876359
20
179.2484894
40
1.1340353
50
146.870707
51
156.2884785
0
ARC
8
DEFAULT_255_2_778
10
19.2333366
20
179.8266392
40
0.4293753
50
349.7481736
51
359.8266598
0
ARC
8
DEFAULT_255_2_778
10
19.2961469
20
179.8258983
40
0.3665636
50
359.9127606
51
9.1392387
0
ARC
8
DEFAULT_255_2_778
10
19.4131569
20
179.8403587
40
0.2487794
50
10.1315408
51
54.8294252
0
ARC
8
DEFAULT_255_2_778
10
19.3593417
20
179.7445413
40
0.3582778
50
56.6210187
51
91.3472693
0
LINE
8
DEFAULT_255_2_778
10
18.2149569
20
179.4539211
11
18.2213569
21
179.5245211
0
LINE
8
DEFAULT_255_2_778
10
20.2054569
20
179.5756211
11
20.1723569
21
179.3589211
0
LINE
8
DEFAULT_255_2_778
10
20.1723569
20
179.3589211
11
18.7965569
21
179.3589211
0
LINE
8
DEFAULT_255_2_778
10
19.4569569
20
179.1438211
11
20.2165569
21
179.1438211
0
LINE
8
DEFAULT_255_2_778
10
18.8380569
20
179.7045211
11
19.6434569
21
179.7045211
0
LINE
8
DEFAULT_255_2_778
10
19.6434569
20
179.7045211
11
19.6558569
21
179.7502211
0
LINE
8
DEFAULT_255_2_778
10
11.4252281
20
180.2913177
11
12.8081281
21
179.4753177
0
LINE
8
DEFAULT_255_2_778
10
12.8081281
20
179.4753177
11
11.2770281
21
178.8819177
0
LINE
8
DEFAULT_255_2_778
10
11.2770281
20
178.8819177
11
11.5979281
21
179.5989177
0
LINE
8
DEFAULT_255_2_778
10
11.5979281
20
179.5989177
11
11.4252281
21
180.2913177
0
ARC
8
DEFAULT_255_2_778
10
7.8633492
20
180.0109349
40
1.734445
50
345.0500681
51
0.450213
0
ARC
8
DEFAULT_255_2_778
10
8.1424128
20
179.9467315
40
1.4482985
50
339.8011311
51
344.6559926
0
ARC
8
DEFAULT_255_2_778
10
8.2241959
20
179.9012595
40
1.3559213
50
318.9869254
51
340.4112117
0
ARC
8
DEFAULT_255_2_778
10
8.3403786
20
179.8133223
40
1.2105876
50
317.7755753
51
318.5188915
0
ARC
8
DEFAULT_255_2_778
10
8.3677776
20
179.7874224
40
1.1728926
50
293.4453171
51
317.8130059
0
ARC
8
DEFAULT_255_2_778
10
8.3381728
20
179.8656502
40
1.2564472
50
269.4376299
51
293.2645473
0
ARC
8
DEFAULT_255_2_778
10
8.6390116
20
180.0737305
40
1.0182316
50
68.112945
51
90.7974227
0
ARC
8
DEFAULT_255_2_778
10
8.6827218
20
180.2090759
40
0.8764035
50
66.6600337
51
67.4660887
0
ARC
8
DEFAULT_255_2_778
10
8.6950616
20
180.2208129
40
0.860764
50
41.8199578
51
67.1046866
0
ARC
8
DEFAULT_255_2_778
10
8.5939144
20
180.1445866
40
0.9870277
50
18.4442061
51
41.2024761
0
ARC
8
DEFAULT_255_2_778
10
8.2913394
20
180.0409986
40
1.3068358
50
359.9236227
51
18.5554774
0
ARC
8
DEFAULT_255_2_778
10
7.9767371
20
180.0245824
40
1.6215036
50
359.9993331
51
0.5185192
0
ARC
8
DEFAULT_255_2_778
10
8.1161265
20
180.0307191
40
1.1556879
50
359.3527282
51
15.3461488
0
ARC
8
DEFAULT_255_2_778
10
8.3555709
20
180.0858091
40
0.9102591
50
15.9909101
51
17.2384514
0
ARC
8
DEFAULT_255_2_778
10
8.5215656
20
180.1492942
40
0.7329962
50
16.3441173
51
39.0583428
0
ARC
8
DEFAULT_255_2_778
10
8.6385861
20
180.2348513
40
0.5882641
50
39.7694118
51
66.0014919
0
ARC
8
DEFAULT_255_2_778
10
8.6052911
20
180.1418083
40
0.6868457
50
66.6208799
51
90.9301944
0
ARC
8
DEFAULT_255_2_778
10
8.3674619
20
179.7368777
40
0.865983
50
269.2774049
51
294.6427005
0
ARC
8
DEFAULT_255_2_778
10
8.3809787
20
179.6888801
40
0.8167574
50
295.184769
51
321.1699914
0
ARC
8
DEFAULT_255_2_778
10
8.188821
20
179.8353326
40
1.0582969
50
321.5163412
51
341.7776814
0
ARC
8
DEFAULT_255_2_778
10
7.8940618
20
179.9508931
40
1.374523
50
341.044332
51
342.4824039
0
ARC
8
DEFAULT_255_2_778
10
7.7898077
20
179.9725334
40
1.4804949
50
342.8981919
51
356.6952858
0
ARC
8
DEFAULT_255_2_778
10
7.2862441
20
180.0162849
40
1.9857973
50
356.2725814
51
0.0484329
0
LINE
8
DEFAULT_255_2_778
10
8.3258407
20
178.6092635
11
7.2765407
21
178.5849635
0
LINE
8
DEFAULT_255_2_778
10
7.2765407
20
178.5849635
11
7.7858407
21
181.0918635
0
LINE
8
DEFAULT_255_2_778
10
7.7858407
20
181.0918635
11
8.6248407
21
181.0918635
0
LINE
8
DEFAULT_255_2_778
10
9.5982407
20
180.0245635
11
9.5977407
21
180.0245635
0
LINE
8
DEFAULT_255_2_778
10
8.5941407
20
180.8285635
11
7.9962407
21
180.8105635
0
LINE
8
DEFAULT_255_2_778
10
7.9962407
20
180.8105635
11
7.6363407
21
178.8323635
0
LINE
8
DEFAULT_255_2_778
10
7.6363407
20
178.8323635
11
8.3565407
21
178.8709635
0
LINE
8
DEFAULT_255_2_778
10
9.2720407
20
180.0179635
11
9.2717407
21
180.0176635
0
ARC
8
DEFAULT_255_2_778
10
10.302374
20
179.413219
40
0.5777251
50
269.3131992
51
298.9193317
0
ARC
8
DEFAULT_255_2_778
10
10.2422898
20
179.5178114
40
0.6983333
50
299.0845099
51
323.1838183
0
ARC
8
DEFAULT_255_2_778
10
10.0730419
20
179.6417915
40
0.9081244
50
323.3206017
51
342.9705556
0
ARC
8
DEFAULT_255_2_778
10
9.9076255
20
179.6992416
40
1.0831324
50
342.6274164
51
0.2324268
0
ARC
8
DEFAULT_255_2_778
10
10.2433391
20
179.7163185
40
0.7475175
50
359.0278167
51
16.1300251
0
ARC
8
DEFAULT_255_2_778
10
10.5672449
20
179.8094392
40
0.4104922
50
16.2042834
51
41.9480466
0
ARC
8
DEFAULT_255_2_778
10
10.5796118
20
179.8012262
40
0.4070383
50
43.9719544
51
85.3997935
0
ARC
8
DEFAULT_255_2_778
10
10.5322186
20
179.5255297
40
0.686108
50
83.300847
51
90.1477804
0
ARC
8
DEFAULT_255_2_778
10
10.5219616
20
179.6302474
40
0.58145
50
89.163628
51
118.6648078
0
ARC
8
DEFAULT_255_2_778
10
10.581079
20
179.5332564
40
0.6949321
50
119.1056578
51
143.2104754
0
ARC
8
DEFAULT_255_2_778
10
10.7542438
20
179.4062766
40
0.9096571
50
143.3373192
51
162.9538381
0
ARC
8
DEFAULT_255_2_778
10
10.9180519
20
179.3492321
40
1.0830106
50
162.6089297
51
180.2167337
0
ARC
8
DEFAULT_255_2_778
10
10.590132
20
179.3324465
40
0.7551896
50
179.037255
51
196.0102976
0
ARC
8
DEFAULT_255_2_778
10
10.2623689
20
179.2389213
40
0.4143448
50
196.0798237
51
221.5429745
0
ARC
8
DEFAULT_255_2_778
10
10.2435386
20
179.2405741
40
0.4015819
50
223.501568
51
264.945498
0
ARC
8
DEFAULT_255_2_778
10
10.2934062
20
179.520723
40
0.6854906
50
262.8561454
51
270.170743
0
ARC
8
DEFAULT_255_2_778
10
10.2496801
20
179.5784733
40
0.993603
50
251.4783364
51
270.6555979
0
ARC
8
DEFAULT_255_2_778
10
10.1671823
20
179.3327369
40
0.7343883
50
228.2272369
51
251.4910714
0
ARC
8
DEFAULT_255_2_778
10
10.1298392
20
179.2820077
40
0.671704
50
202.6960886
51
227.720176
0
ARC
8
DEFAULT_255_2_778
10
10.2495562
20
179.3273656
40
0.7996635
50
179.6456167
51
202.3846702
0
ARC
8
DEFAULT_255_2_778
10
10.5173927
20
179.3435351
40
1.0675438
50
179.9999853
51
180.6023814
0
ARC
8
DEFAULT_255_2_778
10
10.5536721
20
179.350523
40
1.1038452
50
157.230675
51
180.3627006
0
ARC
8
DEFAULT_255_2_778
10
10.5843324
20
179.3409196
40
1.135837
50
135.6908415
51
157.3825693
0
ARC
8
DEFAULT_255_2_778
10
10.5546282
20
179.367615
40
1.0959349
50
113.1058727
51
135.604761
0
ARC
8
DEFAULT_255_2_778
10
10.5551078
20
179.3718049
40
1.0922713
50
89.5047522
51
113.2152626
0
ARC
8
DEFAULT_255_2_778
10
10.5759287
20
179.4687295
40
0.9953709
50
71.5130801
51
90.6550541
0
ARC
8
DEFAULT_255_2_778
10
10.6573575
20
179.7145115
40
0.7364524
50
48.2602918
51
71.4580165
0
ARC
8
DEFAULT_255_2_778
10
10.6956984
20
179.7679961
40
0.6710546
50
22.5497085
51
47.6627683
0
ARC
8
DEFAULT_255_2_778
10
10.5670556
20
179.7186328
40
0.8088011
50
359.0650515
51
22.2845409
0
ARC
8
DEFAULT_255_2_778
10
10.2767028
20
179.6993709
40
1.0990629
50
337.1812514
51
0.316152
0
ARC
8
DEFAULT_255_2_778
10
10.2412655
20
179.7099512
40
1.135837
50
315.6908415
51
337.3825693
0
ARC
8
DEFAULT_255_2_778
10
10.2631229
20
179.6919107
40
1.1075969
50
293.2336194
51
315.5688359
0
ARC
8
DEFAULT_255_2_778
10
10.268874
20
179.6712991
40
1.0863919
50
269.5873092
51
293.383724
0
LINE
8
DEFAULT_255_2_778
10
10.295449
20
178.8352354
11
10.295449
21
178.8355354
0
LINE
8
DEFAULT_255_2_778
10
10.261049
20
178.5849354
11
10.261049
21
178.5849354
0
LINE
8
DEFAULT_255_1_234
10
10.7018392
20
175.958
11
10.2962364
21
175.958
0
LINE
8
DEFAULT_255_1_234
10
10.2962364
20
175.958
11
10.2962364
21
177.1274211
0
LINE
8
DEFAULT_255_1_234
10
10.2962364
20
177.1274211
11
10.6785471
21
177.1274211
0
LINE
8
DEFAULT_255_1_234
10
10.7074614
20
176.5049614
11
10.4504458
21
176.5049614
0
LINE
8
DEFAULT_255_1_234
10
10.4504458
20
176.5049614
11
10.4504458
21
176.0840983
0
LINE
8
DEFAULT_255_1_234
10
10.4504458
20
176.0840983
11
10.7050519
21
176.0840983
0
LINE
8
DEFAULT_255_1_234
10
10.4504458
20
177.0005196
11
10.4504458
21
176.6286501
0
LINE
8
DEFAULT_255_1_234
10
10.4504458
20
176.6286501
11
10.6833662
21
176.6286501
0
LINE
8
DEFAULT_255_1_234
10
10.6785471
20
177.0005196
11
10.4504458
21
177.0005196
0
ARC
8
DEFAULT_255_1_234
10
10.682318
20
176.3906901
40
0.7367406
50
82.1257326
51
90.2932599
0
ARC
8
DEFAULT_255_1_234
10
10.7212135
20
176.6625013
40
0.4621653
50
69.9044149
51
82.2857423
0
ARC
8
DEFAULT_255_1_234
10
10.7782813
20
176.8167637
40
0.2976871
50
51.1838526
51
70.0181538
0
ARC
8
DEFAULT_255_1_234
10
10.8037779
20
176.853824
40
0.2528517
50
12.1017251
51
50.4214761
0
ARC
8
DEFAULT_255_1_234
10
10.6653653
20
176.8190676
40
0.3955061
50
359.5251267
51
12.8211707
0
ARC
8
DEFAULT_255_1_234
10
10.8233579
20
176.8121344
40
0.2375281
50
323.4908128
51
0.8817314
0
ARC
8
DEFAULT_255_1_234
10
10.7815266
20
176.844455
40
0.2903817
50
298.6825083
51
323.2756573
0
ARC
8
DEFAULT_255_1_234
10
10.7453629
20
176.9045649
40
0.3604842
50
293.1999386
51
299.1396394
0
ARC
8
DEFAULT_255_1_234
10
10.8126602
20
176.2960126
40
0.2871098
50
54.0011765
51
74.9167975
0
ARC
8
DEFAULT_255_1_234
10
10.8242961
20
176.3157332
40
0.2643248
50
36.3580696
51
53.5291921
0
ARC
8
DEFAULT_255_1_234
10
10.8116203
20
176.3066998
40
0.2798884
50
4.8189881
51
36.3089977
0
ARC
8
DEFAULT_255_1_234
10
10.7337038
20
176.295727
40
0.358478
50
359.9370252
51
5.5204067
0
ARC
8
DEFAULT_255_1_234
10
10.701256
20
176.2916667
40
0.3909429
50
344.7478609
51
0.5373281
0
ARC
8
DEFAULT_255_1_234
10
10.8003531
20
176.2649544
40
0.2883093
50
311.1786488
51
344.6886812
0
ARC
8
DEFAULT_255_1_234
10
10.7711578
20
176.3012987
40
0.3348923
50
286.0418249
51
310.8441291
0
ARC
8
DEFAULT_255_1_234
10
10.720441
20
176.4659807
40
0.5071869
50
274.1042341
51
286.4071509
0
ARC
8
DEFAULT_255_1_234
10
10.7027666
20
176.6543229
40
0.6963234
50
269.9236873
51
274.445647
0
ARC
8
DEFAULT_255_1_234
10
10.7073667
20
176.4203537
40
0.3362634
50
269.6055768
51
281.3740047
0
ARC
8
DEFAULT_255_1_234
10
10.7304305
20
176.3110353
40
0.224546
50
281.1055983
51
302.5132223
0
ARC
8
DEFAULT_255_1_234
10
10.7451204
20
176.2846823
40
0.1944357
50
303.0368945
51
311.8811219
0
ARC
8
DEFAULT_255_1_234
10
10.7522611
20
176.276189
40
0.1833454
50
311.9916004
51
351.7143462
0
ARC
8
DEFAULT_255_1_234
10
10.6705841
20
176.292693
40
0.2665871
50
350.7339597
51
0.2221581
0
ARC
8
DEFAULT_255_1_234
10
10.6598287
20
176.2983467
40
0.2773789
50
359.0456241
51
17.2296242
0
ARC
8
DEFAULT_255_1_234
10
10.7637404
20
176.3292163
40
0.1689915
50
17.6685481
51
78.9940892
0
ARC
8
DEFAULT_255_1_234
10
10.7120568
20
176.1437224
40
0.3612658
50
76.5635957
51
90.6980921
0
LINE
8
DEFAULT_255_1_234
10
10.7076552
20
176.5049613
11
10.7074614
21
176.5049614
0
ARC
8
DEFAULT_255_1_234
10
10.6856228
20
176.9572036
40
0.3285612
50
269.6064736
51
281.4533503
0
ARC
8
DEFAULT_255_1_234
10
10.7079048
20
176.8520688
40
0.2210975
50
281.2041486
51
302.5148063
0
ARC
8
DEFAULT_255_1_234
10
10.7215898
20
176.8274241
40
0.1929674
50
303.021671
51
309.8369575
0
ARC
8
DEFAULT_255_1_234
10
10.7399359
20
176.8068488
40
0.1654181
50
309.5228395
51
356.9509836
0
ARC
8
DEFAULT_255_1_234
10
10.6735942
20
176.8163932
40
0.2322512
50
355.4701227
51
0.0492546
0
ARC
8
DEFAULT_255_1_234
10
10.6457033
20
176.8186094
40
0.2601498
50
359.5558597
51
11.2096359
0
ARC
8
DEFAULT_255_1_234
10
10.7414323
20
176.838423
40
0.1623975
50
10.9182341
51
31.3230275
0
ARC
8
DEFAULT_255_1_234
10
10.7700056
20
176.8543214
40
0.1297302
50
31.8852677
51
52.1412565
0
ARC
8
DEFAULT_255_1_234
10
10.7425789
20
176.815575
40
0.1771663
50
52.8285564
51
71.9850297
0
ARC
8
DEFAULT_255_1_234
10
10.7049965
20
176.7049664
40
0.2939794
50
71.6863486
51
82.8455995
0
ARC
8
DEFAULT_255_1_234
10
10.6810501
20
176.5240149
40
0.476506
50
82.6984714
51
90.1729175
0
ARC
8
DEFAULT_255_1_234
10
10.6788136
20
176.6463623
40
0.3541573
50
89.8708275
51
90.0431131
0
LINE
8
DEFAULT_255_1_234
10
12.0029808
20
175.958
11
11.7491778
21
176.4310694
0
LINE
8
DEFAULT_255_1_234
10
11.7491778
20
176.4310694
11
11.4744924
21
176.4310694
0
LINE
8
DEFAULT_255_1_234
10
11.4744924
20
176.4310694
11
11.4744924
21
175.958
0
LINE
8
DEFAULT_255_1_234
10
11.4744924
20
175.958
11
11.3194798
21
175.958
0
LINE
8
DEFAULT_255_1_234
10
11.3194798
20
175.958
11
11.3194798
21
177.1274211
0
LINE
8
DEFAULT_255_1_234
10
11.3194798
20
177.1274211
11
11.7066096
21
177.1274211
0
LINE
8
DEFAULT_255_1_234
10
11.8937491
20
176.4639995
11
12.1684346
21
175.9676381
0
LINE
8
DEFAULT_255_1_234
10
12.1684346
20
175.9676381
11
12.1684346
21
175.958
0
LINE
8
DEFAULT_255_1_234
10
12.1684346
20
175.958
11
12.0029808
21
175.958
0
LINE
8
DEFAULT_255_1_234
10
11.4744924
20
177.0005196
11
11.4744924
21
176.5571677
0
LINE
8
DEFAULT_255_1_234
10
11.4744924
20
176.5571677
11
11.7114287
21
176.5571677
0
LINE
8
DEFAULT_255_1_234
10
11.7106255
20
177.0005196
11
11.4744924
21
177.0005196
0
ARC
8
DEFAULT_255_1_234
10
11.7107736
20
176.4312761
40
0.6961575
50
80.653586
51
90.3427061
0
ARC
8
DEFAULT_255_1_234
10
11.752721
20
176.6775348
40
0.4463577
50
65.6987447
51
80.8329603
0
ARC
8
DEFAULT_255_1_234
10
11.8004851
20
176.7870322
40
0.3269094
50
50.0017161
51
65.4305835
0
ARC
8
DEFAULT_255_1_234
10
11.8223315
20
176.8165482
40
0.2902647
50
11.628416
51
49.5603263
0
ARC
8
DEFAULT_255_1_234
10
11.6687651
20
176.7790299
40
0.4482792
50
359.5655735
51
12.3691
0
ARC
8
DEFAULT_255_1_234
10
11.7764511
20
176.7727644
40
0.3405924
50
341.9983148
51
0.4822259
0
ARC
8
DEFAULT_255_1_234
10
11.8159351
20
176.7620471
40
0.2997359
50
323.8609373
51
341.61416
0
ARC
8
DEFAULT_255_1_234
10
11.7857595
20
176.7853484
40
0.3378487
50
296.7018614
51
323.6876402
0
ARC
8
DEFAULT_255_1_234
10
11.7416491
20
176.8642235
40
0.4281516
50
290.8086567
51
297.2323311
0
ARC
8
DEFAULT_255_1_234
10
11.714002
20
176.9165351
40
0.3593766
50
269.589728
51
281.8058135
0
ARC
8
DEFAULT_255_1_234
10
11.7390919
20
176.8017743
40
0.2419125
50
281.5501019
51
303.9357432
0
ARC
8
DEFAULT_255_1_234
10
11.7528107
20
176.7779936
40
0.2145323
50
304.4415616
51
311.2106213
0
ARC
8
DEFAULT_255_1_234
10
11.7660212
20
176.7640632
40
0.1953505
50
310.9875673
51
356.2715578
0
ARC
8
DEFAULT_255_1_234
10
11.6903861
20
176.7753422
40
0.2716331
50
354.9348262
51
0.0609027
0
ARC
8
DEFAULT_255_1_234
10
11.6716735
20
176.7780435
40
0.2903554
50
359.5239371
51
12.8808918
0
ARC
8
DEFAULT_255_1_234
10
11.7694291
20
176.8019728
40
0.1897315
50
12.4173452
51
43.1022135
0
ARC
8
DEFAULT_255_1_234
10
11.7755895
20
176.8056724
40
0.1827118
50
43.5751728
51
48.203944
0
ARC
8
DEFAULT_255_1_234
10
11.7586387
20
176.7835302
40
0.2105272
50
48.7809703
51
72.6969569
0
ARC
8
DEFAULT_255_1_234
10
11.7232012
20
176.675982
40
0.3237537
50
72.3702241
51
84.8791103
0
ARC
8
DEFAULT_255_1_234
10
11.7084488
20
176.5417769
40
0.4587478
50
84.5400526
51
89.7281406
0
LINE
8
DEFAULT_255_1_234
10
12.4326788
20
177.1274211
11
12.7145928
21
176.6792501
0
LINE
8
DEFAULT_255_1_234
10
12.7145928
20
176.6792501
11
12.9949004
21
177.1274211
0
LINE
8
DEFAULT_255_1_234
10
12.9949004
20
177.1274211
11
13.1764177
21
177.1274211
0
LINE
8
DEFAULT_255_1_234
10
13.1764177
20
177.1274211
11
12.8069578
21
176.5475296
0
LINE
8
DEFAULT_255_1_234
10
12.8069578
20
176.5475296
11
13.1852526
21
175.958
0
LINE
8
DEFAULT_255_1_234
10
13.1852526
20
175.958
11
13.002129
21
175.958
0
LINE
8
DEFAULT_255_1_234
10
13.002129
20
175.958
11
12.7145928
21
176.4142027
0
LINE
8
DEFAULT_255_1_234
10
12.7145928
20
176.4142027
11
12.4254502
21
175.958
0
LINE
8
DEFAULT_255_1_234
10
12.4254502
20
175.958
11
12.2431297
21
175.958
0
LINE
8
DEFAULT_255_1_234
10
12.2431297
20
175.958
11
12.6222278
21
176.5475296
0
LINE
8
DEFAULT_255_1_234
10
12.6222278
20
176.5475296
11
12.2519646
21
177.1274211
0
LINE
8
DEFAULT_255_1_234
10
12.2519646
20
177.1274211
11
12.4326788
21
177.1274211
0
LINE
8
DEFAULT_255_1_234
10
14.5474354
20
176.7892849
11
14.3924229
21
176.7892849
0
LINE
8
DEFAULT_255_1_234
10
13.7000871
20
176.2969394
11
13.8550996
21
176.2969394
0
ARC
8
DEFAULT_255_1_234
10
14.4583042
20
177.6839768
40
1.252368
50
248.9199003
51
254.1439814
0
ARC
8
DEFAULT_255_1_234
10
14.2902537
20
177.2513234
40
0.788226
50
241.633709
51
249.0064503
0
ARC
8
DEFAULT_255_1_234
10
14.1373931
20
176.9712317
40
0.4691427
50
230.498225
51
241.8087113
0
ARC
8
DEFAULT_255_1_234
10
14.0589505
20
176.8712906
40
0.3421437
50
227.4064532
51
229.9881192
0
ARC
8
DEFAULT_255_1_234
10
14.0102026
20
176.8237088
40
0.2741476
50
200.6781896
51
228.1763934
0
ARC
8
DEFAULT_255_1_234
10
14.0174337
20
176.8222077
40
0.2804109
50
179.5061581
51
199.8694617
0
ARC
8
DEFAULT_255_1_234
10
14.0165088
20
176.829621
40
0.2795204
50
132.4834203
51
181.0242172
0
ARC
8
DEFAULT_255_1_234
10
14.0760671
20
176.7733704
40
0.3612768
50
129.2532479
51
133.4242687
0
ARC
8
DEFAULT_255_1_234
10
14.090712
20
176.7513965
40
0.3875675
50
101.98776
51
128.8742646
0
ARC
8
DEFAULT_255_1_234
10
14.1305731
20
176.5792741
40
0.5642249
50
89.5906553
51
102.3169264
0
ARC
8
DEFAULT_255_1_234
10
14.1376223
20
176.6111148
40
0.5323783
50
77.2360837
51
90.3248275
0
ARC
8
DEFAULT_255_1_234
10
14.1583302
20
176.70784
40
0.4334697
50
63.837784
51
77.0809408
0
ARC
8
DEFAULT_255_1_234
10
14.1861064
20
176.7595911
40
0.3747796
50
45.9864267
51
64.1607727
0
ARC
8
DEFAULT_255_1_234
10
14.2121945
20
176.7893866
40
0.3352302
50
32.2747395
51
45.6547121
0
ARC
8
DEFAULT_255_1_234
10
14.2188386
20
176.791288
40
0.328603
50
359.6507365
51
32.6130309
0
ARC
8
DEFAULT_255_1_234
10
14.1245481
20
176.791766
40
0.2678863
50
359.469343
51
14.9832209
0
ARC
8
DEFAULT_255_1_234
10
14.1950544
20
176.8106539
40
0.1948938
50
14.9781179
51
48.2004265
0
ARC
8
DEFAULT_255_1_234
10
14.1786188
20
176.7899983
40
0.2212521
50
48.5927837
51
74.1241538
0
ARC
8
DEFAULT_255_1_234
10
14.1452677
20
176.6799248
40
0.3362561
50
73.7888341
51
86.6652678
0
ARC
8
DEFAULT_255_1_234
10
14.1350243
20
176.5591881
40
0.4573953
50
86.2640471
51
90.0526343
0
ARC
8
DEFAULT_255_1_234
10
14.1321955
20
176.5987192
40
0.4178709
50
89.6697524
51
99.2309573
0
ARC
8
DEFAULT_255_1_234
10
14.1079406
20
176.7431964
40
0.2713749
50
99.069534
51
113.7658566
0
ARC
8
DEFAULT_255_1_234
10
14.0805597
20
176.8077677
40
0.2012469
50
114.0401004
51
127.9850673
0
ARC
8
DEFAULT_255_1_234
10
14.0565161
20
176.837373
40
0.1631167
50
127.7287463
51
176.7105154
0
ARC
8
DEFAULT_255_1_234
10
14.1243879
20
176.8272693
40
0.2315392
50
175.1779447
51
180.0581938
0
ARC
8
DEFAULT_255_1_234
10
14.0400726
20
176.8260428
40
0.1472271
50
179.6142195
51
228.1246017
0
ARC
8
DEFAULT_255_1_234
10
14.0842394
20
176.8669308
40
0.2072299
50
226.5779593
51
230.8800004
0
ARC
8
DEFAULT_255_1_234
10
14.1313473
20
176.9294636
40
0.2854818
50
231.4635071
51
241.9260842
0
ARC
8
DEFAULT_255_1_234
10
14.2510651
20
177.14978
40
0.53622
50
241.7178533
51
248.3259551
0
ARC
8
DEFAULT_255_1_234
10
14.3896023
20
177.4930064
40
0.9063478
50
248.2007737
51
252.4528373
0
ARC
8
DEFAULT_255_1_234
10
14.5099748
20
177.8651441
40
1.2974635
50
252.3391078
51
254.3469452
0
ARC
8
DEFAULT_255_1_234
10
13.755745
20
175.1674148
40
1.5037162
50
71.0197183
51
74.4087047
0
ARC
8
DEFAULT_255_1_234
10
13.9252136
20
175.6566111
40
0.9859993
50
66.1847285
51
71.086374
0
ARC
8
DEFAULT_255_1_234
10
14.0808448
20
176.00702
40
0.6025855
50
59.3536294
51
66.2691831
0
ARC
8
DEFAULT_255_1_234
10
14.16971
20
176.1573609
40
0.4279449
50
49.1020879
51
59.3293958
0
ARC
8
DEFAULT_255_1_234
10
14.251584
20
176.2506834
40
0.3038015
50
32.7919921
51
49.2505539
0
ARC
8
DEFAULT_255_1_234
10
14.283693
20
176.2735191
40
0.264448
50
31.1181161
51
32.4005348
0
ARC
8
DEFAULT_255_1_234
10
14.2748468
20
176.2699779
40
0.2738556
50
8.1116974
51
30.7958831
0
ARC
8
DEFAULT_255_1_234
10
14.1938136
20
176.2561753
40
0.3560327
50
359.8389159
51
8.4706516
0
ARC
8
DEFAULT_255_1_234
10
14.2563927
20
176.2513137
40
0.2934776
50
337.4731098
51
0.7537279
0
ARC
8
DEFAULT_255_1_234
10
14.2742622
20
176.2493387
40
0.2762607
50
307.5917067
51
336.4315538
0
ARC
8
DEFAULT_255_1_234
10
14.228245
20
176.3006102
40
0.3449979
50
307.6551545
51
308.4529766
0
ARC
8
DEFAULT_255_1_234
10
14.2052169
20
176.336125
40
0.3871988
50
284.3734338
51
307.1424381
0
ARC
8
DEFAULT_255_1_234
10
14.1556999
20
176.5182932
40
0.5759636
50
272.4382747
51
284.646547
0
ARC
8
DEFAULT_255_1_234
10
14.1430208
20
176.6982893
40
0.7563528
50
269.9708387
51
272.8178037
0
ARC
8
DEFAULT_255_1_234
10
14.1387248
20
176.4944716
40
0.5525489
50
248.2707594
51
270.4055579
0
ARC
8
DEFAULT_255_1_234
10
14.1332989
20
176.4754192
40
0.5328452
50
246.1383403
51
248.0542782
0
ARC
8
DEFAULT_255_1_234
10
14.0914368
20
176.3874843
40
0.4355005
50
233.1670131
51
246.4950969
0
ARC
8
DEFAULT_255_1_234
10
14.0360273
20
176.3126812
40
0.3424126
50
215.3403242
51
233.0843104
0
ARC
8
DEFAULT_255_1_234
10
14.0087704
20
176.2928549
40
0.3087104
50
179.2419209
51
215.2648451
0
ARC
8
DEFAULT_255_1_234
10
14.0855298
20
176.2942666
40
0.2304457
50
179.335461
51
199.1045811
0
ARC
8
DEFAULT_255_1_234
10
14.0522974
20
176.2855766
40
0.1962176
50
199.8828939
51
232.7063202
0
ARC
8
DEFAULT_255_1_234
10
14.0995243
20
176.3449788
40
0.2720938
50
232.3738199
51
255.5136649
0
ARC
8
DEFAULT_255_1_234
10
14.1336109
20
176.4693835
40
0.4010747
50
255.2446292
51
267.5320849
0
ARC
8
DEFAULT_255_1_234
10
14.1423733
20
176.5926702
40
0.5246356
50
267.1557994
51
270.0286766
0
ARC
8
DEFAULT_255_1_234
10
14.1451505
20
176.548295
40
0.4802668
50
269.7000017
51
278.1660162
0
ARC
8
DEFAULT_255_1_234
10
14.170751
20
176.3752515
40
0.3053425
50
278.0231263
51
290.625471
0
ARC
8
DEFAULT_255_1_234
10
14.2055197
20
176.2825025
40
0.206291
50
290.6619762
51
307.0370976
0
ARC
8
DEFAULT_255_1_234
10
14.2355586
20
176.2456504
40
0.1587906
50
306.3943566
51
355.3030547
0
ARC
8
DEFAULT_255_1_234
10
14.1843518
20
176.2533113
40
0.2104809
50
354.3660432
51
0.0698737
0
ARC
8
DEFAULT_255_1_234
10
14.1985863
20
176.2555617
40
0.1962563
50
359.417946
51
16.1971788
0
ARC
8
DEFAULT_255_1_234
10
14.2441173
20
176.2680418
40
0.149053
50
16.4723299
51
52.6262157
0
ARC
8
DEFAULT_255_1_234
10
14.1620227
20
176.1596433
40
0.2850296
50
52.7386432
51
62.4979148
0
ARC
8
DEFAULT_255_1_234
10
14.0235304
20
175.8990283
40
0.5801521
50
62.2515216
51
68.1220564
0
ARC
8
DEFAULT_255_1_234
10
13.8515215
20
175.4762872
40
1.0365451
50
68.0062803
51
71.8053402
0
ARC
8
DEFAULT_255_1_234
10
13.6719586
20
174.9377758
40
1.6042013
50
71.7183119
51
73.9258742
0
LINE
8
DEFAULT_255_1_234
10
14.6863845
20
176.3684218
11
14.6863845
21
176.3957297
0
LINE
8
DEFAULT_255_1_234
10
15.4236981
20
176.4117932
11
15.4236981
21
176.3499488
0
LINE
8
DEFAULT_255_1_234
10
15.4236981
20
176.3499488
11
14.8349717
21
176.3499488
0
LINE
8
DEFAULT_255_1_234
10
15.321695
20
176.1804792
11
15.4124537
21
176.1097999
0
LINE
8
DEFAULT_255_1_234
10
14.8397907
20
176.4720313
11
15.2751109
21
176.4720313
0
LINE
8
DEFAULT_255_1_234
10
15.2751109
20
176.4720313
11
15.2751109
21
176.4832757
0
ARC
8
DEFAULT_255_1_234
10
15.080321
20
176.3795332
40
0.4376191
50
252.3266134
51
270.5810217
0
ARC
8
DEFAULT_255_1_234
10
15.0598299
20
176.3054644
40
0.3608374
50
223.3000567
51
251.8561855
0
ARC
8
DEFAULT_255_1_234
10
15.080966
20
176.3259937
40
0.3902993
50
190.9374509
51
223.3654032
0
ARC
8
DEFAULT_255_1_234
10
15.2534632
20
176.3649885
40
0.5670891
50
179.6531105
51
191.4989439
0
ARC
8
DEFAULT_255_1_234
10
15.2656645
20
176.3989417
40
0.5792888
50
167.4007466
51
180.3176909
0
ARC
8
DEFAULT_255_1_234
10
15.1604706
20
176.4211885
40
0.471777
50
154.1835823
51
167.250763
0
ARC
8
DEFAULT_255_1_234
10
15.0973174
20
176.4544417
40
0.4004528
50
134.3149965
51
154.5315275
0
ARC
8
DEFAULT_255_1_234
10
15.0755669
20
176.4735228
40
0.371612
50
122.8616532
51
133.9707695
0
ARC
8
DEFAULT_255_1_234
10
15.0652243
20
176.4957703
40
0.3473289
50
89.8249009
51
123.4199222
0
ARC
8
DEFAULT_255_1_234
10
15.0702284
20
176.4310967
40
0.4120197
50
74.7876118
51
90.5482747
0
ARC
8
DEFAULT_255_1_234
10
15.0996027
20
176.539603
40
0.2996077
50
39.8178249
51
74.7633718
0
ARC
8
DEFAULT_255_1_234
10
15.0483347
20
176.4996351
40
0.3645855
50
16.8990863
51
39.4829761
0
ARC
8
DEFAULT_255_1_234
10
14.8588644
20
176.4389526
40
0.5635218
50
4.9636328
51
17.2026414
0
ARC
8
DEFAULT_255_1_234
10
14.6170714
20
176.413434
40
0.8066286
50
359.8834553
51
5.2834307
0
ARC
8
DEFAULT_255_1_234
10
15.2208238
20
176.3565803
40
0.3859091
50
180.9846213
51
194.9401313
0
ARC
8
DEFAULT_255_1_234
10
15.1158516
20
176.3278849
40
0.2770883
50
194.80314
51
222.0412631
0
ARC
8
DEFAULT_255_1_234
10
15.0854398
20
176.2977116
40
0.2343055
50
221.5417084
51
268.8614402
0
ARC
8
DEFAULT_255_1_234
10
15.0927393
20
176.3653686
40
0.3021528
50
267.732405
51
270.0097136
0
ARC
8
DEFAULT_255_1_234
10
15.0945203
20
176.3855105
40
0.3222994
50
269.6924892
51
280.4117579
0
ARC
8
DEFAULT_255_1_234
10
15.1121609
20
176.2936193
40
0.2287344
50
280.2255091
51
298.6338936
0
ARC
8
DEFAULT_255_1_234
10
15.1238401
20
176.2692223
40
0.2017294
50
299.0430333
51
300.4643464
0
ARC
8
DEFAULT_255_1_234
10
15.0558407
20
176.3826038
40
0.3339357
50
300.6577328
51
322.0378878
0
ARC
8
DEFAULT_255_1_234
10
15.0207946
20
176.4130021
40
0.3802736
50
321.6750233
51
322.3046845
0
ARC
8
DEFAULT_255_1_234
10
15.1138907
20
176.296337
40
0.3520454
50
276.9728461
51
328.0035423
0
ARC
8
DEFAULT_255_1_234
10
15.086196
20
176.4443841
40
0.5024498
50
269.8361028
51
278.0581756
0
ARC
8
DEFAULT_255_1_234
10
15.0634698
20
176.5188757
40
0.202159
50
89.2018686
51
117.2851756
0
ARC
8
DEFAULT_255_1_234
10
15.0687867
20
176.5146752
40
0.2083484
50
118.0551165
51
137.4540413
0
ARC
8
DEFAULT_255_1_234
10
15.1062607
20
176.4806304
40
0.2589774
50
137.5109581
51
158.8516286
0
ARC
8
DEFAULT_255_1_234
10
15.2200442
20
176.4347074
40
0.38167
50
158.5845963
51
170.1721436
0
ARC
8
DEFAULT_255_1_234
10
15.3369831
20
176.4114823
40
0.5008657
50
169.8376422
51
173.0566086
0
ARC
8
DEFAULT_255_1_234
10
14.8672905
20
176.4625509
40
0.4083467
50
2.9091802
51
12.8847116
0
ARC
8
DEFAULT_255_1_234
10
15.0043582
20
176.4948101
40
0.2675383
50
12.6957781
51
28.6404489
0
ARC
8
DEFAULT_255_1_234
10
15.0585253
20
176.5228458
40
0.2065654
50
29.0169854
51
41.1487595
0
ARC
8
DEFAULT_255_1_234
10
15.0788038
20
176.5405003
40
0.1796786
50
41.1646065
51
85.0013516
0
ARC
8
DEFAULT_255_1_234
10
15.0667134
20
176.4670431
40
0.2539726
50
83.7280015
51
90.0964893
0
LINE
8
DEFAULT_255_1_234
10
16.0156372
20
176.8318531
11
16.0156372
21
176.6937072
0
LINE
8
DEFAULT_255_1_234
10
15.7441645
20
176.5748375
11
15.7441645
21
175.958
0
LINE
8
DEFAULT_255_1_234
10
15.7441645
20
175.958
11
15.5955773
21
175.958
0
LINE
8
DEFAULT_255_1_234
10
15.5955773
20
175.958
11
15.5955773
21
176.8270341
0
LINE
8
DEFAULT_255_1_234
10
15.5955773
20
176.8270341
11
15.7401486
21
176.8270341
0
LINE
8
DEFAULT_255_1_234
10
15.7401486
20
176.8270341
11
15.7425581
21
176.7266374
0
ARC
8
DEFAULT_255_1_234
10
15.9489778
20
176.2877342
40
0.4114092
50
80.6754243
51
86.8932892
0
ARC
8
DEFAULT_255_1_234
10
15.9429312
20
176.19097
40
0.5083596
50
86.8038578
51
90.0431435
0
ARC
8
DEFAULT_255_1_234
10
15.9392293
20
176.4366866
40
0.2626638
50
89.2759698
51
106.6213787
0
ARC
8
DEFAULT_255_1_234
10
15.9187857
20
176.510983
40
0.1856317
50
107.1346045
51
157.6458115
0
ARC
8
DEFAULT_255_1_234
10
15.9879458
20
176.4726311
40
0.2643398
50
155.6586782
51
157.2539184
0
ARC
8
DEFAULT_255_1_234
10
15.967466
20
176.5895157
40
0.2634121
50
127.8165941
51
148.6302098
0
ARC
8
DEFAULT_255_1_234
10
15.9421129
20
176.6155218
40
0.2273596
50
91.3329982
51
126.7875809
0
ARC
8
DEFAULT_255_1_234
10
15.949707
20
176.5440195
40
0.299078
50
89.986594
51
92.4688449
0
ARC
8
DEFAULT_255_1_234
10
15.9505465
20
176.5715078
40
0.2715908
50
85.3589899
51
90.1623399
0
ARC
8
DEFAULT_255_1_234
10
15.958998
20
176.6719164
40
0.1708278
50
78.401942
51
85.4594656
0
ARC
8
DEFAULT_255_1_234
10
15.9734864
20
176.7410236
40
0.1002194
50
67.7858312
51
78.5728455
0
ARC
8
DEFAULT_255_1_234
10
15.9842717
20
176.7689887
40
0.0702548
50
63.4835954
51
67.3062642
0
LINE
8
DEFAULT_255_1_234
10
16.3136147
20
176.8270341
11
16.3136147
21
175.958
0
LINE
8
DEFAULT_255_1_234
10
16.3136147
20
175.958
11
16.1650275
21
175.958
0
LINE
8
DEFAULT_255_1_234
10
16.1650275
20
175.958
11
16.1650275
21
176.8270341
0
LINE
8
DEFAULT_255_1_234
10
16.1650275
20
176.8270341
11
16.3136147
21
176.8270341
0
ARC
8
DEFAULT_255_1_234
10
16.2508424
20
177.0584889
40
0.097867
50
161.415052
51
180.5526306
0
ARC
8
DEFAULT_255_1_234
10
16.2384202
20
177.0619077
40
0.0850062
50
138.1827368
51
160.9307106
0
ARC
8
DEFAULT_255_1_234
10
16.2274148
20
177.0714588
40
0.0704362
50
104.6368899
51
138.0039868
0
ARC
8
DEFAULT_255_1_234
10
16.2381303
20
177.0347963
40
0.1086221
50
92.0600725
51
105.2189128
0
ARC
8
DEFAULT_255_1_234
10
16.2404651
20
177.0005117
40
0.1429728
50
89.9756393
51
92.5012496
0
ARC
8
DEFAULT_255_1_234
10
16.241467
20
177.0230731
40
0.1204151
50
78.0235316
51
90.4478182
0
ARC
8
DEFAULT_255_1_234
10
16.2506762
20
177.0644295
40
0.0780493
50
55.051506
51
78.3369085
0
ARC
8
DEFAULT_255_1_234
10
16.2557037
20
177.0728711
40
0.0682538
50
42.0501187
51
54.4513741
0
ARC
8
DEFAULT_255_1_234
10
16.2421904
20
177.0604798
40
0.0865878
50
1.7497075
51
42.1496013
0
ARC
8
DEFAULT_255_1_234
10
16.2167237
20
177.0575738
40
0.1121515
50
359.9852656
51
2.8364544
0
ARC
8
DEFAULT_255_1_234
10
16.2333229
20
177.0566229
40
0.0955566
50
342.1070653
51
0.552888
0
ARC
8
DEFAULT_255_1_234
10
16.2475926
20
177.0526904
40
0.0807713
50
316.7107116
51
341.6516965
0
ARC
8
DEFAULT_255_1_234
10
16.2542963
20
177.0466823
40
0.0717724
50
285.4397031
51
316.5324284
0
ARC
8
DEFAULT_255_1_234
10
16.243288
20
177.0832554
40
0.1099597
50
272.3547054
51
285.8953117
0
ARC
8
DEFAULT_255_1_234
10
16.2406038
20
177.1198048
40
0.1465932
50
269.9695369
51
272.8160237
0
ARC
8
DEFAULT_255_1_234
10
16.239622
20
177.0978863
40
0.1246779
50
258.8431134
51
270.4153935
0
ARC
8
DEFAULT_255_1_234
10
16.2306262
20
177.0543414
40
0.0802162
50
238.5431189
51
259.1288175
0
ARC
8
DEFAULT_255_1_234
10
16.2238147
20
177.0419856
40
0.0661247
50
222.5062634
51
237.9906969
0
ARC
8
DEFAULT_255_1_234
10
16.2365734
20
177.0535889
40
0.0833707
50
184.1069131
51
222.460413
0
ARC
8
DEFAULT_255_1_234
10
16.2634975
20
177.0574349
40
0.1105176
50
179.9429482
51
185.0960898
0
LINE
8
DEFAULT_255_1_234
10
16.513605
20
176.3684218
11
16.513605
21
176.3957297
0
LINE
8
DEFAULT_255_1_234
10
17.2509186
20
176.4117932
11
17.2509186
21
176.3499488
0
LINE
8
DEFAULT_255_1_234
10
17.2509186
20
176.3499488
11
16.6621921
21
176.3499488
0
LINE
8
DEFAULT_255_1_234
10
17.1489155
20
176.1804792
11
17.2396741
21
176.1097999
0
LINE
8
DEFAULT_255_1_234
10
16.6670112
20
176.4720313
11
17.1023314
21
176.4720313
0
LINE
8
DEFAULT_255_1_234
10
17.1023314
20
176.4720313
11
17.1023314
21
176.4832757
0
ARC
8
DEFAULT_255_1_234
10
16.9075415
20
176.3795332
40
0.4376191
50
252.3266134
51
270.5810217
0
ARC
8
DEFAULT_255_1_234
10
16.8870504
20
176.3054644
40
0.3608374
50
223.3000567
51
251.8561855
0
ARC
8
DEFAULT_255_1_234
10
16.9081865
20
176.3259937
40
0.3902993
50
190.9374509
51
223.3654032
0
ARC
8
DEFAULT_255_1_234
10
17.0806837
20
176.3649885
40
0.5670891
50
179.6531105
51
191.4989439
0
ARC
8
DEFAULT_255_1_234
10
17.0928849
20
176.3989417
40
0.5792888
50
167.4007466
51
180.3176909
0
ARC
8
DEFAULT_255_1_234
10
16.9876911
20
176.4211885
40
0.471777
50
154.1835823
51
167.250763
0
ARC
8
DEFAULT_255_1_234
10
16.9245378
20
176.4544417
40
0.4004528
50
134.3149965
51
154.5315275
0
ARC
8
DEFAULT_255_1_234
10
16.9027873
20
176.4735228
40
0.371612
50
122.8616532
51
133.9707695
0
ARC
8
DEFAULT_255_1_234
10
16.8924447
20
176.4957703
40
0.3473289
50
89.8249009
51
123.4199222
0
ARC
8
DEFAULT_255_1_234
10
16.8974488
20
176.4310967
40
0.4120197
50
74.7876118
51
90.5482747
0
ARC
8
DEFAULT_255_1_234
10
16.9268232
20
176.539603
40
0.2996077
50
39.8178249
51
74.7633718
0
ARC
8
DEFAULT_255_1_234
10
16.8755552
20
176.4996351
40
0.3645855
50
16.8990863
51
39.4829761
0
ARC
8
DEFAULT_255_1_234
10
16.6860848
20
176.4389526
40
0.5635218
50
4.9636328
51
17.2026414
0
ARC
8
DEFAULT_255_1_234
10
16.4442918
20
176.413434
40
0.8066286
50
359.8834553
51
5.2834307
0
ARC
8
DEFAULT_255_1_234
10
17.0480443
20
176.3565803
40
0.3859091
50
180.9846213
51
194.9401313
0
ARC
8
DEFAULT_255_1_234
10
16.9430721
20
176.3278849
40
0.2770883
50
194.80314
51
222.0412631
0
ARC
8
DEFAULT_255_1_234
10
16.9126603
20
176.2977116
40
0.2343055
50
221.5417084
51
268.8614402
0
ARC
8
DEFAULT_255_1_234
10
16.9199597
20
176.3653686
40
0.3021528
50
267.732405
51
270.0097136
0
ARC
8
DEFAULT_255_1_234
10
16.9217407
20
176.3855105
40
0.3222994
50
269.6924892
51
280.4117579
0
ARC
8
DEFAULT_255_1_234
10
16.9393814
20
176.2936193
40
0.2287344
50
280.2255091
51
298.6338936
0
ARC
8
DEFAULT_255_1_234
10
16.9510606
20
176.2692223
40
0.2017294
50
299.0430333
51
300.4643464
0
ARC
8
DEFAULT_255_1_234
10
16.8830611
20
176.3826038
40
0.3339357
50
300.6577328
51
322.0378878
0
ARC
8
DEFAULT_255_1_234
10
16.8480151
20
176.4130021
40
0.3802736
50
321.6750233
51
322.3046845
0
ARC
8
DEFAULT_255_1_234
10
16.9411112
20
176.296337
40
0.3520454
50
276.9728461
51
328.0035423
0
ARC
8
DEFAULT_255_1_234
10
16.9134165
20
176.4443841
40
0.5024498
50
269.8361028
51
278.0581756
0
ARC
8
DEFAULT_255_1_234
10
16.8906902
20
176.5188757
40
0.202159
50
89.2018686
51
117.2851756
0
ARC
8
DEFAULT_255_1_234
10
16.8960071
20
176.5146752
40
0.2083484
50
118.0551165
51
137.4540413
0
ARC
8
DEFAULT_255_1_234
10
16.9334811
20
176.4806304
40
0.2589774
50
137.5109581
51
158.8516286
0
ARC
8
DEFAULT_255_1_234
10
17.0472647
20
176.4347074
40
0.38167
50
158.5845963
51
170.1721436
0
ARC
8
DEFAULT_255_1_234
10
17.1642036
20
176.4114823
40
0.5008657
50
169.8376422
51
173.0566086
0
ARC
8
DEFAULT_255_1_234
10
16.694511
20
176.4625509
40
0.4083467
50
2.9091802
51
12.8847116
0
ARC
8
DEFAULT_255_1_234
10
16.8315786
20
176.4948101
40
0.2675383
50
12.6957781
51
28.6404489
0
ARC
8
DEFAULT_255_1_234
10
16.8857457
20
176.5228458
40
0.2065654
50
29.0169854
51
41.1487595
0
ARC
8
DEFAULT_255_1_234
10
16.9060242
20
176.5405003
40
0.1796786
50
41.1646065
51
85.0013516
0
ARC
8
DEFAULT_255_1_234
10
16.8939339
20
176.4670431
40
0.2539726
50
83.7280015
51
90.0964893
0
LINE
8
DEFAULT_255_1_234
10
18.0693527
20
176.5716248
11
17.9199624
21
176.5716248
0
LINE
8
DEFAULT_255_1_234
10
17.3866549
20
176.2254569
11
17.5352421
21
176.2254569
0
ARC
8
DEFAULT_255_1_234
10
17.8011442
20
176.1899959
40
0.1276617
50
359.3334982
51
18.5871358
0
ARC
8
DEFAULT_255_1_234
10
17.8220079
20
176.1955133
40
0.1061371
50
19.3540742
51
54.6485071
0
ARC
8
DEFAULT_255_1_234
10
17.7715981
20
176.1259919
40
0.1920087
50
54.3827097
51
65.0622807
0
ARC
8
DEFAULT_255_1_234
10
17.6947378
20
175.96429
40
0.3710447
50
64.8282493
51
71.4200025
0
ARC
8
DEFAULT_255_1_234
10
17.6045253
20
175.6996107
40
0.6506741
50
71.3164301
51
75.8006402
0
ARC
8
DEFAULT_255_1_234
10
17.5204073
20
175.3755561
40
0.9854641
50
75.6809531
51
78.0061883
0
ARC
8
DEFAULT_255_1_234
10
17.9652606
20
177.473477
40
1.1591028
50
254.6901892
51
258.0466452
0
ARC
8
DEFAULT_255_1_234
10
17.8614515
20
177.0975781
40
0.7691345
50
249.9010773
51
254.755261
0
ARC
8
DEFAULT_255_1_234
10
17.7610857
20
176.8249982
40
0.478665
50
243.3097214
51
249.9709442
0
ARC
8
DEFAULT_255_1_234
10
17.6981878
20
176.6995778
40
0.3383568
50
234.4047477
51
243.2862168
0
ARC
8
DEFAULT_255_1_234
10
17.6359401
20
176.6136232
40
0.2322322
50
220.8667099
51
234.5493881
0
ARC
8
DEFAULT_255_1_234
10
17.6017342
20
176.5824817
40
0.1859923
50
214.3062465
51
220.5065136
0
ARC
8
DEFAULT_255_1_234
10
17.5991422
20
176.579388
40
0.1821108
50
186.912965
51
213.9618616
0
ARC
8
DEFAULT_255_1_234
10
17.6523516
20
176.5880009
40
0.2359799
50
179.8808832
51
187.4339886
0
ARC
8
DEFAULT_255_1_234
10
17.636865
20
176.5900088
40
0.2204978
50
132.005434
51
180.3942919
0
ARC
8
DEFAULT_255_1_234
10
17.7025263
20
176.5294083
40
0.3095791
50
129.2319861
51
133.5302299
0
ARC
8
DEFAULT_255_1_234
10
17.7078771
20
176.5199928
40
0.3202615
50
100.4410011
51
128.9081242
0
ARC
8
DEFAULT_255_1_234
10
17.7352655
20
176.3914455
40
0.4516583
50
89.6985377
51
100.9026564
0
ARC
8
DEFAULT_255_1_234
10
17.7409697
20
176.3754166
40
0.4676928
50
77.6965325
51
90.4076836
0
ARC
8
DEFAULT_255_1_234
10
17.7740681
20
176.5181413
40
0.3211988
50
50.7276602
51
78.0399361
0
ARC
8
DEFAULT_255_1_234
10
17.818514
20
176.5699296
40
0.2529778
50
25.7545084
51
51.0957453
0
ARC
8
DEFAULT_255_1_234
10
17.8186364
20
176.5749206
40
0.250738
50
359.2468627
51
24.7394243
0
ARC
8
DEFAULT_255_1_234
10
17.7901816
20
176.5720664
40
0.1297815
50
359.8050318
51
45.1544908
0
ARC
8
DEFAULT_255_1_234
10
17.7494958
20
176.5372794
40
0.1831883
50
43.8047702
51
49.6271585
0
ARC
8
DEFAULT_255_1_234
10
17.750286
20
176.5373678
40
0.18261
50
49.7980766
51
82.1218353
0
ARC
8
DEFAULT_255_1_234
10
17.7383831
20
176.4726998
40
0.2483163
50
81.4465357
51
90.1710293
0
ARC
8
DEFAULT_255_1_234
10
17.7359434
20
176.420088
40
0.300932
50
89.6766211
51
99.1264602
0
ARC
8
DEFAULT_255_1_234
10
17.7187896
20
176.5234537
40
0.1961547
50
98.968313
51
113.4570237
0
ARC
8
DEFAULT_255_1_234
10
17.6991981
20
176.5702965
40
0.1453859
50
113.722589
51
127.4763106
0
ARC
8
DEFAULT_255_1_234
10
17.6823627
20
176.5903124
40
0.1192639
50
126.9083309
51
150.3165862
0
ARC
8
DEFAULT_255_1_234
10
17.677596
20
176.5953981
40
0.112623
50
151.3635175
51
180.0701457
0
ARC
8
DEFAULT_255_1_234
10
17.7084745
20
176.593299
40
0.1435149
50
179.2169974
51
179.9954013
0
ARC
8
DEFAULT_255_1_234
10
17.6723802
20
176.5920056
40
0.1074286
50
179.3040112
51
198.4225446
0
ARC
8
DEFAULT_255_1_234
10
17.6531936
20
176.5870127
40
0.0876573
50
199.2895851
51
238.6034594
0
ARC
8
DEFAULT_255_1_234
10
17.7134782
20
176.681645
40
0.1998512
50
237.9846301
51
246.8744712
0
ARC
8
DEFAULT_255_1_234
10
17.7992727
20
176.8779205
40
0.4140547
50
246.6234531
51
251.8168941
0
ARC
8
DEFAULT_255_1_234
10
17.9023271
20
177.1873905
40
0.7402308
50
251.713434
51
255.0778414
0
ARC
8
DEFAULT_255_1_234
10
18.0222533
20
177.6340563
40
1.2027155
50
255.0367487
51
257.4705983
0
ARC
8
DEFAULT_255_1_234
10
17.5114543
20
175.3326863
40
1.1546601
50
73.6837552
51
77.5016755
0
ARC
8
DEFAULT_255_1_234
10
17.6203318
20
175.7026581
40
0.7690009
50
68.7044154
51
73.7249639
0
ARC
8
DEFAULT_255_1_234
10
17.7106339
20
175.9353654
40
0.5193873
50
63.590599
51
68.6626804
0
ARC
8
DEFAULT_255_1_234
10
17.7877358
20
176.0891123
40
0.3473927
50
54.7106439
51
63.7013633
0
ARC
8
DEFAULT_255_1_234
10
17.8501812
20
176.17634
40
0.2401192
50
41.0622434
51
54.8487496
0
ARC
8
DEFAULT_255_1_234
10
17.8843199
20
176.2076592
40
0.1938094
50
34.4950568
51
40.7105546
0
ARC
8
DEFAULT_255_1_234
10
17.8890006
20
176.2125078
40
0.1872106
50
9.3763373
51
34.0833615
0
ARC
8
DEFAULT_255_1_234
10
17.8236876
20
176.1999728
40
0.2536988
50
359.7694872
51
9.7663171
0
ARC
8
DEFAULT_255_1_234
10
17.8434377
20
176.1956764
40
0.2339696
50
335.8654732
51
0.8022045
0
ARC
8
DEFAULT_255_1_234
10
17.8509422
20
176.1970197
40
0.2277108
50
307.7357725
51
334.7849066
0
ARC
8
DEFAULT_255_1_234
10
17.8108597
20
176.2420645
40
0.2878951
50
307.0241536
51
308.5578354
0
ARC
8
DEFAULT_255_1_234
10
17.7850929
20
176.2806801
40
0.3342515
50
282.9362969
51
306.5646424
0
ARC
8
DEFAULT_255_1_234
10
17.7489226
20
176.4274108
40
0.4853615
50
271.1026298
51
283.2200835
0
ARC
8
DEFAULT_255_1_234
10
17.742547
20
176.5515418
40
0.6096052
50
269.9919117
51
271.4772449
0
ARC
8
DEFAULT_255_1_234
10
17.7399225
20
176.4437436
40
0.5018135
50
259.0723564
51
270.289833
0
ARC
8
DEFAULT_255_1_234
10
17.7186957
20
176.3320271
40
0.388099
50
245.4963068
51
259.0227342
0
ARC
8
DEFAULT_255_1_234
10
17.6908914
20
176.2738615
40
0.3236422
50
228.9684658
51
245.7044727
0
ARC
8
DEFAULT_255_1_234
10
17.6643357
20
176.2411575
40
0.2815426
50
214.4011705
51
228.6759915
0
ARC
8
DEFAULT_255_1_234
10
17.6354098
20
176.225329
40
0.2487548
50
179.9705531
51
215.1572795
0
ARC
8
DEFAULT_255_1_234
10
17.7054698
20
176.2326806
40
0.1703809
50
182.4299387
51
203.0329699
0
ARC
8
DEFAULT_255_1_234
10
17.6870355
20
176.2270396
40
0.1512226
50
203.798802
51
232.548466
0
ARC
8
DEFAULT_255_1_234
10
17.7146877
20
176.2621826
40
0.1959374
50
232.3782728
51
256.3934612
0
ARC
8
DEFAULT_255_1_234
10
17.7377238
20
176.3511842
40
0.2878639
50
256.104506
51
268.4626716
0
ARC
8
DEFAULT_255_1_234
10
17.7423723
20
176.4308487
40
0.3676329
50
268.0715632
51
270.0138206
0
ARC
8
DEFAULT_255_1_234
10
17.7442247
20
176.4036083
40
0.3403971
50
269.7031147
51
278.8341955
0
ARC
8
DEFAULT_255_1_234
10
17.7624341
20
176.2905876
40
0.2259217
50
278.6728789
51
292.8232582
0
ARC
8
DEFAULT_255_1_234
10
17.7824879
20
176.2404449
40
0.171929
50
293.1452328
51
303.6655899
0
ARC
8
DEFAULT_255_1_234
10
17.8089758
20
176.2028204
40
0.1259367
50
303.1248165
51
321.742847
0
ARC
8
DEFAULT_255_1_234
10
17.8275638
20
176.1865156
40
0.1012531
50
322.4748573
51
1.1291126
0
LINE
8
DEFAULT_255_2_778
10
9.3932417
20
169.2010311
11
10.7161417
21
169.2010311
0
LINE
8
DEFAULT_255_2_778
10
10.7161417
20
169.2010311
11
10.7161417
21
89.8260311
0
LINE
8
DEFAULT_255_2_778
10
10.7161417
20
84.5343311
11
10.7161417
21
5.1593311
0
LINE
8
DEFAULT_255_2_778
10
10.7161417
20
5.1593311
11
9.3932417
21
5.1593311
0
LINE
8
DEFAULT_255_2_778
10
9.3932834
20
89.8260333
11
12.0390834
21
89.8260333
0
LINE
8
DEFAULT_255_2_778
10
12.0390834
20
89.8260333
11
12.0390834
21
84.5343333
0
LINE
8
DEFAULT_255_2_778
10
12.0390834
20
84.5343333
11
9.3932834
21
84.5343333
0
LINE
8
DEFAULT_255_2_778
10
9.3932834
20
84.5343333
11
9.3932834
21
89.8260333
0
LINE
8
DEFAULT_255_2_778
10
10.187
20
85.0635666
11
10.187
21
89.2968666
0
LINE
8
DEFAULT_255_2_778
10
9.9224167
20
88.503175
11
10.1870167
21
89.296875
0
LINE
8
DEFAULT_255_2_778
10
10.1870167
20
89.296875
11
10.4516167
21
88.503175
0
LINE
8
DEFAULT_255_2_778
10
10.4516167
20
88.503175
11
9.9224167
21
88.503175
0
LINE
8
DEFAULT_255_2_778
10
11.2453
20
89.2968666
11
11.2453
21
85.0635666
0
LINE
8
DEFAULT_255_2_778
10
10.9807167
20
85.857275
11
11.2453167
21
85.063575
0
LINE
8
DEFAULT_255_2_778
10
11.2453167
20
85.063575
11
11.5099167
21
85.857275
0
LINE
8
DEFAULT_255_2_778
10
11.5099167
20
85.857275
11
10.9807167
21
85.857275
0
LINE
8
DEFAULT_255_2_778
10
19.9765417
20
169.2009982
11
18.6536417
21
169.2009982
0
LINE
8
DEFAULT_255_2_778
10
18.6536417
20
169.2009982
11
18.6536417
21
108.3467982
0
LINE
8
DEFAULT_255_2_778
10
18.6536417
20
103.0551982
11
18.6536417
21
42.2009982
0
LINE
8
DEFAULT_255_2_778
10
18.6536417
20
42.2009982
11
19.9765417
21
42.2009982
0
LINE
8
DEFAULT_255_2_778
10
17.3307834
20
108.3468333
11
19.9765834
21
108.3468333
0
LINE
8
DEFAULT_255_2_778
10
19.9765834
20
108.3468333
11
19.9765834
21
103.0551333
0
LINE
8
DEFAULT_255_2_778
10
19.9765834
20
103.0551333
11
17.3307834
21
103.0551333
0
LINE
8
DEFAULT_255_2_778
10
17.3307834
20
103.0551333
11
17.3307834
21
108.3468333
0
LINE
8
DEFAULT_255_2_778
10
18.1245
20
103.5843666
11
18.1245
21
107.8176666
0
LINE
8
DEFAULT_255_2_778
10
17.8599167
20
107.023975
11
18.1245167
21
107.817675
0
LINE
8
DEFAULT_255_2_778
10
18.1245167
20
107.817675
11
18.3891167
21
107.023975
0
LINE
8
DEFAULT_255_2_778
10
18.3891167
20
107.023975
11
17.8599167
21
107.023975
0
LINE
8
DEFAULT_255_2_778
10
19.1828
20
107.8176666
11
19.1828
21
103.5843666
0
LINE
8
DEFAULT_255_2_778
10
18.9182167
20
104.378075
11
19.1828167
21
103.584375
0
LINE
8
DEFAULT_255_2_778
10
19.1828167
20
103.584375
11
19.4474167
21
104.378075
0
LINE
8
DEFAULT_255_2_778
10
19.4474167
20
104.378075
11
18.9182167
21
104.378075
0
LINE
8
DEFAULT_255_1_234
10
4.2126489
20
175.1431211
11
4.2126489
21
174.0997983
0
LINE
8
DEFAULT_255_1_234
10
4.2126489
20
174.0997983
11
4.7668389
21
174.0997983
0
LINE
8
DEFAULT_255_1_234
10
4.7668389
20
174.0997983
11
4.7668389
21
173.9737
0
LINE
8
DEFAULT_255_1_234
10
4.7668389
20
173.9737
11
4.0576364
21
173.9737
0
LINE
8
DEFAULT_255_1_234
10
4.0576364
20
173.9737
11
4.0576364
21
175.1431211
0
LINE
8
DEFAULT_255_1_234
10
4.0576364
20
175.1431211
11
4.2126489
21
175.1431211
0
LINE
8
DEFAULT_255_1_234
10
4.9078482
20
5.222601
11
4.9078482
21
4.7937062
0
LINE
8
DEFAULT_255_1_234
10
4.0066872
20
5.1687884
11
4.0066872
21
5.2707915
0
LINE
8
DEFAULT_255_1_234
10
4.9078482
20
5.4667659
11
4.7536389
21
5.4667659
0
LINE
8
DEFAULT_255_1_234
10
4.1616998
20
5.2748073
11
4.1616998
21
5.1792296
0
LINE
8
DEFAULT_255_1_234
10
4.754442
20
4.8346681
11
4.754442
21
5.0973059
0
LINE
8
DEFAULT_255_1_234
10
4.754442
20
5.0973059
11
4.4837725
21
5.0973059
0
LINE
8
DEFAULT_255_1_234
10
4.4837725
20
5.0973059
11
4.4837725
21
5.222601
0
LINE
8
DEFAULT_255_1_234
10
4.4837725
20
5.222601
11
4.9078482
21
5.222601
0
ARC
8
DEFAULT_255_1_234
10
4.6246989
20
4.9930396
40
0.3462765
50
295.8437914
51
324.8549609
0
ARC
8
DEFAULT_255_1_234
10
4.5830956
20
5.0683567
40
0.4322211
50
291.5695085
51
296.4549398
0
ARC
8
DEFAULT_255_1_234
10
4.5320207
20
5.2048275
40
0.5779178
50
278.6622409
51
291.3045483
0
ARC
8
DEFAULT_255_1_234
10
4.4980699
20
5.4196408
40
0.7953952
50
270.020006
51
278.7494541
0
ARC
8
DEFAULT_255_1_234
10
4.4942623
20
5.5513036
40
0.927067
50
269.9969998
51
270.2524872
0
ARC
8
DEFAULT_255_1_234
10
4.4904336
20
5.1429589
40
0.5187361
50
253.5786322
51
270.4175299
0
ARC
8
DEFAULT_255_1_234
10
4.4730992
20
5.0758236
40
0.4494451
50
238.8203306
51
253.2788235
0
ARC
8
DEFAULT_255_1_234
10
4.4711365
20
5.0707231
40
0.4440665
50
206.7883783
51
238.6962764
0
ARC
8
DEFAULT_255_1_234
10
4.5485275
20
5.1171405
40
0.5341121
50
206.1129412
51
207.4916643
0
ARC
8
DEFAULT_255_1_234
10
4.608219
20
5.1425488
40
0.5989041
50
188.6921119
51
205.7821245
0
ARC
8
DEFAULT_255_1_234
10
4.7938552
20
5.174123
40
0.7871862
50
180.3882829
51
188.9219216
0
ARC
8
DEFAULT_255_1_234
10
4.9166366
20
5.2764464
40
0.909967
50
170.2024264
51
180.3560651
0
ARC
8
DEFAULT_255_1_234
10
4.6002884
20
5.3330237
40
0.5886083
50
154.2857445
51
170.3893044
0
ARC
8
DEFAULT_255_1_234
10
4.4721087
20
5.391695
40
0.4476743
50
139.8401567
51
153.9332699
0
ARC
8
DEFAULT_255_1_234
10
4.4361823
20
5.4204577
40
0.4016697
50
98.4190291
51
139.6707122
0
ARC
8
DEFAULT_255_1_234
10
4.4741341
20
5.2359328
40
0.5898566
50
89.7659205
51
99.4415478
0
ARC
8
DEFAULT_255_1_234
10
4.480659
20
5.2424844
40
0.5833147
50
78.0551672
51
90.4042112
0
ARC
8
DEFAULT_255_1_234
10
4.52111
20
5.4243644
40
0.3970055
50
54.6380464
51
78.3339173
0
ARC
8
DEFAULT_255_1_234
10
4.5401156
20
5.4563795
40
0.3599102
50
50.031736
51
54.1558201
0
ARC
8
DEFAULT_255_1_234
10
4.5293944
20
5.4467766
40
0.3741624
50
18.1092409
51
49.7180913
0
ARC
8
DEFAULT_255_1_234
10
4.3837144
20
5.3934089
40
0.5292424
50
7.9672797
51
18.6984571
0
ARC
8
DEFAULT_255_1_234
10
4.3987622
20
5.4057504
40
0.3600838
50
9.7557294
51
27.3215714
0
ARC
8
DEFAULT_255_1_234
10
4.5115094
20
5.4620912
40
0.2340608
50
27.7361077
51
84.5257964
0
ARC
8
DEFAULT_255_1_234
10
4.4787481
20
5.297764
40
0.4011215
50
82.106034
51
90.2001166
0
ARC
8
DEFAULT_255_1_234
10
4.4737698
20
5.3485215
40
0.3503799
50
89.4150119
51
105.5823402
0
ARC
8
DEFAULT_255_1_234
10
4.4480696
20
5.4420867
40
0.2533503
50
105.6678618
51
144.2648758
0
ARC
8
DEFAULT_255_1_234
10
4.5373951
20
5.3785289
40
0.3629787
50
144.3561283
51
162.8564086
0
ARC
8
DEFAULT_255_1_234
10
4.745786
20
5.3116017
40
0.5818441
50
162.6076014
51
173.6780284
0
ARC
8
DEFAULT_255_1_234
10
5.0519004
20
5.274389
40
0.8902007
50
173.4670142
51
179.9730753
0
ARC
8
DEFAULT_255_1_234
10
4.8610675
20
5.175026
40
0.6993804
50
179.6556203
51
190.0080463
0
ARC
8
DEFAULT_255_1_234
10
4.6294504
20
5.1325375
40
0.4639066
50
189.8116607
51
206.6796816
0
ARC
8
DEFAULT_255_1_234
10
4.5449656
20
5.0931503
40
0.3707421
50
207.1031645
51
217.7074368
0
ARC
8
DEFAULT_255_1_234
10
4.4815345
20
5.0379559
40
0.2868417
50
216.7345547
51
265.6812148
0
ARC
8
DEFAULT_255_1_234
10
4.4946136
20
5.1283855
40
0.3780509
50
264.7366618
51
270.0611241
0
ARC
8
DEFAULT_255_1_234
10
4.4969399
20
5.4124111
40
0.662079
50
269.8335834
51
276.0539546
0
ARC
8
DEFAULT_255_1_234
10
4.5176404
20
5.222256
40
0.4708016
50
275.9894168
51
284.4615085
0
ARC
8
DEFAULT_255_1_234
10
4.5374411
20
5.1389663
40
0.3852094
50
284.7034461
51
286.4953897
0
ARC
8
DEFAULT_255_1_234
10
4.5781424
20
5.0078965
40
0.2479842
50
286.0770838
51
304.2625829
0
ARC
8
DEFAULT_255_1_234
10
4.5914838
20
4.9860594
40
0.2224291
50
304.5891602
51
317.1073298
0
LINE
8
DEFAULT_255_1_234
10
4.263903
20
11.1014211
11
4.448633
21
10.3006568
0
LINE
8
DEFAULT_255_1_234
10
4.448633
20
10.3006568
11
4.4711218
21
10.1464474
0
LINE
8
DEFAULT_255_1_234
10
4.4711218
20
10.1464474
11
4.504052
21
10.2853965
0
LINE
8
DEFAULT_255_1_234
10
4.504052
20
10.2853965
11
4.735366
21
11.1014211
0
LINE
8
DEFAULT_255_1_234
10
4.735366
20
11.1014211
11
4.8654802
21
11.1014211
0
LINE
8
DEFAULT_255_1_234
10
4.8654802
20
11.1014211
11
5.091172
21
10.2853965
0
LINE
8
DEFAULT_255_1_234
10
5.091172
20
10.2853965
11
5.123299
21
10.1440379
0
LINE
8
DEFAULT_255_1_234
10
5.123299
20
10.1440379
11
5.1481974
21
10.30146
0
LINE
8
DEFAULT_255_1_234
10
5.1481974
20
10.30146
11
5.3297146
21
11.1014211
0
LINE
8
DEFAULT_255_1_234
10
5.3297146
20
11.1014211
11
5.4847272
21
11.1014211
0
LINE
8
DEFAULT_255_1_234
10
5.4847272
20
11.1014211
11
5.2012068
21
9.932
0
LINE
8
DEFAULT_255_1_234
10
5.2012068
20
9.932
11
5.0606514
21
9.932
0
LINE
8
DEFAULT_255_1_234
10
5.0606514
20
9.932
11
4.8196993
21
10.7841674
0
LINE
8
DEFAULT_255_1_234
10
4.8196993
20
10.7841674
11
4.8012263
21
10.8733197
0
LINE
8
DEFAULT_255_1_234
10
4.8012263
20
10.8733197
11
4.7827533
21
10.7841674
0
LINE
8
DEFAULT_255_1_234
10
4.7827533
20
10.7841674
11
4.5329662
21
9.932
0
LINE
8
DEFAULT_255_1_234
10
4.5329662
20
9.932
11
4.3924108
21
9.932
0
LINE
8
DEFAULT_255_1_234
10
4.3924108
20
9.932
11
4.1096936
21
11.1014211
0
LINE
8
DEFAULT_255_1_234
10
4.1096936
20
11.1014211
11
4.263903
21
11.1014211
0
LINE
8
DEFAULT_255_1_234
10
5.7553968
20
11.1014211
11
6.0373108
21
10.6532501
0
LINE
8
DEFAULT_255_1_234
10
6.0373108
20
10.6532501
11
6.3176185
21
11.1014211
0
LINE
8
DEFAULT_255_1_234
10
6.3176185
20
11.1014211
11
6.4991357
21
11.1014211
0
LINE
8
DEFAULT_255_1_234
10
6.4991357
20
11.1014211
11
6.1296758
21
10.5215296
0
LINE
8
DEFAULT_255_1_234
10
6.1296758
20
10.5215296
11
6.5079707
21
9.932
0
LINE
8
DEFAULT_255_1_234
10
6.5079707
20
9.932
11
6.324847
21
9.932
0
LINE
8
DEFAULT_255_1_234
10
6.324847
20
9.932
11
6.0373108
21
10.3882027
0
LINE
8
DEFAULT_255_1_234
10
6.0373108
20
10.3882027
11
5.7481682
21
9.932
0
LINE
8
DEFAULT_255_1_234
10
5.7481682
20
9.932
11
5.5658478
21
9.932
0
LINE
8
DEFAULT_255_1_234
10
5.5658478
20
9.932
11
5.9449458
21
10.5215296
0
LINE
8
DEFAULT_255_1_234
10
5.9449458
20
10.5215296
11
5.5746827
21
11.1014211
0
LINE
8
DEFAULT_255_1_234
10
5.5746827
20
11.1014211
11
5.7553968
21
11.1014211
0
LINE
8
DEFAULT_255_1_234
10
6.8645798
20
10.4677169
11
6.8645798
21
10.5889962
0
LINE
8
DEFAULT_255_1_234
10
6.8645798
20
10.5889962
11
6.976221
21
10.5889962
0
LINE
8
DEFAULT_255_1_234
10
6.7858688
20
10.7946087
11
6.6372816
21
10.7946087
0
LINE
8
DEFAULT_255_1_234
10
6.6268404
20
10.2404188
11
6.7762307
21
10.2404188
0
LINE
8
DEFAULT_255_1_234
10
6.976221
20
10.4677169
11
6.8645798
21
10.4677169
0
ARC
8
DEFAULT_255_1_234
10
6.9733076
20
10.9282713
40
0.3392876
50
270.4919872
51
281.8951556
0
ARC
8
DEFAULT_255_1_234
10
6.9974338
20
10.8180702
40
0.2264817
50
281.6691735
51
301.2943132
0
ARC
8
DEFAULT_255_1_234
10
7.0144548
20
10.7869304
40
0.1910381
50
301.7833094
51
311.7545298
0
ARC
8
DEFAULT_255_1_234
10
7.0236124
20
10.7767748
40
0.1773635
50
311.7323931
51
354.2802411
0
ARC
8
DEFAULT_255_1_234
10
6.9509749
20
10.7892722
40
0.2509385
50
353.0937916
51
0.1181479
0
ARC
8
DEFAULT_255_1_234
10
6.9048534
20
10.7940386
40
0.2970898
50
359.1805295
51
15.0453146
0
ARC
8
DEFAULT_255_1_234
10
7.0394371
20
10.8332992
40
0.1569564
50
13.9577229
51
77.6713066
0
ARC
8
DEFAULT_255_1_234
10
7.00079
20
10.6947949
40
0.3006298
50
76.1116566
51
90.7026153
0
ARC
8
DEFAULT_255_1_234
10
6.9948739
20
10.7221545
40
0.2732568
50
89.5324876
51
103.531937
0
ARC
8
DEFAULT_255_1_234
10
6.9748183
20
10.8020884
40
0.1908508
50
103.2931773
51
133.5619022
0
ARC
8
DEFAULT_255_1_234
10
6.9703671
20
10.8080375
40
0.1834746
50
133.8349307
51
173.5344437
0
ARC
8
DEFAULT_255_1_234
10
7.0426714
20
10.7952213
40
0.2568033
50
172.5096846
51
180.1366907
0
ARC
8
DEFAULT_255_1_234
10
6.9475608
20
10.7986622
40
0.3103056
50
155.3484492
51
180.7484736
0
ARC
8
DEFAULT_255_1_234
10
6.9426697
20
10.7957846
40
0.3070957
50
131.5744599
51
154.4798489
0
ARC
8
DEFAULT_255_1_234
10
6.9739845
20
10.764131
40
0.3515643
50
96.9875458
51
131.9690667
0
ARC
8
DEFAULT_255_1_234
10
6.9959324
20
10.6395636
40
0.4779224
50
89.8596053
51
97.7825159
0
ARC
8
DEFAULT_255_1_234
10
7.0007388
20
10.6133616
40
0.5041361
50
78.3655447
51
90.4131539
0
ARC
8
DEFAULT_255_1_234
10
7.0365305
20
10.7792887
40
0.3344039
50
56.6229102
51
78.638727
0
ARC
8
DEFAULT_255_1_234
10
7.0580249
20
10.8168805
40
0.2912001
50
47.0253525
51
56.0854072
0
ARC
8
DEFAULT_255_1_234
10
7.0600029
20
10.8208223
40
0.2869704
50
10.9208013
51
46.7778124
0
ARC
8
DEFAULT_255_1_234
10
6.9236096
20
10.7892857
40
0.426899
50
359.6364486
51
11.6087304
0
ARC
8
DEFAULT_255_1_234
10
7.107094
20
10.7877752
40
0.243409
50
332.3549906
51
359.7179418
0
ARC
8
DEFAULT_255_1_234
10
7.0420541
20
10.8186142
40
0.3153459
50
325.2333722
51
332.8745602
0
ARC
8
DEFAULT_255_1_234
10
7.0573165
20
10.8079828
40
0.2967456
50
292.9802137
51
325.2392345
0
ARC
8
DEFAULT_255_1_234
10
7.0298539
20
10.8613863
40
0.3566604
50
292.5402179
51
293.6924929
0
ARC
8
DEFAULT_255_1_234
10
7.0691135
20
10.2159091
40
0.3307468
50
57.6435486
51
72.8625112
0
ARC
8
DEFAULT_255_1_234
10
7.1045634
20
10.2733549
40
0.2632492
50
36.7248896
51
57.4697979
0
ARC
8
DEFAULT_255_1_234
10
7.1034267
20
10.274622
40
0.2634081
50
8.0545065
51
36.356114
0
ARC
8
DEFAULT_255_1_234
10
7.0171452
20
10.2591174
40
0.3510261
50
359.8320645
51
8.5869982
0
ARC
8
DEFAULT_255_1_234
10
6.9796229
20
10.2543101
40
0.3885653
50
343.9829931
51
0.5571613
0
ARC
8
DEFAULT_255_1_234
10
7.0682426
20
10.2300438
40
0.2966924
50
311.6359546
51
343.7651759
0
ARC
8
DEFAULT_255_1_234
10
7.0303995
20
10.2727102
40
0.3537231
50
279.7829875
51
311.6255694
0
ARC
8
DEFAULT_255_1_234
10
7.0002771
20
10.416428
40
0.5004971
50
269.7286406
51
280.3856417
0
ARC
8
DEFAULT_255_1_234
10
6.9940844
20
10.4122996
40
0.4963778
50
256.6828919
51
270.4412052
0
ARC
8
DEFAULT_255_1_234
10
6.960214
20
10.2738394
40
0.3538406
50
229.4223008
51
256.8556159
0
ARC
8
DEFAULT_255_1_234
10
6.9187532
20
10.2271736
40
0.2914296
50
181.818294
51
229.6455059
0
ARC
8
DEFAULT_255_1_234
10
7.0227489
20
10.2402496
40
0.3959084
50
179.9755256
51
183.2323064
0
ARC
8
DEFAULT_255_1_234
10
7.0055234
20
10.2382037
40
0.2293034
50
179.4465117
51
196.2869258
0
ARC
8
DEFAULT_255_1_234
10
6.9567642
20
10.2248651
40
0.1787621
50
196.5661473
51
227.705904
0
ARC
8
DEFAULT_255_1_234
10
6.9731737
20
10.2432155
40
0.2033784
50
227.7652068
51
257.8762805
0
ARC
8
DEFAULT_255_1_234
10
6.9956707
20
10.3375156
40
0.3003081
50
257.4584385
51
270.426602
0
ARC
8
DEFAULT_255_1_234
10
7.0002274
20
10.3664996
40
0.329292
50
269.5962073
51
280.8789248
0
ARC
8
DEFAULT_255_1_234
10
7.0231802
20
10.2518685
40
0.2123908
50
280.6346389
51
299.8595945
0
ARC
8
DEFAULT_255_1_234
10
7.0422709
20
10.2156212
40
0.171457
50
300.3576302
51
314.5517981
0
ARC
8
DEFAULT_255_1_234
10
7.0339769
20
10.2216919
40
0.1816095
50
315.0728369
51
345.0431014
0
ARC
8
DEFAULT_255_1_234
10
6.9416584
20
10.2485841
40
0.2777492
50
344.5986631
51
357.9269593
0
ARC
8
DEFAULT_255_1_234
10
6.852091
20
10.2547276
40
0.3674917
50
357.4748886
51
0.0231117
0
ARC
8
DEFAULT_255_1_234
10
6.9544019
20
10.2571679
40
0.2651907
50
359.5047933
51
13.4239635
0
ARC
8
DEFAULT_255_1_234
10
7.0410663
20
10.2793478
40
0.1757509
50
12.9498199
51
48.7551375
0
ARC
8
DEFAULT_255_1_234
10
7.0228397
20
10.25444
40
0.2065134
50
49.5088623
51
72.1836453
0
ARC
8
DEFAULT_255_1_234
10
6.9870549
20
10.1482291
40
0.3185836
50
71.9010081
51
84.3554254
0
ARC
8
DEFAULT_255_1_234
10
6.9709181
20
10.0121326
40
0.4556151
50
84.0193428
51
89.333121
0
LINE
8
DEFAULT_255_1_234
10
4.263903
20
16.3931211
11
4.448633
21
15.5923568
0
LINE
8
DEFAULT_255_1_234
10
4.448633
20
15.5923568
11
4.4711218
21
15.4381474
0
LINE
8
DEFAULT_255_1_234
10
4.4711218
20
15.4381474
11
4.504052
21
15.5770965
0
LINE
8
DEFAULT_255_1_234
10
4.504052
20
15.5770965
11
4.735366
21
16.3931211
0
LINE
8
DEFAULT_255_1_234
10
4.735366
20
16.3931211
11
4.8654802
21
16.3931211
0
LINE
8
DEFAULT_255_1_234
10
4.8654802
20
16.3931211
11
5.091172
21
15.5770965
0
LINE
8
DEFAULT_255_1_234
10
5.091172
20
15.5770965
11
5.123299
21
15.4357379
0
LINE
8
DEFAULT_255_1_234
10
5.123299
20
15.4357379
11
5.1481974
21
15.59316
0
LINE
8
DEFAULT_255_1_234
10
5.1481974
20
15.59316
11
5.3297146
21
16.3931211
0
LINE
8
DEFAULT_255_1_234
10
5.3297146
20
16.3931211
11
5.4847272
21
16.3931211
0
LINE
8
DEFAULT_255_1_234
10
5.4847272
20
16.3931211
11
5.2012068
21
15.2237
0
LINE
8
DEFAULT_255_1_234
10
5.2012068
20
15.2237
11
5.0606514
21
15.2237
0
LINE
8
DEFAULT_255_1_234
10
5.0606514
20
15.2237
11
4.8196993
21
16.0758674
0
LINE
8
DEFAULT_255_1_234
10
4.8196993
20
16.0758674
11
4.8012263
21
16.1650197
0
LINE
8
DEFAULT_255_1_234
10
4.8012263
20
16.1650197
11
4.7827533
21
16.0758674
0
LINE
8
DEFAULT_255_1_234
10
4.7827533
20
16.0758674
11
4.5329662
21
15.2237
0
LINE
8
DEFAULT_255_1_234
10
4.5329662
20
15.2237
11
4.3924108
21
15.2237
0
LINE
8
DEFAULT_255_1_234
10
4.3924108
20
15.2237
11
4.1096936
21
16.3931211
0
LINE
8
DEFAULT_255_1_234
10
4.1096936
20
16.3931211
11
4.263903
21
16.3931211
0
LINE
8
DEFAULT_255_1_234
10
5.7553968
20
16.3931211
11
6.0373108
21
15.9449501
0
LINE
8
DEFAULT_255_1_234
10
6.0373108
20
15.9449501
11
6.3176185
21
16.3931211
0
LINE
8
DEFAULT_255_1_234
10
6.3176185
20
16.3931211
11
6.4991357
21
16.3931211
0
LINE
8
DEFAULT_255_1_234
10
6.4991357
20
16.3931211
11
6.1296758
21
15.8132296
0
LINE
8
DEFAULT_255_1_234
10
6.1296758
20
15.8132296
11
6.5079707
21
15.2237
0
LINE
8
DEFAULT_255_1_234
10
6.5079707
20
15.2237
11
6.324847
21
15.2237
0
LINE
8
DEFAULT_255_1_234
10
6.324847
20
15.2237
11
6.0373108
21
15.6799027
0
LINE
8
DEFAULT_255_1_234
10
6.0373108
20
15.6799027
11
5.7481682
21
15.2237
0
LINE
8
DEFAULT_255_1_234
10
5.7481682
20
15.2237
11
5.5658478
21
15.2237
0
LINE
8
DEFAULT_255_1_234
10
5.5658478
20
15.2237
11
5.9449458
21
15.8132296
0
LINE
8
DEFAULT_255_1_234
10
5.9449458
20
15.8132296
11
5.5746827
21
16.3931211
0
LINE
8
DEFAULT_255_1_234
10
5.5746827
20
16.3931211
11
5.7553968
21
16.3931211
0
LINE
8
DEFAULT_255_1_234
10
7.4147539
20
15.3449792
11
7.4147539
21
15.2237
0
LINE
8
DEFAULT_255_1_234
10
7.4147539
20
15.2237
11
6.6485261
21
15.2237
0
LINE
8
DEFAULT_255_1_234
10
6.6485261
20
15.2237
11
6.6485261
21
15.3305221
0
LINE
8
DEFAULT_255_1_234
10
6.6485261
20
15.3305221
11
7.0533257
21
15.7802995
0
LINE
8
DEFAULT_255_1_234
10
6.7746244
20
16.0485595
11
6.6260372
21
16.0485595
0
LINE
8
DEFAULT_255_1_234
10
7.1408716
20
15.6847218
11
6.8276338
21
15.3449792
0
LINE
8
DEFAULT_255_1_234
10
6.8276338
20
15.3449792
11
7.4147539
21
15.3449792
0
ARC
8
DEFAULT_255_1_234
10
5.704309
20
16.9732527
40
1.8008286
50
318.5132453
51
320.7828378
0
ARC
8
DEFAULT_255_1_234
10
6.2330065
20
16.5429426
40
1.1191493
50
320.7372736
51
323.9737074
0
ARC
8
DEFAULT_255_1_234
10
6.6249921
20
16.2589361
40
0.6350923
50
323.8961724
51
328.6421089
0
ARC
8
DEFAULT_255_1_234
10
6.8296516
20
16.1327031
40
0.3946393
50
328.8299013
51
331.789948
0
ARC
8
DEFAULT_255_1_234
10
6.9293695
20
16.0812509
40
0.2824501
50
331.4255242
51
352.9364833
0
ARC
8
DEFAULT_255_1_234
10
6.9430196
20
16.0781976
40
0.2685315
50
353.2248685
51
0.0169286
0
ARC
8
DEFAULT_255_1_234
10
6.9640072
20
16.080495
40
0.2475536
50
359.4866256
51
15.9339782
0
ARC
8
DEFAULT_255_1_234
10
7.0147058
20
16.0941286
40
0.1950618
50
16.1714718
51
43.5284424
0
ARC
8
DEFAULT_255_1_234
10
7.0224366
20
16.1018573
40
0.184134
50
43.4415429
51
83.1661404
0
ARC
8
DEFAULT_255_1_234
10
7.0090284
20
16.0281771
40
0.258926
50
82.160215
51
90.1505798
0
ARC
8
DEFAULT_255_1_234
10
7.0058712
20
15.9744865
40
0.3126255
50
89.5460705
51
102.5418777
0
ARC
8
DEFAULT_255_1_234
10
6.9815798
20
16.0775665
40
0.2067346
50
102.1739365
51
129.2061916
0
ARC
8
DEFAULT_255_1_234
10
6.973687
20
16.0900094
40
0.1921118
50
129.7279328
51
135.7542026
0
ARC
8
DEFAULT_255_1_234
10
6.9858397
20
16.0803045
40
0.2075944
50
136.175737
51
166.3674722
0
ARC
8
DEFAULT_255_1_234
10
7.0865316
20
16.0533182
40
0.3118201
50
165.9092917
51
178.8683903
0
ARC
8
DEFAULT_255_1_234
10
7.1730178
20
16.0486179
40
0.3983935
50
178.438168
51
180.0083905
0
ARC
8
DEFAULT_255_1_234
10
7.032878
20
16.0525231
40
0.4068601
50
163.2878735
51
180.5581814
0
ARC
8
DEFAULT_255_1_234
10
6.9527041
20
16.074584
40
0.3237344
50
133.454115
51
162.9470031
0
ARC
8
DEFAULT_255_1_234
10
6.9705583
20
16.0556
40
0.349795
50
100.7869394
51
133.4384016
0
ARC
8
DEFAULT_255_1_234
10
7.0053354
20
15.9007319
40
0.5084616
50
89.6605301
51
101.3704185
0
ARC
8
DEFAULT_255_1_234
10
7.0119693
20
15.9068496
40
0.502348
50
78.2171172
51
90.4130393
0
ARC
8
DEFAULT_255_1_234
10
7.0474771
20
16.0692637
40
0.3361092
50
55.9268222
51
78.4888551
0
ARC
8
DEFAULT_255_1_234
10
7.0671211
20
16.1031324
40
0.2970617
50
47.9292255
51
55.4054003
0
ARC
8
DEFAULT_255_1_234
10
7.0772772
20
16.1134502
40
0.2825983
50
4.3347696
51
48.0560701
0
ARC
8
DEFAULT_255_1_234
10
6.9677166
20
16.0964601
40
0.393225
50
359.925209
51
5.5967654
0
ARC
8
DEFAULT_255_1_234
10
7.0106057
20
16.1020816
40
0.3503892
50
337.8914096
51
358.9967724
0
ARC
8
DEFAULT_255_1_234
10
6.739247
20
16.2067706
40
0.6412172
50
326.9135351
51
338.3505194
0
ARC
8
DEFAULT_255_1_234
10
6.3406773
20
16.4622284
40
1.1146189
50
319.6472867
51
327.095818
0
ARC
8
DEFAULT_255_1_234
10
5.9573776
20
16.7784
40
1.6114559
50
317.2586784
51
319.9046139
0
LINE
8
DEFAULT_255_1_234
10
4.255803
20
21.6847211
11
4.440533
21
20.8839568
0
LINE
8
DEFAULT_255_1_234
10
4.440533
20
20.8839568
11
4.4630218
21
20.7297474
0
LINE
8
DEFAULT_255_1_234
10
4.4630218
20
20.7297474
11
4.495952
21
20.8686965
0
LINE
8
DEFAULT_255_1_234
10
4.495952
20
20.8686965
11
4.727266
21
21.6847211
0
LINE
8
DEFAULT_255_1_234
10
4.727266
20
21.6847211
11
4.8573802
21
21.6847211
0
LINE
8
DEFAULT_255_1_234
10
4.8573802
20
21.6847211
11
5.083072
21
20.8686965
0
LINE
8
DEFAULT_255_1_234
10
5.083072
20
20.8686965
11
5.115199
21
20.7273379
0
LINE
8
DEFAULT_255_1_234
10
5.115199
20
20.7273379
11
5.1400974
21
20.88476
0
LINE
8
DEFAULT_255_1_234
10
5.1400974
20
20.88476
11
5.3216146
21
21.6847211
0
LINE
8
DEFAULT_255_1_234
10
5.3216146
20
21.6847211
11
5.4766272
21
21.6847211
0
LINE
8
DEFAULT_255_1_234
10
5.4766272
20
21.6847211
11
5.1931068
21
20.5153
0
LINE
8
DEFAULT_255_1_234
10
5.1931068
20
20.5153
11
5.0525514
21
20.5153
0
LINE
8
DEFAULT_255_1_234
10
5.0525514
20
20.5153
11
4.8115993
21
21.3674674
0
LINE
8
DEFAULT_255_1_234
10
4.8115993
20
21.3674674
11
4.7931263
21
21.4566197
0
LINE
8
DEFAULT_255_1_234
10
4.7931263
20
21.4566197
11
4.7746533
21
21.3674674
0
LINE
8
DEFAULT_255_1_234
10
4.7746533
20
21.3674674
11
4.5248662
21
20.5153
0
LINE
8
DEFAULT_255_1_234
10
4.5248662
20
20.5153
11
4.3843108
21
20.5153
0
LINE
8
DEFAULT_255_1_234
10
4.3843108
20
20.5153
11
4.1015936
21
21.6847211
0
LINE
8
DEFAULT_255_1_234
10
4.1015936
20
21.6847211
11
4.255803
21
21.6847211
0
LINE
8
DEFAULT_255_1_234
10
5.7472968
20
21.6847211
11
6.0292108
21
21.2365501
0
LINE
8
DEFAULT_255_1_234
10
6.0292108
20
21.2365501
11
6.3095185
21
21.6847211
0
LINE
8
DEFAULT_255_1_234
10
6.3095185
20
21.6847211
11
6.4910357
21
21.6847211
0
LINE
8
DEFAULT_255_1_234
10
6.4910357
20
21.6847211
11
6.1215758
21
21.1048296
0
LINE
8
DEFAULT_255_1_234
10
6.1215758
20
21.1048296
11
6.4998707
21
20.5153
0
LINE
8
DEFAULT_255_1_234
10
6.4998707
20
20.5153
11
6.316747
21
20.5153
0
LINE
8
DEFAULT_255_1_234
10
6.316747
20
20.5153
11
6.0292108
21
20.9715027
0
LINE
8
DEFAULT_255_1_234
10
6.0292108
20
20.9715027
11
5.7400682
21
20.5153
0
LINE
8
DEFAULT_255_1_234
10
5.7400682
20
20.5153
11
5.5577478
21
20.5153
0
LINE
8
DEFAULT_255_1_234
10
5.5577478
20
20.5153
11
5.9368458
21
21.1048296
0
LINE
8
DEFAULT_255_1_234
10
5.9368458
20
21.1048296
11
5.5665827
21
21.6847211
0
LINE
8
DEFAULT_255_1_234
10
5.5665827
20
21.6847211
11
5.7472968
21
21.6847211
0
LINE
8
DEFAULT_255_1_234
10
7.1287558
20
21.6903433
11
7.1287558
21
20.5153
0
LINE
8
DEFAULT_255_1_234
10
7.1287558
20
20.5153
11
6.9793654
21
20.5153
0
LINE
8
DEFAULT_255_1_234
10
6.9793654
20
20.5153
11
6.9793654
21
21.5056133
0
LINE
8
DEFAULT_255_1_234
10
6.9793654
20
21.5056133
11
6.6797816
21
21.3955785
0
LINE
8
DEFAULT_255_1_234
10
6.6797816
20
21.3955785
11
6.6797816
21
21.5305117
0
LINE
8
DEFAULT_255_1_234
10
6.6797816
20
21.5305117
11
7.1054637
21
21.6903433
0
LINE
8
DEFAULT_255_1_234
10
7.1054637
20
21.6903433
11
7.1287558
21
21.6903433
0
LINE
8
DEFAULT_255_1_234
10
4.263903
20
26.9764211
11
4.448633
21
26.1756568
0
LINE
8
DEFAULT_255_1_234
10
4.448633
20
26.1756568
11
4.4711218
21
26.0214474
0
LINE
8
DEFAULT_255_1_234
10
4.4711218
20
26.0214474
11
4.504052
21
26.1603965
0
LINE
8
DEFAULT_255_1_234
10
4.504052
20
26.1603965
11
4.735366
21
26.9764211
0
LINE
8
DEFAULT_255_1_234
10
4.735366
20
26.9764211
11
4.8654802
21
26.9764211
0
LINE
8
DEFAULT_255_1_234
10
4.8654802
20
26.9764211
11
5.091172
21
26.1603965
0
LINE
8
DEFAULT_255_1_234
10
5.091172
20
26.1603965
11
5.123299
21
26.0190379
0
LINE
8
DEFAULT_255_1_234
10
5.123299
20
26.0190379
11
5.1481974
21
26.17646
0
LINE
8
DEFAULT_255_1_234
10
5.1481974
20
26.17646
11
5.3297146
21
26.9764211
0
LINE
8
DEFAULT_255_1_234
10
5.3297146
20
26.9764211
11
5.4847272
21
26.9764211
0
LINE
8
DEFAULT_255_1_234
10
5.4847272
20
26.9764211
11
5.2012068
21
25.807
0
LINE
8
DEFAULT_255_1_234
10
5.2012068
20
25.807
11
5.0606514
21
25.807
0
LINE
8
DEFAULT_255_1_234
10
5.0606514
20
25.807
11
4.8196993
21
26.6591674
0
LINE
8
DEFAULT_255_1_234
10
4.8196993
20
26.6591674
11
4.8012263
21
26.7483197
0
LINE
8
DEFAULT_255_1_234
10
4.8012263
20
26.7483197
11
4.7827533
21
26.6591674
0
LINE
8
DEFAULT_255_1_234
10
4.7827533
20
26.6591674
11
4.5329662
21
25.807
0
LINE
8
DEFAULT_255_1_234
10
4.5329662
20
25.807
11
4.3924108
21
25.807
0
LINE
8
DEFAULT_255_1_234
10
4.3924108
20
25.807
11
4.1096936
21
26.9764211
0
LINE
8
DEFAULT_255_1_234
10
4.1096936
20
26.9764211
11
4.263903
21
26.9764211
0
LINE
8
DEFAULT_255_1_234
10
5.7553968
20
26.9764211
11
6.0373108
21
26.5282501
0
LINE
8
DEFAULT_255_1_234
10
6.0373108
20
26.5282501
11
6.3176185
21
26.9764211
0
LINE
8
DEFAULT_255_1_234
10
6.3176185
20
26.9764211
11
6.4991357
21
26.9764211
0
LINE
8
DEFAULT_255_1_234
10
6.4991357
20
26.9764211
11
6.1296758
21
26.3965296
0
LINE
8
DEFAULT_255_1_234
10
6.1296758
20
26.3965296
11
6.5079707
21
25.807
0
LINE
8
DEFAULT_255_1_234
10
6.5079707
20
25.807
11
6.324847
21
25.807
0
LINE
8
DEFAULT_255_1_234
10
6.324847
20
25.807
11
6.0373108
21
26.2632027
0
LINE
8
DEFAULT_255_1_234
10
6.0373108
20
26.2632027
11
5.7481682
21
25.807
0
LINE
8
DEFAULT_255_1_234
10
5.7481682
20
25.807
11
5.5658478
21
25.807
0
LINE
8
DEFAULT_255_1_234
10
5.5658478
20
25.807
11
5.9449458
21
26.3965296
0
LINE
8
DEFAULT_255_1_234
10
5.9449458
20
26.3965296
11
5.5746827
21
26.9764211
0
LINE
8
DEFAULT_255_1_234
10
5.5746827
20
26.9764211
11
5.7553968
21
26.9764211
0
LINE
8
DEFAULT_255_1_234
10
7.3818238
20
26.4985327
11
7.3818238
21
26.3057709
0
LINE
8
DEFAULT_255_1_234
10
6.643707
20
26.2856916
11
6.643707
21
26.4840755
0
LINE
8
DEFAULT_255_1_234
10
7.2332366
20
26.2656123
11
7.2332366
21
26.5089739
0
LINE
8
DEFAULT_255_1_234
10
6.7922942
20
26.5202184
11
6.7922942
21
26.2824789
0
ARC
8
DEFAULT_255_1_234
10
6.1571127
20
26.3008805
40
1.2247208
50
353.8441951
51
0.2287902
0
ARC
8
DEFAULT_255_1_234
10
6.6210631
20
26.2490806
40
0.7578929
50
344.4934747
51
353.9765454
0
ARC
8
DEFAULT_255_1_234
10
6.9203221
20
26.1639981
40
0.4467846
50
329.2803592
51
344.7472793
0
ARC
8
DEFAULT_255_1_234
10
7.0196046
20
26.1095018
40
0.3336173
50
324.9352394
51
328.6160465
0
ARC
8
DEFAULT_255_1_234
10
7.0573155
20
26.0831427
40
0.2876076
50
280.580143
51
324.9173126
0
ARC
8
DEFAULT_255_1_234
10
7.0171947
20
26.2502099
40
0.4592847
50
269.5977311
51
281.6734359
0
ARC
8
DEFAULT_255_1_234
10
7.0099853
20
26.2382173
40
0.4472986
50
256.6228859
51
270.51044
0
ARC
8
DEFAULT_255_1_234
10
6.9697831
20
26.0833877
40
0.2873874
50
215.8618325
51
257.2788573
0
ARC
8
DEFAULT_255_1_234
10
7.0718862
20
26.1518977
40
0.4102928
50
197.9693508
51
215.2623606
0
ARC
8
DEFAULT_255_1_234
10
7.3203978
20
26.2357709
40
0.6725652
50
187.8816417
51
198.2346507
0
ARC
8
DEFAULT_255_1_234
10
7.7162186
20
26.2929079
40
1.0724845
50
180.8976217
51
188.0055519
0
ARC
8
DEFAULT_255_1_234
10
7.9962374
20
26.3032777
40
1.3526448
50
180.7449369
51
181.1510016
0
ARC
8
DEFAULT_255_1_234
10
7.8385104
20
26.4889042
40
1.1948131
50
173.7675579
51
180.231553
0
ARC
8
DEFAULT_255_1_234
10
7.386725
20
26.5399666
40
0.7401564
50
164.3058563
51
173.9002247
0
ARC
8
DEFAULT_255_1_234
10
7.0955319
20
26.6238656
40
0.4371288
50
148.7922025
51
164.568378
0
ARC
8
DEFAULT_255_1_234
10
7.0003771
20
26.6769929
40
0.3282386
50
144.5883898
51
148.1176286
0
ARC
8
DEFAULT_255_1_234
10
6.9660669
20
26.7009315
40
0.2864044
50
101.6440918
51
144.514236
0
ARC
8
DEFAULT_255_1_234
10
7.0085736
20
26.5320069
40
0.4604934
50
89.5284041
51
102.5819763
0
ARC
8
DEFAULT_255_1_234
10
7.0164824
20
26.5281018
40
0.464401
50
77.0437873
51
90.5081339
0
ARC
8
DEFAULT_255_1_234
10
7.0566825
20
26.6923615
40
0.2953195
50
48.2778575
51
77.4994676
0
ARC
8
DEFAULT_255_1_234
10
7.0639457
20
26.7052746
40
0.2808655
50
36.3142134
51
47.6305865
0
ARC
8
DEFAULT_255_1_234
10
6.9770764
20
26.6467515
40
0.3855453
50
18.2931786
51
35.6769206
0
ARC
8
DEFAULT_255_1_234
10
6.7227522
20
26.5594593
40
0.654423
50
8.024666
51
18.5605216
0
ARC
8
DEFAULT_255_1_234
10
6.3064442
20
26.4979792
40
1.0752407
50
1.1274072
51
8.1718305
0
ARC
8
DEFAULT_255_1_234
10
5.9828633
20
26.4852885
40
1.3990231
50
0.5424119
51
1.3863029
0
ARC
8
DEFAULT_255_1_234
10
6.1650011
20
26.5125342
40
1.0682415
50
359.8090433
51
4.9407866
0
ARC
8
DEFAULT_255_1_234
10
6.5860025
20
26.5501113
40
0.6455691
50
4.8362157
51
12.2904523
0
ARC
8
DEFAULT_255_1_234
10
6.861514
20
26.6114965
40
0.3633074
50
12.0805627
51
23.8173984
0
ARC
8
DEFAULT_255_1_234
10
6.9788845
20
26.6611919
40
0.2358723
50
24.2871213
51
31.3935614
0
ARC
8
DEFAULT_255_1_234
10
7.0313542
20
26.6955233
40
0.1732111
50
30.7407893
51
82.4657128
0
ARC
8
DEFAULT_255_1_234
10
7.0133677
20
26.6071691
40
0.263235
50
81.1060089
51
90.2184952
0
ARC
8
DEFAULT_255_1_234
10
7.0097975
20
26.6329924
40
0.2374236
50
89.3806855
51
105.6762551
0
ARC
8
DEFAULT_255_1_234
10
6.9914606
20
26.6996567
40
0.1682847
50
105.7981136
51
149.7388061
0
ARC
8
DEFAULT_255_1_234
10
7.0978684
20
26.635695
40
0.2924306
50
149.4208916
51
163.6286378
0
ARC
8
DEFAULT_255_1_234
10
7.3069572
20
26.571925
40
0.5110213
50
163.3763315
51
172.1410975
0
ARC
8
DEFAULT_255_1_234
10
7.6370291
20
26.5246518
40
0.8444586
50
172.0259487
51
178.0703232
0
ARC
8
DEFAULT_255_1_234
10
7.9400381
20
26.5102906
40
1.1477868
50
177.8631668
51
179.5044149
0
ARC
8
DEFAULT_255_1_234
10
7.8327785
20
26.2788389
40
1.0404907
50
179.7995573
51
185.2460446
0
ARC
8
DEFAULT_255_1_234
10
7.4284825
20
26.2405513
40
0.6343885
50
185.1411642
51
193.0079639
0
ARC
8
DEFAULT_255_1_234
10
7.1641297
20
26.1780641
40
0.3627568
50
192.7897626
51
205.2507664
0
ARC
8
DEFAULT_255_1_234
10
7.0594844
20
26.1313415
40
0.2481908
50
205.8005384
51
211.2537509
0
ARC
8
DEFAULT_255_1_234
10
7.0071285
20
26.096258
40
0.1852521
50
210.3789793
51
238.4008143
0
ARC
8
DEFAULT_255_1_234
10
7.0051806
20
26.1009376
40
0.1882621
50
239.6520629
51
265.9793761
0
ARC
8
DEFAULT_255_1_234
10
7.0137007
20
26.1681427
40
0.2559272
50
265.1315437
51
270.060332
0
ARC
8
DEFAULT_255_1_234
10
7.0165785
20
26.1357534
40
0.2235528
50
269.3314664
51
287.2178029
0
ARC
8
DEFAULT_255_1_234
10
7.0303637
20
26.0854279
40
0.1714108
50
287.7958004
51
329.080874
0
ARC
8
DEFAULT_255_1_234
10
6.9346094
20
26.145193
40
0.2842745
50
328.6634704
51
343.3325132
0
ARC
8
DEFAULT_255_1_234
10
6.7173114
20
26.2128863
40
0.5118644
50
343.0499468
51
351.9393422
0
ARC
8
DEFAULT_255_1_234
10
6.3706414
20
26.2639949
40
0.8622784
50
351.8069023
51
357.7959224
0
ARC
8
DEFAULT_255_1_234
10
6.047097
20
26.2807721
40
1.1862365
50
357.5871873
51
359.2677531
0
LINE
8
DEFAULT_255_1_234
10
4.5776137
20
32.2737433
11
4.5776137
21
31.0987
0
LINE
8
DEFAULT_255_1_234
10
4.5776137
20
31.0987
11
4.4282234
21
31.0987
0
LINE
8
DEFAULT_255_1_234
10
4.4282234
20
31.0987
11
4.4282234
21
32.0890133
0
LINE
8
DEFAULT_255_1_234
10
4.4282234
20
32.0890133
11
4.1286396
21
31.9789785
0
LINE
8
DEFAULT_255_1_234
10
4.1286396
20
31.9789785
11
4.1286396
21
32.1139117
0
LINE
8
DEFAULT_255_1_234
10
4.1286396
20
32.1139117
11
4.5543217
21
32.2737433
0
LINE
8
DEFAULT_255_1_234
10
4.5543217
20
32.2737433
11
4.5776137
21
32.2737433
0
LINE
8
DEFAULT_255_1_234
10
5.7566729
20
31.4697663
11
5.9116854
21
31.4697663
0
LINE
8
DEFAULT_255_1_234
10
5.0113276
20
31.6287947
11
5.0113276
21
31.7412391
0
LINE
8
DEFAULT_255_1_234
10
5.9116854
20
31.8922357
11
5.7566729
21
31.8922357
0
LINE
8
DEFAULT_255_1_234
10
5.1663401
20
31.7372232
11
5.1663401
21
31.6239757
0
ARC
8
DEFAULT_255_1_234
10
5.3636241
20
31.5294846
40
0.5513052
50
340.1774281
51
353.7814284
0
ARC
8
DEFAULT_255_1_234
10
5.5207594
20
31.4709582
40
0.3836379
50
311.4558989
51
340.4421614
0
ARC
8
DEFAULT_255_1_234
10
5.5174262
20
31.4820528
40
0.3941894
50
282.4333181
51
310.7513653
0
ARC
8
DEFAULT_255_1_234
10
5.4735001
20
31.6635679
40
0.5809175
50
269.9358511
51
282.809604
0
ARC
8
DEFAULT_255_1_234
10
5.4683067
20
31.8093212
40
0.7266847
50
270.0021091
51
270.3581957
0
ARC
8
DEFAULT_255_1_234
10
5.4630484
20
31.5492585
40
0.4666519
50
250.7884749
51
270.6489167
0
ARC
8
DEFAULT_255_1_234
10
5.4462319
20
31.4855319
40
0.4009729
50
219.3627325
51
250.0611886
0
ARC
8
DEFAULT_255_1_234
10
5.529153
20
31.5560042
40
0.5097822
50
193.5479632
51
219.5756669
0
ARC
8
DEFAULT_255_1_234
10
5.7663151
20
31.6175919
40
0.7547848
50
181.1218675
51
193.87563
0
ARC
8
DEFAULT_255_1_234
10
5.9733332
20
31.628658
40
0.9620055
50
179.9918545
51
181.5394234
0
ARC
8
DEFAULT_255_1_234
10
5.7882434
20
31.7449788
40
0.7769248
50
169.5837241
51
180.2757934
0
ARC
8
DEFAULT_255_1_234
10
5.6045372
20
31.7789229
40
0.590109
50
155.0365899
51
169.6003176
0
ARC
8
DEFAULT_255_1_234
10
5.4909836
20
31.8336677
40
0.4640625
50
136.783148
51
155.2472683
0
ARC
8
DEFAULT_255_1_234
10
5.4520313
20
31.8667562
40
0.4130255
50
121.7633186
51
136.428115
0
ARC
8
DEFAULT_255_1_234
10
5.4655275
20
31.8418227
40
0.4413323
50
95.6459699
51
121.5490577
0
ARC
8
DEFAULT_255_1_234
10
5.4812557
20
31.7309949
40
0.55319
50
89.924208
51
96.1377933
0
ARC
8
DEFAULT_255_1_234
10
5.486299
20
31.7428542
40
0.5413475
50
76.6779277
51
90.4563316
0
ARC
8
DEFAULT_255_1_234
10
5.5256613
20
31.9019114
40
0.3775041
50
47.485847
51
76.9287264
0
ARC
8
DEFAULT_255_1_234
10
5.5109586
20
31.8919159
40
0.3948286
50
16.5424086
51
46.8933463
0
ARC
8
DEFAULT_255_1_234
10
5.3501743
20
31.8390861
40
0.564021
50
5.4072051
51
17.0365086
0
ARC
8
DEFAULT_255_1_234
10
5.206276
20
31.8159679
40
0.5556559
50
7.8891745
51
15.9239216
0
ARC
8
DEFAULT_255_1_234
10
5.4049773
20
31.8736631
40
0.3487515
50
15.7653144
51
27.9410532
0
ARC
8
DEFAULT_255_1_234
10
5.5153991
20
31.932779
40
0.2235026
50
27.8166557
51
46.4008329
0
ARC
8
DEFAULT_255_1_234
10
5.5203634
20
31.9322082
40
0.2205286
50
47.4371857
51
75.0698205
0
ARC
8
DEFAULT_255_1_234
10
5.4895029
20
31.8247765
40
0.3322915
50
74.7008593
51
87.8124495
0
ARC
8
DEFAULT_255_1_234
10
5.4821716
20
31.7191844
40
0.4380987
50
87.3814673
51
90.0240855
0
ARC
8
DEFAULT_255_1_234
10
5.4783259
20
31.8369291
40
0.3203749
50
89.3451631
51
108.5745436
0
ARC
8
DEFAULT_255_1_234
10
5.4646365
20
31.8882908
40
0.2673494
50
109.2998449
51
143.3037509
0
ARC
8
DEFAULT_255_1_234
10
5.5408437
20
31.8296881
40
0.3634757
50
143.0753173
51
163.1916937
0
ARC
8
DEFAULT_255_1_234
10
5.7360165
20
31.7680967
40
0.5681262
50
162.9373603
51
174.6208611
0
ARC
8
DEFAULT_255_1_234
10
5.9986207
20
31.739301
40
0.8322832
50
174.3419979
51
180.1430411
0
ARC
8
DEFAULT_255_1_234
10
5.9055363
20
31.6198698
40
0.7392076
50
179.6817502
51
189.150529
0
ARC
8
DEFAULT_255_1_234
10
5.6554611
20
31.578219
40
0.4856932
50
188.9910863
51
203.5773039
0
ARC
8
DEFAULT_255_1_234
10
5.5474944
20
31.5334211
40
0.3688271
50
203.9077269
51
215.1312379
0
ARC
8
DEFAULT_255_1_234
10
5.4552038
20
31.4618941
40
0.2522457
50
213.9071664
51
263.8849284
0
ARC
8
DEFAULT_255_1_234
10
5.4677367
20
31.5403518
40
0.3316174
50
263.1758525
51
270.1031083
0
ARC
8
DEFAULT_255_1_234
10
5.4709459
20
31.6650365
40
0.4563091
50
269.6719807
51
279.0609165
0
ARC
8
DEFAULT_255_1_234
10
5.4976227
20
31.5037907
40
0.2928759
50
278.8750225
51
293.6346586
0
ARC
8
DEFAULT_255_1_234
10
5.5296435
20
31.42859
40
0.2111472
50
293.8553404
51
310.0518804
0
ARC
8
DEFAULT_255_1_234
10
5.5301289
20
31.4223516
40
0.2060917
50
311.0646779
51
332.0108348
0
ARC
8
DEFAULT_255_1_234
10
5.4109016
20
31.4880978
40
0.3422352
50
331.6588543
51
343.2878891
0
ARC
8
DEFAULT_255_1_234
10
5.2046531
20
31.5514798
40
0.5580003
50
343.1446044
51
351.010618
0
ARC
8
DEFAULT_255_1_234
10
5.0505177
20
31.5795871
40
0.7146438
50
350.7157277
51
351.1602153
0
LINE
8
DEFAULT_255_1_234
10
4.3681299
20
37.5597211
11
4.6500439
21
37.1115501
0
LINE
8
DEFAULT_255_1_234
10
4.6500439
20
37.1115501
11
4.9303516
21
37.5597211
0
LINE
8
DEFAULT_255_1_234
10
4.9303516
20
37.5597211
11
5.1118689
21
37.5597211
0
LINE
8
DEFAULT_255_1_234
10
5.1118689
20
37.5597211
11
4.7424089
21
36.9798296
0
LINE
8
DEFAULT_255_1_234
10
4.7424089
20
36.9798296
11
5.1207038
21
36.3903
0
LINE
8
DEFAULT_255_1_234
10
5.1207038
20
36.3903
11
4.9375802
21
36.3903
0
LINE
8
DEFAULT_255_1_234
10
4.9375802
20
36.3903
11
4.6500439
21
36.8465027
0
LINE
8
DEFAULT_255_1_234
10
4.6500439
20
36.8465027
11
4.3609014
21
36.3903
0
LINE
8
DEFAULT_255_1_234
10
4.3609014
20
36.3903
11
4.1785809
21
36.3903
0
LINE
8
DEFAULT_255_1_234
10
4.1785809
20
36.3903
11
4.557679
21
36.9798296
0
LINE
8
DEFAULT_255_1_234
10
4.557679
20
36.9798296
11
4.1874158
21
37.5597211
0
LINE
8
DEFAULT_255_1_234
10
4.1874158
20
37.5597211
11
4.3681299
21
37.5597211
0
LINE
8
DEFAULT_255_1_234
10
5.7495889
20
37.5653433
11
5.7495889
21
36.3903
0
LINE
8
DEFAULT_255_1_234
10
5.7495889
20
36.3903
11
5.6001986
21
36.3903
0
LINE
8
DEFAULT_255_1_234
10
5.6001986
20
36.3903
11
5.6001986
21
37.3806133
0
LINE
8
DEFAULT_255_1_234
10
5.6001986
20
37.3806133
11
5.3006147
21
37.2705785
0
LINE
8
DEFAULT_255_1_234
10
5.3006147
20
37.2705785
11
5.3006147
21
37.4055117
0
LINE
8
DEFAULT_255_1_234
10
5.3006147
20
37.4055117
11
5.7262969
21
37.5653433
0
LINE
8
DEFAULT_255_1_234
10
5.7262969
20
37.5653433
11
5.7495889
21
37.5653433
0
LINE
8
DEFAULT_255_1_234
10
6.9037497
20
37.0922739
11
6.9037497
21
37.0489025
0
LINE
8
DEFAULT_255_1_234
10
6.3616074
20
36.3894968
11
6.3326931
21
36.3894968
0
LINE
8
DEFAULT_255_1_234
10
6.3326931
20
36.3894968
11
6.3326931
21
36.5147919
0
LINE
8
DEFAULT_255_1_234
10
6.3326931
20
36.5147919
11
6.3640169
21
36.5147919
0
LINE
8
DEFAULT_255_1_234
10
6.7551625
20
37.0633597
11
6.7551625
21
37.1227945
0
ARC
8
DEFAULT_255_1_234
10
6.4757895
20
37.1379403
40
0.3635579
50
297.4037347
51
320.016758
0
ARC
8
DEFAULT_255_1_234
10
6.5047844
20
37.082224
40
0.3007486
50
270.2633101
51
297.3851877
0
ARC
8
DEFAULT_255_1_234
10
6.50138
20
37.1285904
40
0.3471448
50
269.9966443
51
270.7900392
0
ARC
8
DEFAULT_255_1_234
10
6.4988281
20
37.1284143
40
0.3469779
50
254.5999133
51
270.4180344
0
ARC
8
DEFAULT_255_1_234
10
6.484564
20
37.0719647
40
0.2887697
50
236.4717942
51
254.3541279
0
ARC
8
DEFAULT_255_1_234
10
6.5001858
20
37.0929711
40
0.3149125
50
208.4727207
51
236.2134933
0
ARC
8
DEFAULT_255_1_234
10
6.5640633
20
37.1320455
40
0.3897115
50
204.3447514
51
209.0453999
0
ARC
8
DEFAULT_255_1_234
10
6.6320209
20
37.1608656
40
0.4635101
50
183.9375985
51
204.1276318
0
ARC
8
DEFAULT_255_1_234
10
6.722846
20
37.1706482
40
0.5548037
50
179.9652252
51
184.3013875
0
ARC
8
DEFAULT_255_1_234
10
6.6988506
20
37.1739507
40
0.5308164
50
166.7585989
51
180.3201225
0
ARC
8
DEFAULT_255_1_234
10
6.614212
20
37.1923488
40
0.4442163
50
154.6955053
51
166.5679793
0
ARC
8
DEFAULT_255_1_234
10
6.528899
20
37.235321
40
0.3487299
50
136.3324195
51
155.0871442
0
ARC
8
DEFAULT_255_1_234
10
6.5008063
20
37.2593954
40
0.3117924
50
121.236733
51
135.9680508
0
ARC
8
DEFAULT_255_1_234
10
6.5148561
20
37.2333743
40
0.3413302
50
96.845628
51
120.9881519
0
ARC
8
DEFAULT_255_1_234
10
6.5294143
20
37.1398515
40
0.4359341
50
89.8870174
51
97.2802754
0
ARC
8
DEFAULT_255_1_234
10
6.5346581
20
37.2036095
40
0.3722009
50
70.6505584
51
90.6749113
0
ARC
8
DEFAULT_255_1_234
10
6.547786
20
37.2549361
40
0.3194571
50
36.7492984
51
69.8219918
0
ARC
8
DEFAULT_255_1_234
10
6.4479025
20
37.1770993
40
0.4460685
50
15.39587
51
37.0840084
0
ARC
8
DEFAULT_255_1_234
10
6.2349458
20
37.1150242
40
0.6678714
50
3.9488873
51
15.6798563
0
ARC
8
DEFAULT_255_1_234
10
5.9948086
20
37.0933964
40
0.9089418
50
359.929245
51
4.2665314
0
ARC
8
DEFAULT_255_1_234
10
5.5342523
20
37.0422513
40
1.3695135
50
352.8366322
51
0.2782669
0
ARC
8
DEFAULT_255_1_234
10
6.0630202
20
36.9735629
40
0.8363105
50
341.8359505
51
352.9884176
0
ARC
8
DEFAULT_255_1_234
10
6.3848921
20
36.86507
40
0.4966642
50
322.8578092
51
342.1527901
0
ARC
8
DEFAULT_255_1_234
10
6.4712877
20
36.8061384
40
0.3922466
50
319.334325
51
322.0998941
0
ARC
8
DEFAULT_255_1_234
10
6.4403214
20
36.8372209
40
0.4360033
50
285.9541367
51
318.8878087
0
ARC
8
DEFAULT_255_1_234
10
6.3676475
20
37.06826
40
0.678149
50
272.9281676
51
286.4922826
0
ARC
8
DEFAULT_255_1_234
10
6.3486593
20
37.2933587
40
0.9039547
50
270.8207226
51
273.4012994
0
ARC
8
DEFAULT_255_1_234
10
6.3575444
20
37.1114666
40
0.5967098
50
270.6214993
51
281.4062806
0
ARC
8
DEFAULT_255_1_234
10
6.4005425
20
36.9058833
40
0.3866861
50
281.1852553
51
299.0621114
0
ARC
8
DEFAULT_255_1_234
10
6.4378996
20
36.8337798
40
0.3055236
50
299.5067782
51
313.1200873
0
ARC
8
DEFAULT_255_1_234
10
6.4400963
20
36.8258554
40
0.2982623
50
313.8526205
51
338.5989322
0
ARC
8
DEFAULT_255_1_234
10
6.2777037
20
36.8925781
40
0.4738131
50
338.2523585
51
351.2430902
0
ARC
8
DEFAULT_255_1_234
10
6.0366333
20
36.9335447
40
0.7183203
50
350.9409515
51
357.6691871
0
ARC
8
DEFAULT_255_1_234
10
6.5256763
20
37.1337764
40
0.2294452
50
269.9447023
51
306.8248917
0
ARC
8
DEFAULT_255_1_234
10
6.5019678
20
37.1760898
40
0.2775994
50
305.5072438
51
327.0773448
0
ARC
8
DEFAULT_255_1_234
10
6.5138119
20
37.1666025
40
0.2625056
50
327.4104943
51
336.840169
0
ARC
8
DEFAULT_255_1_234
10
6.2044184
20
37.1260302
40
0.5507537
50
359.6633817
51
10.117533
0
ARC
8
DEFAULT_255_1_234
10
6.3797982
20
37.1584777
40
0.372403
50
9.9430141
51
26.7700076
0
ARC
8
DEFAULT_255_1_234
10
6.4395194
20
37.1860187
40
0.3066865
50
27.2015464
51
34.6829435
0
ARC
8
DEFAULT_255_1_234
10
6.4884674
20
37.2227977
40
0.245519
50
34.1250343
51
50.3070065
0
ARC
8
DEFAULT_255_1_234
10
6.5331354
20
37.2762385
40
0.1758693
50
50.3851167
51
90.6705993
0
ARC
8
DEFAULT_255_1_234
10
6.5284587
20
37.2457799
40
0.2063326
50
89.272901
51
111.9140407
0
ARC
8
DEFAULT_255_1_234
10
6.5265115
20
37.259844
40
0.1925887
50
112.9382311
51
142.5320782
0
ARC
8
DEFAULT_255_1_234
10
6.5811295
20
37.2154969
40
0.2629232
50
142.1021256
51
166.3835592
0
ARC
8
DEFAULT_255_1_234
10
6.69926
20
37.1849915
40
0.3849193
50
166.1100289
51
178.665427
0
ARC
8
DEFAULT_255_1_234
10
6.8040189
20
37.1791117
40
0.4897989
50
178.2632126
51
180.0111093
0
ARC
8
DEFAULT_255_1_234
10
6.723831
20
37.1762728
40
0.40962
50
179.6161962
51
191.8787166
0
ARC
8
DEFAULT_255_1_234
10
6.6018149
20
37.1492896
40
0.2846655
50
191.6191692
51
215.2972286
0
ARC
8
DEFAULT_255_1_234
10
6.582134
20
37.1377918
40
0.2619665
50
215.7320102
51
216.5355409
0
ARC
8
DEFAULT_255_1_234
10
6.5282426
20
37.0945647
40
0.1929497
50
215.7486685
51
239.9727502
0
ARC
8
DEFAULT_255_1_234
10
6.5212342
20
37.0894894
40
0.1850822
50
241.0650169
51
269.2810483
0
ARC
8
DEFAULT_255_1_234
10
6.5254257
20
37.1385371
40
0.2342059
50
268.4062526
51
270.0071348
0
LINE
8
DEFAULT_255_1_234
10
4.3681299
20
42.8514211
11
4.6500439
21
42.4032501
0
LINE
8
DEFAULT_255_1_234
10
4.6500439
20
42.4032501
11
4.9303516
21
42.8514211
0
LINE
8
DEFAULT_255_1_234
10
4.9303516
20
42.8514211
11
5.1118689
21
42.8514211
0
LINE
8
DEFAULT_255_1_234
10
5.1118689
20
42.8514211
11
4.7424089
21
42.2715296
0
LINE
8
DEFAULT_255_1_234
10
4.7424089
20
42.2715296
11
5.1207038
21
41.682
0
LINE
8
DEFAULT_255_1_234
10
5.1207038
20
41.682
11
4.9375802
21
41.682
0
LINE
8
DEFAULT_255_1_234
10
4.9375802
20
41.682
11
4.6500439
21
42.1382027
0
LINE
8
DEFAULT_255_1_234
10
4.6500439
20
42.1382027
11
4.3609014
21
41.682
0
LINE
8
DEFAULT_255_1_234
10
4.3609014
20
41.682
11
4.1785809
21
41.682
0
LINE
8
DEFAULT_255_1_234
10
4.1785809
20
41.682
11
4.557679
21
42.2715296
0
LINE
8
DEFAULT_255_1_234
10
4.557679
20
42.2715296
11
4.1874158
21
42.8514211
0
LINE
8
DEFAULT_255_1_234
10
4.1874158
20
42.8514211
11
4.3681299
21
42.8514211
0
LINE
8
DEFAULT_255_1_234
10
5.7495889
20
42.8570433
11
5.7495889
21
41.682
0
LINE
8
DEFAULT_255_1_234
10
5.7495889
20
41.682
11
5.6001986
21
41.682
0
LINE
8
DEFAULT_255_1_234
10
5.6001986
20
41.682
11
5.6001986
21
42.6723133
0
LINE
8
DEFAULT_255_1_234
10
5.6001986
20
42.6723133
11
5.3006147
21
42.5622785
0
LINE
8
DEFAULT_255_1_234
10
5.3006147
20
42.5622785
11
5.3006147
21
42.6972117
0
LINE
8
DEFAULT_255_1_234
10
5.3006147
20
42.6972117
11
5.7262969
21
42.8570433
0
LINE
8
DEFAULT_255_1_234
10
5.7262969
20
42.8570433
11
5.7495889
21
42.8570433
0
ARC
8
DEFAULT_255_1_234
10
6.6118875
20
42.5436703
40
0.2822356
50
338.8763615
51
0.5166041
0
ARC
8
DEFAULT_255_1_234
10
6.6287529
20
42.5391208
40
0.2648703
50
325.8412414
51
338.4795939
0
ARC
8
DEFAULT_255_1_234
10
6.5896897
20
42.5662042
40
0.3124019
50
296.7586019
51
325.753654
0
ARC
8
DEFAULT_255_1_234
10
6.5609005
20
42.6146789
40
0.368668
50
296.0902311
51
297.3618122
0
ARC
8
DEFAULT_255_1_234
10
6.5866463
20
41.9592041
40
0.3518806
50
47.9009248
51
67.1946869
0
ARC
8
DEFAULT_255_1_234
10
6.6062705
20
41.9838395
40
0.320451
50
35.236241
51
47.551371
0
ARC
8
DEFAULT_255_1_234
10
6.6324323
20
42.0012993
40
0.2890103
50
359.2759738
51
35.4014081
0
ARC
8
DEFAULT_255_1_234
10
6.5579354
20
41.9939826
40
0.3635026
50
343.1294516
51
0.5776525
0
ARC
8
DEFAULT_255_1_234
10
6.6303899
20
41.974033
40
0.2883832
50
310.8497458
51
342.744803
0
ARC
8
DEFAULT_255_1_234
10
6.5886012
20
42.0217294
40
0.3517954
50
281.5473923
51
310.9169905
0
ARC
8
DEFAULT_255_1_234
10
6.5529461
20
42.1770084
40
0.5110832
50
269.6192722
51
281.9789957
0
ARC
8
DEFAULT_255_1_234
10
6.5457251
20
42.1770828
40
0.5111606
50
257.4584469
51
270.4287458
0
ARC
8
DEFAULT_255_1_234
10
6.5076394
20
42.0167344
40
0.3463762
50
228.7553743
51
257.8484423
0
ARC
8
DEFAULT_255_1_234
10
6.4766592
20
41.9794442
40
0.297916
50
184.0104442
51
228.5071787
0
ARC
8
DEFAULT_255_1_234
10
6.5929536
20
41.9971512
40
0.4152734
50
179.9315461
51
185.3254504
0
ARC
8
DEFAULT_255_1_234
10
6.4753182
20
42.0008992
40
0.2976554
50
145.6795913
51
180.6259649
0
ARC
8
DEFAULT_255_1_234
10
6.4916531
20
41.9894929
40
0.3175776
50
115.5537925
51
145.6416199
0
ARC
8
DEFAULT_255_1_234
10
6.5257461
20
41.9284028
40
0.3874232
50
113.2437915
51
116.2054627
0
ARC
8
DEFAULT_255_1_234
10
6.5104674
20
42.568258
40
0.3154751
50
222.9548379
51
244.1372485
0
ARC
8
DEFAULT_255_1_234
10
6.4982749
20
42.5545834
40
0.2972382
50
213.3439227
51
222.6271327
0
ARC
8
DEFAULT_255_1_234
10
6.4790684
20
42.5415308
40
0.274019
50
180.4316517
51
213.2713999
0
ARC
8
DEFAULT_255_1_234
10
6.5365685
20
42.546211
40
0.33158
50
179.9992944
51
181.1655061
0
ARC
8
DEFAULT_255_1_234
10
6.5775102
20
42.5496561
40
0.3725376
50
164.6186108
51
180.5292368
0
ARC
8
DEFAULT_255_1_234
10
6.4876965
20
42.5738101
40
0.2795349
50
132.2454369
51
164.5092287
0
ARC
8
DEFAULT_255_1_234
10
6.5164069
20
42.5413028
40
0.3229019
50
100.7052766
51
132.1387266
0
ARC
8
DEFAULT_255_1_234
10
6.5469041
20
42.4035086
40
0.4639835
50
89.6732617
51
101.2449487
0
ARC
8
DEFAULT_255_1_234
10
6.5531239
20
42.420999
40
0.4464999
50
76.2876631
51
90.4586123
0
ARC
8
DEFAULT_255_1_234
10
6.5837471
20
42.543222
40
0.3205023
50
47.8240157
51
76.4266918
0
ARC
8
DEFAULT_255_1_234
10
6.6060021
20
42.569259
40
0.2862661
50
6.9168658
51
47.6261438
0
ARC
8
DEFAULT_255_1_234
10
6.4873424
20
42.547337
40
0.4067708
50
359.8419705
51
7.9694496
0
ARC
8
DEFAULT_255_1_234
10
6.5215321
20
42.0032925
40
0.2513121
50
359.4454068
51
16.9256425
0
ARC
8
DEFAULT_255_1_234
10
6.5684132
20
42.0162033
40
0.2027071
50
17.292259
51
45.462717
0
ARC
8
DEFAULT_255_1_234
10
6.5630068
20
42.0115434
40
0.2098212
50
45.3028762
51
83.1921472
0
ARC
8
DEFAULT_255_1_234
10
6.5486752
20
41.9313895
40
0.2911472
50
82.2614531
51
90.143954
0
ARC
8
DEFAULT_255_1_234
10
6.5455872
20
41.954695
40
0.2678513
50
89.4959189
51
104.8579811
0
ARC
8
DEFAULT_255_1_234
10
6.5279131
20
42.021689
40
0.1985654
50
104.8855873
51
135.2448349
0
ARC
8
DEFAULT_255_1_234
10
6.5328904
20
42.0172336
40
0.2052373
50
135.3398955
51
172.104394
0
ARC
8
DEFAULT_255_1_234
10
6.6135962
20
42.0017925
40
0.2873299
50
171.2651929
51
180.1859362
0
ARC
8
DEFAULT_255_1_234
10
6.5966663
20
41.9985733
40
0.2704083
50
179.515471
51
193.6466734
0
ARC
8
DEFAULT_255_1_234
10
6.5150432
20
41.9777777
40
0.1861855
50
193.3540587
51
225.8256931
0
ARC
8
DEFAULT_255_1_234
10
6.5191189
20
41.9848524
40
0.1941102
50
226.418029
51
255.8553723
0
ARC
8
DEFAULT_255_1_234
10
6.5447622
20
42.0784998
40
0.2911917
50
255.4655572
51
268.7985967
0
ARC
8
DEFAULT_255_1_234
10
6.5494814
20
42.1623491
40
0.3751331
50
268.3464808
51
270.0104874
0
ARC
8
DEFAULT_255_1_234
10
6.5518202
20
42.0939138
40
0.3067064
50
269.575914
51
282.0823146
0
ARC
8
DEFAULT_255_1_234
10
6.5743111
20
41.9944803
40
0.2047712
50
281.7522535
51
306.6056425
0
ARC
8
DEFAULT_255_1_234
10
6.5841537
20
41.9783487
40
0.1859604
50
307.1350025
51
314.0277951
0
ARC
8
DEFAULT_255_1_234
10
6.5805621
20
41.9809766
40
0.1903475
50
314.2553419
51
350.169324
0
ARC
8
DEFAULT_255_1_234
10
6.495409
20
41.9994409
40
0.2774269
50
349.4145679
51
0.2930737
0
ARC
8
DEFAULT_255_1_234
10
6.5474523
20
42.5153353
40
0.2300764
50
89.477591
51
105.729794
0
ARC
8
DEFAULT_255_1_234
10
6.5338436
20
42.5658637
40
0.1777519
50
105.922966
51
135.1662921
0
ARC
8
DEFAULT_255_1_234
10
6.5358939
20
42.5644419
40
0.1802087
50
135.3053131
51
168.9882338
0
ARC
8
DEFAULT_255_1_234
10
6.6186511
20
42.5454721
40
0.2650806
50
168.3802067
51
180.3602358
0
ARC
8
DEFAULT_255_1_234
10
6.5958091
20
42.5417041
40
0.2422425
50
179.5029707
51
194.9126783
0
ARC
8
DEFAULT_255_1_234
10
6.5372752
20
42.526311
40
0.1817188
50
194.9722181
51
224.1943972
0
ARC
8
DEFAULT_255_1_234
10
6.5344619
20
42.5240169
40
0.1781027
50
224.2961434
51
262.0157375
0
ARC
8
DEFAULT_255_1_234
10
6.5486862
20
42.5971661
40
0.2525492
50
261.1250369
51
270.1959853
0
ARC
8
DEFAULT_255_1_234
10
6.5516617
20
42.5784339
40
0.233825
50
269.4825617
51
285.0988277
0
ARC
8
DEFAULT_255_1_234
10
6.5670776
20
42.520599
40
0.1739712
50
285.1585659
51
315.9484648
0
ARC
8
DEFAULT_255_1_234
10
6.5581788
20
42.5287886
40
0.1860616
50
316.0412958
51
351.9162715
0
ARC
8
DEFAULT_255_1_234
10
6.4848743
20
42.5429245
40
0.2606517
50
351.1056823
51
0.1936567
0
ARC
8
DEFAULT_255_1_234
10
6.5111572
20
42.5459369
40
0.234377
50
359.4789506
51
16.0679113
0
ARC
8
DEFAULT_255_1_234
10
6.5587531
20
42.558781
40
0.1850875
50
16.3251951
51
44.791304
0
ARC
8
DEFAULT_255_1_234
10
6.5569812
20
42.5588339
40
0.186312
50
44.3958661
51
88.2498933
0
ARC
8
DEFAULT_255_1_234
10
6.5496366
20
42.4977154
40
0.2476868
50
86.9833827
51
90.0200148
0
LINE
8
DEFAULT_255_1_234
10
4.3681299
20
48.1431211
11
4.6500439
21
47.6949501
0
LINE
8
DEFAULT_255_1_234
10
4.6500439
20
47.6949501
11
4.9303516
21
48.1431211
0
LINE
8
DEFAULT_255_1_234
10
4.9303516
20
48.1431211
11
5.1118689
21
48.1431211
0
LINE
8
DEFAULT_255_1_234
10
5.1118689
20
48.1431211
11
4.7424089
21
47.5632296
0
LINE
8
DEFAULT_255_1_234
10
4.7424089
20
47.5632296
11
5.1207038
21
46.9737
0
LINE
8
DEFAULT_255_1_234
10
5.1207038
20
46.9737
11
4.9375802
21
46.9737
0
LINE
8
DEFAULT_255_1_234
10
4.9375802
20
46.9737
11
4.6500439
21
47.4299027
0
LINE
8
DEFAULT_255_1_234
10
4.6500439
20
47.4299027
11
4.3609014
21
46.9737
0
LINE
8
DEFAULT_255_1_234
10
4.3609014
20
46.9737
11
4.1785809
21
46.9737
0
LINE
8
DEFAULT_255_1_234
10
4.1785809
20
46.9737
11
4.557679
21
47.5632296
0
LINE
8
DEFAULT_255_1_234
10
4.557679
20
47.5632296
11
4.1874158
21
48.1431211
0
LINE
8
DEFAULT_255_1_234
10
4.1874158
20
48.1431211
11
4.3681299
21
48.1431211
0
LINE
8
DEFAULT_255_1_234
10
5.7495889
20
48.1487433
11
5.7495889
21
46.9737
0
LINE
8
DEFAULT_255_1_234
10
5.7495889
20
46.9737
11
5.6001986
21
46.9737
0
LINE
8
DEFAULT_255_1_234
10
5.6001986
20
46.9737
11
5.6001986
21
47.9640133
0
LINE
8
DEFAULT_255_1_234
10
5.6001986
20
47.9640133
11
5.3006147
21
47.8539785
0
LINE
8
DEFAULT_255_1_234
10
5.3006147
20
47.8539785
11
5.3006147
21
47.9889117
0
LINE
8
DEFAULT_255_1_234
10
5.3006147
20
47.9889117
11
5.7262969
21
48.1487433
0
LINE
8
DEFAULT_255_1_234
10
5.7262969
20
48.1487433
11
5.7495889
21
48.1487433
0
LINE
8
DEFAULT_255_1_234
10
6.9398925
20
48.1431211
11
6.9398925
21
48.059591
0
LINE
8
DEFAULT_255_1_234
10
6.9398925
20
48.059591
11
6.4555787
21
46.9737
0
LINE
8
DEFAULT_255_1_234
10
6.4555787
20
46.9737
11
6.299763
21
46.9737
0
LINE
8
DEFAULT_255_1_234
10
6.299763
20
46.9737
11
6.7824705
21
48.0210387
0
LINE
8
DEFAULT_255_1_234
10
6.7824705
20
48.0210387
11
6.1495695
21
48.0210387
0
LINE
8
DEFAULT_255_1_234
10
6.1495695
20
48.0210387
11
6.1495695
21
48.1431211
0
LINE
8
DEFAULT_255_1_234
10
6.1495695
20
48.1431211
11
6.9398925
21
48.1431211
0
LINE
8
DEFAULT_255_1_234
10
4.3681299
20
53.4347211
11
4.6500439
21
52.9865501
0
LINE
8
DEFAULT_255_1_234
10
4.6500439
20
52.9865501
11
4.9303516
21
53.4347211
0
LINE
8
DEFAULT_255_1_234
10
4.9303516
20
53.4347211
11
5.1118689
21
53.4347211
0
LINE
8
DEFAULT_255_1_234
10
5.1118689
20
53.4347211
11
4.7424089
21
52.8548296
0
LINE
8
DEFAULT_255_1_234
10
4.7424089
20
52.8548296
11
5.1207038
21
52.2653
0
LINE
8
DEFAULT_255_1_234
10
5.1207038
20
52.2653
11
4.9375802
21
52.2653
0
LINE
8
DEFAULT_255_1_234
10
4.9375802
20
52.2653
11
4.6500439
21
52.7215027
0
LINE
8
DEFAULT_255_1_234
10
4.6500439
20
52.7215027
11
4.3609014
21
52.2653
0
LINE
8
DEFAULT_255_1_234
10
4.3609014
20
52.2653
11
4.1785809
21
52.2653
0
LINE
8
DEFAULT_255_1_234
10
4.1785809
20
52.2653
11
4.557679
21
52.8548296
0
LINE
8
DEFAULT_255_1_234
10
4.557679
20
52.8548296
11
4.1874158
21
53.4347211
0
LINE
8
DEFAULT_255_1_234
10
4.1874158
20
53.4347211
11
4.3681299
21
53.4347211
0
LINE
8
DEFAULT_255_1_234
10
5.7495889
20
53.4403433
11
5.7495889
21
52.2653
0
LINE
8
DEFAULT_255_1_234
10
5.7495889
20
52.2653
11
5.6001986
21
52.2653
0
LINE
8
DEFAULT_255_1_234
10
5.6001986
20
52.2653
11
5.6001986
21
53.2556133
0
LINE
8
DEFAULT_255_1_234
10
5.6001986
20
53.2556133
11
5.3006147
21
53.1455785
0
LINE
8
DEFAULT_255_1_234
10
5.3006147
20
53.1455785
11
5.3006147
21
53.2805117
0
LINE
8
DEFAULT_255_1_234
10
5.3006147
20
53.2805117
11
5.7262969
21
53.4403433
0
LINE
8
DEFAULT_255_1_234
10
5.7262969
20
53.4403433
11
5.7495889
21
53.4403433
0
LINE
8
DEFAULT_255_1_234
10
6.7415086
20
53.4355243
11
6.7680133
21
53.4355243
0
LINE
8
DEFAULT_255_1_234
10
6.7680133
20
53.4355243
11
6.7680133
21
53.309426
0
LINE
8
DEFAULT_255_1_234
10
6.7680133
20
53.309426
11
6.7407054
21
53.309426
0
LINE
8
DEFAULT_255_1_234
10
6.193744
20
52.7102583
11
6.193744
21
52.7672836
0
LINE
8
DEFAULT_255_1_234
10
6.3431344
20
52.7480075
11
6.3431344
21
52.6933917
0
ARC
8
DEFAULT_255_1_234
10
6.7459402
20
52.8096455
40
0.4998079
50
90.6001036
51
104.514704
0
ARC
8
DEFAULT_255_1_234
10
6.7070918
20
52.9541131
40
0.3502176
50
104.2855254
51
133.862935
0
ARC
8
DEFAULT_255_1_234
10
6.7234675
20
52.943283
40
0.3693984
50
134.5302688
51
161.6210873
0
ARC
8
DEFAULT_255_1_234
10
6.8887864
20
52.8849895
40
0.5446739
50
161.2849839
51
174.2076652
0
ARC
8
DEFAULT_255_1_234
10
7.0294801
20
52.8655787
40
0.6866274
50
173.7810589
51
174.9254635
0
ARC
8
DEFAULT_255_1_234
10
6.5744633
20
52.7272839
40
0.3033419
50
95.8330959
51
138.9954921
0
ARC
8
DEFAULT_255_1_234
10
6.5967989
20
52.5994375
40
0.4328947
50
89.8753725
51
97.0544009
0
ARC
8
DEFAULT_255_1_234
10
6.6015455
20
52.6829748
40
0.3493769
50
71.6407809
51
90.6240094
0
ARC
8
DEFAULT_255_1_234
10
6.6166028
20
52.7384082
40
0.2920396
50
39.6367836
51
71.019018
0
ARC
8
DEFAULT_255_1_234
10
6.5529501
20
52.6833998
40
0.3761538
50
10.658731
51
39.9043955
0
ARC
8
DEFAULT_255_1_234
10
6.3981584
20
52.6497686
40
0.5345136
50
359.682601
51
11.132623
0
ARC
8
DEFAULT_255_1_234
10
6.3941715
20
52.642701
40
0.5385081
50
347.2486944
51
0.4369317
0
ARC
8
DEFAULT_255_1_234
10
6.5609192
20
52.6025807
40
0.3670249
50
318.1409698
51
347.6118597
0
ARC
8
DEFAULT_255_1_234
10
6.5934185
20
52.5758702
40
0.3250007
50
275.6342139
51
317.8248465
0
ARC
8
DEFAULT_255_1_234
10
6.5713296
20
52.7058219
40
0.4565864
50
269.8874292
51
276.7917694
0
ARC
8
DEFAULT_255_1_234
10
6.5658367
20
52.6032743
40
0.3540676
50
246.9140195
51
270.7437342
0
ARC
8
DEFAULT_255_1_234
10
6.5664757
20
52.5890384
40
0.3412781
50
218.1665114
51
245.878116
0
ARC
8
DEFAULT_255_1_234
10
6.6544218
20
52.6626279
40
0.455911
50
191.4115814
51
218.6077802
0
ARC
8
DEFAULT_255_1_234
10
6.8482307
20
52.7060833
40
0.6545001
50
179.6345085
51
191.7836486
0
ARC
8
DEFAULT_255_1_234
10
7.4064644
20
52.7739697
40
1.2127388
50
171.4525249
51
180.3158839
0
ARC
8
DEFAULT_255_1_234
10
6.966952
20
52.8423608
40
0.7679464
50
157.9802646
51
171.6246686
0
ARC
8
DEFAULT_255_1_234
10
6.7455541
20
52.9306421
40
0.5296008
50
141.4298019
51
157.854097
0
ARC
8
DEFAULT_255_1_234
10
6.6813861
20
52.9760381
40
0.4511509
50
102.8715806
51
140.8564722
0
ARC
8
DEFAULT_255_1_234
10
6.7461477
20
52.7320552
40
0.7034845
50
90.3778349
51
103.5869322
0
ARC
8
DEFAULT_255_1_234
10
6.5723253
20
52.671573
40
0.2370698
50
89.8751008
51
126.2071704
0
ARC
8
DEFAULT_255_1_234
10
6.5769043
20
52.6561303
40
0.2522934
50
124.9745049
51
144.895901
0
ARC
8
DEFAULT_255_1_234
10
6.5593233
20
52.670456
40
0.2296779
50
145.2974905
51
160.2660252
0
ARC
8
DEFAULT_255_1_234
10
6.8665772
20
52.6902071
40
0.5234525
50
179.6514266
51
190.2855912
0
ARC
8
DEFAULT_255_1_234
10
6.6971909
20
52.6582786
40
0.3510893
50
190.0945431
51
207.5098196
0
ARC
8
DEFAULT_255_1_234
10
6.6406179
20
52.6313623
40
0.288489
50
207.9583163
51
216.3251085
0
ARC
8
DEFAULT_255_1_234
10
6.6066287
20
52.6034105
40
0.2445587
50
215.7661442
51
232.5456785
0
ARC
8
DEFAULT_255_1_234
10
6.568327
20
52.5547482
40
0.1826382
50
232.8005391
51
270.6605633
0
ARC
8
DEFAULT_255_1_234
10
6.5728971
20
52.5911612
40
0.2190529
50
269.35537
51
288.4744281
0
ARC
8
DEFAULT_255_1_234
10
6.5821868
20
52.5562118
40
0.1829749
50
289.1833337
51
322.9683818
0
ARC
8
DEFAULT_255_1_234
10
6.521039
20
52.6044391
40
0.2608399
50
322.6007884
51
346.5182367
0
ARC
8
DEFAULT_255_1_234
10
6.4052986
20
52.6339616
40
0.3802777
50
346.2582162
51
358.7741648
0
ARC
8
DEFAULT_255_1_234
10
6.3034655
20
52.6394965
40
0.4822176
50
358.3755224
51
0.0098023
0
ARC
8
DEFAULT_255_1_234
10
6.3790842
20
52.6422657
40
0.4066078
50
359.6214041
51
11.2839074
0
ARC
8
DEFAULT_255_1_234
10
6.5067989
20
52.6689066
40
0.2761514
50
11.0482309
51
31.8146458
0
ARC
8
DEFAULT_255_1_234
10
6.5377032
20
52.6856584
40
0.2410679
50
32.3035391
51
38.082671
0
ARC
8
DEFAULT_255_1_234
10
6.5797692
20
52.7237662
40
0.1844966
50
36.825067
51
85.7415724
0
ARC
8
DEFAULT_255_1_234
10
6.5730525
20
52.6737301
40
0.2349122
50
85.0140713
51
90.0513278
0
LINE
8
DEFAULT_255_1_234
10
4.2764235
20
58.1127963
11
4.1575538
21
58.1433169
0
LINE
8
DEFAULT_255_1_234
10
4.1575538
20
58.1433169
11
4.2169887
21
58.7264211
0
LINE
8
DEFAULT_255_1_234
10
4.2169887
20
58.7264211
11
4.8161563
21
58.7264211
0
LINE
8
DEFAULT_255_1_234
10
4.8161563
20
58.7264211
11
4.8161563
21
58.5890784
0
LINE
8
DEFAULT_255_1_234
10
4.8161563
20
58.5890784
11
4.343087
21
58.5890784
0
LINE
8
DEFAULT_255_1_234
10
4.343087
20
58.5890784
11
4.3077473
21
58.2702184
0
LINE
8
DEFAULT_255_1_234
10
4.1157888
20
57.8646156
11
4.2563442
21
57.8646156
0
LINE
8
DEFAULT_255_1_234
10
4.3157791
20
58.1449232
11
4.2764235
21
58.1127963
0
ARC
8
DEFAULT_255_1_234
10
4.4932257
20
57.952223
40
0.3681349
50
93.7182161
51
120.2538958
0
ARC
8
DEFAULT_255_1_234
10
4.502652
20
57.8714394
40
0.449379
50
89.9660152
51
94.2496022
0
ARC
8
DEFAULT_255_1_234
10
4.5067254
20
57.9303549
40
0.390482
50
73.8043271
51
90.5585896
0
ARC
8
DEFAULT_255_1_234
10
4.5302151
20
58.0161602
40
0.3015334
50
41.3071453
51
73.5430202
0
ARC
8
DEFAULT_255_1_234
10
4.4885978
20
57.9803324
40
0.3564457
50
13.5075983
51
41.2174222
0
ARC
8
DEFAULT_255_1_234
10
4.3244182
20
57.9373486
40
0.5261351
50
1.1331335
51
13.8829381
0
ARC
8
DEFAULT_255_1_234
10
4.1832551
20
57.9297665
40
0.6674378
50
359.9919444
51
1.544251
0
ARC
8
DEFAULT_255_1_234
10
4.3109377
20
57.925628
40
0.5397702
50
347.8572367
51
0.4293338
0
ARC
8
DEFAULT_255_1_234
10
4.4859695
20
57.8859736
40
0.3603188
50
323.673004
51
348.1672506
0
ARC
8
DEFAULT_255_1_234
10
4.5154203
20
57.8680168
40
0.3259678
50
316.8171152
51
323.1492751
0
ARC
8
DEFAULT_255_1_234
10
4.5215392
20
57.864346
40
0.3189975
50
281.8396411
51
316.5457803
0
ARC
8
DEFAULT_255_1_234
10
4.4839656
20
58.0198762
40
0.4789527
50
269.5770101
51
282.4214771
0
ARC
8
DEFAULT_255_1_234
10
4.4768467
20
57.9985125
40
0.45759
50
256.2427136
51
270.4486331
0
ARC
8
DEFAULT_255_1_234
10
4.446937
20
57.8785229
40
0.3339303
50
228.9023911
51
256.3314342
0
ARC
8
DEFAULT_255_1_234
10
4.4395602
20
57.8668746
40
0.32031
50
193.753695
51
228.5271154
0
ARC
8
DEFAULT_255_1_234
10
4.5633556
20
57.90318
40
0.4492253
50
184.924711
51
194.497588
0
ARC
8
DEFAULT_255_1_234
10
4.5826123
20
57.9067591
40
0.3289787
50
187.3600538
51
198.6732863
0
ARC
8
DEFAULT_255_1_234
10
4.4776417
20
57.8703674
40
0.217884
50
198.4451669
51
217.794479
0
ARC
8
DEFAULT_255_1_234
10
4.4480592
20
57.8494085
40
0.1816698
50
218.2887171
51
228.5612368
0
ARC
8
DEFAULT_255_1_234
10
4.4578379
20
57.8625963
40
0.1980329
50
228.9654866
51
258.1234728
0
ARC
8
DEFAULT_255_1_234
10
4.4784089
20
57.9506833
40
0.2884748
50
257.7258293
51
270.401361
0
ARC
8
DEFAULT_255_1_234
10
4.4828975
20
57.9061821
40
0.2439788
50
269.4204404
51
286.4209037
0
ARC
8
DEFAULT_255_1_234
10
4.4977463
20
57.8522657
40
0.1880666
50
286.7251356
51
320.600362
0
ARC
8
DEFAULT_255_1_234
10
4.4594288
20
57.8833595
40
0.2374121
50
320.6712579
51
344.5441685
0
ARC
8
DEFAULT_255_1_234
10
4.3437614
20
57.9173045
40
0.3579479
50
344.2412205
51
356.7357071
0
ARC
8
DEFAULT_255_1_234
10
4.2188763
20
57.9276444
40
0.4832297
50
356.3548756
51
0.0500261
0
ARC
8
DEFAULT_255_1_234
10
4.3525272
20
57.930765
40
0.3495889
50
359.5576869
51
12.953486
0
ARC
8
DEFAULT_255_1_234
10
4.4580169
20
57.9563434
40
0.2410532
50
12.6490276
51
41.6081334
0
ARC
8
DEFAULT_255_1_234
10
4.481054
20
57.9759321
40
0.2108218
50
41.7850273
51
85.9892764
0
ARC
8
DEFAULT_255_1_234
10
4.4687277
20
57.8946462
40
0.2928454
50
84.6957577
51
90.0676183
0
ARC
8
DEFAULT_255_1_234
10
4.4663761
20
57.8277716
40
0.3597255
50
89.6804936
51
99.1614436
0
ARC
8
DEFAULT_255_1_234
10
4.4458392
20
57.9505131
40
0.235281
50
98.9830931
51
113.8908934
0
ARC
8
DEFAULT_255_1_234
10
4.4228802
20
58.0046587
40
0.176479
50
114.1950727
51
127.3641004
0
LINE
8
DEFAULT_255_1_234
10
5.7566729
20
57.9280663
11
5.9116854
21
57.9280663
0
LINE
8
DEFAULT_255_1_234
10
5.0113276
20
58.0870947
11
5.0113276
21
58.1995391
0
LINE
8
DEFAULT_255_1_234
10
5.9116854
20
58.3505357
11
5.7566729
21
58.3505357
0
LINE
8
DEFAULT_255_1_234
10
5.1663401
20
58.1955232
11
5.1663401
21
58.0822757
0
ARC
8
DEFAULT_255_1_234
10
5.3636241
20
57.9877846
40
0.5513052
50
340.1774281
51
353.7814284
0
ARC
8
DEFAULT_255_1_234
10
5.5207594
20
57.9292582
40
0.3836379
50
311.4558989
51
340.4421614
0
ARC
8
DEFAULT_255_1_234
10
5.5174262
20
57.9403528
40
0.3941894
50
282.4333181
51
310.7513653
0
ARC
8
DEFAULT_255_1_234
10
5.4735001
20
58.1218679
40
0.5809175
50
269.9358511
51
282.809604
0
ARC
8
DEFAULT_255_1_234
10
5.4683067
20
58.2676212
40
0.7266847
50
270.0021091
51
270.3581957
0
ARC
8
DEFAULT_255_1_234
10
5.4630484
20
58.0075585
40
0.4666519
50
250.7884749
51
270.6489167
0
ARC
8
DEFAULT_255_1_234
10
5.4462319
20
57.9438319
40
0.4009729
50
219.3627325
51
250.0611886
0
ARC
8
DEFAULT_255_1_234
10
5.529153
20
58.0143042
40
0.5097822
50
193.5479632
51
219.5756669
0
ARC
8
DEFAULT_255_1_234
10
5.7663151
20
58.0758919
40
0.7547848
50
181.1218675
51
193.87563
0
ARC
8
DEFAULT_255_1_234
10
5.9733332
20
58.086958
40
0.9620055
50
179.9918545
51
181.5394234
0
ARC
8
DEFAULT_255_1_234
10
5.7882434
20
58.2032788
40
0.7769248
50
169.5837241
51
180.2757934
0
ARC
8
DEFAULT_255_1_234
10
5.6045372
20
58.2372229
40
0.590109
50
155.0365899
51
169.6003176
0
ARC
8
DEFAULT_255_1_234
10
5.4909836
20
58.2919677
40
0.4640625
50
136.783148
51
155.2472683
0
ARC
8
DEFAULT_255_1_234
10
5.4520313
20
58.3250562
40
0.4130255
50
121.7633186
51
136.428115
0
ARC
8
DEFAULT_255_1_234
10
5.4655275
20
58.3001227
40
0.4413323
50
95.6459699
51
121.5490577
0
ARC
8
DEFAULT_255_1_234
10
5.4812557
20
58.1892949
40
0.55319
50
89.924208
51
96.1377933
0
ARC
8
DEFAULT_255_1_234
10
5.486299
20
58.2011542
40
0.5413475
50
76.6779277
51
90.4563316
0
ARC
8
DEFAULT_255_1_234
10
5.5256613
20
58.3602114
40
0.3775041
50
47.485847
51
76.9287264
0
ARC
8
DEFAULT_255_1_234
10
5.5109586
20
58.3502159
40
0.3948286
50
16.5424086
51
46.8933463
0
ARC
8
DEFAULT_255_1_234
10
5.3501743
20
58.2973861
40
0.564021
50
5.4072051
51
17.0365086
0
ARC
8
DEFAULT_255_1_234
10
5.206276
20
58.2742679
40
0.5556559
50
7.8891745
51
15.9239216
0
ARC
8
DEFAULT_255_1_234
10
5.4049773
20
58.3319631
40
0.3487515
50
15.7653144
51
27.9410532
0
ARC
8
DEFAULT_255_1_234
10
5.5153991
20
58.391079
40
0.2235026
50
27.8166557
51
46.4008329
0
ARC
8
DEFAULT_255_1_234
10
5.5203634
20
58.3905082
40
0.2205286
50
47.4371857
51
75.0698205
0
ARC
8
DEFAULT_255_1_234
10
5.4895029
20
58.2830765
40
0.3322915
50
74.7008593
51
87.8124495
0
ARC
8
DEFAULT_255_1_234
10
5.4821716
20
58.1774844
40
0.4380987
50
87.3814673
51
90.0240855
0
ARC
8
DEFAULT_255_1_234
10
5.4783259
20
58.2952291
40
0.3203749
50
89.3451631
51
108.5745436
0
ARC
8
DEFAULT_255_1_234
10
5.4646365
20
58.3465908
40
0.2673494
50
109.2998449
51
143.3037509
0
ARC
8
DEFAULT_255_1_234
10
5.5408437
20
58.2879881
40
0.3634757
50
143.0753173
51
163.1916937
0
ARC
8
DEFAULT_255_1_234
10
5.7360165
20
58.2263967
40
0.5681262
50
162.9373603
51
174.6208611
0
ARC
8
DEFAULT_255_1_234
10
5.9986207
20
58.197601
40
0.8322832
50
174.3419979
51
180.1430411
0
ARC
8
DEFAULT_255_1_234
10
5.9055363
20
58.0781698
40
0.7392076
50
179.6817502
51
189.150529
0
ARC
8
DEFAULT_255_1_234
10
5.6554611
20
58.036519
40
0.4856932
50
188.9910863
51
203.5773039
0
ARC
8
DEFAULT_255_1_234
10
5.5474944
20
57.9917211
40
0.3688271
50
203.9077269
51
215.1312379
0
ARC
8
DEFAULT_255_1_234
10
5.4552038
20
57.9201941
40
0.2522457
50
213.9071664
51
263.8849284
0
ARC
8
DEFAULT_255_1_234
10
5.4677367
20
57.9986518
40
0.3316174
50
263.1758525
51
270.1031083
0
ARC
8
DEFAULT_255_1_234
10
5.4709459
20
58.1233365
40
0.4563091
50
269.6719807
51
279.0609165
0
ARC
8
DEFAULT_255_1_234
10
5.4976227
20
57.9620907
40
0.2928759
50
278.8750225
51
293.6346586
0
ARC
8
DEFAULT_255_1_234
10
5.5296435
20
57.88689
40
0.2111472
50
293.8553404
51
310.0518804
0
ARC
8
DEFAULT_255_1_234
10
5.5301289
20
57.8806516
40
0.2060917
50
311.0646779
51
332.0108348
0
ARC
8
DEFAULT_255_1_234
10
5.4109016
20
57.9463978
40
0.3422352
50
331.6588543
51
343.2878891
0
ARC
8
DEFAULT_255_1_234
10
5.2046531
20
58.0097798
40
0.5580003
50
343.1446044
51
351.010618
0
ARC
8
DEFAULT_255_1_234
10
5.0505177
20
58.0378871
40
0.7146438
50
350.7157277
51
351.1602153
0
LINE
8
DEFAULT_255_1_234
10
4.3681299
20
64.0181211
11
4.6500439
21
63.5699501
0
LINE
8
DEFAULT_255_1_234
10
4.6500439
20
63.5699501
11
4.9303516
21
64.0181211
0
LINE
8
DEFAULT_255_1_234
10
4.9303516
20
64.0181211
11
5.1118689
21
64.0181211
0
LINE
8
DEFAULT_255_1_234
10
5.1118689
20
64.0181211
11
4.7424089
21
63.4382296
0
LINE
8
DEFAULT_255_1_234
10
4.7424089
20
63.4382296
11
5.1207038
21
62.8487
0
LINE
8
DEFAULT_255_1_234
10
5.1207038
20
62.8487
11
4.9375802
21
62.8487
0
LINE
8
DEFAULT_255_1_234
10
4.9375802
20
62.8487
11
4.6500439
21
63.3049027
0
LINE
8
DEFAULT_255_1_234
10
4.6500439
20
63.3049027
11
4.3609014
21
62.8487
0
LINE
8
DEFAULT_255_1_234
10
4.3609014
20
62.8487
11
4.1785809
21
62.8487
0
LINE
8
DEFAULT_255_1_234
10
4.1785809
20
62.8487
11
4.557679
21
63.4382296
0
LINE
8
DEFAULT_255_1_234
10
4.557679
20
63.4382296
11
4.1874158
21
64.0181211
0
LINE
8
DEFAULT_255_1_234
10
4.1874158
20
64.0181211
11
4.3681299
21
64.0181211
0
LINE
8
DEFAULT_255_1_234
10
5.7495889
20
64.0237433
11
5.7495889
21
62.8487
0
LINE
8
DEFAULT_255_1_234
10
5.7495889
20
62.8487
11
5.6001986
21
62.8487
0
LINE
8
DEFAULT_255_1_234
10
5.6001986
20
62.8487
11
5.6001986
21
63.8390133
0
LINE
8
DEFAULT_255_1_234
10
5.6001986
20
63.8390133
11
5.3006147
21
63.7289785
0
LINE
8
DEFAULT_255_1_234
10
5.3006147
20
63.7289785
11
5.3006147
21
63.8639117
0
LINE
8
DEFAULT_255_1_234
10
5.3006147
20
63.8639117
11
5.7262969
21
64.0237433
0
LINE
8
DEFAULT_255_1_234
10
5.7262969
20
64.0237433
11
5.7495889
21
64.0237433
0
LINE
8
DEFAULT_255_1_234
10
6.3720486
20
63.4044963
11
6.2531789
21
63.4350169
0
LINE
8
DEFAULT_255_1_234
10
6.2531789
20
63.4350169
11
6.3126138
21
64.0181211
0
LINE
8
DEFAULT_255_1_234
10
6.3126138
20
64.0181211
11
6.9117814
21
64.0181211
0
LINE
8
DEFAULT_255_1_234
10
6.9117814
20
64.0181211
11
6.9117814
21
63.8807784
0
LINE
8
DEFAULT_255_1_234
10
6.9117814
20
63.8807784
11
6.4387121
21
63.8807784
0
LINE
8
DEFAULT_255_1_234
10
6.4387121
20
63.8807784
11
6.4033724
21
63.5619184
0
LINE
8
DEFAULT_255_1_234
10
6.2114139
20
63.1563156
11
6.3519693
21
63.1563156
0
LINE
8
DEFAULT_255_1_234
10
6.4114042
20
63.4366232
11
6.3720486
21
63.4044963
0
ARC
8
DEFAULT_255_1_234
10
6.5888508
20
63.243923
40
0.3681349
50
93.7182161
51
120.2538958
0
ARC
8
DEFAULT_255_1_234
10
6.5982771
20
63.1631394
40
0.449379
50
89.9660152
51
94.2496022
0
ARC
8
DEFAULT_255_1_234
10
6.6023505
20
63.2220549
40
0.390482
50
73.8043271
51
90.5585896
0
ARC
8
DEFAULT_255_1_234
10
6.6258402
20
63.3078602
40
0.3015334
50
41.3071453
51
73.5430202
0
ARC
8
DEFAULT_255_1_234
10
6.5842229
20
63.2720324
40
0.3564457
50
13.5075983
51
41.2174222
0
ARC
8
DEFAULT_255_1_234
10
6.4200433
20
63.2290486
40
0.5261351
50
1.1331335
51
13.8829381
0
ARC
8
DEFAULT_255_1_234
10
6.2788802
20
63.2214665
40
0.6674378
50
359.9919444
51
1.544251
0
ARC
8
DEFAULT_255_1_234
10
6.4065628
20
63.217328
40
0.5397702
50
347.8572367
51
0.4293338
0
ARC
8
DEFAULT_255_1_234
10
6.5815946
20
63.1776736
40
0.3603188
50
323.673004
51
348.1672506
0
ARC
8
DEFAULT_255_1_234
10
6.6110454
20
63.1597168
40
0.3259678
50
316.8171152
51
323.1492751
0
ARC
8
DEFAULT_255_1_234
10
6.6171643
20
63.156046
40
0.3189975
50
281.8396411
51
316.5457803
0
ARC
8
DEFAULT_255_1_234
10
6.5795907
20
63.3115762
40
0.4789527
50
269.5770101
51
282.4214771
0
ARC
8
DEFAULT_255_1_234
10
6.5724718
20
63.2902125
40
0.45759
50
256.2427136
51
270.4486331
0
ARC
8
DEFAULT_255_1_234
10
6.542562
20
63.1702229
40
0.3339303
50
228.9023911
51
256.3314342
0
ARC
8
DEFAULT_255_1_234
10
6.5351853
20
63.1585746
40
0.32031
50
193.753695
51
228.5271154
0
ARC
8
DEFAULT_255_1_234
10
6.6589807
20
63.19488
40
0.4492253
50
184.924711
51
194.497588
0
ARC
8
DEFAULT_255_1_234
10
6.6782374
20
63.1984591
40
0.3289787
50
187.3600538
51
198.6732863
0
ARC
8
DEFAULT_255_1_234
10
6.5732668
20
63.1620674
40
0.217884
50
198.4451669
51
217.794479
0
ARC
8
DEFAULT_255_1_234
10
6.5436843
20
63.1411085
40
0.1816698
50
218.2887171
51
228.5612368
0
ARC
8
DEFAULT_255_1_234
10
6.553463
20
63.1542963
40
0.1980329
50
228.9654866
51
258.1234728
0
ARC
8
DEFAULT_255_1_234
10
6.574034
20
63.2423833
40
0.2884748
50
257.7258293
51
270.401361
0
ARC
8
DEFAULT_255_1_234
10
6.5785226
20
63.1978821
40
0.2439788
50
269.4204404
51
286.4209037
0
ARC
8
DEFAULT_255_1_234
10
6.5933714
20
63.1439657
40
0.1880666
50
286.7251356
51
320.600362
0
ARC
8
DEFAULT_255_1_234
10
6.5550539
20
63.1750595
40
0.2374121
50
320.6712579
51
344.5441685
0
ARC
8
DEFAULT_255_1_234
10
6.4393865
20
63.2090045
40
0.3579479
50
344.2412205
51
356.7357071
0
ARC
8
DEFAULT_255_1_234
10
6.3145014
20
63.2193444
40
0.4832297
50
356.3548756
51
0.0500261
0
ARC
8
DEFAULT_255_1_234
10
6.4481523
20
63.222465
40
0.3495889
50
359.5576869
51
12.953486
0
ARC
8
DEFAULT_255_1_234
10
6.553642
20
63.2480434
40
0.2410532
50
12.6490276
51
41.6081334
0
ARC
8
DEFAULT_255_1_234
10
6.5766791
20
63.2676321
40
0.2108218
50
41.7850273
51
85.9892764
0
ARC
8
DEFAULT_255_1_234
10
6.5643528
20
63.1863462
40
0.2928454
50
84.6957577
51
90.0676183
0
ARC
8
DEFAULT_255_1_234
10
6.5620012
20
63.1194716
40
0.3597255
50
89.6804936
51
99.1614436
0
ARC
8
DEFAULT_255_1_234
10
6.5414643
20
63.2422131
40
0.235281
50
98.9830931
51
113.8908934
0
ARC
8
DEFAULT_255_1_234
10
6.5185053
20
63.2963587
40
0.176479
50
114.1950727
51
127.3641004
0
LINE
8
DEFAULT_255_1_234
10
4.4740299
20
69.3097211
11
4.7559439
21
68.8615501
0
LINE
8
DEFAULT_255_1_234
10
4.7559439
20
68.8615501
11
5.0362516
21
69.3097211
0
LINE
8
DEFAULT_255_1_234
10
5.0362516
20
69.3097211
11
5.2177689
21
69.3097211
0
LINE
8
DEFAULT_255_1_234
10
5.2177689
20
69.3097211
11
4.8483089
21
68.7298296
0
LINE
8
DEFAULT_255_1_234
10
4.8483089
20
68.7298296
11
5.2266038
21
68.1403
0
LINE
8
DEFAULT_255_1_234
10
5.2266038
20
68.1403
11
5.0434802
21
68.1403
0
LINE
8
DEFAULT_255_1_234
10
5.0434802
20
68.1403
11
4.7559439
21
68.5965027
0
LINE
8
DEFAULT_255_1_234
10
4.7559439
20
68.5965027
11
4.4668014
21
68.1403
0
LINE
8
DEFAULT_255_1_234
10
4.4668014
20
68.1403
11
4.2844809
21
68.1403
0
LINE
8
DEFAULT_255_1_234
10
4.2844809
20
68.1403
11
4.663579
21
68.7298296
0
LINE
8
DEFAULT_255_1_234
10
4.663579
20
68.7298296
11
4.2933158
21
69.3097211
0
LINE
8
DEFAULT_255_1_234
10
4.2933158
20
69.3097211
11
4.4740299
21
69.3097211
0
LINE
8
DEFAULT_255_1_234
10
5.8554889
20
69.3153433
11
5.8554889
21
68.1403
0
LINE
8
DEFAULT_255_1_234
10
5.8554889
20
68.1403
11
5.7060986
21
68.1403
0
LINE
8
DEFAULT_255_1_234
10
5.7060986
20
68.1403
11
5.7060986
21
69.1306133
0
LINE
8
DEFAULT_255_1_234
10
5.7060986
20
69.1306133
11
5.4065147
21
69.0205785
0
LINE
8
DEFAULT_255_1_234
10
5.4065147
20
69.0205785
11
5.4065147
21
69.1555117
0
LINE
8
DEFAULT_255_1_234
10
5.4065147
20
69.1555117
11
5.8321969
21
69.3153433
0
LINE
8
DEFAULT_255_1_234
10
5.8321969
20
69.3153433
11
5.8554889
21
69.3153433
0
LINE
8
DEFAULT_255_1_234
10
6.9180879
20
69.3097211
11
6.9180879
21
68.533052
0
LINE
8
DEFAULT_255_1_234
10
6.9180879
20
68.533052
11
7.080329
21
68.533052
0
LINE
8
DEFAULT_255_1_234
10
7.080329
20
68.533052
11
7.080329
21
68.4117728
0
LINE
8
DEFAULT_255_1_234
10
7.080329
20
68.4117728
11
6.9180879
21
68.4117728
0
LINE
8
DEFAULT_255_1_234
10
6.9180879
20
68.4117728
11
6.9180879
21
68.1403
0
LINE
8
DEFAULT_255_1_234
10
6.9180879
20
68.1403
11
6.7686976
21
68.1403
0
LINE
8
DEFAULT_255_1_234
10
6.7686976
20
68.1403
11
6.7686976
21
68.4117728
0
LINE
8
DEFAULT_255_1_234
10
6.7686976
20
68.4117728
11
6.2361933
21
68.4117728
0
LINE
8
DEFAULT_255_1_234
10
6.2361933
20
68.4117728
11
6.2361933
21
68.4993187
0
LINE
8
DEFAULT_255_1_234
10
6.2361933
20
68.4993187
11
6.7598626
21
69.3097211
0
LINE
8
DEFAULT_255_1_234
10
6.7598626
20
69.3097211
11
6.9180879
21
69.3097211
0
LINE
8
DEFAULT_255_1_234
10
6.7510277
20
69.0743912
11
6.4048598
21
68.533052
0
LINE
8
DEFAULT_255_1_234
10
6.4048598
20
68.533052
11
6.7686976
21
68.533052
0
LINE
8
DEFAULT_255_1_234
10
6.7686976
20
68.533052
11
6.7686976
21
69.1065181
0
LINE
8
DEFAULT_255_1_234
10
6.7686976
20
69.1065181
11
6.7510277
21
69.0743912
0
LINE
8
DEFAULT_255_1_234
10
4.3681299
20
74.6014211
11
4.6500439
21
74.1532501
0
LINE
8
DEFAULT_255_1_234
10
4.6500439
20
74.1532501
11
4.9303516
21
74.6014211
0
LINE
8
DEFAULT_255_1_234
10
4.9303516
20
74.6014211
11
5.1118689
21
74.6014211
0
LINE
8
DEFAULT_255_1_234
10
5.1118689
20
74.6014211
11
4.7424089
21
74.0215296
0
LINE
8
DEFAULT_255_1_234
10
4.7424089
20
74.0215296
11
5.1207038
21
73.432
0
LINE
8
DEFAULT_255_1_234
10
5.1207038
20
73.432
11
4.9375802
21
73.432
0
LINE
8
DEFAULT_255_1_234
10
4.9375802
20
73.432
11
4.6500439
21
73.8882027
0
LINE
8
DEFAULT_255_1_234
10
4.6500439
20
73.8882027
11
4.3609014
21
73.432
0
LINE
8
DEFAULT_255_1_234
10
4.3609014
20
73.432
11
4.1785809
21
73.432
0
LINE
8
DEFAULT_255_1_234
10
4.1785809
20
73.432
11
4.557679
21
74.0215296
0
LINE
8
DEFAULT_255_1_234
10
4.557679
20
74.0215296
11
4.1874158
21
74.6014211
0
LINE
8
DEFAULT_255_1_234
10
4.1874158
20
74.6014211
11
4.3681299
21
74.6014211
0
LINE
8
DEFAULT_255_1_234
10
5.7495889
20
74.6070433
11
5.7495889
21
73.432
0
LINE
8
DEFAULT_255_1_234
10
5.7495889
20
73.432
11
5.6001986
21
73.432
0
LINE
8
DEFAULT_255_1_234
10
5.6001986
20
73.432
11
5.6001986
21
74.4223133
0
LINE
8
DEFAULT_255_1_234
10
5.6001986
20
74.4223133
11
5.3006147
21
74.3122785
0
LINE
8
DEFAULT_255_1_234
10
5.3006147
20
74.3122785
11
5.3006147
21
74.4472117
0
LINE
8
DEFAULT_255_1_234
10
5.3006147
20
74.4472117
11
5.7262969
21
74.6070433
0
LINE
8
DEFAULT_255_1_234
10
5.7262969
20
74.6070433
11
5.7495889
21
74.6070433
0
LINE
8
DEFAULT_255_1_234
10
6.4009629
20
73.9677169
11
6.4009629
21
74.0889962
0
LINE
8
DEFAULT_255_1_234
10
6.4009629
20
74.0889962
11
6.5126041
21
74.0889962
0
LINE
8
DEFAULT_255_1_234
10
6.3222519
20
74.2946087
11
6.1736647
21
74.2946087
0
LINE
8
DEFAULT_255_1_234
10
6.1632234
20
73.7404188
11
6.3126138
21
73.7404188
0
LINE
8
DEFAULT_255_1_234
10
6.5126041
20
73.9677169
11
6.4009629
21
73.9677169
0
ARC
8
DEFAULT_255_1_234
10
6.5096907
20
74.4282713
40
0.3392876
50
270.4919872
51
281.8951556
0
ARC
8
DEFAULT_255_1_234
10
6.5338169
20
74.3180702
40
0.2264817
50
281.6691735
51
301.2943132
0
ARC
8
DEFAULT_255_1_234
10
6.5508379
20
74.2869304
40
0.1910381
50
301.7833094
51
311.7545298
0
ARC
8
DEFAULT_255_1_234
10
6.5599955
20
74.2767748
40
0.1773635
50
311.7323931
51
354.2802411
0
ARC
8
DEFAULT_255_1_234
10
6.487358
20
74.2892722
40
0.2509385
50
353.0937916
51
0.1181479
0
ARC
8
DEFAULT_255_1_234
10
6.4412365
20
74.2940386
40
0.2970898
50
359.1805295
51
15.0453146
0
ARC
8
DEFAULT_255_1_234
10
6.5758202
20
74.3332992
40
0.1569564
50
13.9577229
51
77.6713066
0
ARC
8
DEFAULT_255_1_234
10
6.5371731
20
74.1947949
40
0.3006298
50
76.1116566
51
90.7026153
0
ARC
8
DEFAULT_255_1_234
10
6.5312569
20
74.2221545
40
0.2732568
50
89.5324876
51
103.531937
0
ARC
8
DEFAULT_255_1_234
10
6.5112013
20
74.3020884
40
0.1908508
50
103.2931773
51
133.5619022
0
ARC
8
DEFAULT_255_1_234
10
6.5067502
20
74.3080375
40
0.1834746
50
133.8349307
51
173.5344437
0
ARC
8
DEFAULT_255_1_234
10
6.5790545
20
74.2952213
40
0.2568033
50
172.5096846
51
180.1366907
0
ARC
8
DEFAULT_255_1_234
10
6.4839439
20
74.2986622
40
0.3103056
50
155.3484492
51
180.7484736
0
ARC
8
DEFAULT_255_1_234
10
6.4790528
20
74.2957846
40
0.3070957
50
131.5744599
51
154.4798489
0
ARC
8
DEFAULT_255_1_234
10
6.5103675
20
74.264131
40
0.3515643
50
96.9875458
51
131.9690667
0
ARC
8
DEFAULT_255_1_234
10
6.5323155
20
74.1395636
40
0.4779224
50
89.8596053
51
97.7825159
0
ARC
8
DEFAULT_255_1_234
10
6.5371218
20
74.1133616
40
0.5041361
50
78.3655447
51
90.4131539
0
ARC
8
DEFAULT_255_1_234
10
6.5729136
20
74.2792887
40
0.3344039
50
56.6229102
51
78.638727
0
ARC
8
DEFAULT_255_1_234
10
6.594408
20
74.3168805
40
0.2912001
50
47.0253525
51
56.0854072
0
ARC
8
DEFAULT_255_1_234
10
6.596386
20
74.3208223
40
0.2869704
50
10.9208013
51
46.7778124
0
ARC
8
DEFAULT_255_1_234
10
6.4599926
20
74.2892857
40
0.426899
50
359.6364486
51
11.6087304
0
ARC
8
DEFAULT_255_1_234
10
6.643477
20
74.2877752
40
0.243409
50
332.3549906
51
359.7179418
0
ARC
8
DEFAULT_255_1_234
10
6.5784372
20
74.3186142
40
0.3153459
50
325.2333722
51
332.8745602
0
ARC
8
DEFAULT_255_1_234
10
6.5936995
20
74.3079828
40
0.2967456
50
292.9802137
51
325.2392345
0
ARC
8
DEFAULT_255_1_234
10
6.5662369
20
74.3613863
40
0.3566604
50
292.5402179
51
293.6924929
0
ARC
8
DEFAULT_255_1_234
10
6.6054965
20
73.7159091
40
0.3307468
50
57.6435486
51
72.8625112
0
ARC
8
DEFAULT_255_1_234
10
6.6409465
20
73.7733549
40
0.2632492
50
36.7248896
51
57.4697979
0
ARC
8
DEFAULT_255_1_234
10
6.6398098
20
73.774622
40
0.2634081
50
8.0545065
51
36.356114
0
ARC
8
DEFAULT_255_1_234
10
6.5535283
20
73.7591174
40
0.3510261
50
359.8320645
51
8.5869982
0
ARC
8
DEFAULT_255_1_234
10
6.5160059
20
73.7543101
40
0.3885653
50
343.9829931
51
0.5571613
0
ARC
8
DEFAULT_255_1_234
10
6.6046256
20
73.7300438
40
0.2966924
50
311.6359546
51
343.7651759
0
ARC
8
DEFAULT_255_1_234
10
6.5667825
20
73.7727102
40
0.3537231
50
279.7829875
51
311.6255694
0
ARC
8
DEFAULT_255_1_234
10
6.5366601
20
73.916428
40
0.5004971
50
269.7286406
51
280.3856417
0
ARC
8
DEFAULT_255_1_234
10
6.5304674
20
73.9122996
40
0.4963778
50
256.6828919
51
270.4412052
0
ARC
8
DEFAULT_255_1_234
10
6.496597
20
73.7738394
40
0.3538406
50
229.4223008
51
256.8556159
0
ARC
8
DEFAULT_255_1_234
10
6.4551363
20
73.7271736
40
0.2914296
50
181.818294
51
229.6455059
0
ARC
8
DEFAULT_255_1_234
10
6.5591319
20
73.7402496
40
0.3959084
50
179.9755256
51
183.2323064
0
ARC
8
DEFAULT_255_1_234
10
6.5419065
20
73.7382037
40
0.2293034
50
179.4465117
51
196.2869258
0
ARC
8
DEFAULT_255_1_234
10
6.4931473
20
73.7248651
40
0.1787621
50
196.5661473
51
227.705904
0
ARC
8
DEFAULT_255_1_234
10
6.5095568
20
73.7432155
40
0.2033784
50
227.7652068
51
257.8762805
0
ARC
8
DEFAULT_255_1_234
10
6.5320538
20
73.8375156
40
0.3003081
50
257.4584385
51
270.426602
0
ARC
8
DEFAULT_255_1_234
10
6.5366104
20
73.8664996
40
0.329292
50
269.5962073
51
280.8789248
0
ARC
8
DEFAULT_255_1_234
10
6.5595633
20
73.7518685
40
0.2123908
50
280.6346389
51
299.8595945
0
ARC
8
DEFAULT_255_1_234
10
6.578654
20
73.7156212
40
0.171457
50
300.3576302
51
314.5517981
0
ARC
8
DEFAULT_255_1_234
10
6.57036
20
73.7216919
40
0.1816095
50
315.0728369
51
345.0431014
0
ARC
8
DEFAULT_255_1_234
10
6.4780414
20
73.7485841
40
0.2777492
50
344.5986631
51
357.9269593
0
ARC
8
DEFAULT_255_1_234
10
6.388474
20
73.7547276
40
0.3674917
50
357.4748886
51
0.0231117
0
ARC
8
DEFAULT_255_1_234
10
6.490785
20
73.7571679
40
0.2651907
50
359.5047933
51
13.4239635
0
ARC
8
DEFAULT_255_1_234
10
6.5774493
20
73.7793478
40
0.1757509
50
12.9498199
51
48.7551375
0
ARC
8
DEFAULT_255_1_234
10
6.5592227
20
73.75444
40
0.2065134
50
49.5088623
51
72.1836453
0
ARC
8
DEFAULT_255_1_234
10
6.523438
20
73.6482291
40
0.3185836
50
71.9010081
51
84.3554254
0
ARC
8
DEFAULT_255_1_234
10
6.5073012
20
73.5121326
40
0.4556151
50
84.0193428
51
89.333121
0
LINE
8
DEFAULT_255_1_234
10
4.3681299
20
79.8931211
11
4.6500439
21
79.4449501
0
LINE
8
DEFAULT_255_1_234
10
4.6500439
20
79.4449501
11
4.9303516
21
79.8931211
0
LINE
8
DEFAULT_255_1_234
10
4.9303516
20
79.8931211
11
5.1118689
21
79.8931211
0
LINE
8
DEFAULT_255_1_234
10
5.1118689
20
79.8931211
11
4.7424089
21
79.3132296
0
LINE
8
DEFAULT_255_1_234
10
4.7424089
20
79.3132296
11
5.1207038
21
78.7237
0
LINE
8
DEFAULT_255_1_234
10
5.1207038
20
78.7237
11
4.9375802
21
78.7237
0
LINE
8
DEFAULT_255_1_234
10
4.9375802
20
78.7237
11
4.6500439
21
79.1799027
0
LINE
8
DEFAULT_255_1_234
10
4.6500439
20
79.1799027
11
4.3609014
21
78.7237
0
LINE
8
DEFAULT_255_1_234
10
4.3609014
20
78.7237
11
4.1785809
21
78.7237
0
LINE
8
DEFAULT_255_1_234
10
4.1785809
20
78.7237
11
4.557679
21
79.3132296
0
LINE
8
DEFAULT_255_1_234
10
4.557679
20
79.3132296
11
4.1874158
21
79.8931211
0
LINE
8
DEFAULT_255_1_234
10
4.1874158
20
79.8931211
11
4.3681299
21
79.8931211
0
LINE
8
DEFAULT_255_1_234
10
5.7495889
20
79.8987433
11
5.7495889
21
78.7237
0
LINE
8
DEFAULT_255_1_234
10
5.7495889
20
78.7237
11
5.6001986
21
78.7237
0
LINE
8
DEFAULT_255_1_234
10
5.6001986
20
78.7237
11
5.6001986
21
79.7140133
0
LINE
8
DEFAULT_255_1_234
10
5.6001986
20
79.7140133
11
5.3006147
21
79.6039785
0
LINE
8
DEFAULT_255_1_234
10
5.3006147
20
79.6039785
11
5.3006147
21
79.7389117
0
LINE
8
DEFAULT_255_1_234
10
5.3006147
20
79.7389117
11
5.7262969
21
79.8987433
0
LINE
8
DEFAULT_255_1_234
10
5.7262969
20
79.8987433
11
5.7495889
21
79.8987433
0
LINE
8
DEFAULT_255_1_234
10
6.951137
20
78.8449792
11
6.951137
21
78.7237
0
LINE
8
DEFAULT_255_1_234
10
6.951137
20
78.7237
11
6.1849091
21
78.7237
0
LINE
8
DEFAULT_255_1_234
10
6.1849091
20
78.7237
11
6.1849091
21
78.8305221
0
LINE
8
DEFAULT_255_1_234
10
6.1849091
20
78.8305221
11
6.5897087
21
79.2802995
0
LINE
8
DEFAULT_255_1_234
10
6.3110074
20
79.5485595
11
6.1624203
21
79.5485595
0
LINE
8
DEFAULT_255_1_234
10
6.6772547
20
79.1847218
11
6.3640169
21
78.8449792
0
LINE
8
DEFAULT_255_1_234
10
6.3640169
20
78.8449792
11
6.951137
21
78.8449792
0
ARC
8
DEFAULT_255_1_234
10
5.2406921
20
80.4732527
40
1.8008286
50
318.5132453
51
320.7828378
0
ARC
8
DEFAULT_255_1_234
10
5.7693895
20
80.0429426
40
1.1191493
50
320.7372736
51
323.9737074
0
ARC
8
DEFAULT_255_1_234
10
6.1613751
20
79.7589361
40
0.6350923
50
323.8961724
51
328.6421089
0
ARC
8
DEFAULT_255_1_234
10
6.3660347
20
79.6327031
40
0.3946393
50
328.8299013
51
331.789948
0
ARC
8
DEFAULT_255_1_234
10
6.4657525
20
79.5812509
40
0.2824501
50
331.4255242
51
352.9364833
0
ARC
8
DEFAULT_255_1_234
10
6.4794026
20
79.5781976
40
0.2685315
50
353.2248685
51
0.0169286
0
ARC
8
DEFAULT_255_1_234
10
6.5003903
20
79.580495
40
0.2475536
50
359.4866256
51
15.9339782
0
ARC
8
DEFAULT_255_1_234
10
6.5510888
20
79.5941286
40
0.1950618
50
16.1714718
51
43.5284424
0
ARC
8
DEFAULT_255_1_234
10
6.5588197
20
79.6018573
40
0.184134
50
43.4415429
51
83.1661404
0
ARC
8
DEFAULT_255_1_234
10
6.5454115
20
79.5281771
40
0.258926
50
82.160215
51
90.1505798
0
ARC
8
DEFAULT_255_1_234
10
6.5422542
20
79.4744865
40
0.3126255
50
89.5460705
51
102.5418777
0
ARC
8
DEFAULT_255_1_234
10
6.5179628
20
79.5775665
40
0.2067346
50
102.1739365
51
129.2061916
0
ARC
8
DEFAULT_255_1_234
10
6.51007
20
79.5900094
40
0.1921118
50
129.7279328
51
135.7542026
0
ARC
8
DEFAULT_255_1_234
10
6.5222228
20
79.5803045
40
0.2075944
50
136.175737
51
166.3674722
0
ARC
8
DEFAULT_255_1_234
10
6.6229147
20
79.5533182
40
0.3118201
50
165.9092917
51
178.8683903
0
ARC
8
DEFAULT_255_1_234
10
6.7094008
20
79.5486179
40
0.3983935
50
178.438168
51
180.0083905
0
ARC
8
DEFAULT_255_1_234
10
6.569261
20
79.5525231
40
0.4068601
50
163.2878735
51
180.5581814
0
ARC
8
DEFAULT_255_1_234
10
6.4890872
20
79.574584
40
0.3237344
50
133.454115
51
162.9470031
0
ARC
8
DEFAULT_255_1_234
10
6.5069413
20
79.5556
40
0.349795
50
100.7869394
51
133.4384016
0
ARC
8
DEFAULT_255_1_234
10
6.5417185
20
79.4007319
40
0.5084616
50
89.6605301
51
101.3704185
0
ARC
8
DEFAULT_255_1_234
10
6.5483523
20
79.4068496
40
0.502348
50
78.2171172
51
90.4130393
0
ARC
8
DEFAULT_255_1_234
10
6.5838602
20
79.5692637
40
0.3361092
50
55.9268222
51
78.4888551
0
ARC
8
DEFAULT_255_1_234
10
6.6035042
20
79.6031324
40
0.2970617
50
47.9292255
51
55.4054003
0
ARC
8
DEFAULT_255_1_234
10
6.6136603
20
79.6134502
40
0.2825983
50
4.3347696
51
48.0560701
0
ARC
8
DEFAULT_255_1_234
10
6.5040996
20
79.5964601
40
0.393225
50
359.925209
51
5.5967654
0
ARC
8
DEFAULT_255_1_234
10
6.5469888
20
79.6020816
40
0.3503892
50
337.8914096
51
358.9967724
0
ARC
8
DEFAULT_255_1_234
10
6.27563
20
79.7067706
40
0.6412172
50
326.9135351
51
338.3505194
0
ARC
8
DEFAULT_255_1_234
10
5.8770604
20
79.9622284
40
1.1146189
50
319.6472867
51
327.095818
0
ARC
8
DEFAULT_255_1_234
10
5.4937607
20
80.2784
40
1.6114559
50
317.2586784
51
319.9046139
0
LINE
8
DEFAULT_255_1_234
10
4.8223628
20
85.1847211
11
4.8223628
21
84.408052
0
LINE
8
DEFAULT_255_1_234
10
4.8223628
20
84.408052
11
4.9846039
21
84.408052
0
LINE
8
DEFAULT_255_1_234
10
4.9846039
20
84.408052
11
4.9846039
21
84.2867728
0
LINE
8
DEFAULT_255_1_234
10
4.9846039
20
84.2867728
11
4.8223628
21
84.2867728
0
LINE
8
DEFAULT_255_1_234
10
4.8223628
20
84.2867728
11
4.8223628
21
84.0153
0
LINE
8
DEFAULT_255_1_234
10
4.8223628
20
84.0153
11
4.6729725
21
84.0153
0
LINE
8
DEFAULT_255_1_234
10
4.6729725
20
84.0153
11
4.6729725
21
84.2867728
0
LINE
8
DEFAULT_255_1_234
10
4.6729725
20
84.2867728
11
4.1404682
21
84.2867728
0
LINE
8
DEFAULT_255_1_234
10
4.1404682
20
84.2867728
11
4.1404682
21
84.3743187
0
LINE
8
DEFAULT_255_1_234
10
4.1404682
20
84.3743187
11
4.6641375
21
85.1847211
0
LINE
8
DEFAULT_255_1_234
10
4.6641375
20
85.1847211
11
4.8223628
21
85.1847211
0
LINE
8
DEFAULT_255_1_234
10
4.6553026
20
84.9493912
11
4.3091347
21
84.408052
0
LINE
8
DEFAULT_255_1_234
10
4.3091347
20
84.408052
11
4.6729725
21
84.408052
0
LINE
8
DEFAULT_255_1_234
10
4.6729725
20
84.408052
11
4.6729725
21
84.9815181
0
LINE
8
DEFAULT_255_1_234
10
4.6729725
20
84.9815181
11
4.6553026
21
84.9493912
0
LINE
8
DEFAULT_255_1_234
10
5.8624729
20
84.3863663
11
6.0174854
21
84.3863663
0
LINE
8
DEFAULT_255_1_234
10
5.1171276
20
84.5453947
11
5.1171276
21
84.6578391
0
LINE
8
DEFAULT_255_1_234
10
6.0174854
20
84.8088357
11
5.8624729
21
84.8088357
0
LINE
8
DEFAULT_255_1_234
10
5.2721401
20
84.6538232
11
5.2721401
21
84.5405757
0
ARC
8
DEFAULT_255_1_234
10
5.4694241
20
84.4460846
40
0.5513052
50
340.1774281
51
353.7814284
0
ARC
8
DEFAULT_255_1_234
10
5.6265594
20
84.3875582
40
0.3836379
50
311.4558989
51
340.4421614
0
ARC
8
DEFAULT_255_1_234
10
5.6232262
20
84.3986528
40
0.3941894
50
282.4333181
51
310.7513653
0
ARC
8
DEFAULT_255_1_234
10
5.5793001
20
84.5801679
40
0.5809175
50
269.9358511
51
282.809604
0
ARC
8
DEFAULT_255_1_234
10
5.5741067
20
84.7259212
40
0.7266847
50
270.0021091
51
270.3581957
0
ARC
8
DEFAULT_255_1_234
10
5.5688484
20
84.4658585
40
0.4666519
50
250.7884749
51
270.6489167
0
ARC
8
DEFAULT_255_1_234
10
5.5520319
20
84.4021319
40
0.4009729
50
219.3627325
51
250.0611886
0
ARC
8
DEFAULT_255_1_234
10
5.634953
20
84.4726042
40
0.5097822
50
193.5479632
51
219.5756669
0
ARC
8
DEFAULT_255_1_234
10
5.8721151
20
84.5341919
40
0.7547848
50
181.1218675
51
193.87563
0
ARC
8
DEFAULT_255_1_234
10
6.0791332
20
84.545258
40
0.9620055
50
179.9918545
51
181.5394234
0
ARC
8
DEFAULT_255_1_234
10
5.8940434
20
84.6615788
40
0.7769248
50
169.5837241
51
180.2757934
0
ARC
8
DEFAULT_255_1_234
10
5.7103372
20
84.6955229
40
0.590109
50
155.0365899
51
169.6003176
0
ARC
8
DEFAULT_255_1_234
10
5.5967836
20
84.7502677
40
0.4640625
50
136.783148
51
155.2472683
0
ARC
8
DEFAULT_255_1_234
10
5.5578313
20
84.7833562
40
0.4130255
50
121.7633186
51
136.428115
0
ARC
8
DEFAULT_255_1_234
10
5.5713275
20
84.7584227
40
0.4413323
50
95.6459699
51
121.5490577
0
ARC
8
DEFAULT_255_1_234
10
5.5870557
20
84.6475949
40
0.55319
50
89.924208
51
96.1377933
0
ARC
8
DEFAULT_255_1_234
10
5.592099
20
84.6594542
40
0.5413475
50
76.6779277
51
90.4563316
0
ARC
8
DEFAULT_255_1_234
10
5.6314613
20
84.8185114
40
0.3775041
50
47.485847
51
76.9287264
0
ARC
8
DEFAULT_255_1_234
10
5.6167586
20
84.8085159
40
0.3948286
50
16.5424086
51
46.8933463
0
ARC
8
DEFAULT_255_1_234
10
5.4559743
20
84.7556861
40
0.564021
50
5.4072051
51
17.0365086
0
ARC
8
DEFAULT_255_1_234
10
5.312076
20
84.7325679
40
0.5556559
50
7.8891745
51
15.9239216
0
ARC
8
DEFAULT_255_1_234
10
5.5107773
20
84.7902631
40
0.3487515
50
15.7653144
51
27.9410532
0
ARC
8
DEFAULT_255_1_234
10
5.6211991
20
84.849379
40
0.2235026
50
27.8166557
51
46.4008329
0
ARC
8
DEFAULT_255_1_234
10
5.6261634
20
84.8488082
40
0.2205286
50
47.4371857
51
75.0698205
0
ARC
8
DEFAULT_255_1_234
10
5.5953029
20
84.7413765
40
0.3322915
50
74.7008593
51
87.8124495
0
ARC
8
DEFAULT_255_1_234
10
5.5879716
20
84.6357844
40
0.4380987
50
87.3814673
51
90.0240855
0
ARC
8
DEFAULT_255_1_234
10
5.5841259
20
84.7535291
40
0.3203749
50
89.3451631
51
108.5745436
0
ARC
8
DEFAULT_255_1_234
10
5.5704365
20
84.8048908
40
0.2673494
50
109.2998449
51
143.3037509
0
ARC
8
DEFAULT_255_1_234
10
5.6466437
20
84.7462881
40
0.3634757
50
143.0753173
51
163.1916937
0
ARC
8
DEFAULT_255_1_234
10
5.8418165
20
84.6846967
40
0.5681262
50
162.9373603
51
174.6208611
0
ARC
8
DEFAULT_255_1_234
10
6.1044207
20
84.655901
40
0.8322832
50
174.3419979
51
180.1430411
0
ARC
8
DEFAULT_255_1_234
10
6.0113363
20
84.5364698
40
0.7392076
50
179.6817502
51
189.150529
0
ARC
8
DEFAULT_255_1_234
10
5.7612611
20
84.494819
40
0.4856932
50
188.9910863
51
203.5773039
0
ARC
8
DEFAULT_255_1_234
10
5.6532944
20
84.4500211
40
0.3688271
50
203.9077269
51
215.1312379
0
ARC
8
DEFAULT_255_1_234
10
5.5610038
20
84.3784941
40
0.2522457
50
213.9071664
51
263.8849284
0
ARC
8
DEFAULT_255_1_234
10
5.5735367
20
84.4569518
40
0.3316174
50
263.1758525
51
270.1031083
0
ARC
8
DEFAULT_255_1_234
10
5.5767459
20
84.5816365
40
0.4563091
50
269.6719807
51
279.0609165
0
ARC
8
DEFAULT_255_1_234
10
5.6034227
20
84.4203907
40
0.2928759
50
278.8750225
51
293.6346586
0
ARC
8
DEFAULT_255_1_234
10
5.6354435
20
84.34519
40
0.2111472
50
293.8553404
51
310.0518804
0
ARC
8
DEFAULT_255_1_234
10
5.6359289
20
84.3389516
40
0.2060917
50
311.0646779
51
332.0108348
0
ARC
8
DEFAULT_255_1_234
10
5.5167016
20
84.4046978
40
0.3422352
50
331.6588543
51
343.2878891
0
ARC
8
DEFAULT_255_1_234
10
5.3104531
20
84.4680798
40
0.5580003
50
343.1446044
51
351.010618
0
ARC
8
DEFAULT_255_1_234
10
5.1563177
20
84.4961871
40
0.7146438
50
350.7157277
51
351.1602153
0
LINE
8
DEFAULT_255_1_234
10
4.3590299
20
90.4764211
11
4.6409439
21
90.0282501
0
LINE
8
DEFAULT_255_1_234
10
4.6409439
20
90.0282501
11
4.9212516
21
90.4764211
0
LINE
8
DEFAULT_255_1_234
10
4.9212516
20
90.4764211
11
5.1027689
21
90.4764211
0
LINE
8
DEFAULT_255_1_234
10
5.1027689
20
90.4764211
11
4.7333089
21
89.8965296
0
LINE
8
DEFAULT_255_1_234
10
4.7333089
20
89.8965296
11
5.1116038
21
89.307
0
LINE
8
DEFAULT_255_1_234
10
5.1116038
20
89.307
11
4.9284802
21
89.307
0
LINE
8
DEFAULT_255_1_234
10
4.9284802
20
89.307
11
4.6409439
21
89.7632027
0
LINE
8
DEFAULT_255_1_234
10
4.6409439
20
89.7632027
11
4.3518014
21
89.307
0
LINE
8
DEFAULT_255_1_234
10
4.3518014
20
89.307
11
4.1694809
21
89.307
0
LINE
8
DEFAULT_255_1_234
10
4.1694809
20
89.307
11
4.548579
21
89.8965296
0
LINE
8
DEFAULT_255_1_234
10
4.548579
20
89.8965296
11
4.1783158
21
90.4764211
0
LINE
8
DEFAULT_255_1_234
10
4.1783158
20
90.4764211
11
4.3590299
21
90.4764211
0
LINE
8
DEFAULT_255_1_234
10
5.7404889
20
90.4820433
11
5.7404889
21
89.307
0
LINE
8
DEFAULT_255_1_234
10
5.7404889
20
89.307
11
5.5910986
21
89.307
0
LINE
8
DEFAULT_255_1_234
10
5.5910986
20
89.307
11
5.5910986
21
90.2973133
0
LINE
8
DEFAULT_255_1_234
10
5.5910986
20
90.2973133
11
5.2915147
21
90.1872785
0
LINE
8
DEFAULT_255_1_234
10
5.2915147
20
90.1872785
11
5.2915147
21
90.3222117
0
LINE
8
DEFAULT_255_1_234
10
5.2915147
20
90.3222117
11
5.7171969
21
90.4820433
0
LINE
8
DEFAULT_255_1_234
10
5.7171969
20
90.4820433
11
5.7404889
21
90.4820433
0
LINE
8
DEFAULT_255_1_234
10
6.6641388
20
90.4820433
11
6.6641388
21
89.307
0
LINE
8
DEFAULT_255_1_234
10
6.6641388
20
89.307
11
6.5147485
21
89.307
0
LINE
8
DEFAULT_255_1_234
10
6.5147485
20
89.307
11
6.5147485
21
90.2973133
0
LINE
8
DEFAULT_255_1_234
10
6.5147485
20
90.2973133
11
6.2151646
21
90.1872785
0
LINE
8
DEFAULT_255_1_234
10
6.2151646
20
90.1872785
11
6.2151646
21
90.3222117
0
LINE
8
DEFAULT_255_1_234
10
6.2151646
20
90.3222117
11
6.6408468
21
90.4820433
0
LINE
8
DEFAULT_255_1_234
10
6.6408468
20
90.4820433
11
6.6641388
21
90.4820433
0
LINE
8
DEFAULT_255_1_234
10
4.3681299
20
95.7681211
11
4.6500439
21
95.3199501
0
LINE
8
DEFAULT_255_1_234
10
4.6500439
20
95.3199501
11
4.9303516
21
95.7681211
0
LINE
8
DEFAULT_255_1_234
10
4.9303516
20
95.7681211
11
5.1118689
21
95.7681211
0
LINE
8
DEFAULT_255_1_234
10
5.1118689
20
95.7681211
11
4.7424089
21
95.1882296
0
LINE
8
DEFAULT_255_1_234
10
4.7424089
20
95.1882296
11
5.1207038
21
94.5987
0
LINE
8
DEFAULT_255_1_234
10
5.1207038
20
94.5987
11
4.9375802
21
94.5987
0
LINE
8
DEFAULT_255_1_234
10
4.9375802
20
94.5987
11
4.6500439
21
95.0549027
0
LINE
8
DEFAULT_255_1_234
10
4.6500439
20
95.0549027
11
4.3609014
21
94.5987
0
LINE
8
DEFAULT_255_1_234
10
4.3609014
20
94.5987
11
4.1785809
21
94.5987
0
LINE
8
DEFAULT_255_1_234
10
4.1785809
20
94.5987
11
4.557679
21
95.1882296
0
LINE
8
DEFAULT_255_1_234
10
4.557679
20
95.1882296
11
4.1874158
21
95.7681211
0
LINE
8
DEFAULT_255_1_234
10
4.1874158
20
95.7681211
11
4.3681299
21
95.7681211
0
LINE
8
DEFAULT_255_1_234
10
5.7495889
20
95.7737433
11
5.7495889
21
94.5987
0
LINE
8
DEFAULT_255_1_234
10
5.7495889
20
94.5987
11
5.6001986
21
94.5987
0
LINE
8
DEFAULT_255_1_234
10
5.6001986
20
94.5987
11
5.6001986
21
95.5890133
0
LINE
8
DEFAULT_255_1_234
10
5.6001986
20
95.5890133
11
5.3006147
21
95.4789785
0
LINE
8
DEFAULT_255_1_234
10
5.3006147
20
95.4789785
11
5.3006147
21
95.6139117
0
LINE
8
DEFAULT_255_1_234
10
5.3006147
20
95.6139117
11
5.7262969
21
95.7737433
0
LINE
8
DEFAULT_255_1_234
10
5.7262969
20
95.7737433
11
5.7495889
21
95.7737433
0
LINE
8
DEFAULT_255_1_234
10
6.9182068
20
95.2902327
11
6.9182068
21
95.0974709
0
LINE
8
DEFAULT_255_1_234
10
6.1800901
20
95.0773916
11
6.1800901
21
95.2757755
0
LINE
8
DEFAULT_255_1_234
10
6.7696197
20
95.0573123
11
6.7696197
21
95.3006739
0
LINE
8
DEFAULT_255_1_234
10
6.3286772
20
95.3119184
11
6.3286772
21
95.0741789
0
ARC
8
DEFAULT_255_1_234
10
5.6934958
20
95.0925805
40
1.2247208
50
353.8441951
51
0.2287902
0
ARC
8
DEFAULT_255_1_234
10
6.1574462
20
95.0407806
40
0.7578929
50
344.4934747
51
353.9765454
0
ARC
8
DEFAULT_255_1_234
10
6.4567052
20
94.9556981
40
0.4467846
50
329.2803592
51
344.7472793
0
ARC
8
DEFAULT_255_1_234
10
6.5559877
20
94.9012018
40
0.3336173
50
324.9352394
51
328.6160465
0
ARC
8
DEFAULT_255_1_234
10
6.5936985
20
94.8748427
40
0.2876076
50
280.580143
51
324.9173126
0
ARC
8
DEFAULT_255_1_234
10
6.5535778
20
95.0419099
40
0.4592847
50
269.5977311
51
281.6734359
0
ARC
8
DEFAULT_255_1_234
10
6.5463684
20
95.0299173
40
0.4472986
50
256.6228859
51
270.51044
0
ARC
8
DEFAULT_255_1_234
10
6.5061661
20
94.8750877
40
0.2873874
50
215.8618325
51
257.2788573
0
ARC
8
DEFAULT_255_1_234
10
6.6082693
20
94.9435977
40
0.4102928
50
197.9693508
51
215.2623606
0
ARC
8
DEFAULT_255_1_234
10
6.8567809
20
95.0274709
40
0.6725652
50
187.8816417
51
198.2346507
0
ARC
8
DEFAULT_255_1_234
10
7.2526017
20
95.0846079
40
1.0724845
50
180.8976217
51
188.0055519
0
ARC
8
DEFAULT_255_1_234
10
7.5326205
20
95.0949777
40
1.3526448
50
180.7449369
51
181.1510016
0
ARC
8
DEFAULT_255_1_234
10
7.3748934
20
95.2806042
40
1.1948131
50
173.7675579
51
180.231553
0
ARC
8
DEFAULT_255_1_234
10
6.9231081
20
95.3316666
40
0.7401564
50
164.3058563
51
173.9002247
0
ARC
8
DEFAULT_255_1_234
10
6.631915
20
95.4155656
40
0.4371288
50
148.7922025
51
164.568378
0
ARC
8
DEFAULT_255_1_234
10
6.5367602
20
95.4686929
40
0.3282386
50
144.5883898
51
148.1176286
0
ARC
8
DEFAULT_255_1_234
10
6.50245
20
95.4926315
40
0.2864044
50
101.6440918
51
144.514236
0
ARC
8
DEFAULT_255_1_234
10
6.5449566
20
95.3237069
40
0.4604934
50
89.5284041
51
102.5819763
0
ARC
8
DEFAULT_255_1_234
10
6.5528654
20
95.3198018
40
0.464401
50
77.0437873
51
90.5081339
0
ARC
8
DEFAULT_255_1_234
10
6.5930656
20
95.4840615
40
0.2953195
50
48.2778575
51
77.4994676
0
ARC
8
DEFAULT_255_1_234
10
6.6003287
20
95.4969746
40
0.2808655
50
36.3142134
51
47.6305865
0
ARC
8
DEFAULT_255_1_234
10
6.5134594
20
95.4384515
40
0.3855453
50
18.2931786
51
35.6769206
0
ARC
8
DEFAULT_255_1_234
10
6.2591353
20
95.3511593
40
0.654423
50
8.024666
51
18.5605216
0
ARC
8
DEFAULT_255_1_234
10
5.8428273
20
95.2896792
40
1.0752407
50
1.1274072
51
8.1718305
0
ARC
8
DEFAULT_255_1_234
10
5.5192464
20
95.2769885
40
1.3990231
50
0.5424119
51
1.3863029
0
ARC
8
DEFAULT_255_1_234
10
5.7013841
20
95.3042342
40
1.0682415
50
359.8090433
51
4.9407866
0
ARC
8
DEFAULT_255_1_234
10
6.1223855
20
95.3418113
40
0.6455691
50
4.8362157
51
12.2904523
0
ARC
8
DEFAULT_255_1_234
10
6.397897
20
95.4031965
40
0.3633074
50
12.0805627
51
23.8173984
0
ARC
8
DEFAULT_255_1_234
10
6.5152676
20
95.4528919
40
0.2358723
50
24.2871213
51
31.3935614
0
ARC
8
DEFAULT_255_1_234
10
6.5677373
20
95.4872233
40
0.1732111
50
30.7407893
51
82.4657128
0
ARC
8
DEFAULT_255_1_234
10
6.5497507
20
95.3988691
40
0.263235
50
81.1060089
51
90.2184952
0
ARC
8
DEFAULT_255_1_234
10
6.5461806
20
95.4246924
40
0.2374236
50
89.3806855
51
105.6762551
0
ARC
8
DEFAULT_255_1_234
10
6.5278437
20
95.4913567
40
0.1682847
50
105.7981136
51
149.7388061
0
ARC
8
DEFAULT_255_1_234
10
6.6342515
20
95.427395
40
0.2924306
50
149.4208916
51
163.6286378
0
ARC
8
DEFAULT_255_1_234
10
6.8433403
20
95.363625
40
0.5110213
50
163.3763315
51
172.1410975
0
ARC
8
DEFAULT_255_1_234
10
7.1734122
20
95.3163518
40
0.8444586
50
172.0259487
51
178.0703232
0
ARC
8
DEFAULT_255_1_234
10
7.4764211
20
95.3019906
40
1.1477868
50
177.8631668
51
179.5044149
0
ARC
8
DEFAULT_255_1_234
10
7.3691616
20
95.0705389
40
1.0404907
50
179.7995573
51
185.2460446
0
ARC
8
DEFAULT_255_1_234
10
6.9648655
20
95.0322513
40
0.6343885
50
185.1411642
51
193.0079639
0
ARC
8
DEFAULT_255_1_234
10
6.7005128
20
94.9697641
40
0.3627568
50
192.7897626
51
205.2507664
0
ARC
8
DEFAULT_255_1_234
10
6.5958675
20
94.9230415
40
0.2481908
50
205.8005384
51
211.2537509
0
ARC
8
DEFAULT_255_1_234
10
6.5435115
20
94.887958
40
0.1852521
50
210.3789793
51
238.4008143
0
ARC
8
DEFAULT_255_1_234
10
6.5415637
20
94.8926376
40
0.1882621
50
239.6520629
51
265.9793761
0
ARC
8
DEFAULT_255_1_234
10
6.5500837
20
94.9598427
40
0.2559272
50
265.1315437
51
270.060332
0
ARC
8
DEFAULT_255_1_234
10
6.5529616
20
94.9274534
40
0.2235528
50
269.3314664
51
287.2178029
0
ARC
8
DEFAULT_255_1_234
10
6.5667468
20
94.8771279
40
0.1714108
50
287.7958004
51
329.080874
0
ARC
8
DEFAULT_255_1_234
10
6.4709925
20
94.936893
40
0.2842745
50
328.6634704
51
343.3325132
0
ARC
8
DEFAULT_255_1_234
10
6.2536945
20
95.0045863
40
0.5118644
50
343.0499468
51
351.9393422
0
ARC
8
DEFAULT_255_1_234
10
5.9070245
20
95.0556949
40
0.8622784
50
351.8069023
51
357.7959224
0
ARC
8
DEFAULT_255_1_234
10
5.5834801
20
95.0724721
40
1.1862365
50
357.5871873
51
359.2677531
0
LINE
8
DEFAULT_255_1_234
10
4.3078299
20
101.0597211
11
4.5897439
21
100.6115501
0
LINE
8
DEFAULT_255_1_234
10
4.5897439
20
100.6115501
11
4.8700516
21
101.0597211
0
LINE
8
DEFAULT_255_1_234
10
4.8700516
20
101.0597211
11
5.0515689
21
101.0597211
0
LINE
8
DEFAULT_255_1_234
10
5.0515689
20
101.0597211
11
4.6821089
21
100.4798296
0
LINE
8
DEFAULT_255_1_234
10
4.6821089
20
100.4798296
11
5.0604038
21
99.8903
0
LINE
8
DEFAULT_255_1_234
10
5.0604038
20
99.8903
11
4.8772802
21
99.8903
0
LINE
8
DEFAULT_255_1_234
10
4.8772802
20
99.8903
11
4.5897439
21
100.3465027
0
LINE
8
DEFAULT_255_1_234
10
4.5897439
20
100.3465027
11
4.3006014
21
99.8903
0
LINE
8
DEFAULT_255_1_234
10
4.3006014
20
99.8903
11
4.1182809
21
99.8903
0
LINE
8
DEFAULT_255_1_234
10
4.1182809
20
99.8903
11
4.497379
21
100.4798296
0
LINE
8
DEFAULT_255_1_234
10
4.497379
20
100.4798296
11
4.1271158
21
101.0597211
0
LINE
8
DEFAULT_255_1_234
10
4.1271158
20
101.0597211
11
4.3078299
21
101.0597211
0
LINE
8
DEFAULT_255_1_234
10
5.9197998
20
100.5922739
11
5.9197998
21
100.5489025
0
LINE
8
DEFAULT_255_1_234
10
5.3776575
20
99.8894968
11
5.3487432
21
99.8894968
0
LINE
8
DEFAULT_255_1_234
10
5.3487432
20
99.8894968
11
5.3487432
21
100.0147919
0
LINE
8
DEFAULT_255_1_234
10
5.3487432
20
100.0147919
11
5.380067
21
100.0147919
0
LINE
8
DEFAULT_255_1_234
10
5.7712126
20
100.5633597
11
5.7712126
21
100.6227945
0
ARC
8
DEFAULT_255_1_234
10
5.4918396
20
100.6379403
40
0.3635579
50
297.4037347
51
320.016758
0
ARC
8
DEFAULT_255_1_234
10
5.5208345
20
100.582224
40
0.3007486
50
270.2633101
51
297.3851877
0
ARC
8
DEFAULT_255_1_234
10
5.51743
20
100.6285904
40
0.3471448
50
269.9966443
51
270.7900392
0
ARC
8
DEFAULT_255_1_234
10
5.5148782
20
100.6284143
40
0.3469779
50
254.5999133
51
270.4180344
0
ARC
8
DEFAULT_255_1_234
10
5.5006141
20
100.5719647
40
0.2887697
50
236.4717942
51
254.3541279
0
ARC
8
DEFAULT_255_1_234
10
5.5162359
20
100.5929711
40
0.3149125
50
208.4727207
51
236.2134933
0
ARC
8
DEFAULT_255_1_234
10
5.5801134
20
100.6320455
40
0.3897115
50
204.3447514
51
209.0453999
0
ARC
8
DEFAULT_255_1_234
10
5.648071
20
100.6608656
40
0.4635101
50
183.9375985
51
204.1276318
0
ARC
8
DEFAULT_255_1_234
10
5.7388961
20
100.6706482
40
0.5548037
50
179.9652252
51
184.3013875
0
ARC
8
DEFAULT_255_1_234
10
5.7149007
20
100.6739507
40
0.5308164
50
166.7585989
51
180.3201225
0
ARC
8
DEFAULT_255_1_234
10
5.6302621
20
100.6923488
40
0.4442163
50
154.6955053
51
166.5679793
0
ARC
8
DEFAULT_255_1_234
10
5.5449491
20
100.735321
40
0.3487299
50
136.3324195
51
155.0871442
0
ARC
8
DEFAULT_255_1_234
10
5.5168564
20
100.7593954
40
0.3117924
50
121.236733
51
135.9680508
0
ARC
8
DEFAULT_255_1_234
10
5.5309062
20
100.7333743
40
0.3413302
50
96.845628
51
120.9881519
0
ARC
8
DEFAULT_255_1_234
10
5.5454643
20
100.6398515
40
0.4359341
50
89.8870174
51
97.2802754
0
ARC
8
DEFAULT_255_1_234
10
5.5507082
20
100.7036095
40
0.3722009
50
70.6505584
51
90.6749113
0
ARC
8
DEFAULT_255_1_234
10
5.5638361
20
100.7549361
40
0.3194571
50
36.7492984
51
69.8219918
0
ARC
8
DEFAULT_255_1_234
10
5.4639525
20
100.6770993
40
0.4460685
50
15.39587
51
37.0840084
0
ARC
8
DEFAULT_255_1_234
10
5.2509959
20
100.6150242
40
0.6678714
50
3.9488873
51
15.6798563
0
ARC
8
DEFAULT_255_1_234
10
5.0108587
20
100.5933964
40
0.9089418
50
359.929245
51
4.2665314
0
ARC
8
DEFAULT_255_1_234
10
4.5503024
20
100.5422513
40
1.3695135
50
352.8366322
51
0.2782669
0
ARC
8
DEFAULT_255_1_234
10
5.0790703
20
100.4735629
40
0.8363105
50
341.8359505
51
352.9884176
0
ARC
8
DEFAULT_255_1_234
10
5.4009422
20
100.36507
40
0.4966642
50
322.8578092
51
342.1527901
0
ARC
8
DEFAULT_255_1_234
10
5.4873378
20
100.3061384
40
0.3922466
50
319.334325
51
322.0998941
0
ARC
8
DEFAULT_255_1_234
10
5.4563715
20
100.3372209
40
0.4360033
50
285.9541367
51
318.8878087
0
ARC
8
DEFAULT_255_1_234
10
5.3836976
20
100.56826
40
0.678149
50
272.9281676
51
286.4922826
0
ARC
8
DEFAULT_255_1_234
10
5.3647094
20
100.7933587
40
0.9039547
50
270.8207226
51
273.4012994
0
ARC
8
DEFAULT_255_1_234
10
5.3735945
20
100.6114666
40
0.5967098
50
270.6214993
51
281.4062806
0
ARC
8
DEFAULT_255_1_234
10
5.4165925
20
100.4058833
40
0.3866861
50
281.1852553
51
299.0621114
0
ARC
8
DEFAULT_255_1_234
10
5.4539497
20
100.3337798
40
0.3055236
50
299.5067782
51
313.1200873
0
ARC
8
DEFAULT_255_1_234
10
5.4561464
20
100.3258554
40
0.2982623
50
313.8526205
51
338.5989322
0
ARC
8
DEFAULT_255_1_234
10
5.2937538
20
100.3925781
40
0.4738131
50
338.2523585
51
351.2430902
0
ARC
8
DEFAULT_255_1_234
10
5.0526834
20
100.4335447
40
0.7183203
50
350.9409515
51
357.6691871
0
ARC
8
DEFAULT_255_1_234
10
5.5417264
20
100.6337764
40
0.2294452
50
269.9447023
51
306.8248917
0
ARC
8
DEFAULT_255_1_234
10
5.5180179
20
100.6760898
40
0.2775994
50
305.5072438
51
327.0773448
0
ARC
8
DEFAULT_255_1_234
10
5.529862
20
100.6666025
40
0.2625056
50
327.4104943
51
336.840169
0
ARC
8
DEFAULT_255_1_234
10
5.2204685
20
100.6260302
40
0.5507537
50
359.6633817
51
10.117533
0
ARC
8
DEFAULT_255_1_234
10
5.3958483
20
100.6584777
40
0.372403
50
9.9430141
51
26.7700076
0
ARC
8
DEFAULT_255_1_234
10
5.4555695
20
100.6860187
40
0.3066865
50
27.2015464
51
34.6829435
0
ARC
8
DEFAULT_255_1_234
10
5.5045175
20
100.7227977
40
0.245519
50
34.1250343
51
50.3070065
0
ARC
8
DEFAULT_255_1_234
10
5.5491855
20
100.7762385
40
0.1758693
50
50.3851167
51
90.6705993
0
ARC
8
DEFAULT_255_1_234
10
5.5445088
20
100.7457799
40
0.2063326
50
89.272901
51
111.9140407
0
ARC
8
DEFAULT_255_1_234
10
5.5425616
20
100.759844
40
0.1925887
50
112.9382311
51
142.5320782
0
ARC
8
DEFAULT_255_1_234
10
5.5971796
20
100.7154969
40
0.2629232
50
142.1021256
51
166.3835592
0
ARC
8
DEFAULT_255_1_234
10
5.7153101
20
100.6849915
40
0.3849193
50
166.1100289
51
178.665427
0
ARC
8
DEFAULT_255_1_234
10
5.820069
20
100.6791117
40
0.4897989
50
178.2632126
51
180.0111093
0
ARC
8
DEFAULT_255_1_234
10
5.7398811
20
100.6762728
40
0.40962
50
179.6161962
51
191.8787166
0
ARC
8
DEFAULT_255_1_234
10
5.617865
20
100.6492896
40
0.2846655
50
191.6191692
51
215.2972286
0
ARC
8
DEFAULT_255_1_234
10
5.5981841
20
100.6377918
40
0.2619665
50
215.7320102
51
216.5355409
0
ARC
8
DEFAULT_255_1_234
10
5.5442927
20
100.5945647
40
0.1929497
50
215.7486685
51
239.9727502
0
ARC
8
DEFAULT_255_1_234
10
5.5372843
20
100.5894894
40
0.1850822
50
241.0650169
51
269.2810483
0
ARC
8
DEFAULT_255_1_234
10
5.5414758
20
100.6385371
40
0.2342059
50
268.4062526
51
270.0071348
0
LINE
8
DEFAULT_255_1_234
10
4.3078299
20
106.3514211
11
4.5897439
21
105.9032501
0
LINE
8
DEFAULT_255_1_234
10
4.5897439
20
105.9032501
11
4.8700516
21
106.3514211
0
LINE
8
DEFAULT_255_1_234
10
4.8700516
20
106.3514211
11
5.0515689
21
106.3514211
0
LINE
8
DEFAULT_255_1_234
10
5.0515689
20
106.3514211
11
4.6821089
21
105.7715296
0
LINE
8
DEFAULT_255_1_234
10
4.6821089
20
105.7715296
11
5.0604038
21
105.182
0
LINE
8
DEFAULT_255_1_234
10
5.0604038
20
105.182
11
4.8772802
21
105.182
0
LINE
8
DEFAULT_255_1_234
10
4.8772802
20
105.182
11
4.5897439
21
105.6382027
0
LINE
8
DEFAULT_255_1_234
10
4.5897439
20
105.6382027
11
4.3006014
21
105.182
0
LINE
8
DEFAULT_255_1_234
10
4.3006014
20
105.182
11
4.1182809
21
105.182
0
LINE
8
DEFAULT_255_1_234
10
4.1182809
20
105.182
11
4.497379
21
105.7715296
0
LINE
8
DEFAULT_255_1_234
10
4.497379
20
105.7715296
11
4.1271158
21
106.3514211
0
LINE
8
DEFAULT_255_1_234
10
4.1271158
20
106.3514211
11
4.3078299
21
106.3514211
0
ARC
8
DEFAULT_255_1_234
10
5.6279376
20
106.0436703
40
0.2822356
50
338.8763615
51
0.5166041
0
ARC
8
DEFAULT_255_1_234
10
5.644803
20
106.0391208
40
0.2648703
50
325.8412414
51
338.4795939
0
ARC
8
DEFAULT_255_1_234
10
5.6057398
20
106.0662042
40
0.3124019
50
296.7586019
51
325.753654
0
ARC
8
DEFAULT_255_1_234
10
5.5769506
20
106.1146789
40
0.368668
50
296.0902311
51
297.3618122
0
ARC
8
DEFAULT_255_1_234
10
5.6026964
20
105.4592041
40
0.3518806
50
47.9009248
51
67.1946869
0
ARC
8
DEFAULT_255_1_234
10
5.6223206
20
105.4838395
40
0.320451
50
35.236241
51
47.551371
0
ARC
8
DEFAULT_255_1_234
10
5.6484824
20
105.5012993
40
0.2890103
50
359.2759738
51
35.4014081
0
ARC
8
DEFAULT_255_1_234
10
5.5739855
20
105.4939826
40
0.3635026
50
343.1294516
51
0.5776525
0
ARC
8
DEFAULT_255_1_234
10
5.64644
20
105.474033
40
0.2883832
50
310.8497458
51
342.744803
0
ARC
8
DEFAULT_255_1_234
10
5.6046513
20
105.5217294
40
0.3517954
50
281.5473923
51
310.9169905
0
ARC
8
DEFAULT_255_1_234
10
5.5689962
20
105.6770084
40
0.5110832
50
269.6192722
51
281.9789957
0
ARC
8
DEFAULT_255_1_234
10
5.5617752
20
105.6770828
40
0.5111606
50
257.4584469
51
270.4287458
0
ARC
8
DEFAULT_255_1_234
10
5.5236895
20
105.5167344
40
0.3463762
50
228.7553743
51
257.8484423
0
ARC
8
DEFAULT_255_1_234
10
5.4927093
20
105.4794442
40
0.297916
50
184.0104442
51
228.5071787
0
ARC
8
DEFAULT_255_1_234
10
5.6090037
20
105.4971512
40
0.4152734
50
179.9315461
51
185.3254504
0
ARC
8
DEFAULT_255_1_234
10
5.4913683
20
105.5008992
40
0.2976554
50
145.6795913
51
180.6259649
0
ARC
8
DEFAULT_255_1_234
10
5.5077032
20
105.4894929
40
0.3175776
50
115.5537925
51
145.6416199
0
ARC
8
DEFAULT_255_1_234
10
5.5417962
20
105.4284028
40
0.3874232
50
113.2437915
51
116.2054627
0
ARC
8
DEFAULT_255_1_234
10
5.5265175
20
106.068258
40
0.3154751
50
222.9548379
51
244.1372485
0
ARC
8
DEFAULT_255_1_234
10
5.514325
20
106.0545834
40
0.2972382
50
213.3439227
51
222.6271327
0
ARC
8
DEFAULT_255_1_234
10
5.4951184
20
106.0415308
40
0.274019
50
180.4316517
51
213.2713999
0
ARC
8
DEFAULT_255_1_234
10
5.5526186
20
106.046211
40
0.33158
50
179.9992944
51
181.1655061
0
ARC
8
DEFAULT_255_1_234
10
5.5935603
20
106.0496561
40
0.3725376
50
164.6186108
51
180.5292368
0
ARC
8
DEFAULT_255_1_234
10
5.5037466
20
106.0738101
40
0.2795349
50
132.2454369
51
164.5092287
0
ARC
8
DEFAULT_255_1_234
10
5.532457
20
106.0413028
40
0.3229019
50
100.7052766
51
132.1387266
0
ARC
8
DEFAULT_255_1_234
10
5.5629542
20
105.9035086
40
0.4639835
50
89.6732617
51
101.2449487
0
ARC
8
DEFAULT_255_1_234
10
5.569174
20
105.920999
40
0.4464999
50
76.2876631
51
90.4586123
0
ARC
8
DEFAULT_255_1_234
10
5.5997972
20
106.043222
40
0.3205023
50
47.8240157
51
76.4266918
0
ARC
8
DEFAULT_255_1_234
10
5.6220522
20
106.069259
40
0.2862661
50
6.9168658
51
47.6261438
0
ARC
8
DEFAULT_255_1_234
10
5.5033925
20
106.047337
40
0.4067708
50
359.8419705
51
7.9694496
0
ARC
8
DEFAULT_255_1_234
10
5.5375822
20
105.5032925
40
0.2513121
50
359.4454068
51
16.9256425
0
ARC
8
DEFAULT_255_1_234
10
5.5844633
20
105.5162033
40
0.2027071
50
17.292259
51
45.462717
0
ARC
8
DEFAULT_255_1_234
10
5.5790569
20
105.5115434
40
0.2098212
50
45.3028762
51
83.1921472
0
ARC
8
DEFAULT_255_1_234
10
5.5647253
20
105.4313895
40
0.2911472
50
82.2614531
51
90.143954
0
ARC
8
DEFAULT_255_1_234
10
5.5616373
20
105.454695
40
0.2678513
50
89.4959189
51
104.8579811
0
ARC
8
DEFAULT_255_1_234
10
5.5439632
20
105.521689
40
0.1985654
50
104.8855873
51
135.2448349
0
ARC
8
DEFAULT_255_1_234
10
5.5489405
20
105.5172336
40
0.2052373
50
135.3398955
51
172.104394
0
ARC
8
DEFAULT_255_1_234
10
5.6296463
20
105.5017925
40
0.2873299
50
171.2651929
51
180.1859362
0
ARC
8
DEFAULT_255_1_234
10
5.6127164
20
105.4985733
40
0.2704083
50
179.515471
51
193.6466734
0
ARC
8
DEFAULT_255_1_234
10
5.5310933
20
105.4777777
40
0.1861855
50
193.3540587
51
225.8256931
0
ARC
8
DEFAULT_255_1_234
10
5.535169
20
105.4848524
40
0.1941102
50
226.418029
51
255.8553723
0
ARC
8
DEFAULT_255_1_234
10
5.5608123
20
105.5784998
40
0.2911917
50
255.4655572
51
268.7985967
0
ARC
8
DEFAULT_255_1_234
10
5.5655315
20
105.6623491
40
0.3751331
50
268.3464808
51
270.0104874
0
ARC
8
DEFAULT_255_1_234
10
5.5678703
20
105.5939138
40
0.3067064
50
269.575914
51
282.0823146
0
ARC
8
DEFAULT_255_1_234
10
5.5903612
20
105.4944803
40
0.2047712
50
281.7522535
51
306.6056425
0
ARC
8
DEFAULT_255_1_234
10
5.6002038
20
105.4783487
40
0.1859604
50
307.1350025
51
314.0277951
0
ARC
8
DEFAULT_255_1_234
10
5.5966122
20
105.4809766
40
0.1903475
50
314.2553419
51
350.169324
0
ARC
8
DEFAULT_255_1_234
10
5.5114591
20
105.4994409
40
0.2774269
50
349.4145679
51
0.2930737
0
ARC
8
DEFAULT_255_1_234
10
5.5635024
20
106.0153353
40
0.2300764
50
89.477591
51
105.729794
0
ARC
8
DEFAULT_255_1_234
10
5.5498937
20
106.0658637
40
0.1777519
50
105.922966
51
135.1662921
0
ARC
8
DEFAULT_255_1_234
10
5.551944
20
106.0644419
40
0.1802087
50
135.3053131
51
168.9882338
0
ARC
8
DEFAULT_255_1_234
10
5.6347012
20
106.0454721
40
0.2650806
50
168.3802067
51
180.3602358
0
ARC
8
DEFAULT_255_1_234
10
5.6118592
20
106.0417041
40
0.2422425
50
179.5029707
51
194.9126783
0
ARC
8
DEFAULT_255_1_234
10
5.5533253
20
106.026311
40
0.1817188
50
194.9722181
51
224.1943972
0
ARC
8
DEFAULT_255_1_234
10
5.550512
20
106.0240169
40
0.1781027
50
224.2961434
51
262.0157375
0
ARC
8
DEFAULT_255_1_234
10
5.5647363
20
106.0971661
40
0.2525492
50
261.1250369
51
270.1959853
0
ARC
8
DEFAULT_255_1_234
10
5.5677118
20
106.0784339
40
0.233825
50
269.4825617
51
285.0988277
0
ARC
8
DEFAULT_255_1_234
10
5.5831277
20
106.020599
40
0.1739712
50
285.1585659
51
315.9484648
0
ARC
8
DEFAULT_255_1_234
10
5.5742289
20
106.0287886
40
0.1860616
50
316.0412958
51
351.9162715
0
ARC
8
DEFAULT_255_1_234
10
5.5009244
20
106.0429245
40
0.2606517
50
351.1056823
51
0.1936567
0
ARC
8
DEFAULT_255_1_234
10
5.5272073
20
106.0459369
40
0.234377
50
359.4789506
51
16.0679113
0
ARC
8
DEFAULT_255_1_234
10
5.5748032
20
106.058781
40
0.1850875
50
16.3251951
51
44.791304
0
ARC
8
DEFAULT_255_1_234
10
5.5730313
20
106.0588339
40
0.186312
50
44.3958661
51
88.2498933
0
ARC
8
DEFAULT_255_1_234
10
5.5656867
20
105.9977154
40
0.2476868
50
86.9833827
51
90.0200148
0
LINE
8
DEFAULT_255_1_234
10
4.3053378
20
111.0094169
11
4.3053378
21
111.1306962
0
LINE
8
DEFAULT_255_1_234
10
4.3053378
20
111.1306962
11
4.416979
21
111.1306962
0
LINE
8
DEFAULT_255_1_234
10
4.2266268
20
111.3363087
11
4.0780396
21
111.3363087
0
LINE
8
DEFAULT_255_1_234
10
4.0675983
20
110.7821188
11
4.2169887
21
110.7821188
0
LINE
8
DEFAULT_255_1_234
10
4.416979
20
111.0094169
11
4.3053378
21
111.0094169
0
ARC
8
DEFAULT_255_1_234
10
4.4140656
20
111.4699713
40
0.3392876
50
270.4919872
51
281.8951556
0
ARC
8
DEFAULT_255_1_234
10
4.4381918
20
111.3597702
40
0.2264817
50
281.6691735
51
301.2943132
0
ARC
8
DEFAULT_255_1_234
10
4.4552128
20
111.3286304
40
0.1910381
50
301.7833094
51
311.7545298
0
ARC
8
DEFAULT_255_1_234
10
4.4643704
20
111.3184748
40
0.1773635
50
311.7323931
51
354.2802411
0
ARC
8
DEFAULT_255_1_234
10
4.3917329
20
111.3309722
40
0.2509385
50
353.0937916
51
0.1181479
0
ARC
8
DEFAULT_255_1_234
10
4.3456114
20
111.3357386
40
0.2970898
50
359.1805295
51
15.0453146
0
ARC
8
DEFAULT_255_1_234
10
4.4801951
20
111.3749992
40
0.1569564
50
13.9577229
51
77.6713066
0
ARC
8
DEFAULT_255_1_234
10
4.441548
20
111.2364949
40
0.3006298
50
76.1116566
51
90.7026153
0
ARC
8
DEFAULT_255_1_234
10
4.4356318
20
111.2638545
40
0.2732568
50
89.5324876
51
103.531937
0
ARC
8
DEFAULT_255_1_234
10
4.4155762
20
111.3437884
40
0.1908508
50
103.2931773
51
133.5619022
0
ARC
8
DEFAULT_255_1_234
10
4.4111251
20
111.3497375
40
0.1834746
50
133.8349307
51
173.5344437
0
ARC
8
DEFAULT_255_1_234
10
4.4834294
20
111.3369213
40
0.2568033
50
172.5096846
51
180.1366907
0
ARC
8
DEFAULT_255_1_234
10
4.3883188
20
111.3403622
40
0.3103056
50
155.3484492
51
180.7484736
0
ARC
8
DEFAULT_255_1_234
10
4.3834277
20
111.3374846
40
0.3070957
50
131.5744599
51
154.4798489
0
ARC
8
DEFAULT_255_1_234
10
4.4147424
20
111.305831
40
0.3515643
50
96.9875458
51
131.9690667
0
ARC
8
DEFAULT_255_1_234
10
4.4366904
20
111.1812636
40
0.4779224
50
89.8596053
51
97.7825159
0
ARC
8
DEFAULT_255_1_234
10
4.4414967
20
111.1550616
40
0.5041361
50
78.3655447
51
90.4131539
0
ARC
8
DEFAULT_255_1_234
10
4.4772885
20
111.3209887
40
0.3344039
50
56.6229102
51
78.638727
0
ARC
8
DEFAULT_255_1_234
10
4.4987829
20
111.3585805
40
0.2912001
50
47.0253525
51
56.0854072
0
ARC
8
DEFAULT_255_1_234
10
4.5007609
20
111.3625223
40
0.2869704
50
10.9208013
51
46.7778124
0
ARC
8
DEFAULT_255_1_234
10
4.3643675
20
111.3309857
40
0.426899
50
359.6364486
51
11.6087304
0
ARC
8
DEFAULT_255_1_234
10
4.5478519
20
111.3294752
40
0.243409
50
332.3549906
51
359.7179418
0
ARC
8
DEFAULT_255_1_234
10
4.4828121
20
111.3603142
40
0.3153459
50
325.2333722
51
332.8745602
0
ARC
8
DEFAULT_255_1_234
10
4.4980744
20
111.3496828
40
0.2967456
50
292.9802137
51
325.2392345
0
ARC
8
DEFAULT_255_1_234
10
4.4706118
20
111.4030863
40
0.3566604
50
292.5402179
51
293.6924929
0
ARC
8
DEFAULT_255_1_234
10
4.5098714
20
110.7576091
40
0.3307468
50
57.6435486
51
72.8625112
0
ARC
8
DEFAULT_255_1_234
10
4.5453214
20
110.8150549
40
0.2632492
50
36.7248896
51
57.4697979
0
ARC
8
DEFAULT_255_1_234
10
4.5441847
20
110.816322
40
0.2634081
50
8.0545065
51
36.356114
0
ARC
8
DEFAULT_255_1_234
10
4.4579032
20
110.8008174
40
0.3510261
50
359.8320645
51
8.5869982
0
ARC
8
DEFAULT_255_1_234
10
4.4203808
20
110.7960101
40
0.3885653
50
343.9829931
51
0.5571613
0
ARC
8
DEFAULT_255_1_234
10
4.5090005
20
110.7717438
40
0.2966924
50
311.6359546
51
343.7651759
0
ARC
8
DEFAULT_255_1_234
10
4.4711574
20
110.8144102
40
0.3537231
50
279.7829875
51
311.6255694
0
ARC
8
DEFAULT_255_1_234
10
4.4410351
20
110.958128
40
0.5004971
50
269.7286406
51
280.3856417
0
ARC
8
DEFAULT_255_1_234
10
4.4348423
20
110.9539996
40
0.4963778
50
256.6828919
51
270.4412052
0
ARC
8
DEFAULT_255_1_234
10
4.4009719
20
110.8155394
40
0.3538406
50
229.4223008
51
256.8556159
0
ARC
8
DEFAULT_255_1_234
10
4.3595112
20
110.7688736
40
0.2914296
50
181.818294
51
229.6455059
0
ARC
8
DEFAULT_255_1_234
10
4.4635068
20
110.7819496
40
0.3959084
50
179.9755256
51
183.2323064
0
ARC
8
DEFAULT_255_1_234
10
4.4462814
20
110.7799037
40
0.2293034
50
179.4465117
51
196.2869258
0
ARC
8
DEFAULT_255_1_234
10
4.3975222
20
110.7665651
40
0.1787621
50
196.5661473
51
227.705904
0
ARC
8
DEFAULT_255_1_234
10
4.4139317
20
110.7849155
40
0.2033784
50
227.7652068
51
257.8762805
0
ARC
8
DEFAULT_255_1_234
10
4.4364287
20
110.8792156
40
0.3003081
50
257.4584385
51
270.426602
0
ARC
8
DEFAULT_255_1_234
10
4.4409853
20
110.9081996
40
0.329292
50
269.5962073
51
280.8789248
0
ARC
8
DEFAULT_255_1_234
10
4.4639382
20
110.7935685
40
0.2123908
50
280.6346389
51
299.8595945
0
ARC
8
DEFAULT_255_1_234
10
4.4830289
20
110.7573212
40
0.171457
50
300.3576302
51
314.5517981
0
ARC
8
DEFAULT_255_1_234
10
4.4747349
20
110.7633919
40
0.1816095
50
315.0728369
51
345.0431014
0
ARC
8
DEFAULT_255_1_234
10
4.3824163
20
110.7902841
40
0.2777492
50
344.5986631
51
357.9269593
0
ARC
8
DEFAULT_255_1_234
10
4.2928489
20
110.7964276
40
0.3674917
50
357.4748886
51
0.0231117
0
ARC
8
DEFAULT_255_1_234
10
4.3951599
20
110.7988679
40
0.2651907
50
359.5047933
51
13.4239635
0
ARC
8
DEFAULT_255_1_234
10
4.4818242
20
110.8210478
40
0.1757509
50
12.9498199
51
48.7551375
0
ARC
8
DEFAULT_255_1_234
10
4.4635976
20
110.79614
40
0.2065134
50
49.5088623
51
72.1836453
0
ARC
8
DEFAULT_255_1_234
10
4.4278129
20
110.6899291
40
0.3185836
50
71.9010081
51
84.3554254
0
ARC
8
DEFAULT_255_1_234
10
4.4116761
20
110.5538326
40
0.4556151
50
84.0193428
51
89.333121
0
LINE
8
DEFAULT_255_1_234
10
5.7566729
20
110.8447663
11
5.9116854
21
110.8447663
0
LINE
8
DEFAULT_255_1_234
10
5.0113276
20
111.0037947
11
5.0113276
21
111.1162391
0
LINE
8
DEFAULT_255_1_234
10
5.9116854
20
111.2672357
11
5.7566729
21
111.2672357
0
LINE
8
DEFAULT_255_1_234
10
5.1663401
20
111.1122232
11
5.1663401
21
110.9989757
0
ARC
8
DEFAULT_255_1_234
10
5.3636241
20
110.9044846
40
0.5513052
50
340.1774281
51
353.7814284
0
ARC
8
DEFAULT_255_1_234
10
5.5207594
20
110.8459582
40
0.3836379
50
311.4558989
51
340.4421614
0
ARC
8
DEFAULT_255_1_234
10
5.5174262
20
110.8570528
40
0.3941894
50
282.4333181
51
310.7513653
0
ARC
8
DEFAULT_255_1_234
10
5.4735001
20
111.0385679
40
0.5809175
50
269.9358511
51
282.809604
0
ARC
8
DEFAULT_255_1_234
10
5.4683067
20
111.1843212
40
0.7266847
50
270.0021091
51
270.3581957
0
ARC
8
DEFAULT_255_1_234
10
5.4630484
20
110.9242585
40
0.4666519
50
250.7884749
51
270.6489167
0
ARC
8
DEFAULT_255_1_234
10
5.4462319
20
110.8605319
40
0.4009729
50
219.3627325
51
250.0611886
0
ARC
8
DEFAULT_255_1_234
10
5.529153
20
110.9310042
40
0.5097822
50
193.5479632
51
219.5756669
0
ARC
8
DEFAULT_255_1_234
10
5.7663151
20
110.9925919
40
0.7547848
50
181.1218675
51
193.87563
0
ARC
8
DEFAULT_255_1_234
10
5.9733332
20
111.003658
40
0.9620055
50
179.9918545
51
181.5394234
0
ARC
8
DEFAULT_255_1_234
10
5.7882434
20
111.1199788
40
0.7769248
50
169.5837241
51
180.2757934
0
ARC
8
DEFAULT_255_1_234
10
5.6045372
20
111.1539229
40
0.590109
50
155.0365899
51
169.6003176
0
ARC
8
DEFAULT_255_1_234
10
5.4909836
20
111.2086677
40
0.4640625
50
136.783148
51
155.2472683
0
ARC
8
DEFAULT_255_1_234
10
5.4520313
20
111.2417562
40
0.4130255
50
121.7633186
51
136.428115
0
ARC
8
DEFAULT_255_1_234
10
5.4655275
20
111.2168227
40
0.4413323
50
95.6459699
51
121.5490577
0
ARC
8
DEFAULT_255_1_234
10
5.4812557
20
111.1059949
40
0.55319
50
89.924208
51
96.1377933
0
ARC
8
DEFAULT_255_1_234
10
5.486299
20
111.1178542
40
0.5413475
50
76.6779277
51
90.4563316
0
ARC
8
DEFAULT_255_1_234
10
5.5256613
20
111.2769114
40
0.3775041
50
47.485847
51
76.9287264
0
ARC
8
DEFAULT_255_1_234
10
5.5109586
20
111.2669159
40
0.3948286
50
16.5424086
51
46.8933463
0
ARC
8
DEFAULT_255_1_234
10
5.3501743
20
111.2140861
40
0.564021
50
5.4072051
51
17.0365086
0
ARC
8
DEFAULT_255_1_234
10
5.206276
20
111.1909679
40
0.5556559
50
7.8891745
51
15.9239216
0
ARC
8
DEFAULT_255_1_234
10
5.4049773
20
111.2486631
40
0.3487515
50
15.7653144
51
27.9410532
0
ARC
8
DEFAULT_255_1_234
10
5.5153991
20
111.307779
40
0.2235026
50
27.8166557
51
46.4008329
0
ARC
8
DEFAULT_255_1_234
10
5.5203634
20
111.3072082
40
0.2205286
50
47.4371857
51
75.0698205
0
ARC
8
DEFAULT_255_1_234
10
5.4895029
20
111.1997765
40
0.3322915
50
74.7008593
51
87.8124495
0
ARC
8
DEFAULT_255_1_234
10
5.4821716
20
111.0941844
40
0.4380987
50
87.3814673
51
90.0240855
0
ARC
8
DEFAULT_255_1_234
10
5.4783259
20
111.2119291
40
0.3203749
50
89.3451631
51
108.5745436
0
ARC
8
DEFAULT_255_1_234
10
5.4646365
20
111.2632908
40
0.2673494
50
109.2998449
51
143.3037509
0
ARC
8
DEFAULT_255_1_234
10
5.5408437
20
111.2046881
40
0.3634757
50
143.0753173
51
163.1916937
0
ARC
8
DEFAULT_255_1_234
10
5.7360165
20
111.1430967
40
0.5681262
50
162.9373603
51
174.6208611
0
ARC
8
DEFAULT_255_1_234
10
5.9986207
20
111.114301
40
0.8322832
50
174.3419979
51
180.1430411
0
ARC
8
DEFAULT_255_1_234
10
5.9055363
20
110.9948698
40
0.7392076
50
179.6817502
51
189.150529
0
ARC
8
DEFAULT_255_1_234
10
5.6554611
20
110.953219
40
0.4856932
50
188.9910863
51
203.5773039
0
ARC
8
DEFAULT_255_1_234
10
5.5474944
20
110.9084211
40
0.3688271
50
203.9077269
51
215.1312379
0
ARC
8
DEFAULT_255_1_234
10
5.4552038
20
110.8368941
40
0.2522457
50
213.9071664
51
263.8849284
0
ARC
8
DEFAULT_255_1_234
10
5.4677367
20
110.9153518
40
0.3316174
50
263.1758525
51
270.1031083
0
ARC
8
DEFAULT_255_1_234
10
5.4709459
20
111.0400365
40
0.4563091
50
269.6719807
51
279.0609165
0
ARC
8
DEFAULT_255_1_234
10
5.4976227
20
110.8787907
40
0.2928759
50
278.8750225
51
293.6346586
0
ARC
8
DEFAULT_255_1_234
10
5.5296435
20
110.80359
40
0.2111472
50
293.8553404
51
310.0518804
0
ARC
8
DEFAULT_255_1_234
10
5.5301289
20
110.7973516
40
0.2060917
50
311.0646779
51
332.0108348
0
ARC
8
DEFAULT_255_1_234
10
5.4109016
20
110.8630978
40
0.3422352
50
331.6588543
51
343.2878891
0
ARC
8
DEFAULT_255_1_234
10
5.2046531
20
110.9264798
40
0.5580003
50
343.1446044
51
351.010618
0
ARC
8
DEFAULT_255_1_234
10
5.0505177
20
110.9545871
40
0.7146438
50
350.7157277
51
351.1602153
0
LINE
8
DEFAULT_255_1_234
10
4.3078299
20
116.9347211
11
4.5897439
21
116.4865501
0
LINE
8
DEFAULT_255_1_234
10
4.5897439
20
116.4865501
11
4.8700516
21
116.9347211
0
LINE
8
DEFAULT_255_1_234
10
4.8700516
20
116.9347211
11
5.0515689
21
116.9347211
0
LINE
8
DEFAULT_255_1_234
10
5.0515689
20
116.9347211
11
4.6821089
21
116.3548296
0
LINE
8
DEFAULT_255_1_234
10
4.6821089
20
116.3548296
11
5.0604038
21
115.7653
0
LINE
8
DEFAULT_255_1_234
10
5.0604038
20
115.7653
11
4.8772802
21
115.7653
0
LINE
8
DEFAULT_255_1_234
10
4.8772802
20
115.7653
11
4.5897439
21
116.2215027
0
LINE
8
DEFAULT_255_1_234
10
4.5897439
20
116.2215027
11
4.3006014
21
115.7653
0
LINE
8
DEFAULT_255_1_234
10
4.3006014
20
115.7653
11
4.1182809
21
115.7653
0
LINE
8
DEFAULT_255_1_234
10
4.1182809
20
115.7653
11
4.497379
21
116.3548296
0
LINE
8
DEFAULT_255_1_234
10
4.497379
20
116.3548296
11
4.1271158
21
116.9347211
0
LINE
8
DEFAULT_255_1_234
10
4.1271158
20
116.9347211
11
4.3078299
21
116.9347211
0
LINE
8
DEFAULT_255_1_234
10
5.9559426
20
116.9347211
11
5.9559426
21
116.851191
0
LINE
8
DEFAULT_255_1_234
10
5.9559426
20
116.851191
11
5.4716288
21
115.7653
0
LINE
8
DEFAULT_255_1_234
10
5.4716288
20
115.7653
11
5.3158131
21
115.7653
0
LINE
8
DEFAULT_255_1_234
10
5.3158131
20
115.7653
11
5.7985206
21
116.8126387
0
LINE
8
DEFAULT_255_1_234
10
5.7985206
20
116.8126387
11
5.1656196
21
116.8126387
0
LINE
8
DEFAULT_255_1_234
10
5.1656196
20
116.8126387
11
5.1656196
21
116.9347211
0
LINE
8
DEFAULT_255_1_234
10
5.1656196
20
116.9347211
11
5.9559426
21
116.9347211
0
LINE
8
DEFAULT_255_1_234
10
4.3078299
20
122.2264211
11
4.5897439
21
121.7782501
0
LINE
8
DEFAULT_255_1_234
10
4.5897439
20
121.7782501
11
4.8700516
21
122.2264211
0
LINE
8
DEFAULT_255_1_234
10
4.8700516
20
122.2264211
11
5.0515689
21
122.2264211
0
LINE
8
DEFAULT_255_1_234
10
5.0515689
20
122.2264211
11
4.6821089
21
121.6465296
0
LINE
8
DEFAULT_255_1_234
10
4.6821089
20
121.6465296
11
5.0604038
21
121.057
0
LINE
8
DEFAULT_255_1_234
10
5.0604038
20
121.057
11
4.8772802
21
121.057
0
LINE
8
DEFAULT_255_1_234
10
4.8772802
20
121.057
11
4.5897439
21
121.5132027
0
LINE
8
DEFAULT_255_1_234
10
4.5897439
20
121.5132027
11
4.3006014
21
121.057
0
LINE
8
DEFAULT_255_1_234
10
4.3006014
20
121.057
11
4.1182809
21
121.057
0
LINE
8
DEFAULT_255_1_234
10
4.1182809
20
121.057
11
4.497379
21
121.6465296
0
LINE
8
DEFAULT_255_1_234
10
4.497379
20
121.6465296
11
4.1271158
21
122.2264211
0
LINE
8
DEFAULT_255_1_234
10
4.1271158
20
122.2264211
11
4.3078299
21
122.2264211
0
LINE
8
DEFAULT_255_1_234
10
5.7575587
20
122.2272243
11
5.7840634
21
122.2272243
0
LINE
8
DEFAULT_255_1_234
10
5.7840634
20
122.2272243
11
5.7840634
21
122.101126
0
LINE
8
DEFAULT_255_1_234
10
5.7840634
20
122.101126
11
5.7567555
21
122.101126
0
LINE
8
DEFAULT_255_1_234
10
5.2097941
20
121.5019583
11
5.2097941
21
121.5589836
0
LINE
8
DEFAULT_255_1_234
10
5.3591845
20
121.5397075
11
5.3591845
21
121.4850917
0
ARC
8
DEFAULT_255_1_234
10
5.7619903
20
121.6013455
40
0.4998079
50
90.6001036
51
104.514704
0
ARC
8
DEFAULT_255_1_234
10
5.7231419
20
121.7458131
40
0.3502176
50
104.2855254
51
133.862935
0
ARC
8
DEFAULT_255_1_234
10
5.7395176
20
121.734983
40
0.3693984
50
134.5302688
51
161.6210873
0
ARC
8
DEFAULT_255_1_234
10
5.9048365
20
121.6766895
40
0.5446739
50
161.2849839
51
174.2076652
0
ARC
8
DEFAULT_255_1_234
10
6.0455302
20
121.6572787
40
0.6866274
50
173.7810589
51
174.9254635
0
ARC
8
DEFAULT_255_1_234
10
5.5905134
20
121.5189839
40
0.3033419
50
95.8330959
51
138.9954921
0
ARC
8
DEFAULT_255_1_234
10
5.612849
20
121.3911375
40
0.4328947
50
89.8753725
51
97.0544009
0
ARC
8
DEFAULT_255_1_234
10
5.6175956
20
121.4746748
40
0.3493769
50
71.6407809
51
90.6240094
0
ARC
8
DEFAULT_255_1_234
10
5.6326529
20
121.5301082
40
0.2920396
50
39.6367836
51
71.019018
0
ARC
8
DEFAULT_255_1_234
10
5.5690002
20
121.4750998
40
0.3761538
50
10.658731
51
39.9043955
0
ARC
8
DEFAULT_255_1_234
10
5.4142085
20
121.4414686
40
0.5345136
50
359.682601
51
11.132623
0
ARC
8
DEFAULT_255_1_234
10
5.4102216
20
121.434401
40
0.5385081
50
347.2486944
51
0.4369317
0
ARC
8
DEFAULT_255_1_234
10
5.5769693
20
121.3942807
40
0.3670249
50
318.1409698
51
347.6118597
0
ARC
8
DEFAULT_255_1_234
10
5.6094686
20
121.3675702
40
0.3250007
50
275.6342139
51
317.8248465
0
ARC
8
DEFAULT_255_1_234
10
5.5873797
20
121.4975219
40
0.4565864
50
269.8874292
51
276.7917694
0
ARC
8
DEFAULT_255_1_234
10
5.5818868
20
121.3949743
40
0.3540676
50
246.9140195
51
270.7437342
0
ARC
8
DEFAULT_255_1_234
10
5.5825258
20
121.3807384
40
0.3412781
50
218.1665114
51
245.878116
0
ARC
8
DEFAULT_255_1_234
10
5.6704719
20
121.4543279
40
0.455911
50
191.4115814
51
218.6077802
0
ARC
8
DEFAULT_255_1_234
10
5.8642808
20
121.4977833
40
0.6545001
50
179.6345085
51
191.7836486
0
ARC
8
DEFAULT_255_1_234
10
6.4225145
20
121.5656697
40
1.2127388
50
171.4525249
51
180.3158839
0
ARC
8
DEFAULT_255_1_234
10
5.9830021
20
121.6340608
40
0.7679464
50
157.9802646
51
171.6246686
0
ARC
8
DEFAULT_255_1_234
10
5.7616042
20
121.7223421
40
0.5296008
50
141.4298019
51
157.854097
0
ARC
8
DEFAULT_255_1_234
10
5.6974362
20
121.7677381
40
0.4511509
50
102.8715806
51
140.8564722
0
ARC
8
DEFAULT_255_1_234
10
5.7621978
20
121.5237552
40
0.7034845
50
90.3778349
51
103.5869322
0
ARC
8
DEFAULT_255_1_234
10
5.5883754
20
121.463273
40
0.2370698
50
89.8751008
51
126.2071704
0
ARC
8
DEFAULT_255_1_234
10
5.5929544
20
121.4478303
40
0.2522934
50
124.9745049
51
144.895901
0
ARC
8
DEFAULT_255_1_234
10
5.5753734
20
121.462156
40
0.2296779
50
145.2974905
51
160.2660252
0
ARC
8
DEFAULT_255_1_234
10
5.8826273
20
121.4819071
40
0.5234525
50
179.6514266
51
190.2855912
0
ARC
8
DEFAULT_255_1_234
10
5.713241
20
121.4499786
40
0.3510893
50
190.0945431
51
207.5098196
0
ARC
8
DEFAULT_255_1_234
10
5.656668
20
121.4230623
40
0.288489
50
207.9583163
51
216.3251085
0
ARC
8
DEFAULT_255_1_234
10
5.6226788
20
121.3951105
40
0.2445587
50
215.7661442
51
232.5456785
0
ARC
8
DEFAULT_255_1_234
10
5.5843771
20
121.3464482
40
0.1826382
50
232.8005391
51
270.6605633
0
ARC
8
DEFAULT_255_1_234
10
5.5889472
20
121.3828612
40
0.2190529
50
269.35537
51
288.4744281
0
ARC
8
DEFAULT_255_1_234
10
5.5982369
20
121.3479118
40
0.1829749
50
289.1833337
51
322.9683818
0
ARC
8
DEFAULT_255_1_234
10
5.5370891
20
121.3961391
40
0.2608399
50
322.6007884
51
346.5182367
0
ARC
8
DEFAULT_255_1_234
10
5.4213487
20
121.4256616
40
0.3802777
50
346.2582162
51
358.7741648
0
ARC
8
DEFAULT_255_1_234
10
5.3195156
20
121.4311965
40
0.4822176
50
358.3755224
51
0.0098023
0
ARC
8
DEFAULT_255_1_234
10
5.3951343
20
121.4339657
40
0.4066078
50
359.6214041
51
11.2839074
0
ARC
8
DEFAULT_255_1_234
10
5.522849
20
121.4606066
40
0.2761514
50
11.0482309
51
31.8146458
0
ARC
8
DEFAULT_255_1_234
10
5.5537533
20
121.4773584
40
0.2410679
50
32.3035391
51
38.082671
0
ARC
8
DEFAULT_255_1_234
10
5.5958193
20
121.5154662
40
0.1844966
50
36.825067
51
85.7415724
0
ARC
8
DEFAULT_255_1_234
10
5.5891026
20
121.4654301
40
0.2349122
50
85.0140713
51
90.0513278
0
LINE
8
DEFAULT_255_1_234
10
4.3078299
20
127.5181211
11
4.5897439
21
127.0699501
0
LINE
8
DEFAULT_255_1_234
10
4.5897439
20
127.0699501
11
4.8700516
21
127.5181211
0
LINE
8
DEFAULT_255_1_234
10
4.8700516
20
127.5181211
11
5.0515689
21
127.5181211
0
LINE
8
DEFAULT_255_1_234
10
5.0515689
20
127.5181211
11
4.6821089
21
126.9382296
0
LINE
8
DEFAULT_255_1_234
10
4.6821089
20
126.9382296
11
5.0604038
21
126.3487
0
LINE
8
DEFAULT_255_1_234
10
5.0604038
20
126.3487
11
4.8772802
21
126.3487
0
LINE
8
DEFAULT_255_1_234
10
4.8772802
20
126.3487
11
4.5897439
21
126.8049027
0
LINE
8
DEFAULT_255_1_234
10
4.5897439
20
126.8049027
11
4.3006014
21
126.3487
0
LINE
8
DEFAULT_255_1_234
10
4.3006014
20
126.3487
11
4.1182809
21
126.3487
0
LINE
8
DEFAULT_255_1_234
10
4.1182809
20
126.3487
11
4.497379
21
126.9382296
0
LINE
8
DEFAULT_255_1_234
10
4.497379
20
126.9382296
11
4.1271158
21
127.5181211
0
LINE
8
DEFAULT_255_1_234
10
4.1271158
20
127.5181211
11
4.3078299
21
127.5181211
0
LINE
8
DEFAULT_255_1_234
10
5.3880987
20
126.9044963
11
5.269229
21
126.9350169
0
LINE
8
DEFAULT_255_1_234
10
5.269229
20
126.9350169
11
5.3286639
21
127.5181211
0
LINE
8
DEFAULT_255_1_234
10
5.3286639
20
127.5181211
11
5.9278315
21
127.5181211
0
LINE
8
DEFAULT_255_1_234
10
5.9278315
20
127.5181211
11
5.9278315
21
127.3807784
0
LINE
8
DEFAULT_255_1_234
10
5.9278315
20
127.3807784
11
5.4547622
21
127.3807784
0
LINE
8
DEFAULT_255_1_234
10
5.4547622
20
127.3807784
11
5.4194225
21
127.0619184
0
LINE
8
DEFAULT_255_1_234
10
5.227464
20
126.6563156
11
5.3680194
21
126.6563156
0
LINE
8
DEFAULT_255_1_234
10
5.4274542
20
126.9366232
11
5.3880987
21
126.9044963
0
ARC
8
DEFAULT_255_1_234
10
5.6049009
20
126.743923
40
0.3681349
50
93.7182161
51
120.2538958
0
ARC
8
DEFAULT_255_1_234
10
5.6143272
20
126.6631394
40
0.449379
50
89.9660152
51
94.2496022
0
ARC
8
DEFAULT_255_1_234
10
5.6184006
20
126.7220549
40
0.390482
50
73.8043271
51
90.5585896
0
ARC
8
DEFAULT_255_1_234
10
5.6418903
20
126.8078602
40
0.3015334
50
41.3071453
51
73.5430202
0
ARC
8
DEFAULT_255_1_234
10
5.600273
20
126.7720324
40
0.3564457
50
13.5075983
51
41.2174222
0
ARC
8
DEFAULT_255_1_234
10
5.4360934
20
126.7290486
40
0.5261351
50
1.1331335
51
13.8829381
0
ARC
8
DEFAULT_255_1_234
10
5.2949303
20
126.7214665
40
0.6674378
50
359.9919444
51
1.544251
0
ARC
8
DEFAULT_255_1_234
10
5.4226129
20
126.717328
40
0.5397702
50
347.8572367
51
0.4293338
0
ARC
8
DEFAULT_255_1_234
10
5.5976447
20
126.6776736
40
0.3603188
50
323.673004
51
348.1672506
0
ARC
8
DEFAULT_255_1_234
10
5.6270955
20
126.6597168
40
0.3259678
50
316.8171152
51
323.1492751
0
ARC
8
DEFAULT_255_1_234
10
5.6332144
20
126.656046
40
0.3189975
50
281.8396411
51
316.5457803
0
ARC
8
DEFAULT_255_1_234
10
5.5956408
20
126.8115762
40
0.4789527
50
269.5770101
51
282.4214771
0
ARC
8
DEFAULT_255_1_234
10
5.5885219
20
126.7902125
40
0.45759
50
256.2427136
51
270.4486331
0
ARC
8
DEFAULT_255_1_234
10
5.5586121
20
126.6702229
40
0.3339303
50
228.9023911
51
256.3314342
0
ARC
8
DEFAULT_255_1_234
10
5.5512354
20
126.6585746
40
0.32031
50
193.753695
51
228.5271154
0
ARC
8
DEFAULT_255_1_234
10
5.6750308
20
126.69488
40
0.4492253
50
184.924711
51
194.497588
0
ARC
8
DEFAULT_255_1_234
10
5.6942875
20
126.6984591
40
0.3289787
50
187.3600538
51
198.6732863
0
ARC
8
DEFAULT_255_1_234
10
5.5893169
20
126.6620674
40
0.217884
50
198.4451669
51
217.794479
0
ARC
8
DEFAULT_255_1_234
10
5.5597344
20
126.6411085
40
0.1816698
50
218.2887171
51
228.5612368
0
ARC
8
DEFAULT_255_1_234
10
5.5695131
20
126.6542963
40
0.1980329
50
228.9654866
51
258.1234728
0
ARC
8
DEFAULT_255_1_234
10
5.5900841
20
126.7423833
40
0.2884748
50
257.7258293
51
270.401361
0
ARC
8
DEFAULT_255_1_234
10
5.5945727
20
126.6978821
40
0.2439788
50
269.4204404
51
286.4209037
0
ARC
8
DEFAULT_255_1_234
10
5.6094215
20
126.6439657
40
0.1880666
50
286.7251356
51
320.600362
0
ARC
8
DEFAULT_255_1_234
10
5.571104
20
126.6750595
40
0.2374121
50
320.6712579
51
344.5441685
0
ARC
8
DEFAULT_255_1_234
10
5.4554366
20
126.7090045
40
0.3579479
50
344.2412205
51
356.7357071
0
ARC
8
DEFAULT_255_1_234
10
5.3305515
20
126.7193444
40
0.4832297
50
356.3548756
51
0.0500261
0
ARC
8
DEFAULT_255_1_234
10
5.4642024
20
126.722465
40
0.3495889
50
359.5576869
51
12.953486
0
ARC
8
DEFAULT_255_1_234
10
5.5696921
20
126.7480434
40
0.2410532
50
12.6490276
51
41.6081334
0
ARC
8
DEFAULT_255_1_234
10
5.5927292
20
126.7676321
40
0.2108218
50
41.7850273
51
85.9892764
0
ARC
8
DEFAULT_255_1_234
10
5.5804029
20
126.6863462
40
0.2928454
50
84.6957577
51
90.0676183
0
ARC
8
DEFAULT_255_1_234
10
5.5780513
20
126.6194716
40
0.3597255
50
89.6804936
51
99.1614436
0
ARC
8
DEFAULT_255_1_234
10
5.5575144
20
126.7422131
40
0.235281
50
98.9830931
51
113.8908934
0
ARC
8
DEFAULT_255_1_234
10
5.5345554
20
126.7963587
40
0.176479
50
114.1950727
51
127.3641004
0
LINE
8
DEFAULT_255_1_234
10
4.4137299
20
132.8097211
11
4.6956439
21
132.3615501
0
LINE
8
DEFAULT_255_1_234
10
4.6956439
20
132.3615501
11
4.9759516
21
132.8097211
0
LINE
8
DEFAULT_255_1_234
10
4.9759516
20
132.8097211
11
5.1574689
21
132.8097211
0
LINE
8
DEFAULT_255_1_234
10
5.1574689
20
132.8097211
11
4.7880089
21
132.2298296
0
LINE
8
DEFAULT_255_1_234
10
4.7880089
20
132.2298296
11
5.1663038
21
131.6403
0
LINE
8
DEFAULT_255_1_234
10
5.1663038
20
131.6403
11
4.9831802
21
131.6403
0
LINE
8
DEFAULT_255_1_234
10
4.9831802
20
131.6403
11
4.6956439
21
132.0965027
0
LINE
8
DEFAULT_255_1_234
10
4.6956439
20
132.0965027
11
4.4065014
21
131.6403
0
LINE
8
DEFAULT_255_1_234
10
4.4065014
20
131.6403
11
4.2241809
21
131.6403
0
LINE
8
DEFAULT_255_1_234
10
4.2241809
20
131.6403
11
4.603279
21
132.2298296
0
LINE
8
DEFAULT_255_1_234
10
4.603279
20
132.2298296
11
4.2330158
21
132.8097211
0
LINE
8
DEFAULT_255_1_234
10
4.2330158
20
132.8097211
11
4.4137299
21
132.8097211
0
LINE
8
DEFAULT_255_1_234
10
5.934138
20
132.8097211
11
5.934138
21
132.033052
0
LINE
8
DEFAULT_255_1_234
10
5.934138
20
132.033052
11
6.0963791
21
132.033052
0
LINE
8
DEFAULT_255_1_234
10
6.0963791
20
132.033052
11
6.0963791
21
131.9117728
0
LINE
8
DEFAULT_255_1_234
10
6.0963791
20
131.9117728
11
5.934138
21
131.9117728
0
LINE
8
DEFAULT_255_1_234
10
5.934138
20
131.9117728
11
5.934138
21
131.6403
0
LINE
8
DEFAULT_255_1_234
10
5.934138
20
131.6403
11
5.7847477
21
131.6403
0
LINE
8
DEFAULT_255_1_234
10
5.7847477
20
131.6403
11
5.7847477
21
131.9117728
0
LINE
8
DEFAULT_255_1_234
10
5.7847477
20
131.9117728
11
5.2522434
21
131.9117728
0
LINE
8
DEFAULT_255_1_234
10
5.2522434
20
131.9117728
11
5.2522434
21
131.9993187
0
LINE
8
DEFAULT_255_1_234
10
5.2522434
20
131.9993187
11
5.7759127
21
132.8097211
0
LINE
8
DEFAULT_255_1_234
10
5.7759127
20
132.8097211
11
5.934138
21
132.8097211
0
LINE
8
DEFAULT_255_1_234
10
5.7670778
20
132.5743912
11
5.4209099
21
132.033052
0
LINE
8
DEFAULT_255_1_234
10
5.4209099
20
132.033052
11
5.7847477
21
132.033052
0
LINE
8
DEFAULT_255_1_234
10
5.7847477
20
132.033052
11
5.7847477
21
132.6065181
0
LINE
8
DEFAULT_255_1_234
10
5.7847477
20
132.6065181
11
5.7670778
21
132.5743912
0
LINE
8
DEFAULT_255_1_234
10
4.8555119
20
137.0532792
11
4.8555119
21
136.932
0
LINE
8
DEFAULT_255_1_234
10
4.8555119
20
136.932
11
4.089284
21
136.932
0
LINE
8
DEFAULT_255_1_234
10
4.089284
20
136.932
11
4.089284
21
137.0388221
0
LINE
8
DEFAULT_255_1_234
10
4.089284
20
137.0388221
11
4.4940836
21
137.4885995
0
LINE
8
DEFAULT_255_1_234
10
4.2153823
20
137.7568595
11
4.0667952
21
137.7568595
0
LINE
8
DEFAULT_255_1_234
10
4.5816296
20
137.3930218
11
4.2683918
21
137.0532792
0
LINE
8
DEFAULT_255_1_234
10
4.2683918
20
137.0532792
11
4.8555119
21
137.0532792
0
ARC
8
DEFAULT_255_1_234
10
3.145067
20
138.6815527
40
1.8008286
50
318.5132453
51
320.7828378
0
ARC
8
DEFAULT_255_1_234
10
3.6737644
20
138.2512426
40
1.1191493
50
320.7372736
51
323.9737074
0
ARC
8
DEFAULT_255_1_234
10
4.0657501
20
137.9672361
40
0.6350923
50
323.8961724
51
328.6421089
0
ARC
8
DEFAULT_255_1_234
10
4.2704096
20
137.8410031
40
0.3946393
50
328.8299013
51
331.789948
0
ARC
8
DEFAULT_255_1_234
10
4.3701274
20
137.7895509
40
0.2824501
50
331.4255242
51
352.9364833
0
ARC
8
DEFAULT_255_1_234
10
4.3837775
20
137.7864976
40
0.2685315
50
353.2248685
51
0.0169286
0
ARC
8
DEFAULT_255_1_234
10
4.4047652
20
137.788795
40
0.2475536
50
359.4866256
51
15.9339782
0
ARC
8
DEFAULT_255_1_234
10
4.4554637
20
137.8024286
40
0.1950618
50
16.1714718
51
43.5284424
0
ARC
8
DEFAULT_255_1_234
10
4.4631946
20
137.8101573
40
0.184134
50
43.4415429
51
83.1661404
0
ARC
8
DEFAULT_255_1_234
10
4.4497864
20
137.7364771
40
0.258926
50
82.160215
51
90.1505798
0
ARC
8
DEFAULT_255_1_234
10
4.4466291
20
137.6827865
40
0.3126255
50
89.5460705
51
102.5418777
0
ARC
8
DEFAULT_255_1_234
10
4.4223377
20
137.7858665
40
0.2067346
50
102.1739365
51
129.2061916
0
ARC
8
DEFAULT_255_1_234
10
4.4144449
20
137.7983094
40
0.1921118
50
129.7279328
51
135.7542026
0
ARC
8
DEFAULT_255_1_234
10
4.4265977
20
137.7886045
40
0.2075944
50
136.175737
51
166.3674722
0
ARC
8
DEFAULT_255_1_234
10
4.5272896
20
137.7616182
40
0.3118201
50
165.9092917
51
178.8683903
0
ARC
8
DEFAULT_255_1_234
10
4.6137757
20
137.7569179
40
0.3983935
50
178.438168
51
180.0083905
0
ARC
8
DEFAULT_255_1_234
10
4.4736359
20
137.7608231
40
0.4068601
50
163.2878735
51
180.5581814
0
ARC
8
DEFAULT_255_1_234
10
4.3934621
20
137.782884
40
0.3237344
50
133.454115
51
162.9470031
0
ARC
8
DEFAULT_255_1_234
10
4.4113162
20
137.7639
40
0.349795
50
100.7869394
51
133.4384016
0
ARC
8
DEFAULT_255_1_234
10
4.4460934
20
137.6090319
40
0.5084616
50
89.6605301
51
101.3704185
0
ARC
8
DEFAULT_255_1_234
10
4.4527273
20
137.6151496
40
0.502348
50
78.2171172
51
90.4130393
0
ARC
8
DEFAULT_255_1_234
10
4.4882351
20
137.7775637
40
0.3361092
50
55.9268222
51
78.4888551
0
ARC
8
DEFAULT_255_1_234
10
4.5078791
20
137.8114324
40
0.2970617
50
47.9292255
51
55.4054003
0
ARC
8
DEFAULT_255_1_234
10
4.5180352
20
137.8217502
40
0.2825983
50
4.3347696
51
48.0560701
0
ARC
8
DEFAULT_255_1_234
10
4.4084745
20
137.8047601
40
0.393225
50
359.925209
51
5.5967654
0
ARC
8
DEFAULT_255_1_234
10
4.4513637
20
137.8103816
40
0.3503892
50
337.8914096
51
358.9967724
0
ARC
8
DEFAULT_255_1_234
10
4.1800049
20
137.9150706
40
0.6412172
50
326.9135351
51
338.3505194
0
ARC
8
DEFAULT_255_1_234
10
3.7814353
20
138.1705284
40
1.1146189
50
319.6472867
51
327.095818
0
ARC
8
DEFAULT_255_1_234
10
3.3981356
20
138.4867
40
1.6114559
50
317.2586784
51
319.9046139
0
LINE
8
DEFAULT_255_1_234
10
5.7566729
20
137.3030663
11
5.9116854
21
137.3030663
0
LINE
8
DEFAULT_255_1_234
10
5.0113276
20
137.4620947
11
5.0113276
21
137.5745391
0
LINE
8
DEFAULT_255_1_234
10
5.9116854
20
137.7255357
11
5.7566729
21
137.7255357
0
LINE
8
DEFAULT_255_1_234
10
5.1663401
20
137.5705232
11
5.1663401
21
137.4572757
0
ARC
8
DEFAULT_255_1_234
10
5.3636241
20
137.3627846
40
0.5513052
50
340.1774281
51
353.7814284
0
ARC
8
DEFAULT_255_1_234
10
5.5207594
20
137.3042582
40
0.3836379
50
311.4558989
51
340.4421614
0
ARC
8
DEFAULT_255_1_234
10
5.5174262
20
137.3153528
40
0.3941894
50
282.4333181
51
310.7513653
0
ARC
8
DEFAULT_255_1_234
10
5.4735001
20
137.4968679
40
0.5809175
50
269.9358511
51
282.809604
0
ARC
8
DEFAULT_255_1_234
10
5.4683067
20
137.6426212
40
0.7266847
50
270.0021091
51
270.3581957
0
ARC
8
DEFAULT_255_1_234
10
5.4630484
20
137.3825585
40
0.4666519
50
250.7884749
51
270.6489167
0
ARC
8
DEFAULT_255_1_234
10
5.4462319
20
137.3188319
40
0.4009729
50
219.3627325
51
250.0611886
0
ARC
8
DEFAULT_255_1_234
10
5.529153
20
137.3893042
40
0.5097822
50
193.5479632
51
219.5756669
0
ARC
8
DEFAULT_255_1_234
10
5.7663151
20
137.4508919
40
0.7547848
50
181.1218675
51
193.87563
0
ARC
8
DEFAULT_255_1_234
10
5.9733332
20
137.461958
40
0.9620055
50
179.9918545
51
181.5394234
0
ARC
8
DEFAULT_255_1_234
10
5.7882434
20
137.5782788
40
0.7769248
50
169.5837241
51
180.2757934
0
ARC
8
DEFAULT_255_1_234
10
5.6045372
20
137.6122229
40
0.590109
50
155.0365899
51
169.6003176
0
ARC
8
DEFAULT_255_1_234
10
5.4909836
20
137.6669677
40
0.4640625
50
136.783148
51
155.2472683
0
ARC
8
DEFAULT_255_1_234
10
5.4520313
20
137.7000562
40
0.4130255
50
121.7633186
51
136.428115
0
ARC
8
DEFAULT_255_1_234
10
5.4655275
20
137.6751227
40
0.4413323
50
95.6459699
51
121.5490577
0
ARC
8
DEFAULT_255_1_234
10
5.4812557
20
137.5642949
40
0.55319
50
89.924208
51
96.1377933
0
ARC
8
DEFAULT_255_1_234
10
5.486299
20
137.5761542
40
0.5413475
50
76.6779277
51
90.4563316
0
ARC
8
DEFAULT_255_1_234
10
5.5256613
20
137.7352114
40
0.3775041
50
47.485847
51
76.9287264
0
ARC
8
DEFAULT_255_1_234
10
5.5109586
20
137.7252159
40
0.3948286
50
16.5424086
51
46.8933463
0
ARC
8
DEFAULT_255_1_234
10
5.3501743
20
137.6723861
40
0.564021
50
5.4072051
51
17.0365086
0
ARC
8
DEFAULT_255_1_234
10
5.206276
20
137.6492679
40
0.5556559
50
7.8891745
51
15.9239216
0
ARC
8
DEFAULT_255_1_234
10
5.4049773
20
137.7069631
40
0.3487515
50
15.7653144
51
27.9410532
0
ARC
8
DEFAULT_255_1_234
10
5.5153991
20
137.766079
40
0.2235026
50
27.8166557
51
46.4008329
0
ARC
8
DEFAULT_255_1_234
10
5.5203634
20
137.7655082
40
0.2205286
50
47.4371857
51
75.0698205
0
ARC
8
DEFAULT_255_1_234
10
5.4895029
20
137.6580765
40
0.3322915
50
74.7008593
51
87.8124495
0
ARC
8
DEFAULT_255_1_234
10
5.4821716
20
137.5524844
40
0.4380987
50
87.3814673
51
90.0240855
0
ARC
8
DEFAULT_255_1_234
10
5.4783259
20
137.6702291
40
0.3203749
50
89.3451631
51
108.5745436
0
ARC
8
DEFAULT_255_1_234
10
5.4646365
20
137.7215908
40
0.2673494
50
109.2998449
51
143.3037509
0
ARC
8
DEFAULT_255_1_234
10
5.5408437
20
137.6629881
40
0.3634757
50
143.0753173
51
163.1916937
0
ARC
8
DEFAULT_255_1_234
10
5.7360165
20
137.6013967
40
0.5681262
50
162.9373603
51
174.6208611
0
ARC
8
DEFAULT_255_1_234
10
5.9986207
20
137.572601
40
0.8322832
50
174.3419979
51
180.1430411
0
ARC
8
DEFAULT_255_1_234
10
5.9055363
20
137.4531698
40
0.7392076
50
179.6817502
51
189.150529
0
ARC
8
DEFAULT_255_1_234
10
5.6554611
20
137.411519
40
0.4856932
50
188.9910863
51
203.5773039
0
ARC
8
DEFAULT_255_1_234
10
5.5474944
20
137.3667211
40
0.3688271
50
203.9077269
51
215.1312379
0
ARC
8
DEFAULT_255_1_234
10
5.4552038
20
137.2951941
40
0.2522457
50
213.9071664
51
263.8849284
0
ARC
8
DEFAULT_255_1_234
10
5.4677367
20
137.3736518
40
0.3316174
50
263.1758525
51
270.1031083
0
ARC
8
DEFAULT_255_1_234
10
5.4709459
20
137.4983365
40
0.4563091
50
269.6719807
51
279.0609165
0
ARC
8
DEFAULT_255_1_234
10
5.4976227
20
137.3370907
40
0.2928759
50
278.8750225
51
293.6346586
0
ARC
8
DEFAULT_255_1_234
10
5.5296435
20
137.26189
40
0.2111472
50
293.8553404
51
310.0518804
0
ARC
8
DEFAULT_255_1_234
10
5.5301289
20
137.2556516
40
0.2060917
50
311.0646779
51
332.0108348
0
ARC
8
DEFAULT_255_1_234
10
5.4109016
20
137.3213978
40
0.3422352
50
331.6588543
51
343.2878891
0
ARC
8
DEFAULT_255_1_234
10
5.2046531
20
137.3847798
40
0.5580003
50
343.1446044
51
351.010618
0
ARC
8
DEFAULT_255_1_234
10
5.0505177
20
137.4128871
40
0.7146438
50
350.7157277
51
351.1602153
0
LINE
8
DEFAULT_255_1_234
10
4.3078299
20
143.3931211
11
4.5897439
21
142.9449501
0
LINE
8
DEFAULT_255_1_234
10
4.5897439
20
142.9449501
11
4.8700516
21
143.3931211
0
LINE
8
DEFAULT_255_1_234
10
4.8700516
20
143.3931211
11
5.0515689
21
143.3931211
0
LINE
8
DEFAULT_255_1_234
10
5.0515689
20
143.3931211
11
4.6821089
21
142.8132296
0
LINE
8
DEFAULT_255_1_234
10
4.6821089
20
142.8132296
11
5.0604038
21
142.2237
0
LINE
8
DEFAULT_255_1_234
10
5.0604038
20
142.2237
11
4.8772802
21
142.2237
0
LINE
8
DEFAULT_255_1_234
10
4.8772802
20
142.2237
11
4.5897439
21
142.6799027
0
LINE
8
DEFAULT_255_1_234
10
4.5897439
20
142.6799027
11
4.3006014
21
142.2237
0
LINE
8
DEFAULT_255_1_234
10
4.3006014
20
142.2237
11
4.1182809
21
142.2237
0
LINE
8
DEFAULT_255_1_234
10
4.1182809
20
142.2237
11
4.497379
21
142.8132296
0
LINE
8
DEFAULT_255_1_234
10
4.497379
20
142.8132296
11
4.1271158
21
143.3931211
0
LINE
8
DEFAULT_255_1_234
10
4.1271158
20
143.3931211
11
4.3078299
21
143.3931211
0
LINE
8
DEFAULT_255_1_234
10
5.417013
20
142.7594169
11
5.417013
21
142.8806962
0
LINE
8
DEFAULT_255_1_234
10
5.417013
20
142.8806962
11
5.5286542
21
142.8806962
0
LINE
8
DEFAULT_255_1_234
10
5.338302
20
143.0863087
11
5.1897148
21
143.0863087
0
LINE
8
DEFAULT_255_1_234
10
5.1792735
20
142.5321188
11
5.3286639
21
142.5321188
0
LINE
8
DEFAULT_255_1_234
10
5.5286542
20
142.7594169
11
5.417013
21
142.7594169
0
ARC
8
DEFAULT_255_1_234
10
5.5257408
20
143.2199713
40
0.3392876
50
270.4919872
51
281.8951556
0
ARC
8
DEFAULT_255_1_234
10
5.549867
20
143.1097702
40
0.2264817
50
281.6691735
51
301.2943132
0
ARC
8
DEFAULT_255_1_234
10
5.566888
20
143.0786304
40
0.1910381
50
301.7833094
51
311.7545298
0
ARC
8
DEFAULT_255_1_234
10
5.5760456
20
143.0684748
40
0.1773635
50
311.7323931
51
354.2802411
0
ARC
8
DEFAULT_255_1_234
10
5.5034081
20
143.0809722
40
0.2509385
50
353.0937916
51
0.1181479
0
ARC
8
DEFAULT_255_1_234
10
5.4572866
20
143.0857386
40
0.2970898
50
359.1805295
51
15.0453146
0
ARC
8
DEFAULT_255_1_234
10
5.5918703
20
143.1249992
40
0.1569564
50
13.9577229
51
77.6713066
0
ARC
8
DEFAULT_255_1_234
10
5.5532232
20
142.9864949
40
0.3006298
50
76.1116566
51
90.7026153
0
ARC
8
DEFAULT_255_1_234
10
5.547307
20
143.0138545
40
0.2732568
50
89.5324876
51
103.531937
0
ARC
8
DEFAULT_255_1_234
10
5.5272514
20
143.0937884
40
0.1908508
50
103.2931773
51
133.5619022
0
ARC
8
DEFAULT_255_1_234
10
5.5228003
20
143.0997375
40
0.1834746
50
133.8349307
51
173.5344437
0
ARC
8
DEFAULT_255_1_234
10
5.5951046
20
143.0869213
40
0.2568033
50
172.5096846
51
180.1366907
0
ARC
8
DEFAULT_255_1_234
10
5.499994
20
143.0903622
40
0.3103056
50
155.3484492
51
180.7484736
0
ARC
8
DEFAULT_255_1_234
10
5.4951029
20
143.0874846
40
0.3070957
50
131.5744599
51
154.4798489
0
ARC
8
DEFAULT_255_1_234
10
5.5264176
20
143.055831
40
0.3515643
50
96.9875458
51
131.9690667
0
ARC
8
DEFAULT_255_1_234
10
5.5483656
20
142.9312636
40
0.4779224
50
89.8596053
51
97.7825159
0
ARC
8
DEFAULT_255_1_234
10
5.5531719
20
142.9050616
40
0.5041361
50
78.3655447
51
90.4131539
0
ARC
8
DEFAULT_255_1_234
10
5.5889637
20
143.0709887
40
0.3344039
50
56.6229102
51
78.638727
0
ARC
8
DEFAULT_255_1_234
10
5.6104581
20
143.1085805
40
0.2912001
50
47.0253525
51
56.0854072
0
ARC
8
DEFAULT_255_1_234
10
5.6124361
20
143.1125223
40
0.2869704
50
10.9208013
51
46.7778124
0
ARC
8
DEFAULT_255_1_234
10
5.4760427
20
143.0809857
40
0.426899
50
359.6364486
51
11.6087304
0
ARC
8
DEFAULT_255_1_234
10
5.6595271
20
143.0794752
40
0.243409
50
332.3549906
51
359.7179418
0
ARC
8
DEFAULT_255_1_234
10
5.5944873
20
143.1103142
40
0.3153459
50
325.2333722
51
332.8745602
0
ARC
8
DEFAULT_255_1_234
10
5.6097496
20
143.0996828
40
0.2967456
50
292.9802137
51
325.2392345
0
ARC
8
DEFAULT_255_1_234
10
5.582287
20
143.1530863
40
0.3566604
50
292.5402179
51
293.6924929
0
ARC
8
DEFAULT_255_1_234
10
5.6215466
20
142.5076091
40
0.3307468
50
57.6435486
51
72.8625112
0
ARC
8
DEFAULT_255_1_234
10
5.6569966
20
142.5650549
40
0.2632492
50
36.7248896
51
57.4697979
0
ARC
8
DEFAULT_255_1_234
10
5.6558598
20
142.566322
40
0.2634081
50
8.0545065
51
36.356114
0
ARC
8
DEFAULT_255_1_234
10
5.5695784
20
142.5508174
40
0.3510261
50
359.8320645
51
8.5869982
0
ARC
8
DEFAULT_255_1_234
10
5.532056
20
142.5460101
40
0.3885653
50
343.9829931
51
0.5571613
0
ARC
8
DEFAULT_255_1_234
10
5.6206757
20
142.5217438
40
0.2966924
50
311.6359546
51
343.7651759
0
ARC
8
DEFAULT_255_1_234
10
5.5828326
20
142.5644102
40
0.3537231
50
279.7829875
51
311.6255694
0
ARC
8
DEFAULT_255_1_234
10
5.5527102
20
142.708128
40
0.5004971
50
269.7286406
51
280.3856417
0
ARC
8
DEFAULT_255_1_234
10
5.5465175
20
142.7039996
40
0.4963778
50
256.6828919
51
270.4412052
0
ARC
8
DEFAULT_255_1_234
10
5.5126471
20
142.5655394
40
0.3538406
50
229.4223008
51
256.8556159
0
ARC
8
DEFAULT_255_1_234
10
5.4711864
20
142.5188736
40
0.2914296
50
181.818294
51
229.6455059
0
ARC
8
DEFAULT_255_1_234
10
5.575182
20
142.5319496
40
0.3959084
50
179.9755256
51
183.2323064
0
ARC
8
DEFAULT_255_1_234
10
5.5579566
20
142.5299037
40
0.2293034
50
179.4465117
51
196.2869258
0
ARC
8
DEFAULT_255_1_234
10
5.5091974
20
142.5165651
40
0.1787621
50
196.5661473
51
227.705904
0
ARC
8
DEFAULT_255_1_234
10
5.5256069
20
142.5349155
40
0.2033784
50
227.7652068
51
257.8762805
0
ARC
8
DEFAULT_255_1_234
10
5.5481039
20
142.6292156
40
0.3003081
50
257.4584385
51
270.426602
0
ARC
8
DEFAULT_255_1_234
10
5.5526605
20
142.6581996
40
0.329292
50
269.5962073
51
280.8789248
0
ARC
8
DEFAULT_255_1_234
10
5.5756134
20
142.5435685
40
0.2123908
50
280.6346389
51
299.8595945
0
ARC
8
DEFAULT_255_1_234
10
5.594704
20
142.5073212
40
0.171457
50
300.3576302
51
314.5517981
0
ARC
8
DEFAULT_255_1_234
10
5.5864101
20
142.5133919
40
0.1816095
50
315.0728369
51
345.0431014
0
ARC
8
DEFAULT_255_1_234
10
5.4940915
20
142.5402841
40
0.2777492
50
344.5986631
51
357.9269593
0
ARC
8
DEFAULT_255_1_234
10
5.4045241
20
142.5464276
40
0.3674917
50
357.4748886
51
0.0231117
0
ARC
8
DEFAULT_255_1_234
10
5.5068351
20
142.5488679
40
0.2651907
50
359.5047933
51
13.4239635
0
ARC
8
DEFAULT_255_1_234
10
5.5934994
20
142.5710478
40
0.1757509
50
12.9498199
51
48.7551375
0
ARC
8
DEFAULT_255_1_234
10
5.5752728
20
142.54614
40
0.2065134
50
49.5088623
51
72.1836453
0
ARC
8
DEFAULT_255_1_234
10
5.5394881
20
142.4399291
40
0.3185836
50
71.9010081
51
84.3554254
0
ARC
8
DEFAULT_255_1_234
10
5.5233513
20
142.3038326
40
0.4556151
50
84.0193428
51
89.333121
0
LINE
8
DEFAULT_255_1_234
10
4.3078299
20
148.6847211
11
4.5897439
21
148.2365501
0
LINE
8
DEFAULT_255_1_234
10
4.5897439
20
148.2365501
11
4.8700516
21
148.6847211
0
LINE
8
DEFAULT_255_1_234
10
4.8700516
20
148.6847211
11
5.0515689
21
148.6847211
0
LINE
8
DEFAULT_255_1_234
10
5.0515689
20
148.6847211
11
4.6821089
21
148.1048296
0
LINE
8
DEFAULT_255_1_234
10
4.6821089
20
148.1048296
11
5.0604038
21
147.5153
0
LINE
8
DEFAULT_255_1_234
10
5.0604038
20
147.5153
11
4.8772802
21
147.5153
0
LINE
8
DEFAULT_255_1_234
10
4.8772802
20
147.5153
11
4.5897439
21
147.9715027
0
LINE
8
DEFAULT_255_1_234
10
4.5897439
20
147.9715027
11
4.3006014
21
147.5153
0
LINE
8
DEFAULT_255_1_234
10
4.3006014
20
147.5153
11
4.1182809
21
147.5153
0
LINE
8
DEFAULT_255_1_234
10
4.1182809
20
147.5153
11
4.497379
21
148.1048296
0
LINE
8
DEFAULT_255_1_234
10
4.497379
20
148.1048296
11
4.1271158
21
148.6847211
0
LINE
8
DEFAULT_255_1_234
10
4.1271158
20
148.6847211
11
4.3078299
21
148.6847211
0
LINE
8
DEFAULT_255_1_234
10
5.9671871
20
147.6365792
11
5.9671871
21
147.5153
0
LINE
8
DEFAULT_255_1_234
10
5.9671871
20
147.5153
11
5.2009592
21
147.5153
0
LINE
8
DEFAULT_255_1_234
10
5.2009592
20
147.5153
11
5.2009592
21
147.6221221
0
LINE
8
DEFAULT_255_1_234
10
5.2009592
20
147.6221221
11
5.6057588
21
148.0718995
0
LINE
8
DEFAULT_255_1_234
10
5.3270575
20
148.3401595
11
5.1784704
21
148.3401595
0
LINE
8
DEFAULT_255_1_234
10
5.6933048
20
147.9763218
11
5.380067
21
147.6365792
0
LINE
8
DEFAULT_255_1_234
10
5.380067
20
147.6365792
11
5.9671871
21
147.6365792
0
ARC
8
DEFAULT_255_1_234
10
4.2567422
20
149.2648527
40
1.8008286
50
318.5132453
51
320.7828378
0
ARC
8
DEFAULT_255_1_234
10
4.7854396
20
148.8345426
40
1.1191493
50
320.7372736
51
323.9737074
0
ARC
8
DEFAULT_255_1_234
10
5.1774252
20
148.5505361
40
0.6350923
50
323.8961724
51
328.6421089
0
ARC
8
DEFAULT_255_1_234
10
5.3820848
20
148.4243031
40
0.3946393
50
328.8299013
51
331.789948
0
ARC
8
DEFAULT_255_1_234
10
5.4818026
20
148.3728509
40
0.2824501
50
331.4255242
51
352.9364833
0
ARC
8
DEFAULT_255_1_234
10
5.4954527
20
148.3697976
40
0.2685315
50
353.2248685
51
0.0169286
0
ARC
8
DEFAULT_255_1_234
10
5.5164404
20
148.372095
40
0.2475536
50
359.4866256
51
15.9339782
0
ARC
8
DEFAULT_255_1_234
10
5.5671389
20
148.3857286
40
0.1950618
50
16.1714718
51
43.5284424
0
ARC
8
DEFAULT_255_1_234
10
5.5748698
20
148.3934573
40
0.184134
50
43.4415429
51
83.1661404
0
ARC
8
DEFAULT_255_1_234
10
5.5614616
20
148.3197771
40
0.258926
50
82.160215
51
90.1505798
0
ARC
8
DEFAULT_255_1_234
10
5.5583043
20
148.2660865
40
0.3126255
50
89.5460705
51
102.5418777
0
ARC
8
DEFAULT_255_1_234
10
5.5340129
20
148.3691665
40
0.2067346
50
102.1739365
51
129.2061916
0
ARC
8
DEFAULT_255_1_234
10
5.5261201
20
148.3816094
40
0.1921118
50
129.7279328
51
135.7542026
0
ARC
8
DEFAULT_255_1_234
10
5.5382729
20
148.3719045
40
0.2075944
50
136.175737
51
166.3674722
0
ARC
8
DEFAULT_255_1_234
10
5.6389648
20
148.3449182
40
0.3118201
50
165.9092917
51
178.8683903
0
ARC
8
DEFAULT_255_1_234
10
5.7254509
20
148.3402179
40
0.3983935
50
178.438168
51
180.0083905
0
ARC
8
DEFAULT_255_1_234
10
5.5853111
20
148.3441231
40
0.4068601
50
163.2878735
51
180.5581814
0
ARC
8
DEFAULT_255_1_234
10
5.5051373
20
148.366184
40
0.3237344
50
133.454115
51
162.9470031
0
ARC
8
DEFAULT_255_1_234
10
5.5229914
20
148.3472
40
0.349795
50
100.7869394
51
133.4384016
0
ARC
8
DEFAULT_255_1_234
10
5.5577686
20
148.1923319
40
0.5084616
50
89.6605301
51
101.3704185
0
ARC
8
DEFAULT_255_1_234
10
5.5644024
20
148.1984496
40
0.502348
50
78.2171172
51
90.4130393
0
ARC
8
DEFAULT_255_1_234
10
5.5999103
20
148.3608637
40
0.3361092
50
55.9268222
51
78.4888551
0
ARC
8
DEFAULT_255_1_234
10
5.6195543
20
148.3947324
40
0.2970617
50
47.9292255
51
55.4054003
0
ARC
8
DEFAULT_255_1_234
10
5.6297103
20
148.4050502
40
0.2825983
50
4.3347696
51
48.0560701
0
ARC
8
DEFAULT_255_1_234
10
5.5201497
20
148.3880601
40
0.393225
50
359.925209
51
5.5967654
0
ARC
8
DEFAULT_255_1_234
10
5.5630389
20
148.3936816
40
0.3503892
50
337.8914096
51
358.9967724
0
ARC
8
DEFAULT_255_1_234
10
5.2916801
20
148.4983706
40
0.6412172
50
326.9135351
51
338.3505194
0
ARC
8
DEFAULT_255_1_234
10
4.8931105
20
148.7538284
40
1.1146189
50
319.6472867
51
327.095818
0
ARC
8
DEFAULT_255_1_234
10
4.5098108
20
149.07
40
1.6114559
50
317.2586784
51
319.9046139
0
LINE
8
DEFAULT_255_1_234
10
4.2994299
20
153.9764211
11
4.5813439
21
153.5282501
0
LINE
8
DEFAULT_255_1_234
10
4.5813439
20
153.5282501
11
4.8616516
21
153.9764211
0
LINE
8
DEFAULT_255_1_234
10
4.8616516
20
153.9764211
11
5.0431689
21
153.9764211
0
LINE
8
DEFAULT_255_1_234
10
5.0431689
20
153.9764211
11
4.6737089
21
153.3965296
0
LINE
8
DEFAULT_255_1_234
10
4.6737089
20
153.3965296
11
5.0520038
21
152.807
0
LINE
8
DEFAULT_255_1_234
10
5.0520038
20
152.807
11
4.8688802
21
152.807
0
LINE
8
DEFAULT_255_1_234
10
4.8688802
20
152.807
11
4.5813439
21
153.2632027
0
LINE
8
DEFAULT_255_1_234
10
4.5813439
20
153.2632027
11
4.2922014
21
152.807
0
LINE
8
DEFAULT_255_1_234
10
4.2922014
20
152.807
11
4.1098809
21
152.807
0
LINE
8
DEFAULT_255_1_234
10
4.1098809
20
152.807
11
4.488979
21
153.3965296
0
LINE
8
DEFAULT_255_1_234
10
4.488979
20
153.3965296
11
4.1187158
21
153.9764211
0
LINE
8
DEFAULT_255_1_234
10
4.1187158
20
153.9764211
11
4.2994299
21
153.9764211
0
LINE
8
DEFAULT_255_1_234
10
5.6808889
20
153.9820433
11
5.6808889
21
152.807
0
LINE
8
DEFAULT_255_1_234
10
5.6808889
20
152.807
11
5.5314986
21
152.807
0
LINE
8
DEFAULT_255_1_234
10
5.5314986
20
152.807
11
5.5314986
21
153.7973133
0
LINE
8
DEFAULT_255_1_234
10
5.5314986
20
153.7973133
11
5.2319147
21
153.6872785
0
LINE
8
DEFAULT_255_1_234
10
5.2319147
20
153.6872785
11
5.2319147
21
153.8222117
0
LINE
8
DEFAULT_255_1_234
10
5.2319147
20
153.8222117
11
5.6575969
21
153.9820433
0
LINE
8
DEFAULT_255_1_234
10
5.6575969
20
153.9820433
11
5.6808889
21
153.9820433
0
LINE
8
DEFAULT_255_1_234
10
4.3078299
20
159.2681211
11
4.5897439
21
158.8199501
0
LINE
8
DEFAULT_255_1_234
10
4.5897439
20
158.8199501
11
4.8700516
21
159.2681211
0
LINE
8
DEFAULT_255_1_234
10
4.8700516
20
159.2681211
11
5.0515689
21
159.2681211
0
LINE
8
DEFAULT_255_1_234
10
5.0515689
20
159.2681211
11
4.6821089
21
158.6882296
0
LINE
8
DEFAULT_255_1_234
10
4.6821089
20
158.6882296
11
5.0604038
21
158.0987
0
LINE
8
DEFAULT_255_1_234
10
5.0604038
20
158.0987
11
4.8772802
21
158.0987
0
LINE
8
DEFAULT_255_1_234
10
4.8772802
20
158.0987
11
4.5897439
21
158.5549027
0
LINE
8
DEFAULT_255_1_234
10
4.5897439
20
158.5549027
11
4.3006014
21
158.0987
0
LINE
8
DEFAULT_255_1_234
10
4.3006014
20
158.0987
11
4.1182809
21
158.0987
0
LINE
8
DEFAULT_255_1_234
10
4.1182809
20
158.0987
11
4.497379
21
158.6882296
0
LINE
8
DEFAULT_255_1_234
10
4.497379
20
158.6882296
11
4.1271158
21
159.2681211
0
LINE
8
DEFAULT_255_1_234
10
4.1271158
20
159.2681211
11
4.3078299
21
159.2681211
0
LINE
8
DEFAULT_255_1_234
10
5.9342569
20
158.7902327
11
5.9342569
21
158.5974709
0
LINE
8
DEFAULT_255_1_234
10
5.1961402
20
158.5773916
11
5.1961402
21
158.7757755
0
LINE
8
DEFAULT_255_1_234
10
5.7856698
20
158.5573123
11
5.7856698
21
158.8006739
0
LINE
8
DEFAULT_255_1_234
10
5.3447273
20
158.8119184
11
5.3447273
21
158.5741789
0
ARC
8
DEFAULT_255_1_234
10
4.7095459
20
158.5925805
40
1.2247208
50
353.8441951
51
0.2287902
0
ARC
8
DEFAULT_255_1_234
10
5.1734963
20
158.5407806
40
0.7578929
50
344.4934747
51
353.9765454
0
ARC
8
DEFAULT_255_1_234
10
5.4727553
20
158.4556981
40
0.4467846
50
329.2803592
51
344.7472793
0
ARC
8
DEFAULT_255_1_234
10
5.5720378
20
158.4012018
40
0.3336173
50
324.9352394
51
328.6160465
0
ARC
8
DEFAULT_255_1_234
10
5.6097486
20
158.3748427
40
0.2876076
50
280.580143
51
324.9173126
0
ARC
8
DEFAULT_255_1_234
10
5.5696279
20
158.5419099
40
0.4592847
50
269.5977311
51
281.6734359
0
ARC
8
DEFAULT_255_1_234
10
5.5624185
20
158.5299173
40
0.4472986
50
256.6228859
51
270.51044
0
ARC
8
DEFAULT_255_1_234
10
5.5222162
20
158.3750877
40
0.2873874
50
215.8618325
51
257.2788573
0
ARC
8
DEFAULT_255_1_234
10
5.6243194
20
158.4435977
40
0.4102928
50
197.9693508
51
215.2623606
0
ARC
8
DEFAULT_255_1_234
10
5.872831
20
158.5274709
40
0.6725652
50
187.8816417
51
198.2346507
0
ARC
8
DEFAULT_255_1_234
10
6.2686518
20
158.5846079
40
1.0724845
50
180.8976217
51
188.0055519
0
ARC
8
DEFAULT_255_1_234
10
6.5486706
20
158.5949777
40
1.3526448
50
180.7449369
51
181.1510016
0
ARC
8
DEFAULT_255_1_234
10
6.3909435
20
158.7806042
40
1.1948131
50
173.7675579
51
180.231553
0
ARC
8
DEFAULT_255_1_234
10
5.9391582
20
158.8316666
40
0.7401564
50
164.3058563
51
173.9002247
0
ARC
8
DEFAULT_255_1_234
10
5.647965
20
158.9155656
40
0.4371288
50
148.7922025
51
164.568378
0
ARC
8
DEFAULT_255_1_234
10
5.5528103
20
158.9686929
40
0.3282386
50
144.5883898
51
148.1176286
0
ARC
8
DEFAULT_255_1_234
10
5.5185001
20
158.9926315
40
0.2864044
50
101.6440918
51
144.514236
0
ARC
8
DEFAULT_255_1_234
10
5.5610067
20
158.8237069
40
0.4604934
50
89.5284041
51
102.5819763
0
ARC
8
DEFAULT_255_1_234
10
5.5689155
20
158.8198018
40
0.464401
50
77.0437873
51
90.5081339
0
ARC
8
DEFAULT_255_1_234
10
5.6091157
20
158.9840615
40
0.2953195
50
48.2778575
51
77.4994676
0
ARC
8
DEFAULT_255_1_234
10
5.6163788
20
158.9969746
40
0.2808655
50
36.3142134
51
47.6305865
0
ARC
8
DEFAULT_255_1_234
10
5.5295095
20
158.9384515
40
0.3855453
50
18.2931786
51
35.6769206
0
ARC
8
DEFAULT_255_1_234
10
5.2751854
20
158.8511593
40
0.654423
50
8.024666
51
18.5605216
0
ARC
8
DEFAULT_255_1_234
10
4.8588774
20
158.7896792
40
1.0752407
50
1.1274072
51
8.1718305
0
ARC
8
DEFAULT_255_1_234
10
4.5352964
20
158.7769885
40
1.3990231
50
0.5424119
51
1.3863029
0
ARC
8
DEFAULT_255_1_234
10
4.7174342
20
158.8042342
40
1.0682415
50
359.8090433
51
4.9407866
0
ARC
8
DEFAULT_255_1_234
10
5.1384356
20
158.8418113
40
0.6455691
50
4.8362157
51
12.2904523
0
ARC
8
DEFAULT_255_1_234
10
5.4139471
20
158.9031965
40
0.3633074
50
12.0805627
51
23.8173984
0
ARC
8
DEFAULT_255_1_234
10
5.5313176
20
158.9528919
40
0.2358723
50
24.2871213
51
31.3935614
0
ARC
8
DEFAULT_255_1_234
10
5.5837874
20
158.9872233
40
0.1732111
50
30.7407893
51
82.4657128
0
ARC
8
DEFAULT_255_1_234
10
5.5658008
20
158.8988691
40
0.263235
50
81.1060089
51
90.2184952
0
ARC
8
DEFAULT_255_1_234
10
5.5622307
20
158.9246924
40
0.2374236
50
89.3806855
51
105.6762551
0
ARC
8
DEFAULT_255_1_234
10
5.5438938
20
158.9913567
40
0.1682847
50
105.7981136
51
149.7388061
0
ARC
8
DEFAULT_255_1_234
10
5.6503016
20
158.927395
40
0.2924306
50
149.4208916
51
163.6286378
0
ARC
8
DEFAULT_255_1_234
10
5.8593904
20
158.863625
40
0.5110213
50
163.3763315
51
172.1410975
0
ARC
8
DEFAULT_255_1_234
10
6.1894623
20
158.8163518
40
0.8444586
50
172.0259487
51
178.0703232
0
ARC
8
DEFAULT_255_1_234
10
6.4924712
20
158.8019906
40
1.1477868
50
177.8631668
51
179.5044149
0
ARC
8
DEFAULT_255_1_234
10
6.3852117
20
158.5705389
40
1.0404907
50
179.7995573
51
185.2460446
0
ARC
8
DEFAULT_255_1_234
10
5.9809156
20
158.5322513
40
0.6343885
50
185.1411642
51
193.0079639
0
ARC
8
DEFAULT_255_1_234
10
5.7165629
20
158.4697641
40
0.3627568
50
192.7897626
51
205.2507664
0
ARC
8
DEFAULT_255_1_234
10
5.6119176
20
158.4230415
40
0.2481908
50
205.8005384
51
211.2537509
0
ARC
8
DEFAULT_255_1_234
10
5.5595616
20
158.387958
40
0.1852521
50
210.3789793
51
238.4008143
0
ARC
8
DEFAULT_255_1_234
10
5.5576138
20
158.3926376
40
0.1882621
50
239.6520629
51
265.9793761
0
ARC
8
DEFAULT_255_1_234
10
5.5661338
20
158.4598427
40
0.2559272
50
265.1315437
51
270.060332
0
ARC
8
DEFAULT_255_1_234
10
5.5690117
20
158.4274534
40
0.2235528
50
269.3314664
51
287.2178029
0
ARC
8
DEFAULT_255_1_234
10
5.5827969
20
158.3771279
40
0.1714108
50
287.7958004
51
329.080874
0
ARC
8
DEFAULT_255_1_234
10
5.4870426
20
158.436893
40
0.2842745
50
328.6634704
51
343.3325132
0
ARC
8
DEFAULT_255_1_234
10
5.2697446
20
158.5045863
40
0.5118644
50
343.0499468
51
351.9393422
0
ARC
8
DEFAULT_255_1_234
10
4.9230746
20
158.5556949
40
0.8622784
50
351.8069023
51
357.7959224
0
ARC
8
DEFAULT_255_1_234
10
4.5995302
20
158.5724721
40
1.1862365
50
357.5871873
51
359.2677531
0
LINE
8
DEFAULT_255_1_234
10
4.5776137
20
164.5653433
11
4.5776137
21
163.3903
0
LINE
8
DEFAULT_255_1_234
10
4.5776137
20
163.3903
11
4.4282234
21
163.3903
0
LINE
8
DEFAULT_255_1_234
10
4.4282234
20
163.3903
11
4.4282234
21
164.3806133
0
LINE
8
DEFAULT_255_1_234
10
4.4282234
20
164.3806133
11
4.1286396
21
164.2705785
0
LINE
8
DEFAULT_255_1_234
10
4.1286396
20
164.2705785
11
4.1286396
21
164.4055117
0
LINE
8
DEFAULT_255_1_234
10
4.1286396
20
164.4055117
11
4.5543217
21
164.5653433
0
LINE
8
DEFAULT_255_1_234
10
4.5543217
20
164.5653433
11
4.5776137
21
164.5653433
0
LINE
8
DEFAULT_255_1_234
10
5.7566729
20
163.7613663
11
5.9116854
21
163.7613663
0
LINE
8
DEFAULT_255_1_234
10
5.0113276
20
163.9203947
11
5.0113276
21
164.0328391
0
LINE
8
DEFAULT_255_1_234
10
5.9116854
20
164.1838357
11
5.7566729
21
164.1838357
0
LINE
8
DEFAULT_255_1_234
10
5.1663401
20
164.0288232
11
5.1663401
21
163.9155757
0
ARC
8
DEFAULT_255_1_234
10
5.3636241
20
163.8210846
40
0.5513052
50
340.1774281
51
353.7814284
0
ARC
8
DEFAULT_255_1_234
10
5.5207594
20
163.7625582
40
0.3836379
50
311.4558989
51
340.4421614
0
ARC
8
DEFAULT_255_1_234
10
5.5174262
20
163.7736528
40
0.3941894
50
282.4333181
51
310.7513653
0
ARC
8
DEFAULT_255_1_234
10
5.4735001
20
163.9551679
40
0.5809175
50
269.9358511
51
282.809604
0
ARC
8
DEFAULT_255_1_234
10
5.4683067
20
164.1009212
40
0.7266847
50
270.0021091
51
270.3581957
0
ARC
8
DEFAULT_255_1_234
10
5.4630484
20
163.8408585
40
0.4666519
50
250.7884749
51
270.6489167
0
ARC
8
DEFAULT_255_1_234
10
5.4462319
20
163.7771319
40
0.4009729
50
219.3627325
51
250.0611886
0
ARC
8
DEFAULT_255_1_234
10
5.529153
20
163.8476042
40
0.5097822
50
193.5479632
51
219.5756669
0
ARC
8
DEFAULT_255_1_234
10
5.7663151
20
163.9091919
40
0.7547848
50
181.1218675
51
193.87563
0
ARC
8
DEFAULT_255_1_234
10
5.9733332
20
163.920258
40
0.9620055
50
179.9918545
51
181.5394234
0
ARC
8
DEFAULT_255_1_234
10
5.7882434
20
164.0365788
40
0.7769248
50
169.5837241
51
180.2757934
0
ARC
8
DEFAULT_255_1_234
10
5.6045372
20
164.0705229
40
0.590109
50
155.0365899
51
169.6003176
0
ARC
8
DEFAULT_255_1_234
10
5.4909836
20
164.1252677
40
0.4640625
50
136.783148
51
155.2472683
0
ARC
8
DEFAULT_255_1_234
10
5.4520313
20
164.1583562
40
0.4130255
50
121.7633186
51
136.428115
0
ARC
8
DEFAULT_255_1_234
10
5.4655275
20
164.1334227
40
0.4413323
50
95.6459699
51
121.5490577
0
ARC
8
DEFAULT_255_1_234
10
5.4812557
20
164.0225949
40
0.55319
50
89.924208
51
96.1377933
0
ARC
8
DEFAULT_255_1_234
10
5.486299
20
164.0344542
40
0.5413475
50
76.6779277
51
90.4563316
0
ARC
8
DEFAULT_255_1_234
10
5.5256613
20
164.1935114
40
0.3775041
50
47.485847
51
76.9287264
0
ARC
8
DEFAULT_255_1_234
10
5.5109586
20
164.1835159
40
0.3948286
50
16.5424086
51
46.8933463
0
ARC
8
DEFAULT_255_1_234
10
5.3501743
20
164.1306861
40
0.564021
50
5.4072051
51
17.0365086
0
ARC
8
DEFAULT_255_1_234
10
5.206276
20
164.1075679
40
0.5556559
50
7.8891745
51
15.9239216
0
ARC
8
DEFAULT_255_1_234
10
5.4049773
20
164.1652631
40
0.3487515
50
15.7653144
51
27.9410532
0
ARC
8
DEFAULT_255_1_234
10
5.5153991
20
164.224379
40
0.2235026
50
27.8166557
51
46.4008329
0
ARC
8
DEFAULT_255_1_234
10
5.5203634
20
164.2238082
40
0.2205286
50
47.4371857
51
75.0698205
0
ARC
8
DEFAULT_255_1_234
10
5.4895029
20
164.1163765
40
0.3322915
50
74.7008593
51
87.8124495
0
ARC
8
DEFAULT_255_1_234
10
5.4821716
20
164.0107844
40
0.4380987
50
87.3814673
51
90.0240855
0
ARC
8
DEFAULT_255_1_234
10
5.4783259
20
164.1285291
40
0.3203749
50
89.3451631
51
108.5745436
0
ARC
8
DEFAULT_255_1_234
10
5.4646365
20
164.1798908
40
0.2673494
50
109.2998449
51
143.3037509
0
ARC
8
DEFAULT_255_1_234
10
5.5408437
20
164.1212881
40
0.3634757
50
143.0753173
51
163.1916937
0
ARC
8
DEFAULT_255_1_234
10
5.7360165
20
164.0596967
40
0.5681262
50
162.9373603
51
174.6208611
0
ARC
8
DEFAULT_255_1_234
10
5.9986207
20
164.030901
40
0.8322832
50
174.3419979
51
180.1430411
0
ARC
8
DEFAULT_255_1_234
10
5.9055363
20
163.9114698
40
0.7392076
50
179.6817502
51
189.150529
0
ARC
8
DEFAULT_255_1_234
10
5.6554611
20
163.869819
40
0.4856932
50
188.9910863
51
203.5773039
0
ARC
8
DEFAULT_255_1_234
10
5.5474944
20
163.8250211
40
0.3688271
50
203.9077269
51
215.1312379
0
ARC
8
DEFAULT_255_1_234
10
5.4552038
20
163.7534941
40
0.2522457
50
213.9071664
51
263.8849284
0
ARC
8
DEFAULT_255_1_234
10
5.4677367
20
163.8319518
40
0.3316174
50
263.1758525
51
270.1031083
0
ARC
8
DEFAULT_255_1_234
10
5.4709459
20
163.9566365
40
0.4563091
50
269.6719807
51
279.0609165
0
ARC
8
DEFAULT_255_1_234
10
5.4976227
20
163.7953907
40
0.2928759
50
278.8750225
51
293.6346586
0
ARC
8
DEFAULT_255_1_234
10
5.5296435
20
163.72019
40
0.2111472
50
293.8553404
51
310.0518804
0
ARC
8
DEFAULT_255_1_234
10
5.5301289
20
163.7139516
40
0.2060917
50
311.0646779
51
332.0108348
0
ARC
8
DEFAULT_255_1_234
10
5.4109016
20
163.7796978
40
0.3422352
50
331.6588543
51
343.2878891
0
ARC
8
DEFAULT_255_1_234
10
5.2046531
20
163.8430798
40
0.5580003
50
343.1446044
51
351.010618
0
ARC
8
DEFAULT_255_1_234
10
5.0505177
20
163.8711871
40
0.7146438
50
350.7157277
51
351.1602153
0
LINE
8
DEFAULT_255_1_234
10
4.2615522
20
169.8514211
11
4.5940662
21
168.8868093
0
LINE
8
DEFAULT_255_1_234
10
4.5940662
20
168.8868093
11
4.9281865
21
169.8514211
0
LINE
8
DEFAULT_255_1_234
10
4.9281865
20
169.8514211
11
5.096853
21
169.8514211
0
LINE
8
DEFAULT_255_1_234
10
5.096853
20
169.8514211
11
4.6631391
21
168.682
0
LINE
8
DEFAULT_255_1_234
10
4.6631391
20
168.682
11
4.5265996
21
168.682
0
LINE
8
DEFAULT_255_1_234
10
4.5265996
20
168.682
11
4.0936889
21
169.8514211
0
LINE
8
DEFAULT_255_1_234
10
4.0936889
20
169.8514211
11
4.2615522
21
169.8514211
0
LINE
8
DEFAULT_255_1_234
10
5.655862
20
169.6506276
11
5.655862
21
169.3092788
0
LINE
8
DEFAULT_255_1_234
10
5.655862
20
169.3092788
11
5.9819505
21
169.3092788
0
LINE
8
DEFAULT_255_1_234
10
5.9819505
20
169.3092788
11
5.9819505
21
169.1687233
0
LINE
8
DEFAULT_255_1_234
10
5.9819505
20
169.1687233
11
5.655862
21
169.1687233
0
LINE
8
DEFAULT_255_1_234
10
5.655862
20
169.1687233
11
5.655862
21
168.7992634
0
LINE
8
DEFAULT_255_1_234
10
5.655862
20
168.7992634
11
5.5064716
21
168.7992634
0
LINE
8
DEFAULT_255_1_234
10
5.5064716
20
168.7992634
11
5.5064716
21
169.1687233
0
LINE
8
DEFAULT_255_1_234
10
5.5064716
20
169.1687233
11
5.1803831
21
169.1687233
0
LINE
8
DEFAULT_255_1_234
10
5.1803831
20
169.1687233
11
5.1803831
21
169.3092788
0
LINE
8
DEFAULT_255_1_234
10
5.1803831
20
169.3092788
11
5.5064716
21
169.3092788
0
LINE
8
DEFAULT_255_1_234
10
5.5064716
20
169.3092788
11
5.5064716
21
169.6506276
0
LINE
8
DEFAULT_255_1_234
10
5.5064716
20
169.6506276
11
5.655862
21
169.6506276
0
LINE
8
DEFAULT_255_1_234
10
24.2598879
20
175.1431211
11
24.2598879
21
173.9737
0
LINE
8
DEFAULT_255_1_234
10
24.2598879
20
173.9737
11
24.1048753
21
173.9737
0
LINE
8
DEFAULT_255_1_234
10
24.1048753
20
173.9737
11
23.5161489
21
174.874861
0
LINE
8
DEFAULT_255_1_234
10
23.5161489
20
174.874861
11
23.5161489
21
173.9737
0
LINE
8
DEFAULT_255_1_234
10
23.5161489
20
173.9737
11
23.3611364
21
173.9737
0
LINE
8
DEFAULT_255_1_234
10
23.3611364
20
173.9737
11
23.3611364
21
175.1431211
0
LINE
8
DEFAULT_255_1_234
10
23.3611364
20
175.1431211
11
23.5161489
21
175.1431211
0
LINE
8
DEFAULT_255_1_234
10
23.5161489
20
175.1431211
11
24.1064817
21
174.2379442
0
LINE
8
DEFAULT_255_1_234
10
24.1064817
20
174.2379442
11
24.1064817
21
175.1431211
0
LINE
8
DEFAULT_255_1_234
10
24.1064817
20
175.1431211
11
24.2598879
21
175.1431211
0
LINE
8
DEFAULT_255_1_234
10
19.926803
20
37.5597211
11
20.111533
21
36.7589568
0
LINE
8
DEFAULT_255_1_234
10
20.111533
20
36.7589568
11
20.1340218
21
36.6047474
0
LINE
8
DEFAULT_255_1_234
10
20.1340218
20
36.6047474
11
20.166952
21
36.7436965
0
LINE
8
DEFAULT_255_1_234
10
20.166952
20
36.7436965
11
20.398266
21
37.5597211
0
LINE
8
DEFAULT_255_1_234
10
20.398266
20
37.5597211
11
20.5283802
21
37.5597211
0
LINE
8
DEFAULT_255_1_234
10
20.5283802
20
37.5597211
11
20.754072
21
36.7436965
0
LINE
8
DEFAULT_255_1_234
10
20.754072
20
36.7436965
11
20.786199
21
36.6023379
0
LINE
8
DEFAULT_255_1_234
10
20.786199
20
36.6023379
11
20.8110974
21
36.75976
0
LINE
8
DEFAULT_255_1_234
10
20.8110974
20
36.75976
11
20.9926146
21
37.5597211
0
LINE
8
DEFAULT_255_1_234
10
20.9926146
20
37.5597211
11
21.1476272
21
37.5597211
0
LINE
8
DEFAULT_255_1_234
10
21.1476272
20
37.5597211
11
20.8641068
21
36.3903
0
LINE
8
DEFAULT_255_1_234
10
20.8641068
20
36.3903
11
20.7235514
21
36.3903
0
LINE
8
DEFAULT_255_1_234
10
20.7235514
20
36.3903
11
20.4825993
21
37.2424674
0
LINE
8
DEFAULT_255_1_234
10
20.4825993
20
37.2424674
11
20.4641263
21
37.3316197
0
LINE
8
DEFAULT_255_1_234
10
20.4641263
20
37.3316197
11
20.4456533
21
37.2424674
0
LINE
8
DEFAULT_255_1_234
10
20.4456533
20
37.2424674
11
20.1958662
21
36.3903
0
LINE
8
DEFAULT_255_1_234
10
20.1958662
20
36.3903
11
20.0553108
21
36.3903
0
LINE
8
DEFAULT_255_1_234
10
20.0553108
20
36.3903
11
19.7725936
21
37.5597211
0
LINE
8
DEFAULT_255_1_234
10
19.7725936
20
37.5597211
11
19.926803
21
37.5597211
0
LINE
8
DEFAULT_255_1_234
10
21.3717127
20
37.5597211
11
21.6753124
21
36.972601
0
LINE
8
DEFAULT_255_1_234
10
21.6753124
20
36.972601
11
21.9805185
21
37.5597211
0
LINE
8
DEFAULT_255_1_234
10
21.9805185
20
37.5597211
11
22.1556104
21
37.5597211
0
LINE
8
DEFAULT_255_1_234
10
22.1556104
20
37.5597211
11
21.7524171
21
36.8264234
0
LINE
8
DEFAULT_255_1_234
10
21.7524171
20
36.8264234
11
21.7524171
21
36.3903
0
LINE
8
DEFAULT_255_1_234
10
21.7524171
20
36.3903
11
21.5982077
21
36.3903
0
LINE
8
DEFAULT_255_1_234
10
21.5982077
20
36.3903
11
21.5982077
21
36.8264234
0
LINE
8
DEFAULT_255_1_234
10
21.5982077
20
36.8264234
11
21.1950145
21
37.5597211
0
LINE
8
DEFAULT_255_1_234
10
21.1950145
20
37.5597211
11
21.3717127
21
37.5597211
0
LINE
8
DEFAULT_255_1_234
10
22.7563844
20
37.5653433
11
22.7563844
21
36.3903
0
LINE
8
DEFAULT_255_1_234
10
22.7563844
20
36.3903
11
22.606994
21
36.3903
0
LINE
8
DEFAULT_255_1_234
10
22.606994
20
36.3903
11
22.606994
21
37.3806133
0
LINE
8
DEFAULT_255_1_234
10
22.606994
20
37.3806133
11
22.3074102
21
37.2705785
0
LINE
8
DEFAULT_255_1_234
10
22.3074102
20
37.2705785
11
22.3074102
21
37.4055117
0
LINE
8
DEFAULT_255_1_234
10
22.3074102
20
37.4055117
11
22.7330923
21
37.5653433
0
LINE
8
DEFAULT_255_1_234
10
22.7330923
20
37.5653433
11
22.7563844
21
37.5653433
0
LINE
8
DEFAULT_255_1_234
10
23.9354436
20
36.7613663
11
24.0904561
21
36.7613663
0
LINE
8
DEFAULT_255_1_234
10
23.1900982
20
36.9203947
11
23.1900982
21
37.0328391
0
LINE
8
DEFAULT_255_1_234
10
24.0904561
20
37.1838357
11
23.9354436
21
37.1838357
0
LINE
8
DEFAULT_255_1_234
10
23.3451108
20
37.0288232
11
23.3451108
21
36.9155757
0
ARC
8
DEFAULT_255_1_234
10
23.5423948
20
36.8210846
40
0.5513052
50
340.1774281
51
353.7814284
0
ARC
8
DEFAULT_255_1_234
10
23.69953
20
36.7625582
40
0.3836379
50
311.4558989
51
340.4421614
0
ARC
8
DEFAULT_255_1_234
10
23.6961969
20
36.7736528
40
0.3941894
50
282.4333181
51
310.7513653
0
ARC
8
DEFAULT_255_1_234
10
23.6522708
20
36.9551679
40
0.5809175
50
269.9358511
51
282.809604
0
ARC
8
DEFAULT_255_1_234
10
23.6470774
20
37.1009212
40
0.7266847
50
270.0021091
51
270.3581957
0
ARC
8
DEFAULT_255_1_234
10
23.6418191
20
36.8408585
40
0.4666519
50
250.7884749
51
270.6489167
0
ARC
8
DEFAULT_255_1_234
10
23.6250025
20
36.7771319
40
0.4009729
50
219.3627325
51
250.0611886
0
ARC
8
DEFAULT_255_1_234
10
23.7079237
20
36.8476042
40
0.5097822
50
193.5479632
51
219.5756669
0
ARC
8
DEFAULT_255_1_234
10
23.9450857
20
36.9091919
40
0.7547848
50
181.1218675
51
193.87563
0
ARC
8
DEFAULT_255_1_234
10
24.1521038
20
36.920258
40
0.9620055
50
179.9918545
51
181.5394234
0
ARC
8
DEFAULT_255_1_234
10
23.967014
20
37.0365788
40
0.7769248
50
169.5837241
51
180.2757934
0
ARC
8
DEFAULT_255_1_234
10
23.7833079
20
37.0705229
40
0.590109
50
155.0365899
51
169.6003176
0
ARC
8
DEFAULT_255_1_234
10
23.6697543
20
37.1252677
40
0.4640625
50
136.783148
51
155.2472683
0
ARC
8
DEFAULT_255_1_234
10
23.6308019
20
37.1583562
40
0.4130255
50
121.7633186
51
136.428115
0
ARC
8
DEFAULT_255_1_234
10
23.6442982
20
37.1334227
40
0.4413323
50
95.6459699
51
121.5490577
0
ARC
8
DEFAULT_255_1_234
10
23.6600263
20
37.0225949
40
0.55319
50
89.924208
51
96.1377933
0
ARC
8
DEFAULT_255_1_234
10
23.6650696
20
37.0344542
40
0.5413475
50
76.6779277
51
90.4563316
0
ARC
8
DEFAULT_255_1_234
10
23.704432
20
37.1935114
40
0.3775041
50
47.485847
51
76.9287264
0
ARC
8
DEFAULT_255_1_234
10
23.6897292
20
37.1835159
40
0.3948286
50
16.5424086
51
46.8933463
0
ARC
8
DEFAULT_255_1_234
10
23.5289449
20
37.1306861
40
0.564021
50
5.4072051
51
17.0365086
0
ARC
8
DEFAULT_255_1_234
10
23.3850467
20
37.1075679
40
0.5556559
50
7.8891745
51
15.9239216
0
ARC
8
DEFAULT_255_1_234
10
23.583748
20
37.1652631
40
0.3487515
50
15.7653144
51
27.9410532
0
ARC
8
DEFAULT_255_1_234
10
23.6941698
20
37.224379
40
0.2235026
50
27.8166557
51
46.4008329
0
ARC
8
DEFAULT_255_1_234
10
23.6991341
20
37.2238082
40
0.2205286
50
47.4371857
51
75.0698205
0
ARC
8
DEFAULT_255_1_234
10
23.6682735
20
37.1163765
40
0.3322915
50
74.7008593
51
87.8124495
0
ARC
8
DEFAULT_255_1_234
10
23.6609423
20
37.0107844
40
0.4380987
50
87.3814673
51
90.0240855
0
ARC
8
DEFAULT_255_1_234
10
23.6570966
20
37.1285291
40
0.3203749
50
89.3451631
51
108.5745436
0
ARC
8
DEFAULT_255_1_234
10
23.6434071
20
37.1798908
40
0.2673494
50
109.2998449
51
143.3037509
0
ARC
8
DEFAULT_255_1_234
10
23.7196144
20
37.1212881
40
0.3634757
50
143.0753173
51
163.1916937
0
ARC
8
DEFAULT_255_1_234
10
23.9147871
20
37.0596967
40
0.5681262
50
162.9373603
51
174.6208611
0
ARC
8
DEFAULT_255_1_234
10
24.1773914
20
37.030901
40
0.8322832
50
174.3419979
51
180.1430411
0
ARC
8
DEFAULT_255_1_234
10
24.084307
20
36.9114698
40
0.7392076
50
179.6817502
51
189.150529
0
ARC
8
DEFAULT_255_1_234
10
23.8342318
20
36.869819
40
0.4856932
50
188.9910863
51
203.5773039
0
ARC
8
DEFAULT_255_1_234
10
23.7262651
20
36.8250211
40
0.3688271
50
203.9077269
51
215.1312379
0
ARC
8
DEFAULT_255_1_234
10
23.6339744
20
36.7534941
40
0.2522457
50
213.9071664
51
263.8849284
0
ARC
8
DEFAULT_255_1_234
10
23.6465074
20
36.8319518
40
0.3316174
50
263.1758525
51
270.1031083
0
ARC
8
DEFAULT_255_1_234
10
23.6497165
20
36.9566365
40
0.4563091
50
269.6719807
51
279.0609165
0
ARC
8
DEFAULT_255_1_234
10
23.6763933
20
36.7953907
40
0.2928759
50
278.8750225
51
293.6346586
0
ARC
8
DEFAULT_255_1_234
10
23.7084142
20
36.72019
40
0.2111472
50
293.8553404
51
310.0518804
0
ARC
8
DEFAULT_255_1_234
10
23.7088995
20
36.7139516
40
0.2060917
50
311.0646779
51
332.0108348
0
ARC
8
DEFAULT_255_1_234
10
23.5896722
20
36.7796978
40
0.3422352
50
331.6588543
51
343.2878891
0
ARC
8
DEFAULT_255_1_234
10
23.3834237
20
36.8430798
40
0.5580003
50
343.1446044
51
351.010618
0
ARC
8
DEFAULT_255_1_234
10
23.2292883
20
36.8711871
40
0.7146438
50
350.7157277
51
351.1602153
0
LINE
8
DEFAULT_255_1_234
10
21.096903
20
42.8514211
11
21.281633
21
42.0506568
0
LINE
8
DEFAULT_255_1_234
10
21.281633
20
42.0506568
11
21.3041218
21
41.8964474
0
LINE
8
DEFAULT_255_1_234
10
21.3041218
20
41.8964474
11
21.337052
21
42.0353965
0
LINE
8
DEFAULT_255_1_234
10
21.337052
20
42.0353965
11
21.568366
21
42.8514211
0
LINE
8
DEFAULT_255_1_234
10
21.568366
20
42.8514211
11
21.6984802
21
42.8514211
0
LINE
8
DEFAULT_255_1_234
10
21.6984802
20
42.8514211
11
21.924172
21
42.0353965
0
LINE
8
DEFAULT_255_1_234
10
21.924172
20
42.0353965
11
21.956299
21
41.8940379
0
LINE
8
DEFAULT_255_1_234
10
21.956299
20
41.8940379
11
21.9811974
21
42.05146
0
LINE
8
DEFAULT_255_1_234
10
21.9811974
20
42.05146
11
22.1627146
21
42.8514211
0
LINE
8
DEFAULT_255_1_234
10
22.1627146
20
42.8514211
11
22.3177272
21
42.8514211
0
LINE
8
DEFAULT_255_1_234
10
22.3177272
20
42.8514211
11
22.0342068
21
41.682
0
LINE
8
DEFAULT_255_1_234
10
22.0342068
20
41.682
11
21.8936514
21
41.682
0
LINE
8
DEFAULT_255_1_234
10
21.8936514
20
41.682
11
21.6526993
21
42.5341674
0
LINE
8
DEFAULT_255_1_234
10
21.6526993
20
42.5341674
11
21.6342263
21
42.6233197
0
LINE
8
DEFAULT_255_1_234
10
21.6342263
20
42.6233197
11
21.6157533
21
42.5341674
0
LINE
8
DEFAULT_255_1_234
10
21.6157533
20
42.5341674
11
21.3659662
21
41.682
0
LINE
8
DEFAULT_255_1_234
10
21.3659662
20
41.682
11
21.2254108
21
41.682
0
LINE
8
DEFAULT_255_1_234
10
21.2254108
20
41.682
11
20.9426936
21
42.8514211
0
LINE
8
DEFAULT_255_1_234
10
20.9426936
20
42.8514211
11
21.096903
21
42.8514211
0
LINE
8
DEFAULT_255_1_234
10
22.5418127
20
42.8514211
11
22.8454124
21
42.264301
0
LINE
8
DEFAULT_255_1_234
10
22.8454124
20
42.264301
11
23.1506185
21
42.8514211
0
LINE
8
DEFAULT_255_1_234
10
23.1506185
20
42.8514211
11
23.3257104
21
42.8514211
0
LINE
8
DEFAULT_255_1_234
10
23.3257104
20
42.8514211
11
22.9225171
21
42.1181234
0
LINE
8
DEFAULT_255_1_234
10
22.9225171
20
42.1181234
11
22.9225171
21
41.682
0
LINE
8
DEFAULT_255_1_234
10
22.9225171
20
41.682
11
22.7683077
21
41.682
0
LINE
8
DEFAULT_255_1_234
10
22.7683077
20
41.682
11
22.7683077
21
42.1181234
0
LINE
8
DEFAULT_255_1_234
10
22.7683077
20
42.1181234
11
22.3651145
21
42.8514211
0
LINE
8
DEFAULT_255_1_234
10
22.3651145
20
42.8514211
11
22.5418127
21
42.8514211
0
LINE
8
DEFAULT_255_1_234
10
23.9264844
20
42.8570433
11
23.9264844
21
41.682
0
LINE
8
DEFAULT_255_1_234
10
23.9264844
20
41.682
11
23.777094
21
41.682
0
LINE
8
DEFAULT_255_1_234
10
23.777094
20
41.682
11
23.777094
21
42.6723133
0
LINE
8
DEFAULT_255_1_234
10
23.777094
20
42.6723133
11
23.4775102
21
42.5622785
0
LINE
8
DEFAULT_255_1_234
10
23.4775102
20
42.5622785
11
23.4775102
21
42.6972117
0
LINE
8
DEFAULT_255_1_234
10
23.4775102
20
42.6972117
11
23.9031923
21
42.8570433
0
LINE
8
DEFAULT_255_1_234
10
23.9031923
20
42.8570433
11
23.9264844
21
42.8570433
0
LINE
8
DEFAULT_255_1_234
10
19.926803
20
48.1431211
11
20.111533
21
47.3423568
0
LINE
8
DEFAULT_255_1_234
10
20.111533
20
47.3423568
11
20.1340218
21
47.1881474
0
LINE
8
DEFAULT_255_1_234
10
20.1340218
20
47.1881474
11
20.166952
21
47.3270965
0
LINE
8
DEFAULT_255_1_234
10
20.166952
20
47.3270965
11
20.398266
21
48.1431211
0
LINE
8
DEFAULT_255_1_234
10
20.398266
20
48.1431211
11
20.5283802
21
48.1431211
0
LINE
8
DEFAULT_255_1_234
10
20.5283802
20
48.1431211
11
20.754072
21
47.3270965
0
LINE
8
DEFAULT_255_1_234
10
20.754072
20
47.3270965
11
20.786199
21
47.1857379
0
LINE
8
DEFAULT_255_1_234
10
20.786199
20
47.1857379
11
20.8110974
21
47.34316
0
LINE
8
DEFAULT_255_1_234
10
20.8110974
20
47.34316
11
20.9926146
21
48.1431211
0
LINE
8
DEFAULT_255_1_234
10
20.9926146
20
48.1431211
11
21.1476272
21
48.1431211
0
LINE
8
DEFAULT_255_1_234
10
21.1476272
20
48.1431211
11
20.8641068
21
46.9737
0
LINE
8
DEFAULT_255_1_234
10
20.8641068
20
46.9737
11
20.7235514
21
46.9737
0
LINE
8
DEFAULT_255_1_234
10
20.7235514
20
46.9737
11
20.4825993
21
47.8258674
0
LINE
8
DEFAULT_255_1_234
10
20.4825993
20
47.8258674
11
20.4641263
21
47.9150197
0
LINE
8
DEFAULT_255_1_234
10
20.4641263
20
47.9150197
11
20.4456533
21
47.8258674
0
LINE
8
DEFAULT_255_1_234
10
20.4456533
20
47.8258674
11
20.1958662
21
46.9737
0
LINE
8
DEFAULT_255_1_234
10
20.1958662
20
46.9737
11
20.0553108
21
46.9737
0
LINE
8
DEFAULT_255_1_234
10
20.0553108
20
46.9737
11
19.7725936
21
48.1431211
0
LINE
8
DEFAULT_255_1_234
10
19.7725936
20
48.1431211
11
19.926803
21
48.1431211
0
LINE
8
DEFAULT_255_1_234
10
21.3717127
20
48.1431211
11
21.6753124
21
47.556001
0
LINE
8
DEFAULT_255_1_234
10
21.6753124
20
47.556001
11
21.9805185
21
48.1431211
0
LINE
8
DEFAULT_255_1_234
10
21.9805185
20
48.1431211
11
22.1556104
21
48.1431211
0
LINE
8
DEFAULT_255_1_234
10
22.1556104
20
48.1431211
11
21.7524171
21
47.4098234
0
LINE
8
DEFAULT_255_1_234
10
21.7524171
20
47.4098234
11
21.7524171
21
46.9737
0
LINE
8
DEFAULT_255_1_234
10
21.7524171
20
46.9737
11
21.5982077
21
46.9737
0
LINE
8
DEFAULT_255_1_234
10
21.5982077
20
46.9737
11
21.5982077
21
47.4098234
0
LINE
8
DEFAULT_255_1_234
10
21.5982077
20
47.4098234
11
21.1950145
21
48.1431211
0
LINE
8
DEFAULT_255_1_234
10
21.1950145
20
48.1431211
11
21.3717127
21
48.1431211
0
LINE
8
DEFAULT_255_1_234
10
22.7563844
20
48.1487433
11
22.7563844
21
46.9737
0
LINE
8
DEFAULT_255_1_234
10
22.7563844
20
46.9737
11
22.606994
21
46.9737
0
LINE
8
DEFAULT_255_1_234
10
22.606994
20
46.9737
11
22.606994
21
47.9640133
0
LINE
8
DEFAULT_255_1_234
10
22.606994
20
47.9640133
11
22.3074102
21
47.8539785
0
LINE
8
DEFAULT_255_1_234
10
22.3074102
20
47.8539785
11
22.3074102
21
47.9889117
0
LINE
8
DEFAULT_255_1_234
10
22.3074102
20
47.9889117
11
22.7330923
21
48.1487433
0
LINE
8
DEFAULT_255_1_234
10
22.7330923
20
48.1487433
11
22.7563844
21
48.1487433
0
LINE
8
DEFAULT_255_1_234
10
23.9354436
20
47.3447663
11
24.0904561
21
47.3447663
0
LINE
8
DEFAULT_255_1_234
10
23.1900982
20
47.5037947
11
23.1900982
21
47.6162391
0
LINE
8
DEFAULT_255_1_234
10
24.0904561
20
47.7672357
11
23.9354436
21
47.7672357
0
LINE
8
DEFAULT_255_1_234
10
23.3451108
20
47.6122232
11
23.3451108
21
47.4989757
0
ARC
8
DEFAULT_255_1_234
10
23.5423948
20
47.4044846
40
0.5513052
50
340.1774281
51
353.7814284
0
ARC
8
DEFAULT_255_1_234
10
23.69953
20
47.3459582
40
0.3836379
50
311.4558989
51
340.4421614
0
ARC
8
DEFAULT_255_1_234
10
23.6961969
20
47.3570528
40
0.3941894
50
282.4333181
51
310.7513653
0
ARC
8
DEFAULT_255_1_234
10
23.6522708
20
47.5385679
40
0.5809175
50
269.9358511
51
282.809604
0
ARC
8
DEFAULT_255_1_234
10
23.6470774
20
47.6843212
40
0.7266847
50
270.0021091
51
270.3581957
0
ARC
8
DEFAULT_255_1_234
10
23.6418191
20
47.4242585
40
0.4666519
50
250.7884749
51
270.6489167
0
ARC
8
DEFAULT_255_1_234
10
23.6250025
20
47.3605319
40
0.4009729
50
219.3627325
51
250.0611886
0
ARC
8
DEFAULT_255_1_234
10
23.7079237
20
47.4310042
40
0.5097822
50
193.5479632
51
219.5756669
0
ARC
8
DEFAULT_255_1_234
10
23.9450857
20
47.4925919
40
0.7547848
50
181.1218675
51
193.87563
0
ARC
8
DEFAULT_255_1_234
10
24.1521038
20
47.503658
40
0.9620055
50
179.9918545
51
181.5394234
0
ARC
8
DEFAULT_255_1_234
10
23.967014
20
47.6199788
40
0.7769248
50
169.5837241
51
180.2757934
0
ARC
8
DEFAULT_255_1_234
10
23.7833079
20
47.6539229
40
0.590109
50
155.0365899
51
169.6003176
0
ARC
8
DEFAULT_255_1_234
10
23.6697543
20
47.7086677
40
0.4640625
50
136.783148
51
155.2472683
0
ARC
8
DEFAULT_255_1_234
10
23.6308019
20
47.7417562
40
0.4130255
50
121.7633186
51
136.428115
0
ARC
8
DEFAULT_255_1_234
10
23.6442982
20
47.7168227
40
0.4413323
50
95.6459699
51
121.5490577
0
ARC
8
DEFAULT_255_1_234
10
23.6600263
20
47.6059949
40
0.55319
50
89.924208
51
96.1377933
0
ARC
8
DEFAULT_255_1_234
10
23.6650696
20
47.6178542
40
0.5413475
50
76.6779277
51
90.4563316
0
ARC
8
DEFAULT_255_1_234
10
23.704432
20
47.7769114
40
0.3775041
50
47.485847
51
76.9287264
0
ARC
8
DEFAULT_255_1_234
10
23.6897292
20
47.7669159
40
0.3948286
50
16.5424086
51
46.8933463
0
ARC
8
DEFAULT_255_1_234
10
23.5289449
20
47.7140861
40
0.564021
50
5.4072051
51
17.0365086
0
ARC
8
DEFAULT_255_1_234
10
23.3850467
20
47.6909679
40
0.5556559
50
7.8891745
51
15.9239216
0
ARC
8
DEFAULT_255_1_234
10
23.583748
20
47.7486631
40
0.3487515
50
15.7653144
51
27.9410532
0
ARC
8
DEFAULT_255_1_234
10
23.6941698
20
47.807779
40
0.2235026
50
27.8166557
51
46.4008329
0
ARC
8
DEFAULT_255_1_234
10
23.6991341
20
47.8072082
40
0.2205286
50
47.4371857
51
75.0698205
0
ARC
8
DEFAULT_255_1_234
10
23.6682735
20
47.6997765
40
0.3322915
50
74.7008593
51
87.8124495
0
ARC
8
DEFAULT_255_1_234
10
23.6609423
20
47.5941844
40
0.4380987
50
87.3814673
51
90.0240855
0
ARC
8
DEFAULT_255_1_234
10
23.6570966
20
47.7119291
40
0.3203749
50
89.3451631
51
108.5745436
0
ARC
8
DEFAULT_255_1_234
10
23.6434071
20
47.7632908
40
0.2673494
50
109.2998449
51
143.3037509
0
ARC
8
DEFAULT_255_1_234
10
23.7196144
20
47.7046881
40
0.3634757
50
143.0753173
51
163.1916937
0
ARC
8
DEFAULT_255_1_234
10
23.9147871
20
47.6430967
40
0.5681262
50
162.9373603
51
174.6208611
0
ARC
8
DEFAULT_255_1_234
10
24.1773914
20
47.614301
40
0.8322832
50
174.3419979
51
180.1430411
0
ARC
8
DEFAULT_255_1_234
10
24.084307
20
47.4948698
40
0.7392076
50
179.6817502
51
189.150529
0
ARC
8
DEFAULT_255_1_234
10
23.8342318
20
47.453219
40
0.4856932
50
188.9910863
51
203.5773039
0
ARC
8
DEFAULT_255_1_234
10
23.7262651
20
47.4084211
40
0.3688271
50
203.9077269
51
215.1312379
0
ARC
8
DEFAULT_255_1_234
10
23.6339744
20
47.3368941
40
0.2522457
50
213.9071664
51
263.8849284
0
ARC
8
DEFAULT_255_1_234
10
23.6465074
20
47.4153518
40
0.3316174
50
263.1758525
51
270.1031083
0
ARC
8
DEFAULT_255_1_234
10
23.6497165
20
47.5400365
40
0.4563091
50
269.6719807
51
279.0609165
0
ARC
8
DEFAULT_255_1_234
10
23.6763933
20
47.3787907
40
0.2928759
50
278.8750225
51
293.6346586
0
ARC
8
DEFAULT_255_1_234
10
23.7084142
20
47.30359
40
0.2111472
50
293.8553404
51
310.0518804
0
ARC
8
DEFAULT_255_1_234
10
23.7088995
20
47.2973516
40
0.2060917
50
311.0646779
51
332.0108348
0
ARC
8
DEFAULT_255_1_234
10
23.5896722
20
47.3630978
40
0.3422352
50
331.6588543
51
343.2878891
0
ARC
8
DEFAULT_255_1_234
10
23.3834237
20
47.4264798
40
0.5580003
50
343.1446044
51
351.010618
0
ARC
8
DEFAULT_255_1_234
10
23.2292883
20
47.4545871
40
0.7146438
50
350.7157277
51
351.1602153
0
LINE
8
DEFAULT_255_1_234
10
21.088403
20
53.4347211
11
21.273133
21
52.6339568
0
LINE
8
DEFAULT_255_1_234
10
21.273133
20
52.6339568
11
21.2956218
21
52.4797474
0
LINE
8
DEFAULT_255_1_234
10
21.2956218
20
52.4797474
11
21.328552
21
52.6186965
0
LINE
8
DEFAULT_255_1_234
10
21.328552
20
52.6186965
11
21.559866
21
53.4347211
0
LINE
8
DEFAULT_255_1_234
10
21.559866
20
53.4347211
11
21.6899802
21
53.4347211
0
LINE
8
DEFAULT_255_1_234
10
21.6899802
20
53.4347211
11
21.915672
21
52.6186965
0
LINE
8
DEFAULT_255_1_234
10
21.915672
20
52.6186965
11
21.947799
21
52.4773379
0
LINE
8
DEFAULT_255_1_234
10
21.947799
20
52.4773379
11
21.9726974
21
52.63476
0
LINE
8
DEFAULT_255_1_234
10
21.9726974
20
52.63476
11
22.1542146
21
53.4347211
0
LINE
8
DEFAULT_255_1_234
10
22.1542146
20
53.4347211
11
22.3092272
21
53.4347211
0
LINE
8
DEFAULT_255_1_234
10
22.3092272
20
53.4347211
11
22.0257068
21
52.2653
0
LINE
8
DEFAULT_255_1_234
10
22.0257068
20
52.2653
11
21.8851514
21
52.2653
0
LINE
8
DEFAULT_255_1_234
10
21.8851514
20
52.2653
11
21.6441993
21
53.1174674
0
LINE
8
DEFAULT_255_1_234
10
21.6441993
20
53.1174674
11
21.6257263
21
53.2066197
0
LINE
8
DEFAULT_255_1_234
10
21.6257263
20
53.2066197
11
21.6072533
21
53.1174674
0
LINE
8
DEFAULT_255_1_234
10
21.6072533
20
53.1174674
11
21.3574662
21
52.2653
0
LINE
8
DEFAULT_255_1_234
10
21.3574662
20
52.2653
11
21.2169108
21
52.2653
0
LINE
8
DEFAULT_255_1_234
10
21.2169108
20
52.2653
11
20.9341936
21
53.4347211
0
LINE
8
DEFAULT_255_1_234
10
20.9341936
20
53.4347211
11
21.088403
21
53.4347211
0
LINE
8
DEFAULT_255_1_234
10
22.5333127
20
53.4347211
11
22.8369124
21
52.847601
0
LINE
8
DEFAULT_255_1_234
10
22.8369124
20
52.847601
11
23.1421185
21
53.4347211
0
LINE
8
DEFAULT_255_1_234
10
23.1421185
20
53.4347211
11
23.3172104
21
53.4347211
0
LINE
8
DEFAULT_255_1_234
10
23.3172104
20
53.4347211
11
22.9140171
21
52.7014234
0
LINE
8
DEFAULT_255_1_234
10
22.9140171
20
52.7014234
11
22.9140171
21
52.2653
0
LINE
8
DEFAULT_255_1_234
10
22.9140171
20
52.2653
11
22.7598077
21
52.2653
0
LINE
8
DEFAULT_255_1_234
10
22.7598077
20
52.2653
11
22.7598077
21
52.7014234
0
LINE
8
DEFAULT_255_1_234
10
22.7598077
20
52.7014234
11
22.3566145
21
53.4347211
0
LINE
8
DEFAULT_255_1_234
10
22.3566145
20
53.4347211
11
22.5333127
21
53.4347211
0
LINE
8
DEFAULT_255_1_234
10
24.1629524
20
52.9568327
11
24.1629524
21
52.7640709
0
LINE
8
DEFAULT_255_1_234
10
23.4248356
20
52.7439916
11
23.4248356
21
52.9423755
0
LINE
8
DEFAULT_255_1_234
10
24.0143652
20
52.7239123
11
24.0143652
21
52.9672739
0
LINE
8
DEFAULT_255_1_234
10
23.5734228
20
52.9785184
11
23.5734228
21
52.7407789
0
ARC
8
DEFAULT_255_1_234
10
22.9382413
20
52.7591805
40
1.2247208
50
353.8441951
51
0.2287902
0
ARC
8
DEFAULT_255_1_234
10
23.4021917
20
52.7073806
40
0.7578929
50
344.4934747
51
353.9765454
0
ARC
8
DEFAULT_255_1_234
10
23.7014507
20
52.6222981
40
0.4467846
50
329.2803592
51
344.7472793
0
ARC
8
DEFAULT_255_1_234
10
23.8007332
20
52.5678018
40
0.3336173
50
324.9352394
51
328.6160465
0
ARC
8
DEFAULT_255_1_234
10
23.8384441
20
52.5414427
40
0.2876076
50
280.580143
51
324.9173126
0
ARC
8
DEFAULT_255_1_234
10
23.7983234
20
52.7085099
40
0.4592847
50
269.5977311
51
281.6734359
0
ARC
8
DEFAULT_255_1_234
10
23.7911139
20
52.6965173
40
0.4472986
50
256.6228859
51
270.51044
0
ARC
8
DEFAULT_255_1_234
10
23.7509117
20
52.5416877
40
0.2873874
50
215.8618325
51
257.2788573
0
ARC
8
DEFAULT_255_1_234
10
23.8530149
20
52.6101977
40
0.4102928
50
197.9693508
51
215.2623606
0
ARC
8
DEFAULT_255_1_234
10
24.1015264
20
52.6940709
40
0.6725652
50
187.8816417
51
198.2346507
0
ARC
8
DEFAULT_255_1_234
10
24.4973472
20
52.7512079
40
1.0724845
50
180.8976217
51
188.0055519
0
ARC
8
DEFAULT_255_1_234
10
24.7773661
20
52.7615777
40
1.3526448
50
180.7449369
51
181.1510016
0
ARC
8
DEFAULT_255_1_234
10
24.619639
20
52.9472042
40
1.1948131
50
173.7675579
51
180.231553
0
ARC
8
DEFAULT_255_1_234
10
24.1678536
20
52.9982666
40
0.7401564
50
164.3058563
51
173.9002247
0
ARC
8
DEFAULT_255_1_234
10
23.8766605
20
53.0821656
40
0.4371288
50
148.7922025
51
164.568378
0
ARC
8
DEFAULT_255_1_234
10
23.7815057
20
53.1352929
40
0.3282386
50
144.5883898
51
148.1176286
0
ARC
8
DEFAULT_255_1_234
10
23.7471955
20
53.1592315
40
0.2864044
50
101.6440918
51
144.514236
0
ARC
8
DEFAULT_255_1_234
10
23.7897022
20
52.9903069
40
0.4604934
50
89.5284041
51
102.5819763
0
ARC
8
DEFAULT_255_1_234
10
23.797611
20
52.9864018
40
0.464401
50
77.0437873
51
90.5081339
0
ARC
8
DEFAULT_255_1_234
10
23.8378111
20
53.1506615
40
0.2953195
50
48.2778575
51
77.4994676
0
ARC
8
DEFAULT_255_1_234
10
23.8450743
20
53.1635746
40
0.2808655
50
36.3142134
51
47.6305865
0
ARC
8
DEFAULT_255_1_234
10
23.758205
20
53.1050515
40
0.3855453
50
18.2931786
51
35.6769206
0
ARC
8
DEFAULT_255_1_234
10
23.5038808
20
53.0177593
40
0.654423
50
8.024666
51
18.5605216
0
ARC
8
DEFAULT_255_1_234
10
23.0875729
20
52.9562792
40
1.0752407
50
1.1274072
51
8.1718305
0
ARC
8
DEFAULT_255_1_234
10
22.7639919
20
52.9435885
40
1.3990231
50
0.5424119
51
1.3863029
0
ARC
8
DEFAULT_255_1_234
10
22.9461297
20
52.9708342
40
1.0682415
50
359.8090433
51
4.9407866
0
ARC
8
DEFAULT_255_1_234
10
23.3671311
20
53.0084113
40
0.6455691
50
4.8362157
51
12.2904523
0
ARC
8
DEFAULT_255_1_234
10
23.6426426
20
53.0697965
40
0.3633074
50
12.0805627
51
23.8173984
0
ARC
8
DEFAULT_255_1_234
10
23.7600131
20
53.1194919
40
0.2358723
50
24.2871213
51
31.3935614
0
ARC
8
DEFAULT_255_1_234
10
23.8124828
20
53.1538233
40
0.1732111
50
30.7407893
51
82.4657128
0
ARC
8
DEFAULT_255_1_234
10
23.7944963
20
53.0654691
40
0.263235
50
81.1060089
51
90.2184952
0
ARC
8
DEFAULT_255_1_234
10
23.7909262
20
53.0912924
40
0.2374236
50
89.3806855
51
105.6762551
0
ARC
8
DEFAULT_255_1_234
10
23.7725892
20
53.1579567
40
0.1682847
50
105.7981136
51
149.7388061
0
ARC
8
DEFAULT_255_1_234
10
23.878997
20
53.093995
40
0.2924306
50
149.4208916
51
163.6286378
0
ARC
8
DEFAULT_255_1_234
10
24.0880859
20
53.030225
40
0.5110213
50
163.3763315
51
172.1410975
0
ARC
8
DEFAULT_255_1_234
10
24.4181577
20
52.9829518
40
0.8444586
50
172.0259487
51
178.0703232
0
ARC
8
DEFAULT_255_1_234
10
24.7211667
20
52.9685906
40
1.1477868
50
177.8631668
51
179.5044149
0
ARC
8
DEFAULT_255_1_234
10
24.6139071
20
52.7371389
40
1.0404907
50
179.7995573
51
185.2460446
0
ARC
8
DEFAULT_255_1_234
10
24.2096111
20
52.6988513
40
0.6343885
50
185.1411642
51
193.0079639
0
ARC
8
DEFAULT_255_1_234
10
23.9452583
20
52.6363641
40
0.3627568
50
192.7897626
51
205.2507664
0
ARC
8
DEFAULT_255_1_234
10
23.840613
20
52.5896415
40
0.2481908
50
205.8005384
51
211.2537509
0
ARC
8
DEFAULT_255_1_234
10
23.7882571
20
52.554558
40
0.1852521
50
210.3789793
51
238.4008143
0
ARC
8
DEFAULT_255_1_234
10
23.7863093
20
52.5592376
40
0.1882621
50
239.6520629
51
265.9793761
0
ARC
8
DEFAULT_255_1_234
10
23.7948293
20
52.6264427
40
0.2559272
50
265.1315437
51
270.060332
0
ARC
8
DEFAULT_255_1_234
10
23.7977072
20
52.5940534
40
0.2235528
50
269.3314664
51
287.2178029
0
ARC
8
DEFAULT_255_1_234
10
23.8114924
20
52.5437279
40
0.1714108
50
287.7958004
51
329.080874
0
ARC
8
DEFAULT_255_1_234
10
23.715738
20
52.603493
40
0.2842745
50
328.6634704
51
343.3325132
0
ARC
8
DEFAULT_255_1_234
10
23.49844
20
52.6711863
40
0.5118644
50
343.0499468
51
351.9393422
0
ARC
8
DEFAULT_255_1_234
10
23.15177
20
52.7222949
40
0.8622784
50
351.8069023
51
357.7959224
0
ARC
8
DEFAULT_255_1_234
10
22.8282256
20
52.7390721
40
1.1862365
50
357.5871873
51
359.2677531
0
LINE
8
DEFAULT_255_1_234
10
22.9072137
20
58.7320433
11
22.9072137
21
57.557
0
LINE
8
DEFAULT_255_1_234
10
22.9072137
20
57.557
11
22.7578234
21
57.557
0
LINE
8
DEFAULT_255_1_234
10
22.7578234
20
57.557
11
22.7578234
21
58.5473133
0
LINE
8
DEFAULT_255_1_234
10
22.7578234
20
58.5473133
11
22.4582396
21
58.4372785
0
LINE
8
DEFAULT_255_1_234
10
22.4582396
20
58.4372785
11
22.4582396
21
58.5722117
0
LINE
8
DEFAULT_255_1_234
10
22.4582396
20
58.5722117
11
22.8839217
21
58.7320433
0
LINE
8
DEFAULT_255_1_234
10
22.8839217
20
58.7320433
11
22.9072137
21
58.7320433
0
LINE
8
DEFAULT_255_1_234
10
24.0862729
20
57.9280663
11
24.2412854
21
57.9280663
0
LINE
8
DEFAULT_255_1_234
10
23.3409276
20
58.0870947
11
23.3409276
21
58.1995391
0
LINE
8
DEFAULT_255_1_234
10
24.2412854
20
58.3505357
11
24.0862729
21
58.3505357
0
LINE
8
DEFAULT_255_1_234
10
23.4959401
20
58.1955232
11
23.4959401
21
58.0822757
0
ARC
8
DEFAULT_255_1_234
10
23.6932241
20
57.9877846
40
0.5513052
50
340.1774281
51
353.7814284
0
ARC
8
DEFAULT_255_1_234
10
23.8503594
20
57.9292582
40
0.3836379
50
311.4558989
51
340.4421614
0
ARC
8
DEFAULT_255_1_234
10
23.8470262
20
57.9403528
40
0.3941894
50
282.4333181
51
310.7513653
0
ARC
8
DEFAULT_255_1_234
10
23.8031001
20
58.1218679
40
0.5809175
50
269.9358511
51
282.809604
0
ARC
8
DEFAULT_255_1_234
10
23.7979067
20
58.2676212
40
0.7266847
50
270.0021091
51
270.3581957
0
ARC
8
DEFAULT_255_1_234
10
23.7926484
20
58.0075585
40
0.4666519
50
250.7884749
51
270.6489167
0
ARC
8
DEFAULT_255_1_234
10
23.7758319
20
57.9438319
40
0.4009729
50
219.3627325
51
250.0611886
0
ARC
8
DEFAULT_255_1_234
10
23.858753
20
58.0143042
40
0.5097822
50
193.5479632
51
219.5756669
0
ARC
8
DEFAULT_255_1_234
10
24.0959151
20
58.0758919
40
0.7547848
50
181.1218675
51
193.87563
0
ARC
8
DEFAULT_255_1_234
10
24.3029332
20
58.086958
40
0.9620055
50
179.9918545
51
181.5394234
0
ARC
8
DEFAULT_255_1_234
10
24.1178434
20
58.2032788
40
0.7769248
50
169.5837241
51
180.2757934
0
ARC
8
DEFAULT_255_1_234
10
23.9341372
20
58.2372229
40
0.590109
50
155.0365899
51
169.6003176
0
ARC
8
DEFAULT_255_1_234
10
23.8205836
20
58.2919677
40
0.4640625
50
136.783148
51
155.2472683
0
ARC
8
DEFAULT_255_1_234
10
23.7816313
20
58.3250562
40
0.4130255
50
121.7633186
51
136.428115
0
ARC
8
DEFAULT_255_1_234
10
23.7951275
20
58.3001227
40
0.4413323
50
95.6459699
51
121.5490577
0
ARC
8
DEFAULT_255_1_234
10
23.8108557
20
58.1892949
40
0.55319
50
89.924208
51
96.1377933
0
ARC
8
DEFAULT_255_1_234
10
23.815899
20
58.2011542
40
0.5413475
50
76.6779277
51
90.4563316
0
ARC
8
DEFAULT_255_1_234
10
23.8552613
20
58.3602114
40
0.3775041
50
47.485847
51
76.9287264
0
ARC
8
DEFAULT_255_1_234
10
23.8405586
20
58.3502159
40
0.3948286
50
16.5424086
51
46.8933463
0
ARC
8
DEFAULT_255_1_234
10
23.6797743
20
58.2973861
40
0.564021
50
5.4072051
51
17.0365086
0
ARC
8
DEFAULT_255_1_234
10
23.535876
20
58.2742679
40
0.5556559
50
7.8891745
51
15.9239216
0
ARC
8
DEFAULT_255_1_234
10
23.7345773
20
58.3319631
40
0.3487515
50
15.7653144
51
27.9410532
0
ARC
8
DEFAULT_255_1_234
10
23.8449991
20
58.391079
40
0.2235026
50
27.8166557
51
46.4008329
0
ARC
8
DEFAULT_255_1_234
10
23.8499634
20
58.3905082
40
0.2205286
50
47.4371857
51
75.0698205
0
ARC
8
DEFAULT_255_1_234
10
23.8191029
20
58.2830765
40
0.3322915
50
74.7008593
51
87.8124495
0
ARC
8
DEFAULT_255_1_234
10
23.8117716
20
58.1774844
40
0.4380987
50
87.3814673
51
90.0240855
0
ARC
8
DEFAULT_255_1_234
10
23.8079259
20
58.2952291
40
0.3203749
50
89.3451631
51
108.5745436
0
ARC
8
DEFAULT_255_1_234
10
23.7942365
20
58.3465908
40
0.2673494
50
109.2998449
51
143.3037509
0
ARC
8
DEFAULT_255_1_234
10
23.8704437
20
58.2879881
40
0.3634757
50
143.0753173
51
163.1916937
0
ARC
8
DEFAULT_255_1_234
10
24.0656165
20
58.2263967
40
0.5681262
50
162.9373603
51
174.6208611
0
ARC
8
DEFAULT_255_1_234
10
24.3282207
20
58.197601
40
0.8322832
50
174.3419979
51
180.1430411
0
ARC
8
DEFAULT_255_1_234
10
24.2351363
20
58.0781698
40
0.7392076
50
179.6817502
51
189.150529
0
ARC
8
DEFAULT_255_1_234
10
23.9850611
20
58.036519
40
0.4856932
50
188.9910863
51
203.5773039
0
ARC
8
DEFAULT_255_1_234
10
23.8770944
20
57.9917211
40
0.3688271
50
203.9077269
51
215.1312379
0
ARC
8
DEFAULT_255_1_234
10
23.7848038
20
57.9201941
40
0.2522457
50
213.9071664
51
263.8849284
0
ARC
8
DEFAULT_255_1_234
10
23.7973367
20
57.9986518
40
0.3316174
50
263.1758525
51
270.1031083
0
ARC
8
DEFAULT_255_1_234
10
23.8005459
20
58.1233365
40
0.4563091
50
269.6719807
51
279.0609165
0
ARC
8
DEFAULT_255_1_234
10
23.8272227
20
57.9620907
40
0.2928759
50
278.8750225
51
293.6346586
0
ARC
8
DEFAULT_255_1_234
10
23.8592435
20
57.88689
40
0.2111472
50
293.8553404
51
310.0518804
0
ARC
8
DEFAULT_255_1_234
10
23.8597289
20
57.8806516
40
0.2060917
50
311.0646779
51
332.0108348
0
ARC
8
DEFAULT_255_1_234
10
23.7405016
20
57.9463978
40
0.3422352
50
331.6588543
51
343.2878891
0
ARC
8
DEFAULT_255_1_234
10
23.5342531
20
58.0097798
40
0.5580003
50
343.1446044
51
351.010618
0
ARC
8
DEFAULT_255_1_234
10
23.3801177
20
58.0378871
40
0.7146438
50
350.7157277
51
351.1602153
0
LINE
8
DEFAULT_255_1_234
10
21.5343458
20
64.0181211
11
21.8379456
21
63.431001
0
LINE
8
DEFAULT_255_1_234
10
21.8379456
20
63.431001
11
22.1431516
21
64.0181211
0
LINE
8
DEFAULT_255_1_234
10
22.1431516
20
64.0181211
11
22.3182435
21
64.0181211
0
LINE
8
DEFAULT_255_1_234
10
22.3182435
20
64.0181211
11
21.9150502
21
63.2848234
0
LINE
8
DEFAULT_255_1_234
10
21.9150502
20
63.2848234
11
21.9150502
21
62.8487
0
LINE
8
DEFAULT_255_1_234
10
21.9150502
20
62.8487
11
21.7608409
21
62.8487
0
LINE
8
DEFAULT_255_1_234
10
21.7608409
20
62.8487
11
21.7608409
21
63.2848234
0
LINE
8
DEFAULT_255_1_234
10
21.7608409
20
63.2848234
11
21.3576476
21
64.0181211
0
LINE
8
DEFAULT_255_1_234
10
21.3576476
20
64.0181211
11
21.5343458
21
64.0181211
0
LINE
8
DEFAULT_255_1_234
10
22.9190175
20
64.0237433
11
22.9190175
21
62.8487
0
LINE
8
DEFAULT_255_1_234
10
22.9190175
20
62.8487
11
22.7696272
21
62.8487
0
LINE
8
DEFAULT_255_1_234
10
22.7696272
20
62.8487
11
22.7696272
21
63.8390133
0
LINE
8
DEFAULT_255_1_234
10
22.7696272
20
63.8390133
11
22.4700434
21
63.7289785
0
LINE
8
DEFAULT_255_1_234
10
22.4700434
20
63.7289785
11
22.4700434
21
63.8639117
0
LINE
8
DEFAULT_255_1_234
10
22.4700434
20
63.8639117
11
22.8957255
21
64.0237433
0
LINE
8
DEFAULT_255_1_234
10
22.8957255
20
64.0237433
11
22.9190175
21
64.0237433
0
LINE
8
DEFAULT_255_1_234
10
23.5414772
20
63.4044963
11
23.4226075
21
63.4350169
0
LINE
8
DEFAULT_255_1_234
10
23.4226075
20
63.4350169
11
23.4820424
21
64.0181211
0
LINE
8
DEFAULT_255_1_234
10
23.4820424
20
64.0181211
11
24.0812101
21
64.0181211
0
LINE
8
DEFAULT_255_1_234
10
24.0812101
20
64.0181211
11
24.0812101
21
63.8807784
0
LINE
8
DEFAULT_255_1_234
10
24.0812101
20
63.8807784
11
23.6081407
21
63.8807784
0
LINE
8
DEFAULT_255_1_234
10
23.6081407
20
63.8807784
11
23.572801
21
63.5619184
0
LINE
8
DEFAULT_255_1_234
10
23.3808425
20
63.1563156
11
23.5213979
21
63.1563156
0
LINE
8
DEFAULT_255_1_234
10
23.5808328
20
63.4366232
11
23.5414772
21
63.4044963
0
ARC
8
DEFAULT_255_1_234
10
23.7582794
20
63.243923
40
0.3681349
50
93.7182161
51
120.2538958
0
ARC
8
DEFAULT_255_1_234
10
23.7677057
20
63.1631394
40
0.449379
50
89.9660152
51
94.2496022
0
ARC
8
DEFAULT_255_1_234
10
23.7717791
20
63.2220549
40
0.390482
50
73.8043271
51
90.5585896
0
ARC
8
DEFAULT_255_1_234
10
23.7952688
20
63.3078602
40
0.3015334
50
41.3071453
51
73.5430202
0
ARC
8
DEFAULT_255_1_234
10
23.7536515
20
63.2720324
40
0.3564457
50
13.5075983
51
41.2174222
0
ARC
8
DEFAULT_255_1_234
10
23.5894719
20
63.2290486
40
0.5261351
50
1.1331335
51
13.8829381
0
ARC
8
DEFAULT_255_1_234
10
23.4483088
20
63.2214665
40
0.6674378
50
359.9919444
51
1.544251
0
ARC
8
DEFAULT_255_1_234
10
23.5759914
20
63.217328
40
0.5397702
50
347.8572367
51
0.4293338
0
ARC
8
DEFAULT_255_1_234
10
23.7510232
20
63.1776736
40
0.3603188
50
323.673004
51
348.1672506
0
ARC
8
DEFAULT_255_1_234
10
23.780474
20
63.1597168
40
0.3259678
50
316.8171152
51
323.1492751
0
ARC
8
DEFAULT_255_1_234
10
23.7865929
20
63.156046
40
0.3189975
50
281.8396411
51
316.5457803
0
ARC
8
DEFAULT_255_1_234
10
23.7490193
20
63.3115762
40
0.4789527
50
269.5770101
51
282.4214771
0
ARC
8
DEFAULT_255_1_234
10
23.7419004
20
63.2902125
40
0.45759
50
256.2427136
51
270.4486331
0
ARC
8
DEFAULT_255_1_234
10
23.7119907
20
63.1702229
40
0.3339303
50
228.9023911
51
256.3314342
0
ARC
8
DEFAULT_255_1_234
10
23.7046139
20
63.1585746
40
0.32031
50
193.753695
51
228.5271154
0
ARC
8
DEFAULT_255_1_234
10
23.8284093
20
63.19488
40
0.4492253
50
184.924711
51
194.497588
0
ARC
8
DEFAULT_255_1_234
10
23.847666
20
63.1984591
40
0.3289787
50
187.3600538
51
198.6732863
0
ARC
8
DEFAULT_255_1_234
10
23.7426954
20
63.1620674
40
0.217884
50
198.4451669
51
217.794479
0
ARC
8
DEFAULT_255_1_234
10
23.7131129
20
63.1411085
40
0.1816698
50
218.2887171
51
228.5612368
0
ARC
8
DEFAULT_255_1_234
10
23.7228916
20
63.1542963
40
0.1980329
50
228.9654866
51
258.1234728
0
ARC
8
DEFAULT_255_1_234
10
23.7434626
20
63.2423833
40
0.2884748
50
257.7258293
51
270.401361
0
ARC
8
DEFAULT_255_1_234
10
23.7479513
20
63.1978821
40
0.2439788
50
269.4204404
51
286.4209037
0
ARC
8
DEFAULT_255_1_234
10
23.7628
20
63.1439657
40
0.1880666
50
286.7251356
51
320.600362
0
ARC
8
DEFAULT_255_1_234
10
23.7244825
20
63.1750595
40
0.2374121
50
320.6712579
51
344.5441685
0
ARC
8
DEFAULT_255_1_234
10
23.6088151
20
63.2090045
40
0.3579479
50
344.2412205
51
356.7357071
0
ARC
8
DEFAULT_255_1_234
10
23.48393
20
63.2193444
40
0.4832297
50
356.3548756
51
0.0500261
0
ARC
8
DEFAULT_255_1_234
10
23.6175809
20
63.222465
40
0.3495889
50
359.5576869
51
12.953486
0
ARC
8
DEFAULT_255_1_234
10
23.7230706
20
63.2480434
40
0.2410532
50
12.6490276
51
41.6081334
0
ARC
8
DEFAULT_255_1_234
10
23.7461077
20
63.2676321
40
0.2108218
50
41.7850273
51
85.9892764
0
ARC
8
DEFAULT_255_1_234
10
23.7337814
20
63.1863462
40
0.2928454
50
84.6957577
51
90.0676183
0
ARC
8
DEFAULT_255_1_234
10
23.7314298
20
63.1194716
40
0.3597255
50
89.6804936
51
99.1614436
0
ARC
8
DEFAULT_255_1_234
10
23.7108929
20
63.2422131
40
0.235281
50
98.9830931
51
113.8908934
0
ARC
8
DEFAULT_255_1_234
10
23.6879339
20
63.2963587
40
0.176479
50
114.1950727
51
127.3641004
0
LINE
8
DEFAULT_255_1_234
10
21.4284458
20
69.3097211
11
21.7320456
21
68.722601
0
LINE
8
DEFAULT_255_1_234
10
21.7320456
20
68.722601
11
22.0372516
21
69.3097211
0
LINE
8
DEFAULT_255_1_234
10
22.0372516
20
69.3097211
11
22.2123435
21
69.3097211
0
LINE
8
DEFAULT_255_1_234
10
22.2123435
20
69.3097211
11
21.8091502
21
68.5764234
0
LINE
8
DEFAULT_255_1_234
10
21.8091502
20
68.5764234
11
21.8091502
21
68.1403
0
LINE
8
DEFAULT_255_1_234
10
21.8091502
20
68.1403
11
21.6549409
21
68.1403
0
LINE
8
DEFAULT_255_1_234
10
21.6549409
20
68.1403
11
21.6549409
21
68.5764234
0
LINE
8
DEFAULT_255_1_234
10
21.6549409
20
68.5764234
11
21.2517476
21
69.3097211
0
LINE
8
DEFAULT_255_1_234
10
21.2517476
20
69.3097211
11
21.4284458
21
69.3097211
0
LINE
8
DEFAULT_255_1_234
10
22.8131175
20
69.3153433
11
22.8131175
21
68.1403
0
LINE
8
DEFAULT_255_1_234
10
22.8131175
20
68.1403
11
22.6637272
21
68.1403
0
LINE
8
DEFAULT_255_1_234
10
22.6637272
20
68.1403
11
22.6637272
21
69.1306133
0
LINE
8
DEFAULT_255_1_234
10
22.6637272
20
69.1306133
11
22.3641434
21
69.0205785
0
LINE
8
DEFAULT_255_1_234
10
22.3641434
20
69.0205785
11
22.3641434
21
69.1555117
0
LINE
8
DEFAULT_255_1_234
10
22.3641434
20
69.1555117
11
22.7898255
21
69.3153433
0
LINE
8
DEFAULT_255_1_234
10
22.7898255
20
69.3153433
11
22.8131175
21
69.3153433
0
LINE
8
DEFAULT_255_1_234
10
23.8757165
20
69.3097211
11
23.8757165
21
68.533052
0
LINE
8
DEFAULT_255_1_234
10
23.8757165
20
68.533052
11
24.0379576
21
68.533052
0
LINE
8
DEFAULT_255_1_234
10
24.0379576
20
68.533052
11
24.0379576
21
68.4117728
0
LINE
8
DEFAULT_255_1_234
10
24.0379576
20
68.4117728
11
23.8757165
21
68.4117728
0
LINE
8
DEFAULT_255_1_234
10
23.8757165
20
68.4117728
11
23.8757165
21
68.1403
0
LINE
8
DEFAULT_255_1_234
10
23.8757165
20
68.1403
11
23.7263262
21
68.1403
0
LINE
8
DEFAULT_255_1_234
10
23.7263262
20
68.1403
11
23.7263262
21
68.4117728
0
LINE
8
DEFAULT_255_1_234
10
23.7263262
20
68.4117728
11
23.1938219
21
68.4117728
0
LINE
8
DEFAULT_255_1_234
10
23.1938219
20
68.4117728
11
23.1938219
21
68.4993187
0
LINE
8
DEFAULT_255_1_234
10
23.1938219
20
68.4993187
11
23.7174913
21
69.3097211
0
LINE
8
DEFAULT_255_1_234
10
23.7174913
20
69.3097211
11
23.8757165
21
69.3097211
0
LINE
8
DEFAULT_255_1_234
10
23.7086563
20
69.0743912
11
23.3624884
21
68.533052
0
LINE
8
DEFAULT_255_1_234
10
23.3624884
20
68.533052
11
23.7263262
21
68.533052
0
LINE
8
DEFAULT_255_1_234
10
23.7263262
20
68.533052
11
23.7263262
21
69.1065181
0
LINE
8
DEFAULT_255_1_234
10
23.7263262
20
69.1065181
11
23.7086563
21
69.0743912
0
LINE
8
DEFAULT_255_1_234
10
21.5343458
20
74.6014211
11
21.8379456
21
74.014301
0
LINE
8
DEFAULT_255_1_234
10
21.8379456
20
74.014301
11
22.1431516
21
74.6014211
0
LINE
8
DEFAULT_255_1_234
10
22.1431516
20
74.6014211
11
22.3182435
21
74.6014211
0
LINE
8
DEFAULT_255_1_234
10
22.3182435
20
74.6014211
11
21.9150502
21
73.8681234
0
LINE
8
DEFAULT_255_1_234
10
21.9150502
20
73.8681234
11
21.9150502
21
73.432
0
LINE
8
DEFAULT_255_1_234
10
21.9150502
20
73.432
11
21.7608409
21
73.432
0
LINE
8
DEFAULT_255_1_234
10
21.7608409
20
73.432
11
21.7608409
21
73.8681234
0
LINE
8
DEFAULT_255_1_234
10
21.7608409
20
73.8681234
11
21.3576476
21
74.6014211
0
LINE
8
DEFAULT_255_1_234
10
21.3576476
20
74.6014211
11
21.5343458
21
74.6014211
0
LINE
8
DEFAULT_255_1_234
10
22.9190175
20
74.6070433
11
22.9190175
21
73.432
0
LINE
8
DEFAULT_255_1_234
10
22.9190175
20
73.432
11
22.7696272
21
73.432
0
LINE
8
DEFAULT_255_1_234
10
22.7696272
20
73.432
11
22.7696272
21
74.4223133
0
LINE
8
DEFAULT_255_1_234
10
22.7696272
20
74.4223133
11
22.4700434
21
74.3122785
0
LINE
8
DEFAULT_255_1_234
10
22.4700434
20
74.3122785
11
22.4700434
21
74.4472117
0
LINE
8
DEFAULT_255_1_234
10
22.4700434
20
74.4472117
11
22.8957255
21
74.6070433
0
LINE
8
DEFAULT_255_1_234
10
22.8957255
20
74.6070433
11
22.9190175
21
74.6070433
0
LINE
8
DEFAULT_255_1_234
10
23.5703915
20
73.9677169
11
23.5703915
21
74.0889962
0
LINE
8
DEFAULT_255_1_234
10
23.5703915
20
74.0889962
11
23.6820327
21
74.0889962
0
LINE
8
DEFAULT_255_1_234
10
23.4916805
20
74.2946087
11
23.3430933
21
74.2946087
0
LINE
8
DEFAULT_255_1_234
10
23.3326521
20
73.7404188
11
23.4820424
21
73.7404188
0
LINE
8
DEFAULT_255_1_234
10
23.6820327
20
73.9677169
11
23.5703915
21
73.9677169
0
ARC
8
DEFAULT_255_1_234
10
23.6791193
20
74.4282713
40
0.3392876
50
270.4919872
51
281.8951556
0
ARC
8
DEFAULT_255_1_234
10
23.7032455
20
74.3180702
40
0.2264817
50
281.6691735
51
301.2943132
0
ARC
8
DEFAULT_255_1_234
10
23.7202665
20
74.2869304
40
0.1910381
50
301.7833094
51
311.7545298
0
ARC
8
DEFAULT_255_1_234
10
23.7294241
20
74.2767748
40
0.1773635
50
311.7323931
51
354.2802411
0
ARC
8
DEFAULT_255_1_234
10
23.6567866
20
74.2892722
40
0.2509385
50
353.0937916
51
0.1181479
0
ARC
8
DEFAULT_255_1_234
10
23.6106651
20
74.2940386
40
0.2970898
50
359.1805295
51
15.0453146
0
ARC
8
DEFAULT_255_1_234
10
23.7452488
20
74.3332992
40
0.1569564
50
13.9577229
51
77.6713066
0
ARC
8
DEFAULT_255_1_234
10
23.7066017
20
74.1947949
40
0.3006298
50
76.1116566
51
90.7026153
0
ARC
8
DEFAULT_255_1_234
10
23.7006855
20
74.2221545
40
0.2732568
50
89.5324876
51
103.531937
0
ARC
8
DEFAULT_255_1_234
10
23.68063
20
74.3020884
40
0.1908508
50
103.2931773
51
133.5619022
0
ARC
8
DEFAULT_255_1_234
10
23.6761788
20
74.3080375
40
0.1834746
50
133.8349307
51
173.5344437
0
ARC
8
DEFAULT_255_1_234
10
23.7484831
20
74.2952213
40
0.2568033
50
172.5096846
51
180.1366907
0
ARC
8
DEFAULT_255_1_234
10
23.6533725
20
74.2986622
40
0.3103056
50
155.3484492
51
180.7484736
0
ARC
8
DEFAULT_255_1_234
10
23.6484814
20
74.2957846
40
0.3070957
50
131.5744599
51
154.4798489
0
ARC
8
DEFAULT_255_1_234
10
23.6797961
20
74.264131
40
0.3515643
50
96.9875458
51
131.9690667
0
ARC
8
DEFAULT_255_1_234
10
23.7017441
20
74.1395636
40
0.4779224
50
89.8596053
51
97.7825159
0
ARC
8
DEFAULT_255_1_234
10
23.7065504
20
74.1133616
40
0.5041361
50
78.3655447
51
90.4131539
0
ARC
8
DEFAULT_255_1_234
10
23.7423422
20
74.2792887
40
0.3344039
50
56.6229102
51
78.638727
0
ARC
8
DEFAULT_255_1_234
10
23.7638366
20
74.3168805
40
0.2912001
50
47.0253525
51
56.0854072
0
ARC
8
DEFAULT_255_1_234
10
23.7658146
20
74.3208223
40
0.2869704
50
10.9208013
51
46.7778124
0
ARC
8
DEFAULT_255_1_234
10
23.6294212
20
74.2892857
40
0.426899
50
359.6364486
51
11.6087304
0
ARC
8
DEFAULT_255_1_234
10
23.8129057
20
74.2877752
40
0.243409
50
332.3549906
51
359.7179418
0
ARC
8
DEFAULT_255_1_234
10
23.7478658
20
74.3186142
40
0.3153459
50
325.2333722
51
332.8745602
0
ARC
8
DEFAULT_255_1_234
10
23.7631282
20
74.3079828
40
0.2967456
50
292.9802137
51
325.2392345
0
ARC
8
DEFAULT_255_1_234
10
23.7356656
20
74.3613863
40
0.3566604
50
292.5402179
51
293.6924929
0
ARC
8
DEFAULT_255_1_234
10
23.7749251
20
73.7159091
40
0.3307468
50
57.6435486
51
72.8625112
0
ARC
8
DEFAULT_255_1_234
10
23.8103751
20
73.7733549
40
0.2632492
50
36.7248896
51
57.4697979
0
ARC
8
DEFAULT_255_1_234
10
23.8092384
20
73.774622
40
0.2634081
50
8.0545065
51
36.356114
0
ARC
8
DEFAULT_255_1_234
10
23.7229569
20
73.7591174
40
0.3510261
50
359.8320645
51
8.5869982
0
ARC
8
DEFAULT_255_1_234
10
23.6854345
20
73.7543101
40
0.3885653
50
343.9829931
51
0.5571613
0
ARC
8
DEFAULT_255_1_234
10
23.7740542
20
73.7300438
40
0.2966924
50
311.6359546
51
343.7651759
0
ARC
8
DEFAULT_255_1_234
10
23.7362112
20
73.7727102
40
0.3537231
50
279.7829875
51
311.6255694
0
ARC
8
DEFAULT_255_1_234
10
23.7060888
20
73.916428
40
0.5004971
50
269.7286406
51
280.3856417
0
ARC
8
DEFAULT_255_1_234
10
23.699896
20
73.9122996
40
0.4963778
50
256.6828919
51
270.4412052
0
ARC
8
DEFAULT_255_1_234
10
23.6660256
20
73.7738394
40
0.3538406
50
229.4223008
51
256.8556159
0
ARC
8
DEFAULT_255_1_234
10
23.6245649
20
73.7271736
40
0.2914296
50
181.818294
51
229.6455059
0
ARC
8
DEFAULT_255_1_234
10
23.7285605
20
73.7402496
40
0.3959084
50
179.9755256
51
183.2323064
0
ARC
8
DEFAULT_255_1_234
10
23.7113351
20
73.7382037
40
0.2293034
50
179.4465117
51
196.2869258
0
ARC
8
DEFAULT_255_1_234
10
23.6625759
20
73.7248651
40
0.1787621
50
196.5661473
51
227.705904
0
ARC
8
DEFAULT_255_1_234
10
23.6789854
20
73.7432155
40
0.2033784
50
227.7652068
51
257.8762805
0
ARC
8
DEFAULT_255_1_234
10
23.7014824
20
73.8375156
40
0.3003081
50
257.4584385
51
270.426602
0
ARC
8
DEFAULT_255_1_234
10
23.706039
20
73.8664996
40
0.329292
50
269.5962073
51
280.8789248
0
ARC
8
DEFAULT_255_1_234
10
23.7289919
20
73.7518685
40
0.2123908
50
280.6346389
51
299.8595945
0
ARC
8
DEFAULT_255_1_234
10
23.7480826
20
73.7156212
40
0.171457
50
300.3576302
51
314.5517981
0
ARC
8
DEFAULT_255_1_234
10
23.7397886
20
73.7216919
40
0.1816095
50
315.0728369
51
345.0431014
0
ARC
8
DEFAULT_255_1_234
10
23.64747
20
73.7485841
40
0.2777492
50
344.5986631
51
357.9269593
0
ARC
8
DEFAULT_255_1_234
10
23.5579027
20
73.7547276
40
0.3674917
50
357.4748886
51
0.0231117
0
ARC
8
DEFAULT_255_1_234
10
23.6602136
20
73.7571679
40
0.2651907
50
359.5047933
51
13.4239635
0
ARC
8
DEFAULT_255_1_234
10
23.746878
20
73.7793478
40
0.1757509
50
12.9498199
51
48.7551375
0
ARC
8
DEFAULT_255_1_234
10
23.7286513
20
73.75444
40
0.2065134
50
49.5088623
51
72.1836453
0
ARC
8
DEFAULT_255_1_234
10
23.6928666
20
73.6482291
40
0.3185836
50
71.9010081
51
84.3554254
0
ARC
8
DEFAULT_255_1_234
10
23.6767298
20
73.5121326
40
0.4556151
50
84.0193428
51
89.333121
0
LINE
8
DEFAULT_255_1_234
10
21.5343458
20
79.8931211
11
21.8379456
21
79.306001
0
LINE
8
DEFAULT_255_1_234
10
21.8379456
20
79.306001
11
22.1431516
21
79.8931211
0
LINE
8
DEFAULT_255_1_234
10
22.1431516
20
79.8931211
11
22.3182435
21
79.8931211
0
LINE
8
DEFAULT_255_1_234
10
22.3182435
20
79.8931211
11
21.9150502
21
79.1598234
0
LINE
8
DEFAULT_255_1_234
10
21.9150502
20
79.1598234
11
21.9150502
21
78.7237
0
LINE
8
DEFAULT_255_1_234
10
21.9150502
20
78.7237
11
21.7608409
21
78.7237
0
LINE
8
DEFAULT_255_1_234
10
21.7608409
20
78.7237
11
21.7608409
21
79.1598234
0
LINE
8
DEFAULT_255_1_234
10
21.7608409
20
79.1598234
11
21.3576476
21
79.8931211
0
LINE
8
DEFAULT_255_1_234
10
21.3576476
20
79.8931211
11
21.5343458
21
79.8931211
0
LINE
8
DEFAULT_255_1_234
10
22.9190175
20
79.8987433
11
22.9190175
21
78.7237
0
LINE
8
DEFAULT_255_1_234
10
22.9190175
20
78.7237
11
22.7696272
21
78.7237
0
LINE
8
DEFAULT_255_1_234
10
22.7696272
20
78.7237
11
22.7696272
21
79.7140133
0
LINE
8
DEFAULT_255_1_234
10
22.7696272
20
79.7140133
11
22.4700434
21
79.6039785
0
LINE
8
DEFAULT_255_1_234
10
22.4700434
20
79.6039785
11
22.4700434
21
79.7389117
0
LINE
8
DEFAULT_255_1_234
10
22.4700434
20
79.7389117
11
22.8957255
21
79.8987433
0
LINE
8
DEFAULT_255_1_234
10
22.8957255
20
79.8987433
11
22.9190175
21
79.8987433
0
LINE
8
DEFAULT_255_1_234
10
24.1205656
20
78.8449792
11
24.1205656
21
78.7237
0
LINE
8
DEFAULT_255_1_234
10
24.1205656
20
78.7237
11
23.3543377
21
78.7237
0
LINE
8
DEFAULT_255_1_234
10
23.3543377
20
78.7237
11
23.3543377
21
78.8305221
0
LINE
8
DEFAULT_255_1_234
10
23.3543377
20
78.8305221
11
23.7591374
21
79.2802995
0
LINE
8
DEFAULT_255_1_234
10
23.480436
20
79.5485595
11
23.3318489
21
79.5485595
0
LINE
8
DEFAULT_255_1_234
10
23.8466833
20
79.1847218
11
23.5334455
21
78.8449792
0
LINE
8
DEFAULT_255_1_234
10
23.5334455
20
78.8449792
11
24.1205656
21
78.8449792
0
ARC
8
DEFAULT_255_1_234
10
22.4101207
20
80.4732527
40
1.8008286
50
318.5132453
51
320.7828378
0
ARC
8
DEFAULT_255_1_234
10
22.9388181
20
80.0429426
40
1.1191493
50
320.7372736
51
323.9737074
0
ARC
8
DEFAULT_255_1_234
10
23.3308038
20
79.7589361
40
0.6350923
50
323.8961724
51
328.6421089
0
ARC
8
DEFAULT_255_1_234
10
23.5354633
20
79.6327031
40
0.3946393
50
328.8299013
51
331.789948
0
ARC
8
DEFAULT_255_1_234
10
23.6351812
20
79.5812509
40
0.2824501
50
331.4255242
51
352.9364833
0
ARC
8
DEFAULT_255_1_234
10
23.6488312
20
79.5781976
40
0.2685315
50
353.2248685
51
0.0169286
0
ARC
8
DEFAULT_255_1_234
10
23.6698189
20
79.580495
40
0.2475536
50
359.4866256
51
15.9339782
0
ARC
8
DEFAULT_255_1_234
10
23.7205174
20
79.5941286
40
0.1950618
50
16.1714718
51
43.5284424
0
ARC
8
DEFAULT_255_1_234
10
23.7282483
20
79.6018573
40
0.184134
50
43.4415429
51
83.1661404
0
ARC
8
DEFAULT_255_1_234
10
23.7148401
20
79.5281771
40
0.258926
50
82.160215
51
90.1505798
0
ARC
8
DEFAULT_255_1_234
10
23.7116828
20
79.4744865
40
0.3126255
50
89.5460705
51
102.5418777
0
ARC
8
DEFAULT_255_1_234
10
23.6873915
20
79.5775665
40
0.2067346
50
102.1739365
51
129.2061916
0
ARC
8
DEFAULT_255_1_234
10
23.6794986
20
79.5900094
40
0.1921118
50
129.7279328
51
135.7542026
0
ARC
8
DEFAULT_255_1_234
10
23.6916514
20
79.5803045
40
0.2075944
50
136.175737
51
166.3674722
0
ARC
8
DEFAULT_255_1_234
10
23.7923433
20
79.5533182
40
0.3118201
50
165.9092917
51
178.8683903
0
ARC
8
DEFAULT_255_1_234
10
23.8788295
20
79.5486179
40
0.3983935
50
178.438168
51
180.0083905
0
ARC
8
DEFAULT_255_1_234
10
23.7386897
20
79.5525231
40
0.4068601
50
163.2878735
51
180.5581814
0
ARC
8
DEFAULT_255_1_234
10
23.6585158
20
79.574584
40
0.3237344
50
133.454115
51
162.9470031
0
ARC
8
DEFAULT_255_1_234
10
23.6763699
20
79.5556
40
0.349795
50
100.7869394
51
133.4384016
0
ARC
8
DEFAULT_255_1_234
10
23.7111471
20
79.4007319
40
0.5084616
50
89.6605301
51
101.3704185
0
ARC
8
DEFAULT_255_1_234
10
23.717781
20
79.4068496
40
0.502348
50
78.2171172
51
90.4130393
0
ARC
8
DEFAULT_255_1_234
10
23.7532888
20
79.5692637
40
0.3361092
50
55.9268222
51
78.4888551
0
ARC
8
DEFAULT_255_1_234
10
23.7729328
20
79.6031324
40
0.2970617
50
47.9292255
51
55.4054003
0
ARC
8
DEFAULT_255_1_234
10
23.7830889
20
79.6134502
40
0.2825983
50
4.3347696
51
48.0560701
0
ARC
8
DEFAULT_255_1_234
10
23.6735282
20
79.5964601
40
0.393225
50
359.925209
51
5.5967654
0
ARC
8
DEFAULT_255_1_234
10
23.7164174
20
79.6020816
40
0.3503892
50
337.8914096
51
358.9967724
0
ARC
8
DEFAULT_255_1_234
10
23.4450586
20
79.7067706
40
0.6412172
50
326.9135351
51
338.3505194
0
ARC
8
DEFAULT_255_1_234
10
23.046489
20
79.9622284
40
1.1146189
50
319.6472867
51
327.095818
0
ARC
8
DEFAULT_255_1_234
10
22.6631893
20
80.2784
40
1.6114559
50
317.2586784
51
319.9046139
0
LINE
8
DEFAULT_255_1_234
10
22.9403628
20
85.1847211
11
22.9403628
21
84.408052
0
LINE
8
DEFAULT_255_1_234
10
22.9403628
20
84.408052
11
23.1026039
21
84.408052
0
LINE
8
DEFAULT_255_1_234
10
23.1026039
20
84.408052
11
23.1026039
21
84.2867728
0
LINE
8
DEFAULT_255_1_234
10
23.1026039
20
84.2867728
11
22.9403628
21
84.2867728
0
LINE
8
DEFAULT_255_1_234
10
22.9403628
20
84.2867728
11
22.9403628
21
84.0153
0
LINE
8
DEFAULT_255_1_234
10
22.9403628
20
84.0153
11
22.7909725
21
84.0153
0
LINE
8
DEFAULT_255_1_234
10
22.7909725
20
84.0153
11
22.7909725
21
84.2867728
0
LINE
8
DEFAULT_255_1_234
10
22.7909725
20
84.2867728
11
22.2584682
21
84.2867728
0
LINE
8
DEFAULT_255_1_234
10
22.2584682
20
84.2867728
11
22.2584682
21
84.3743187
0
LINE
8
DEFAULT_255_1_234
10
22.2584682
20
84.3743187
11
22.7821375
21
85.1847211
0
LINE
8
DEFAULT_255_1_234
10
22.7821375
20
85.1847211
11
22.9403628
21
85.1847211
0
LINE
8
DEFAULT_255_1_234
10
22.7733026
20
84.9493912
11
22.4271347
21
84.408052
0
LINE
8
DEFAULT_255_1_234
10
22.4271347
20
84.408052
11
22.7909725
21
84.408052
0
LINE
8
DEFAULT_255_1_234
10
22.7909725
20
84.408052
11
22.7909725
21
84.9815181
0
LINE
8
DEFAULT_255_1_234
10
22.7909725
20
84.9815181
11
22.7733026
21
84.9493912
0
LINE
8
DEFAULT_255_1_234
10
23.9804729
20
84.3863663
11
24.1354854
21
84.3863663
0
LINE
8
DEFAULT_255_1_234
10
23.2351276
20
84.5453947
11
23.2351276
21
84.6578391
0
LINE
8
DEFAULT_255_1_234
10
24.1354854
20
84.8088357
11
23.9804729
21
84.8088357
0
LINE
8
DEFAULT_255_1_234
10
23.3901401
20
84.6538232
11
23.3901401
21
84.5405757
0
ARC
8
DEFAULT_255_1_234
10
23.5874241
20
84.4460846
40
0.5513052
50
340.1774281
51
353.7814284
0
ARC
8
DEFAULT_255_1_234
10
23.7445594
20
84.3875582
40
0.3836379
50
311.4558989
51
340.4421614
0
ARC
8
DEFAULT_255_1_234
10
23.7412262
20
84.3986528
40
0.3941894
50
282.4333181
51
310.7513653
0
ARC
8
DEFAULT_255_1_234
10
23.6973001
20
84.5801679
40
0.5809175
50
269.9358511
51
282.809604
0
ARC
8
DEFAULT_255_1_234
10
23.6921067
20
84.7259212
40
0.7266847
50
270.0021091
51
270.3581957
0
ARC
8
DEFAULT_255_1_234
10
23.6868484
20
84.4658585
40
0.4666519
50
250.7884749
51
270.6489167
0
ARC
8
DEFAULT_255_1_234
10
23.6700319
20
84.4021319
40
0.4009729
50
219.3627325
51
250.0611886
0
ARC
8
DEFAULT_255_1_234
10
23.752953
20
84.4726042
40
0.5097822
50
193.5479632
51
219.5756669
0
ARC
8
DEFAULT_255_1_234
10
23.9901151
20
84.5341919
40
0.7547848
50
181.1218675
51
193.87563
0
ARC
8
DEFAULT_255_1_234
10
24.1971332
20
84.545258
40
0.9620055
50
179.9918545
51
181.5394234
0
ARC
8
DEFAULT_255_1_234
10
24.0120434
20
84.6615788
40
0.7769248
50
169.5837241
51
180.2757934
0
ARC
8
DEFAULT_255_1_234
10
23.8283372
20
84.6955229
40
0.590109
50
155.0365899
51
169.6003176
0
ARC
8
DEFAULT_255_1_234
10
23.7147836
20
84.7502677
40
0.4640625
50
136.783148
51
155.2472683
0
ARC
8
DEFAULT_255_1_234
10
23.6758313
20
84.7833562
40
0.4130255
50
121.7633186
51
136.428115
0
ARC
8
DEFAULT_255_1_234
10
23.6893275
20
84.7584227
40
0.4413323
50
95.6459699
51
121.5490577
0
ARC
8
DEFAULT_255_1_234
10
23.7050557
20
84.6475949
40
0.55319
50
89.924208
51
96.1377933
0
ARC
8
DEFAULT_255_1_234
10
23.710099
20
84.6594542
40
0.5413475
50
76.6779277
51
90.4563316
0
ARC
8
DEFAULT_255_1_234
10
23.7494613
20
84.8185114
40
0.3775041
50
47.485847
51
76.9287264
0
ARC
8
DEFAULT_255_1_234
10
23.7347586
20
84.8085159
40
0.3948286
50
16.5424086
51
46.8933463
0
ARC
8
DEFAULT_255_1_234
10
23.5739743
20
84.7556861
40
0.564021
50
5.4072051
51
17.0365086
0
ARC
8
DEFAULT_255_1_234
10
23.430076
20
84.7325679
40
0.5556559
50
7.8891745
51
15.9239216
0
ARC
8
DEFAULT_255_1_234
10
23.6287773
20
84.7902631
40
0.3487515
50
15.7653144
51
27.9410532
0
ARC
8
DEFAULT_255_1_234
10
23.7391991
20
84.849379
40
0.2235026
50
27.8166557
51
46.4008329
0
ARC
8
DEFAULT_255_1_234
10
23.7441634
20
84.8488082
40
0.2205286
50
47.4371857
51
75.0698205
0
ARC
8
DEFAULT_255_1_234
10
23.7133029
20
84.7413765
40
0.3322915
50
74.7008593
51
87.8124495
0
ARC
8
DEFAULT_255_1_234
10
23.7059716
20
84.6357844
40
0.4380987
50
87.3814673
51
90.0240855
0
ARC
8
DEFAULT_255_1_234
10
23.7021259
20
84.7535291
40
0.3203749
50
89.3451631
51
108.5745436
0
ARC
8
DEFAULT_255_1_234
10
23.6884365
20
84.8048908
40
0.2673494
50
109.2998449
51
143.3037509
0
ARC
8
DEFAULT_255_1_234
10
23.7646437
20
84.7462881
40
0.3634757
50
143.0753173
51
163.1916937
0
ARC
8
DEFAULT_255_1_234
10
23.9598165
20
84.6846967
40
0.5681262
50
162.9373603
51
174.6208611
0
ARC
8
DEFAULT_255_1_234
10
24.2224207
20
84.655901
40
0.8322832
50
174.3419979
51
180.1430411
0
ARC
8
DEFAULT_255_1_234
10
24.1293363
20
84.5364698
40
0.7392076
50
179.6817502
51
189.150529
0
ARC
8
DEFAULT_255_1_234
10
23.8792611
20
84.494819
40
0.4856932
50
188.9910863
51
203.5773039
0
ARC
8
DEFAULT_255_1_234
10
23.7712944
20
84.4500211
40
0.3688271
50
203.9077269
51
215.1312379
0
ARC
8
DEFAULT_255_1_234
10
23.6790038
20
84.3784941
40
0.2522457
50
213.9071664
51
263.8849284
0
ARC
8
DEFAULT_255_1_234
10
23.6915367
20
84.4569518
40
0.3316174
50
263.1758525
51
270.1031083
0
ARC
8
DEFAULT_255_1_234
10
23.6947459
20
84.5816365
40
0.4563091
50
269.6719807
51
279.0609165
0
ARC
8
DEFAULT_255_1_234
10
23.7214227
20
84.4203907
40
0.2928759
50
278.8750225
51
293.6346586
0
ARC
8
DEFAULT_255_1_234
10
23.7534435
20
84.34519
40
0.2111472
50
293.8553404
51
310.0518804
0
ARC
8
DEFAULT_255_1_234
10
23.7539289
20
84.3389516
40
0.2060917
50
311.0646779
51
332.0108348
0
ARC
8
DEFAULT_255_1_234
10
23.6347016
20
84.4046978
40
0.3422352
50
331.6588543
51
343.2878891
0
ARC
8
DEFAULT_255_1_234
10
23.4284531
20
84.4680798
40
0.5580003
50
343.1446044
51
351.010618
0
ARC
8
DEFAULT_255_1_234
10
23.2743177
20
84.4961871
40
0.7146438
50
350.7157277
51
351.1602153
0
LINE
8
DEFAULT_255_1_234
10
21.5422458
20
90.4764211
11
21.8458456
21
89.889301
0
LINE
8
DEFAULT_255_1_234
10
21.8458456
20
89.889301
11
22.1510516
21
90.4764211
0
LINE
8
DEFAULT_255_1_234
10
22.1510516
20
90.4764211
11
22.3261435
21
90.4764211
0
LINE
8
DEFAULT_255_1_234
10
22.3261435
20
90.4764211
11
21.9229502
21
89.7431234
0
LINE
8
DEFAULT_255_1_234
10
21.9229502
20
89.7431234
11
21.9229502
21
89.307
0
LINE
8
DEFAULT_255_1_234
10
21.9229502
20
89.307
11
21.7687409
21
89.307
0
LINE
8
DEFAULT_255_1_234
10
21.7687409
20
89.307
11
21.7687409
21
89.7431234
0
LINE
8
DEFAULT_255_1_234
10
21.7687409
20
89.7431234
11
21.3655476
21
90.4764211
0
LINE
8
DEFAULT_255_1_234
10
21.3655476
20
90.4764211
11
21.5422458
21
90.4764211
0
LINE
8
DEFAULT_255_1_234
10
22.9269175
20
90.4820433
11
22.9269175
21
89.307
0
LINE
8
DEFAULT_255_1_234
10
22.9269175
20
89.307
11
22.7775272
21
89.307
0
LINE
8
DEFAULT_255_1_234
10
22.7775272
20
89.307
11
22.7775272
21
90.2973133
0
LINE
8
DEFAULT_255_1_234
10
22.7775272
20
90.2973133
11
22.4779434
21
90.1872785
0
LINE
8
DEFAULT_255_1_234
10
22.4779434
20
90.1872785
11
22.4779434
21
90.3222117
0
LINE
8
DEFAULT_255_1_234
10
22.4779434
20
90.3222117
11
22.9036255
21
90.4820433
0
LINE
8
DEFAULT_255_1_234
10
22.9036255
20
90.4820433
11
22.9269175
21
90.4820433
0
LINE
8
DEFAULT_255_1_234
10
23.8505674
20
90.4820433
11
23.8505674
21
89.307
0
LINE
8
DEFAULT_255_1_234
10
23.8505674
20
89.307
11
23.7011771
21
89.307
0
LINE
8
DEFAULT_255_1_234
10
23.7011771
20
89.307
11
23.7011771
21
90.2973133
0
LINE
8
DEFAULT_255_1_234
10
23.7011771
20
90.2973133
11
23.4015933
21
90.1872785
0
LINE
8
DEFAULT_255_1_234
10
23.4015933
20
90.1872785
11
23.4015933
21
90.3222117
0
LINE
8
DEFAULT_255_1_234
10
23.4015933
20
90.3222117
11
23.8272754
21
90.4820433
0
LINE
8
DEFAULT_255_1_234
10
23.8272754
20
90.4820433
11
23.8505674
21
90.4820433
0
LINE
8
DEFAULT_255_1_234
10
21.5343458
20
95.7681211
11
21.8379456
21
95.181001
0
LINE
8
DEFAULT_255_1_234
10
21.8379456
20
95.181001
11
22.1431516
21
95.7681211
0
LINE
8
DEFAULT_255_1_234
10
22.1431516
20
95.7681211
11
22.3182435
21
95.7681211
0
LINE
8
DEFAULT_255_1_234
10
22.3182435
20
95.7681211
11
21.9150502
21
95.0348234
0
LINE
8
DEFAULT_255_1_234
10
21.9150502
20
95.0348234
11
21.9150502
21
94.5987
0
LINE
8
DEFAULT_255_1_234
10
21.9150502
20
94.5987
11
21.7608409
21
94.5987
0
LINE
8
DEFAULT_255_1_234
10
21.7608409
20
94.5987
11
21.7608409
21
95.0348234
0
LINE
8
DEFAULT_255_1_234
10
21.7608409
20
95.0348234
11
21.3576476
21
95.7681211
0
LINE
8
DEFAULT_255_1_234
10
21.3576476
20
95.7681211
11
21.5343458
21
95.7681211
0
LINE
8
DEFAULT_255_1_234
10
22.9190175
20
95.7737433
11
22.9190175
21
94.5987
0
LINE
8
DEFAULT_255_1_234
10
22.9190175
20
94.5987
11
22.7696272
21
94.5987
0
LINE
8
DEFAULT_255_1_234
10
22.7696272
20
94.5987
11
22.7696272
21
95.5890133
0
LINE
8
DEFAULT_255_1_234
10
22.7696272
20
95.5890133
11
22.4700434
21
95.4789785
0
LINE
8
DEFAULT_255_1_234
10
22.4700434
20
95.4789785
11
22.4700434
21
95.6139117
0
LINE
8
DEFAULT_255_1_234
10
22.4700434
20
95.6139117
11
22.8957255
21
95.7737433
0
LINE
8
DEFAULT_255_1_234
10
22.8957255
20
95.7737433
11
22.9190175
21
95.7737433
0
LINE
8
DEFAULT_255_1_234
10
24.0876354
20
95.2902327
11
24.0876354
21
95.0974709
0
LINE
8
DEFAULT_255_1_234
10
23.3495187
20
95.0773916
11
23.3495187
21
95.2757755
0
LINE
8
DEFAULT_255_1_234
10
23.9390483
20
95.0573123
11
23.9390483
21
95.3006739
0
LINE
8
DEFAULT_255_1_234
10
23.4981059
20
95.3119184
11
23.4981059
21
95.0741789
0
ARC
8
DEFAULT_255_1_234
10
22.8629244
20
95.0925805
40
1.2247208
50
353.8441951
51
0.2287902
0
ARC
8
DEFAULT_255_1_234
10
23.3268748
20
95.0407806
40
0.7578929
50
344.4934747
51
353.9765454
0
ARC
8
DEFAULT_255_1_234
10
23.6261338
20
94.9556981
40
0.4467846
50
329.2803592
51
344.7472793
0
ARC
8
DEFAULT_255_1_234
10
23.7254163
20
94.9012018
40
0.3336173
50
324.9352394
51
328.6160465
0
ARC
8
DEFAULT_255_1_234
10
23.7631272
20
94.8748427
40
0.2876076
50
280.580143
51
324.9173126
0
ARC
8
DEFAULT_255_1_234
10
23.7230064
20
95.0419099
40
0.4592847
50
269.5977311
51
281.6734359
0
ARC
8
DEFAULT_255_1_234
10
23.715797
20
95.0299173
40
0.4472986
50
256.6228859
51
270.51044
0
ARC
8
DEFAULT_255_1_234
10
23.6755948
20
94.8750877
40
0.2873874
50
215.8618325
51
257.2788573
0
ARC
8
DEFAULT_255_1_234
10
23.7776979
20
94.9435977
40
0.4102928
50
197.9693508
51
215.2623606
0
ARC
8
DEFAULT_255_1_234
10
24.0262095
20
95.0274709
40
0.6725652
50
187.8816417
51
198.2346507
0
ARC
8
DEFAULT_255_1_234
10
24.4220303
20
95.0846079
40
1.0724845
50
180.8976217
51
188.0055519
0
ARC
8
DEFAULT_255_1_234
10
24.7020491
20
95.0949777
40
1.3526448
50
180.7449369
51
181.1510016
0
ARC
8
DEFAULT_255_1_234
10
24.544322
20
95.2806042
40
1.1948131
50
173.7675579
51
180.231553
0
ARC
8
DEFAULT_255_1_234
10
24.0925367
20
95.3316666
40
0.7401564
50
164.3058563
51
173.9002247
0
ARC
8
DEFAULT_255_1_234
10
23.8013436
20
95.4155656
40
0.4371288
50
148.7922025
51
164.568378
0
ARC
8
DEFAULT_255_1_234
10
23.7061888
20
95.4686929
40
0.3282386
50
144.5883898
51
148.1176286
0
ARC
8
DEFAULT_255_1_234
10
23.6718786
20
95.4926315
40
0.2864044
50
101.6440918
51
144.514236
0
ARC
8
DEFAULT_255_1_234
10
23.7143853
20
95.3237069
40
0.4604934
50
89.5284041
51
102.5819763
0
ARC
8
DEFAULT_255_1_234
10
23.722294
20
95.3198018
40
0.464401
50
77.0437873
51
90.5081339
0
ARC
8
DEFAULT_255_1_234
10
23.7624942
20
95.4840615
40
0.2953195
50
48.2778575
51
77.4994676
0
ARC
8
DEFAULT_255_1_234
10
23.7697573
20
95.4969746
40
0.2808655
50
36.3142134
51
47.6305865
0
ARC
8
DEFAULT_255_1_234
10
23.682888
20
95.4384515
40
0.3855453
50
18.2931786
51
35.6769206
0
ARC
8
DEFAULT_255_1_234
10
23.4285639
20
95.3511593
40
0.654423
50
8.024666
51
18.5605216
0
ARC
8
DEFAULT_255_1_234
10
23.0122559
20
95.2896792
40
1.0752407
50
1.1274072
51
8.1718305
0
ARC
8
DEFAULT_255_1_234
10
22.688675
20
95.2769885
40
1.3990231
50
0.5424119
51
1.3863029
0
ARC
8
DEFAULT_255_1_234
10
22.8708128
20
95.3042342
40
1.0682415
50
359.8090433
51
4.9407866
0
ARC
8
DEFAULT_255_1_234
10
23.2918142
20
95.3418113
40
0.6455691
50
4.8362157
51
12.2904523
0
ARC
8
DEFAULT_255_1_234
10
23.5673256
20
95.4031965
40
0.3633074
50
12.0805627
51
23.8173984
0
ARC
8
DEFAULT_255_1_234
10
23.6846962
20
95.4528919
40
0.2358723
50
24.2871213
51
31.3935614
0
ARC
8
DEFAULT_255_1_234
10
23.7371659
20
95.4872233
40
0.1732111
50
30.7407893
51
82.4657128
0
ARC
8
DEFAULT_255_1_234
10
23.7191793
20
95.3988691
40
0.263235
50
81.1060089
51
90.2184952
0
ARC
8
DEFAULT_255_1_234
10
23.7156092
20
95.4246924
40
0.2374236
50
89.3806855
51
105.6762551
0
ARC
8
DEFAULT_255_1_234
10
23.6972723
20
95.4913567
40
0.1682847
50
105.7981136
51
149.7388061
0
ARC
8
DEFAULT_255_1_234
10
23.8036801
20
95.427395
40
0.2924306
50
149.4208916
51
163.6286378
0
ARC
8
DEFAULT_255_1_234
10
24.0127689
20
95.363625
40
0.5110213
50
163.3763315
51
172.1410975
0
ARC
8
DEFAULT_255_1_234
10
24.3428408
20
95.3163518
40
0.8444586
50
172.0259487
51
178.0703232
0
ARC
8
DEFAULT_255_1_234
10
24.6458498
20
95.3019906
40
1.1477868
50
177.8631668
51
179.5044149
0
ARC
8
DEFAULT_255_1_234
10
24.5385902
20
95.0705389
40
1.0404907
50
179.7995573
51
185.2460446
0
ARC
8
DEFAULT_255_1_234
10
24.1342941
20
95.0322513
40
0.6343885
50
185.1411642
51
193.0079639
0
ARC
8
DEFAULT_255_1_234
10
23.8699414
20
94.9697641
40
0.3627568
50
192.7897626
51
205.2507664
0
ARC
8
DEFAULT_255_1_234
10
23.7652961
20
94.9230415
40
0.2481908
50
205.8005384
51
211.2537509
0
ARC
8
DEFAULT_255_1_234
10
23.7129401
20
94.887958
40
0.1852521
50
210.3789793
51
238.4008143
0
ARC
8
DEFAULT_255_1_234
10
23.7109923
20
94.8926376
40
0.1882621
50
239.6520629
51
265.9793761
0
ARC
8
DEFAULT_255_1_234
10
23.7195123
20
94.9598427
40
0.2559272
50
265.1315437
51
270.060332
0
ARC
8
DEFAULT_255_1_234
10
23.7223902
20
94.9274534
40
0.2235528
50
269.3314664
51
287.2178029
0
ARC
8
DEFAULT_255_1_234
10
23.7361754
20
94.8771279
40
0.1714108
50
287.7958004
51
329.080874
0
ARC
8
DEFAULT_255_1_234
10
23.6404211
20
94.936893
40
0.2842745
50
328.6634704
51
343.3325132
0
ARC
8
DEFAULT_255_1_234
10
23.4231231
20
95.0045863
40
0.5118644
50
343.0499468
51
351.9393422
0
ARC
8
DEFAULT_255_1_234
10
23.0764531
20
95.0556949
40
0.8622784
50
351.8069023
51
357.7959224
0
ARC
8
DEFAULT_255_1_234
10
22.7529087
20
95.0724721
40
1.1862365
50
357.5871873
51
359.2677531
0
LINE
8
DEFAULT_255_1_234
10
22.5173458
20
101.0597211
11
22.8209456
21
100.472601
0
LINE
8
DEFAULT_255_1_234
10
22.8209456
20
100.472601
11
23.1261516
21
101.0597211
0
LINE
8
DEFAULT_255_1_234
10
23.1261516
20
101.0597211
11
23.3012435
21
101.0597211
0
LINE
8
DEFAULT_255_1_234
10
23.3012435
20
101.0597211
11
22.8980502
21
100.3264234
0
LINE
8
DEFAULT_255_1_234
10
22.8980502
20
100.3264234
11
22.8980502
21
99.8903
0
LINE
8
DEFAULT_255_1_234
10
22.8980502
20
99.8903
11
22.7438409
21
99.8903
0
LINE
8
DEFAULT_255_1_234
10
22.7438409
20
99.8903
11
22.7438409
21
100.3264234
0
LINE
8
DEFAULT_255_1_234
10
22.7438409
20
100.3264234
11
22.3406476
21
101.0597211
0
LINE
8
DEFAULT_255_1_234
10
22.3406476
20
101.0597211
11
22.5173458
21
101.0597211
0
LINE
8
DEFAULT_255_1_234
10
24.1325284
20
100.5922739
11
24.1325284
21
100.5489025
0
LINE
8
DEFAULT_255_1_234
10
23.5903861
20
99.8894968
11
23.5614718
21
99.8894968
0
LINE
8
DEFAULT_255_1_234
10
23.5614718
20
99.8894968
11
23.5614718
21
100.0147919
0
LINE
8
DEFAULT_255_1_234
10
23.5614718
20
100.0147919
11
23.5927956
21
100.0147919
0
LINE
8
DEFAULT_255_1_234
10
23.9839413
20
100.5633597
11
23.9839413
21
100.6227945
0
ARC
8
DEFAULT_255_1_234
10
23.7045682
20
100.6379403
40
0.3635579
50
297.4037347
51
320.016758
0
ARC
8
DEFAULT_255_1_234
10
23.7335631
20
100.582224
40
0.3007486
50
270.2633101
51
297.3851877
0
ARC
8
DEFAULT_255_1_234
10
23.7301587
20
100.6285904
40
0.3471448
50
269.9966443
51
270.7900392
0
ARC
8
DEFAULT_255_1_234
10
23.7276068
20
100.6284143
40
0.3469779
50
254.5999133
51
270.4180344
0
ARC
8
DEFAULT_255_1_234
10
23.7133428
20
100.5719647
40
0.2887697
50
236.4717942
51
254.3541279
0
ARC
8
DEFAULT_255_1_234
10
23.7289645
20
100.5929711
40
0.3149125
50
208.4727207
51
236.2134933
0
ARC
8
DEFAULT_255_1_234
10
23.792842
20
100.6320455
40
0.3897115
50
204.3447514
51
209.0453999
0
ARC
8
DEFAULT_255_1_234
10
23.8607996
20
100.6608656
40
0.4635101
50
183.9375985
51
204.1276318
0
ARC
8
DEFAULT_255_1_234
10
23.9516247
20
100.6706482
40
0.5548037
50
179.9652252
51
184.3013875
0
ARC
8
DEFAULT_255_1_234
10
23.9276294
20
100.6739507
40
0.5308164
50
166.7585989
51
180.3201225
0
ARC
8
DEFAULT_255_1_234
10
23.8429907
20
100.6923488
40
0.4442163
50
154.6955053
51
166.5679793
0
ARC
8
DEFAULT_255_1_234
10
23.7576777
20
100.735321
40
0.3487299
50
136.3324195
51
155.0871442
0
ARC
8
DEFAULT_255_1_234
10
23.729585
20
100.7593954
40
0.3117924
50
121.236733
51
135.9680508
0
ARC
8
DEFAULT_255_1_234
10
23.7436348
20
100.7333743
40
0.3413302
50
96.845628
51
120.9881519
0
ARC
8
DEFAULT_255_1_234
10
23.758193
20
100.6398515
40
0.4359341
50
89.8870174
51
97.2802754
0
ARC
8
DEFAULT_255_1_234
10
23.7634368
20
100.7036095
40
0.3722009
50
70.6505584
51
90.6749113
0
ARC
8
DEFAULT_255_1_234
10
23.7765647
20
100.7549361
40
0.3194571
50
36.7492984
51
69.8219918
0
ARC
8
DEFAULT_255_1_234
10
23.6766812
20
100.6770993
40
0.4460685
50
15.39587
51
37.0840084
0
ARC
8
DEFAULT_255_1_234
10
23.4637245
20
100.6150242
40
0.6678714
50
3.9488873
51
15.6798563
0
ARC
8
DEFAULT_255_1_234
10
23.2235873
20
100.5933964
40
0.9089418
50
359.929245
51
4.2665314
0
ARC
8
DEFAULT_255_1_234
10
22.763031
20
100.5422513
40
1.3695135
50
352.8366322
51
0.2782669
0
ARC
8
DEFAULT_255_1_234
10
23.2917989
20
100.4735629
40
0.8363105
50
341.8359505
51
352.9884176
0
ARC
8
DEFAULT_255_1_234
10
23.6136708
20
100.36507
40
0.4966642
50
322.8578092
51
342.1527901
0
ARC
8
DEFAULT_255_1_234
10
23.7000664
20
100.3061384
40
0.3922466
50
319.334325
51
322.0998941
0
ARC
8
DEFAULT_255_1_234
10
23.6691001
20
100.3372209
40
0.4360033
50
285.9541367
51
318.8878087
0
ARC
8
DEFAULT_255_1_234
10
23.5964262
20
100.56826
40
0.678149
50
272.9281676
51
286.4922826
0
ARC
8
DEFAULT_255_1_234
10
23.577438
20
100.7933587
40
0.9039547
50
270.8207226
51
273.4012994
0
ARC
8
DEFAULT_255_1_234
10
23.5863231
20
100.6114666
40
0.5967098
50
270.6214993
51
281.4062806
0
ARC
8
DEFAULT_255_1_234
10
23.6293212
20
100.4058833
40
0.3866861
50
281.1852553
51
299.0621114
0
ARC
8
DEFAULT_255_1_234
10
23.6666783
20
100.3337798
40
0.3055236
50
299.5067782
51
313.1200873
0
ARC
8
DEFAULT_255_1_234
10
23.668875
20
100.3258554
40
0.2982623
50
313.8526205
51
338.5989322
0
ARC
8
DEFAULT_255_1_234
10
23.5064824
20
100.3925781
40
0.4738131
50
338.2523585
51
351.2430902
0
ARC
8
DEFAULT_255_1_234
10
23.265412
20
100.4335447
40
0.7183203
50
350.9409515
51
357.6691871
0
ARC
8
DEFAULT_255_1_234
10
23.754455
20
100.6337764
40
0.2294452
50
269.9447023
51
306.8248917
0
ARC
8
DEFAULT_255_1_234
10
23.7307465
20
100.6760898
40
0.2775994
50
305.5072438
51
327.0773448
0
ARC
8
DEFAULT_255_1_234
10
23.7425906
20
100.6666025
40
0.2625056
50
327.4104943
51
336.840169
0
ARC
8
DEFAULT_255_1_234
10
23.4331971
20
100.6260302
40
0.5507537
50
359.6633817
51
10.117533
0
ARC
8
DEFAULT_255_1_234
10
23.6085769
20
100.6584777
40
0.372403
50
9.9430141
51
26.7700076
0
ARC
8
DEFAULT_255_1_234
10
23.6682981
20
100.6860187
40
0.3066865
50
27.2015464
51
34.6829435
0
ARC
8
DEFAULT_255_1_234
10
23.7172462
20
100.7227977
40
0.245519
50
34.1250343
51
50.3070065
0
ARC
8
DEFAULT_255_1_234
10
23.7619141
20
100.7762385
40
0.1758693
50
50.3851167
51
90.6705993
0
ARC
8
DEFAULT_255_1_234
10
23.7572374
20
100.7457799
40
0.2063326
50
89.272901
51
111.9140407
0
ARC
8
DEFAULT_255_1_234
10
23.7552902
20
100.759844
40
0.1925887
50
112.9382311
51
142.5320782
0
ARC
8
DEFAULT_255_1_234
10
23.8099082
20
100.7154969
40
0.2629232
50
142.1021256
51
166.3835592
0
ARC
8
DEFAULT_255_1_234
10
23.9280387
20
100.6849915
40
0.3849193
50
166.1100289
51
178.665427
0
ARC
8
DEFAULT_255_1_234
10
24.0327977
20
100.6791117
40
0.4897989
50
178.2632126
51
180.0111093
0
ARC
8
DEFAULT_255_1_234
10
23.9526097
20
100.6762728
40
0.40962
50
179.6161962
51
191.8787166
0
ARC
8
DEFAULT_255_1_234
10
23.8305936
20
100.6492896
40
0.2846655
50
191.6191692
51
215.2972286
0
ARC
8
DEFAULT_255_1_234
10
23.8109127
20
100.6377918
40
0.2619665
50
215.7320102
51
216.5355409
0
ARC
8
DEFAULT_255_1_234
10
23.7570213
20
100.5945647
40
0.1929497
50
215.7486685
51
239.9727502
0
ARC
8
DEFAULT_255_1_234
10
23.7500129
20
100.5894894
40
0.1850822
50
241.0650169
51
269.2810483
0
ARC
8
DEFAULT_255_1_234
10
23.7542044
20
100.6385371
40
0.2342059
50
268.4062526
51
270.0071348
0
LINE
8
DEFAULT_255_1_234
10
22.5173458
20
106.3514211
11
22.8209456
21
105.764301
0
LINE
8
DEFAULT_255_1_234
10
22.8209456
20
105.764301
11
23.1261516
21
106.3514211
0
LINE
8
DEFAULT_255_1_234
10
23.1261516
20
106.3514211
11
23.3012435
21
106.3514211
0
LINE
8
DEFAULT_255_1_234
10
23.3012435
20
106.3514211
11
22.8980502
21
105.6181234
0
LINE
8
DEFAULT_255_1_234
10
22.8980502
20
105.6181234
11
22.8980502
21
105.182
0
LINE
8
DEFAULT_255_1_234
10
22.8980502
20
105.182
11
22.7438409
21
105.182
0
LINE
8
DEFAULT_255_1_234
10
22.7438409
20
105.182
11
22.7438409
21
105.6181234
0
LINE
8
DEFAULT_255_1_234
10
22.7438409
20
105.6181234
11
22.3406476
21
106.3514211
0
LINE
8
DEFAULT_255_1_234
10
22.3406476
20
106.3514211
11
22.5173458
21
106.3514211
0
ARC
8
DEFAULT_255_1_234
10
23.8406662
20
106.0436703
40
0.2822356
50
338.8763615
51
0.5166041
0
ARC
8
DEFAULT_255_1_234
10
23.8575316
20
106.0391208
40
0.2648703
50
325.8412414
51
338.4795939
0
ARC
8
DEFAULT_255_1_234
10
23.8184684
20
106.0662042
40
0.3124019
50
296.7586019
51
325.753654
0
ARC
8
DEFAULT_255_1_234
10
23.7896792
20
106.1146789
40
0.368668
50
296.0902311
51
297.3618122
0
ARC
8
DEFAULT_255_1_234
10
23.815425
20
105.4592041
40
0.3518806
50
47.9009248
51
67.1946869
0
ARC
8
DEFAULT_255_1_234
10
23.8350492
20
105.4838395
40
0.320451
50
35.236241
51
47.551371
0
ARC
8
DEFAULT_255_1_234
10
23.861211
20
105.5012993
40
0.2890103
50
359.2759738
51
35.4014081
0
ARC
8
DEFAULT_255_1_234
10
23.7867141
20
105.4939826
40
0.3635026
50
343.1294516
51
0.5776525
0
ARC
8
DEFAULT_255_1_234
10
23.8591686
20
105.474033
40
0.2883832
50
310.8497458
51
342.744803
0
ARC
8
DEFAULT_255_1_234
10
23.8173799
20
105.5217294
40
0.3517954
50
281.5473923
51
310.9169905
0
ARC
8
DEFAULT_255_1_234
10
23.7817249
20
105.6770084
40
0.5110832
50
269.6192722
51
281.9789957
0
ARC
8
DEFAULT_255_1_234
10
23.7745038
20
105.6770828
40
0.5111606
50
257.4584469
51
270.4287458
0
ARC
8
DEFAULT_255_1_234
10
23.7364181
20
105.5167344
40
0.3463762
50
228.7553743
51
257.8484423
0
ARC
8
DEFAULT_255_1_234
10
23.7054379
20
105.4794442
40
0.297916
50
184.0104442
51
228.5071787
0
ARC
8
DEFAULT_255_1_234
10
23.8217323
20
105.4971512
40
0.4152734
50
179.9315461
51
185.3254504
0
ARC
8
DEFAULT_255_1_234
10
23.7040969
20
105.5008992
40
0.2976554
50
145.6795913
51
180.6259649
0
ARC
8
DEFAULT_255_1_234
10
23.7204318
20
105.4894929
40
0.3175776
50
115.5537925
51
145.6416199
0
ARC
8
DEFAULT_255_1_234
10
23.7545249
20
105.4284028
40
0.3874232
50
113.2437915
51
116.2054627
0
ARC
8
DEFAULT_255_1_234
10
23.7392461
20
106.068258
40
0.3154751
50
222.9548379
51
244.1372485
0
ARC
8
DEFAULT_255_1_234
10
23.7270536
20
106.0545834
40
0.2972382
50
213.3439227
51
222.6271327
0
ARC
8
DEFAULT_255_1_234
10
23.7078471
20
106.0415308
40
0.274019
50
180.4316517
51
213.2713999
0
ARC
8
DEFAULT_255_1_234
10
23.7653472
20
106.046211
40
0.33158
50
179.9992944
51
181.1655061
0
ARC
8
DEFAULT_255_1_234
10
23.8062889
20
106.0496561
40
0.3725376
50
164.6186108
51
180.5292368
0
ARC
8
DEFAULT_255_1_234
10
23.7164752
20
106.0738101
40
0.2795349
50
132.2454369
51
164.5092287
0
ARC
8
DEFAULT_255_1_234
10
23.7451856
20
106.0413028
40
0.3229019
50
100.7052766
51
132.1387266
0
ARC
8
DEFAULT_255_1_234
10
23.7756828
20
105.9035086
40
0.4639835
50
89.6732617
51
101.2449487
0
ARC
8
DEFAULT_255_1_234
10
23.7819026
20
105.920999
40
0.4464999
50
76.2876631
51
90.4586123
0
ARC
8
DEFAULT_255_1_234
10
23.8125258
20
106.043222
40
0.3205023
50
47.8240157
51
76.4266918
0
ARC
8
DEFAULT_255_1_234
10
23.8347808
20
106.069259
40
0.2862661
50
6.9168658
51
47.6261438
0
ARC
8
DEFAULT_255_1_234
10
23.7161211
20
106.047337
40
0.4067708
50
359.8419705
51
7.9694496
0
ARC
8
DEFAULT_255_1_234
10
23.7503108
20
105.5032925
40
0.2513121
50
359.4454068
51
16.9256425
0
ARC
8
DEFAULT_255_1_234
10
23.7971919
20
105.5162033
40
0.2027071
50
17.292259
51
45.462717
0
ARC
8
DEFAULT_255_1_234
10
23.7917855
20
105.5115434
40
0.2098212
50
45.3028762
51
83.1921472
0
ARC
8
DEFAULT_255_1_234
10
23.7774539
20
105.4313895
40
0.2911472
50
82.2614531
51
90.143954
0
ARC
8
DEFAULT_255_1_234
10
23.7743659
20
105.454695
40
0.2678513
50
89.4959189
51
104.8579811
0
ARC
8
DEFAULT_255_1_234
10
23.7566918
20
105.521689
40
0.1985654
50
104.8855873
51
135.2448349
0
ARC
8
DEFAULT_255_1_234
10
23.7616691
20
105.5172336
40
0.2052373
50
135.3398955
51
172.104394
0
ARC
8
DEFAULT_255_1_234
10
23.8423749
20
105.5017925
40
0.2873299
50
171.2651929
51
180.1859362
0
ARC
8
DEFAULT_255_1_234
10
23.825445
20
105.4985733
40
0.2704083
50
179.515471
51
193.6466734
0
ARC
8
DEFAULT_255_1_234
10
23.7438219
20
105.4777777
40
0.1861855
50
193.3540587
51
225.8256931
0
ARC
8
DEFAULT_255_1_234
10
23.7478976
20
105.4848524
40
0.1941102
50
226.418029
51
255.8553723
0
ARC
8
DEFAULT_255_1_234
10
23.7735409
20
105.5784998
40
0.2911917
50
255.4655572
51
268.7985967
0
ARC
8
DEFAULT_255_1_234
10
23.7782601
20
105.6623491
40
0.3751331
50
268.3464808
51
270.0104874
0
ARC
8
DEFAULT_255_1_234
10
23.7805989
20
105.5939138
40
0.3067064
50
269.575914
51
282.0823146
0
ARC
8
DEFAULT_255_1_234
10
23.8030898
20
105.4944803
40
0.2047712
50
281.7522535
51
306.6056425
0
ARC
8
DEFAULT_255_1_234
10
23.8129324
20
105.4783487
40
0.1859604
50
307.1350025
51
314.0277951
0
ARC
8
DEFAULT_255_1_234
10
23.8093408
20
105.4809766
40
0.1903475
50
314.2553419
51
350.169324
0
ARC
8
DEFAULT_255_1_234
10
23.7241877
20
105.4994409
40
0.2774269
50
349.4145679
51
0.2930737
0
ARC
8
DEFAULT_255_1_234
10
23.776231
20
106.0153353
40
0.2300764
50
89.477591
51
105.729794
0
ARC
8
DEFAULT_255_1_234
10
23.7626224
20
106.0658637
40
0.1777519
50
105.922966
51
135.1662921
0
ARC
8
DEFAULT_255_1_234
10
23.7646726
20
106.0644419
40
0.1802087
50
135.3053131
51
168.9882338
0
ARC
8
DEFAULT_255_1_234
10
23.8474299
20
106.0454721
40
0.2650806
50
168.3802067
51
180.3602358
0
ARC
8
DEFAULT_255_1_234
10
23.8245878
20
106.0417041
40
0.2422425
50
179.5029707
51
194.9126783
0
ARC
8
DEFAULT_255_1_234
10
23.7660539
20
106.026311
40
0.1817188
50
194.9722181
51
224.1943972
0
ARC
8
DEFAULT_255_1_234
10
23.7632406
20
106.0240169
40
0.1781027
50
224.2961434
51
262.0157375
0
ARC
8
DEFAULT_255_1_234
10
23.7774649
20
106.0971661
40
0.2525492
50
261.1250369
51
270.1959853
0
ARC
8
DEFAULT_255_1_234
10
23.7804404
20
106.0784339
40
0.233825
50
269.4825617
51
285.0988277
0
ARC
8
DEFAULT_255_1_234
10
23.7958563
20
106.020599
40
0.1739712
50
285.1585659
51
315.9484648
0
ARC
8
DEFAULT_255_1_234
10
23.7869575
20
106.0287886
40
0.1860616
50
316.0412958
51
351.9162715
0
ARC
8
DEFAULT_255_1_234
10
23.713653
20
106.0429245
40
0.2606517
50
351.1056823
51
0.1936567
0
ARC
8
DEFAULT_255_1_234
10
23.7399359
20
106.0459369
40
0.234377
50
359.4789506
51
16.0679113
0
ARC
8
DEFAULT_255_1_234
10
23.7875318
20
106.058781
40
0.1850875
50
16.3251951
51
44.791304
0
ARC
8
DEFAULT_255_1_234
10
23.7857599
20
106.0588339
40
0.186312
50
44.3958661
51
88.2498933
0
ARC
8
DEFAULT_255_1_234
10
23.7784153
20
105.9977154
40
0.2476868
50
86.9833827
51
90.0200148
0
LINE
8
DEFAULT_255_1_234
10
22.6349378
20
111.0094169
11
22.6349378
21
111.1306962
0
LINE
8
DEFAULT_255_1_234
10
22.6349378
20
111.1306962
11
22.746579
21
111.1306962
0
LINE
8
DEFAULT_255_1_234
10
22.5562268
20
111.3363087
11
22.4076396
21
111.3363087
0
LINE
8
DEFAULT_255_1_234
10
22.3971983
20
110.7821188
11
22.5465887
21
110.7821188
0
LINE
8
DEFAULT_255_1_234
10
22.746579
20
111.0094169
11
22.6349378
21
111.0094169
0
ARC
8
DEFAULT_255_1_234
10
22.7436656
20
111.4699713
40
0.3392876
50
270.4919872
51
281.8951556
0
ARC
8
DEFAULT_255_1_234
10
22.7677918
20
111.3597702
40
0.2264817
50
281.6691735
51
301.2943132
0
ARC
8
DEFAULT_255_1_234
10
22.7848128
20
111.3286304
40
0.1910381
50
301.7833094
51
311.7545298
0
ARC
8
DEFAULT_255_1_234
10
22.7939704
20
111.3184748
40
0.1773635
50
311.7323931
51
354.2802411
0
ARC
8
DEFAULT_255_1_234
10
22.7213329
20
111.3309722
40
0.2509385
50
353.0937916
51
0.1181479
0
ARC
8
DEFAULT_255_1_234
10
22.6752114
20
111.3357386
40
0.2970898
50
359.1805295
51
15.0453146
0
ARC
8
DEFAULT_255_1_234
10
22.8097951
20
111.3749992
40
0.1569564
50
13.9577229
51
77.6713066
0
ARC
8
DEFAULT_255_1_234
10
22.771148
20
111.2364949
40
0.3006298
50
76.1116566
51
90.7026153
0
ARC
8
DEFAULT_255_1_234
10
22.7652318
20
111.2638545
40
0.2732568
50
89.5324876
51
103.531937
0
ARC
8
DEFAULT_255_1_234
10
22.7451762
20
111.3437884
40
0.1908508
50
103.2931773
51
133.5619022
0
ARC
8
DEFAULT_255_1_234
10
22.7407251
20
111.3497375
40
0.1834746
50
133.8349307
51
173.5344437
0
ARC
8
DEFAULT_255_1_234
10
22.8130294
20
111.3369213
40
0.2568033
50
172.5096846
51
180.1366907
0
ARC
8
DEFAULT_255_1_234
10
22.7179188
20
111.3403622
40
0.3103056
50
155.3484492
51
180.7484736
0
ARC
8
DEFAULT_255_1_234
10
22.7130277
20
111.3374846
40
0.3070957
50
131.5744599
51
154.4798489
0
ARC
8
DEFAULT_255_1_234
10
22.7443424
20
111.305831
40
0.3515643
50
96.9875458
51
131.9690667
0
ARC
8
DEFAULT_255_1_234
10
22.7662904
20
111.1812636
40
0.4779224
50
89.8596053
51
97.7825159
0
ARC
8
DEFAULT_255_1_234
10
22.7710967
20
111.1550616
40
0.5041361
50
78.3655447
51
90.4131539
0
ARC
8
DEFAULT_255_1_234
10
22.8068885
20
111.3209887
40
0.3344039
50
56.6229102
51
78.638727
0
ARC
8
DEFAULT_255_1_234
10
22.8283829
20
111.3585805
40
0.2912001
50
47.0253525
51
56.0854072
0
ARC
8
DEFAULT_255_1_234
10
22.8303609
20
111.3625223
40
0.2869704
50
10.9208013
51
46.7778124
0
ARC
8
DEFAULT_255_1_234
10
22.6939675
20
111.3309857
40
0.426899
50
359.6364486
51
11.6087304
0
ARC
8
DEFAULT_255_1_234
10
22.8774519
20
111.3294752
40
0.243409
50
332.3549906
51
359.7179418
0
ARC
8
DEFAULT_255_1_234
10
22.8124121
20
111.3603142
40
0.3153459
50
325.2333722
51
332.8745602
0
ARC
8
DEFAULT_255_1_234
10
22.8276744
20
111.3496828
40
0.2967456
50
292.9802137
51
325.2392345
0
ARC
8
DEFAULT_255_1_234
10
22.8002118
20
111.4030863
40
0.3566604
50
292.5402179
51
293.6924929
0
ARC
8
DEFAULT_255_1_234
10
22.8394714
20
110.7576091
40
0.3307468
50
57.6435486
51
72.8625112
0
ARC
8
DEFAULT_255_1_234
10
22.8749214
20
110.8150549
40
0.2632492
50
36.7248896
51
57.4697979
0
ARC
8
DEFAULT_255_1_234
10
22.8737847
20
110.816322
40
0.2634081
50
8.0545065
51
36.356114
0
ARC
8
DEFAULT_255_1_234
10
22.7875032
20
110.8008174
40
0.3510261
50
359.8320645
51
8.5869982
0
ARC
8
DEFAULT_255_1_234
10
22.7499808
20
110.7960101
40
0.3885653
50
343.9829931
51
0.5571613
0
ARC
8
DEFAULT_255_1_234
10
22.8386005
20
110.7717438
40
0.2966924
50
311.6359546
51
343.7651759
0
ARC
8
DEFAULT_255_1_234
10
22.8007574
20
110.8144102
40
0.3537231
50
279.7829875
51
311.6255694
0
ARC
8
DEFAULT_255_1_234
10
22.7706351
20
110.958128
40
0.5004971
50
269.7286406
51
280.3856417
0
ARC
8
DEFAULT_255_1_234
10
22.7644423
20
110.9539996
40
0.4963778
50
256.6828919
51
270.4412052
0
ARC
8
DEFAULT_255_1_234
10
22.7305719
20
110.8155394
40
0.3538406
50
229.4223008
51
256.8556159
0
ARC
8
DEFAULT_255_1_234
10
22.6891112
20
110.7688736
40
0.2914296
50
181.818294
51
229.6455059
0
ARC
8
DEFAULT_255_1_234
10
22.7931068
20
110.7819496
40
0.3959084
50
179.9755256
51
183.2323064
0
ARC
8
DEFAULT_255_1_234
10
22.7758814
20
110.7799037
40
0.2293034
50
179.4465117
51
196.2869258
0
ARC
8
DEFAULT_255_1_234
10
22.7271222
20
110.7665651
40
0.1787621
50
196.5661473
51
227.705904
0
ARC
8
DEFAULT_255_1_234
10
22.7435317
20
110.7849155
40
0.2033784
50
227.7652068
51
257.8762805
0
ARC
8
DEFAULT_255_1_234
10
22.7660287
20
110.8792156
40
0.3003081
50
257.4584385
51
270.426602
0
ARC
8
DEFAULT_255_1_234
10
22.7705853
20
110.9081996
40
0.329292
50
269.5962073
51
280.8789248
0
ARC
8
DEFAULT_255_1_234
10
22.7935382
20
110.7935685
40
0.2123908
50
280.6346389
51
299.8595945
0
ARC
8
DEFAULT_255_1_234
10
22.8126289
20
110.7573212
40
0.171457
50
300.3576302
51
314.5517981
0
ARC
8
DEFAULT_255_1_234
10
22.8043349
20
110.7633919
40
0.1816095
50
315.0728369
51
345.0431014
0
ARC
8
DEFAULT_255_1_234
10
22.7120163
20
110.7902841
40
0.2777492
50
344.5986631
51
357.9269593
0
ARC
8
DEFAULT_255_1_234
10
22.6224489
20
110.7964276
40
0.3674917
50
357.4748886
51
0.0231117
0
ARC
8
DEFAULT_255_1_234
10
22.7247599
20
110.7988679
40
0.2651907
50
359.5047933
51
13.4239635
0
ARC
8
DEFAULT_255_1_234
10
22.8114242
20
110.8210478
40
0.1757509
50
12.9498199
51
48.7551375
0
ARC
8
DEFAULT_255_1_234
10
22.7931976
20
110.79614
40
0.2065134
50
49.5088623
51
72.1836453
0
ARC
8
DEFAULT_255_1_234
10
22.7574129
20
110.6899291
40
0.3185836
50
71.9010081
51
84.3554254
0
ARC
8
DEFAULT_255_1_234
10
22.7412761
20
110.5538326
40
0.4556151
50
84.0193428
51
89.333121
0
LINE
8
DEFAULT_255_1_234
10
24.0862729
20
110.8447663
11
24.2412854
21
110.8447663
0
LINE
8
DEFAULT_255_1_234
10
23.3409276
20
111.0037947
11
23.3409276
21
111.1162391
0
LINE
8
DEFAULT_255_1_234
10
24.2412854
20
111.2672357
11
24.0862729
21
111.2672357
0
LINE
8
DEFAULT_255_1_234
10
23.4959401
20
111.1122232
11
23.4959401
21
110.9989757
0
ARC
8
DEFAULT_255_1_234
10
23.6932241
20
110.9044846
40
0.5513052
50
340.1774281
51
353.7814284
0
ARC
8
DEFAULT_255_1_234
10
23.8503594
20
110.8459582
40
0.3836379
50
311.4558989
51
340.4421614
0
ARC
8
DEFAULT_255_1_234
10
23.8470262
20
110.8570528
40
0.3941894
50
282.4333181
51
310.7513653
0
ARC
8
DEFAULT_255_1_234
10
23.8031001
20
111.0385679
40
0.5809175
50
269.9358511
51
282.809604
0
ARC
8
DEFAULT_255_1_234
10
23.7979067
20
111.1843212
40
0.7266847
50
270.0021091
51
270.3581957
0
ARC
8
DEFAULT_255_1_234
10
23.7926484
20
110.9242585
40
0.4666519
50
250.7884749
51
270.6489167
0
ARC
8
DEFAULT_255_1_234
10
23.7758319
20
110.8605319
40
0.4009729
50
219.3627325
51
250.0611886
0
ARC
8
DEFAULT_255_1_234
10
23.858753
20
110.9310042
40
0.5097822
50
193.5479632
51
219.5756669
0
ARC
8
DEFAULT_255_1_234
10
24.0959151
20
110.9925919
40
0.7547848
50
181.1218675
51
193.87563
0
ARC
8
DEFAULT_255_1_234
10
24.3029332
20
111.003658
40
0.9620055
50
179.9918545
51
181.5394234
0
ARC
8
DEFAULT_255_1_234
10
24.1178434
20
111.1199788
40
0.7769248
50
169.5837241
51
180.2757934
0
ARC
8
DEFAULT_255_1_234
10
23.9341372
20
111.1539229
40
0.590109
50
155.0365899
51
169.6003176
0
ARC
8
DEFAULT_255_1_234
10
23.8205836
20
111.2086677
40
0.4640625
50
136.783148
51
155.2472683
0
ARC
8
DEFAULT_255_1_234
10
23.7816313
20
111.2417562
40
0.4130255
50
121.7633186
51
136.428115
0
ARC
8
DEFAULT_255_1_234
10
23.7951275
20
111.2168227
40
0.4413323
50
95.6459699
51
121.5490577
0
ARC
8
DEFAULT_255_1_234
10
23.8108557
20
111.1059949
40
0.55319
50
89.924208
51
96.1377933
0
ARC
8
DEFAULT_255_1_234
10
23.815899
20
111.1178542
40
0.5413475
50
76.6779277
51
90.4563316
0
ARC
8
DEFAULT_255_1_234
10
23.8552613
20
111.2769114
40
0.3775041
50
47.485847
51
76.9287264
0
ARC
8
DEFAULT_255_1_234
10
23.8405586
20
111.2669159
40
0.3948286
50
16.5424086
51
46.8933463
0
ARC
8
DEFAULT_255_1_234
10
23.6797743
20
111.2140861
40
0.564021
50
5.4072051
51
17.0365086
0
ARC
8
DEFAULT_255_1_234
10
23.535876
20
111.1909679
40
0.5556559
50
7.8891745
51
15.9239216
0
ARC
8
DEFAULT_255_1_234
10
23.7345773
20
111.2486631
40
0.3487515
50
15.7653144
51
27.9410532
0
ARC
8
DEFAULT_255_1_234
10
23.8449991
20
111.307779
40
0.2235026
50
27.8166557
51
46.4008329
0
ARC
8
DEFAULT_255_1_234
10
23.8499634
20
111.3072082
40
0.2205286
50
47.4371857
51
75.0698205
0
ARC
8
DEFAULT_255_1_234
10
23.8191029
20
111.1997765
40
0.3322915
50
74.7008593
51
87.8124495
0
ARC
8
DEFAULT_255_1_234
10
23.8117716
20
111.0941844
40
0.4380987
50
87.3814673
51
90.0240855
0
ARC
8
DEFAULT_255_1_234
10
23.8079259
20
111.2119291
40
0.3203749
50
89.3451631
51
108.5745436
0
ARC
8
DEFAULT_255_1_234
10
23.7942365
20
111.2632908
40
0.2673494
50
109.2998449
51
143.3037509
0
ARC
8
DEFAULT_255_1_234
10
23.8704437
20
111.2046881
40
0.3634757
50
143.0753173
51
163.1916937
0
ARC
8
DEFAULT_255_1_234
10
24.0656165
20
111.1430967
40
0.5681262
50
162.9373603
51
174.6208611
0
ARC
8
DEFAULT_255_1_234
10
24.3282207
20
111.114301
40
0.8322832
50
174.3419979
51
180.1430411
0
ARC
8
DEFAULT_255_1_234
10
24.2351363
20
110.9948698
40
0.7392076
50
179.6817502
51
189.150529
0
ARC
8
DEFAULT_255_1_234
10
23.9850611
20
110.953219
40
0.4856932
50
188.9910863
51
203.5773039
0
ARC
8
DEFAULT_255_1_234
10
23.8770944
20
110.9084211
40
0.3688271
50
203.9077269
51
215.1312379
0
ARC
8
DEFAULT_255_1_234
10
23.7848038
20
110.8368941
40
0.2522457
50
213.9071664
51
263.8849284
0
ARC
8
DEFAULT_255_1_234
10
23.7973367
20
110.9153518
40
0.3316174
50
263.1758525
51
270.1031083
0
ARC
8
DEFAULT_255_1_234
10
23.8005459
20
111.0400365
40
0.4563091
50
269.6719807
51
279.0609165
0
ARC
8
DEFAULT_255_1_234
10
23.8272227
20
110.8787907
40
0.2928759
50
278.8750225
51
293.6346586
0
ARC
8
DEFAULT_255_1_234
10
23.8592435
20
110.80359
40
0.2111472
50
293.8553404
51
310.0518804
0
ARC
8
DEFAULT_255_1_234
10
23.8597289
20
110.7973516
40
0.2060917
50
311.0646779
51
332.0108348
0
ARC
8
DEFAULT_255_1_234
10
23.7405016
20
110.8630978
40
0.3422352
50
331.6588543
51
343.2878891
0
ARC
8
DEFAULT_255_1_234
10
23.5342531
20
110.9264798
40
0.5580003
50
343.1446044
51
351.010618
0
ARC
8
DEFAULT_255_1_234
10
23.3801177
20
110.9545871
40
0.7146438
50
350.7157277
51
351.1602153
0
LINE
8
DEFAULT_255_1_234
10
22.5173458
20
116.9347211
11
22.8209456
21
116.347601
0
LINE
8
DEFAULT_255_1_234
10
22.8209456
20
116.347601
11
23.1261516
21
116.9347211
0
LINE
8
DEFAULT_255_1_234
10
23.1261516
20
116.9347211
11
23.3012435
21
116.9347211
0
LINE
8
DEFAULT_255_1_234
10
23.3012435
20
116.9347211
11
22.8980502
21
116.2014234
0
LINE
8
DEFAULT_255_1_234
10
22.8980502
20
116.2014234
11
22.8980502
21
115.7653
0
LINE
8
DEFAULT_255_1_234
10
22.8980502
20
115.7653
11
22.7438409
21
115.7653
0
LINE
8
DEFAULT_255_1_234
10
22.7438409
20
115.7653
11
22.7438409
21
116.2014234
0
LINE
8
DEFAULT_255_1_234
10
22.7438409
20
116.2014234
11
22.3406476
21
116.9347211
0
LINE
8
DEFAULT_255_1_234
10
22.3406476
20
116.9347211
11
22.5173458
21
116.9347211
0
LINE
8
DEFAULT_255_1_234
10
24.1686712
20
116.9347211
11
24.1686712
21
116.851191
0
LINE
8
DEFAULT_255_1_234
10
24.1686712
20
116.851191
11
23.6843574
21
115.7653
0
LINE
8
DEFAULT_255_1_234
10
23.6843574
20
115.7653
11
23.5285417
21
115.7653
0
LINE
8
DEFAULT_255_1_234
10
23.5285417
20
115.7653
11
24.0112492
21
116.8126387
0
LINE
8
DEFAULT_255_1_234
10
24.0112492
20
116.8126387
11
23.3783482
21
116.8126387
0
LINE
8
DEFAULT_255_1_234
10
23.3783482
20
116.8126387
11
23.3783482
21
116.9347211
0
LINE
8
DEFAULT_255_1_234
10
23.3783482
20
116.9347211
11
24.1686712
21
116.9347211
0
LINE
8
DEFAULT_255_1_234
10
22.5173458
20
122.2264211
11
22.8209456
21
121.639301
0
LINE
8
DEFAULT_255_1_234
10
22.8209456
20
121.639301
11
23.1261516
21
122.2264211
0
LINE
8
DEFAULT_255_1_234
10
23.1261516
20
122.2264211
11
23.3012435
21
122.2264211
0
LINE
8
DEFAULT_255_1_234
10
23.3012435
20
122.2264211
11
22.8980502
21
121.4931234
0
LINE
8
DEFAULT_255_1_234
10
22.8980502
20
121.4931234
11
22.8980502
21
121.057
0
LINE
8
DEFAULT_255_1_234
10
22.8980502
20
121.057
11
22.7438409
21
121.057
0
LINE
8
DEFAULT_255_1_234
10
22.7438409
20
121.057
11
22.7438409
21
121.4931234
0
LINE
8
DEFAULT_255_1_234
10
22.7438409
20
121.4931234
11
22.3406476
21
122.2264211
0
LINE
8
DEFAULT_255_1_234
10
22.3406476
20
122.2264211
11
22.5173458
21
122.2264211
0
LINE
8
DEFAULT_255_1_234
10
23.9702873
20
122.2272243
11
23.996792
21
122.2272243
0
LINE
8
DEFAULT_255_1_234
10
23.996792
20
122.2272243
11
23.996792
21
122.101126
0
LINE
8
DEFAULT_255_1_234
10
23.996792
20
122.101126
11
23.9694841
21
122.101126
0
LINE
8
DEFAULT_255_1_234
10
23.4225228
20
121.5019583
11
23.4225228
21
121.5589836
0
LINE
8
DEFAULT_255_1_234
10
23.5719131
20
121.5397075
11
23.5719131
21
121.4850917
0
ARC
8
DEFAULT_255_1_234
10
23.9747189
20
121.6013455
40
0.4998079
50
90.6001036
51
104.514704
0
ARC
8
DEFAULT_255_1_234
10
23.9358705
20
121.7458131
40
0.3502176
50
104.2855254
51
133.862935
0
ARC
8
DEFAULT_255_1_234
10
23.9522462
20
121.734983
40
0.3693984
50
134.5302688
51
161.6210873
0
ARC
8
DEFAULT_255_1_234
10
24.1175651
20
121.6766895
40
0.5446739
50
161.2849839
51
174.2076652
0
ARC
8
DEFAULT_255_1_234
10
24.2582588
20
121.6572787
40
0.6866274
50
173.7810589
51
174.9254635
0
ARC
8
DEFAULT_255_1_234
10
23.803242
20
121.5189839
40
0.3033419
50
95.8330959
51
138.9954921
0
ARC
8
DEFAULT_255_1_234
10
23.8255776
20
121.3911375
40
0.4328947
50
89.8753725
51
97.0544009
0
ARC
8
DEFAULT_255_1_234
10
23.8303242
20
121.4746748
40
0.3493769
50
71.6407809
51
90.6240094
0
ARC
8
DEFAULT_255_1_234
10
23.8453815
20
121.5301082
40
0.2920396
50
39.6367836
51
71.019018
0
ARC
8
DEFAULT_255_1_234
10
23.7817288
20
121.4750998
40
0.3761538
50
10.658731
51
39.9043955
0
ARC
8
DEFAULT_255_1_234
10
23.6269371
20
121.4414686
40
0.5345136
50
359.682601
51
11.132623
0
ARC
8
DEFAULT_255_1_234
10
23.6229502
20
121.434401
40
0.5385081
50
347.2486944
51
0.4369317
0
ARC
8
DEFAULT_255_1_234
10
23.7896979
20
121.3942807
40
0.3670249
50
318.1409698
51
347.6118597
0
ARC
8
DEFAULT_255_1_234
10
23.8221972
20
121.3675702
40
0.3250007
50
275.6342139
51
317.8248465
0
ARC
8
DEFAULT_255_1_234
10
23.8001083
20
121.4975219
40
0.4565864
50
269.8874292
51
276.7917694
0
ARC
8
DEFAULT_255_1_234
10
23.7946154
20
121.3949743
40
0.3540676
50
246.9140195
51
270.7437342
0
ARC
8
DEFAULT_255_1_234
10
23.7952544
20
121.3807384
40
0.3412781
50
218.1665114
51
245.878116
0
ARC
8
DEFAULT_255_1_234
10
23.8832005
20
121.4543279
40
0.455911
50
191.4115814
51
218.6077802
0
ARC
8
DEFAULT_255_1_234
10
24.0770094
20
121.4977833
40
0.6545001
50
179.6345085
51
191.7836486
0
ARC
8
DEFAULT_255_1_234
10
24.6352431
20
121.5656697
40
1.2127388
50
171.4525249
51
180.3158839
0
ARC
8
DEFAULT_255_1_234
10
24.1957307
20
121.6340608
40
0.7679464
50
157.9802646
51
171.6246686
0
ARC
8
DEFAULT_255_1_234
10
23.9743328
20
121.7223421
40
0.5296008
50
141.4298019
51
157.854097
0
ARC
8
DEFAULT_255_1_234
10
23.9101649
20
121.7677381
40
0.4511509
50
102.8715806
51
140.8564722
0
ARC
8
DEFAULT_255_1_234
10
23.9749264
20
121.5237552
40
0.7034845
50
90.3778349
51
103.5869322
0
ARC
8
DEFAULT_255_1_234
10
23.801104
20
121.463273
40
0.2370698
50
89.8751008
51
126.2071704
0
ARC
8
DEFAULT_255_1_234
10
23.805683
20
121.4478303
40
0.2522934
50
124.9745049
51
144.895901
0
ARC
8
DEFAULT_255_1_234
10
23.7881021
20
121.462156
40
0.2296779
50
145.2974905
51
160.2660252
0
ARC
8
DEFAULT_255_1_234
10
24.0953559
20
121.4819071
40
0.5234525
50
179.6514266
51
190.2855912
0
ARC
8
DEFAULT_255_1_234
10
23.9259697
20
121.4499786
40
0.3510893
50
190.0945431
51
207.5098196
0
ARC
8
DEFAULT_255_1_234
10
23.8693966
20
121.4230623
40
0.288489
50
207.9583163
51
216.3251085
0
ARC
8
DEFAULT_255_1_234
10
23.8354074
20
121.3951105
40
0.2445587
50
215.7661442
51
232.5456785
0
ARC
8
DEFAULT_255_1_234
10
23.7971057
20
121.3464482
40
0.1826382
50
232.8005391
51
270.6605633
0
ARC
8
DEFAULT_255_1_234
10
23.8016758
20
121.3828612
40
0.2190529
50
269.35537
51
288.4744281
0
ARC
8
DEFAULT_255_1_234
10
23.8109655
20
121.3479118
40
0.1829749
50
289.1833337
51
322.9683818
0
ARC
8
DEFAULT_255_1_234
10
23.7498177
20
121.3961391
40
0.2608399
50
322.6007884
51
346.5182367
0
ARC
8
DEFAULT_255_1_234
10
23.6340773
20
121.4256616
40
0.3802777
50
346.2582162
51
358.7741648
0
ARC
8
DEFAULT_255_1_234
10
23.5322442
20
121.4311965
40
0.4822176
50
358.3755224
51
0.0098023
0
ARC
8
DEFAULT_255_1_234
10
23.6078629
20
121.4339657
40
0.4066078
50
359.6214041
51
11.2839074
0
ARC
8
DEFAULT_255_1_234
10
23.7355776
20
121.4606066
40
0.2761514
50
11.0482309
51
31.8146458
0
ARC
8
DEFAULT_255_1_234
10
23.7664819
20
121.4773584
40
0.2410679
50
32.3035391
51
38.082671
0
ARC
8
DEFAULT_255_1_234
10
23.8085479
20
121.5154662
40
0.1844966
50
36.825067
51
85.7415724
0
ARC
8
DEFAULT_255_1_234
10
23.8018312
20
121.4654301
40
0.2349122
50
85.0140713
51
90.0513278
0
LINE
8
DEFAULT_255_1_234
10
22.5173458
20
127.5181211
11
22.8209456
21
126.931001
0
LINE
8
DEFAULT_255_1_234
10
22.8209456
20
126.931001
11
23.1261516
21
127.5181211
0
LINE
8
DEFAULT_255_1_234
10
23.1261516
20
127.5181211
11
23.3012435
21
127.5181211
0
LINE
8
DEFAULT_255_1_234
10
23.3012435
20
127.5181211
11
22.8980502
21
126.7848234
0
LINE
8
DEFAULT_255_1_234
10
22.8980502
20
126.7848234
11
22.8980502
21
126.3487
0
LINE
8
DEFAULT_255_1_234
10
22.8980502
20
126.3487
11
22.7438409
21
126.3487
0
LINE
8
DEFAULT_255_1_234
10
22.7438409
20
126.3487
11
22.7438409
21
126.7848234
0
LINE
8
DEFAULT_255_1_234
10
22.7438409
20
126.7848234
11
22.3406476
21
127.5181211
0
LINE
8
DEFAULT_255_1_234
10
22.3406476
20
127.5181211
11
22.5173458
21
127.5181211
0
LINE
8
DEFAULT_255_1_234
10
23.6008273
20
126.9044963
11
23.4819576
21
126.9350169
0
LINE
8
DEFAULT_255_1_234
10
23.4819576
20
126.9350169
11
23.5413925
21
127.5181211
0
LINE
8
DEFAULT_255_1_234
10
23.5413925
20
127.5181211
11
24.1405602
21
127.5181211
0
LINE
8
DEFAULT_255_1_234
10
24.1405602
20
127.5181211
11
24.1405602
21
127.3807784
0
LINE
8
DEFAULT_255_1_234
10
24.1405602
20
127.3807784
11
23.6674908
21
127.3807784
0
LINE
8
DEFAULT_255_1_234
10
23.6674908
20
127.3807784
11
23.6321511
21
127.0619184
0
LINE
8
DEFAULT_255_1_234
10
23.4401926
20
126.6563156
11
23.580748
21
126.6563156
0
LINE
8
DEFAULT_255_1_234
10
23.6401829
20
126.9366232
11
23.6008273
21
126.9044963
0
ARC
8
DEFAULT_255_1_234
10
23.8176295
20
126.743923
40
0.3681349
50
93.7182161
51
120.2538958
0
ARC
8
DEFAULT_255_1_234
10
23.8270558
20
126.6631394
40
0.449379
50
89.9660152
51
94.2496022
0
ARC
8
DEFAULT_255_1_234
10
23.8311292
20
126.7220549
40
0.390482
50
73.8043271
51
90.5585896
0
ARC
8
DEFAULT_255_1_234
10
23.8546189
20
126.8078602
40
0.3015334
50
41.3071453
51
73.5430202
0
ARC
8
DEFAULT_255_1_234
10
23.8130016
20
126.7720324
40
0.3564457
50
13.5075983
51
41.2174222
0
ARC
8
DEFAULT_255_1_234
10
23.648822
20
126.7290486
40
0.5261351
50
1.1331335
51
13.8829381
0
ARC
8
DEFAULT_255_1_234
10
23.5076589
20
126.7214665
40
0.6674378
50
359.9919444
51
1.544251
0
ARC
8
DEFAULT_255_1_234
10
23.6353415
20
126.717328
40
0.5397702
50
347.8572367
51
0.4293338
0
ARC
8
DEFAULT_255_1_234
10
23.8103733
20
126.6776736
40
0.3603188
50
323.673004
51
348.1672506
0
ARC
8
DEFAULT_255_1_234
10
23.8398241
20
126.6597168
40
0.3259678
50
316.8171152
51
323.1492751
0
ARC
8
DEFAULT_255_1_234
10
23.845943
20
126.656046
40
0.3189975
50
281.8396411
51
316.5457803
0
ARC
8
DEFAULT_255_1_234
10
23.8083694
20
126.8115762
40
0.4789527
50
269.5770101
51
282.4214771
0
ARC
8
DEFAULT_255_1_234
10
23.8012505
20
126.7902125
40
0.45759
50
256.2427136
51
270.4486331
0
ARC
8
DEFAULT_255_1_234
10
23.7713408
20
126.6702229
40
0.3339303
50
228.9023911
51
256.3314342
0
ARC
8
DEFAULT_255_1_234
10
23.763964
20
126.6585746
40
0.32031
50
193.753695
51
228.5271154
0
ARC
8
DEFAULT_255_1_234
10
23.8877594
20
126.69488
40
0.4492253
50
184.924711
51
194.497588
0
ARC
8
DEFAULT_255_1_234
10
23.9070161
20
126.6984591
40
0.3289787
50
187.3600538
51
198.6732863
0
ARC
8
DEFAULT_255_1_234
10
23.8020455
20
126.6620674
40
0.217884
50
198.4451669
51
217.794479
0
ARC
8
DEFAULT_255_1_234
10
23.772463
20
126.6411085
40
0.1816698
50
218.2887171
51
228.5612368
0
ARC
8
DEFAULT_255_1_234
10
23.7822417
20
126.6542963
40
0.1980329
50
228.9654866
51
258.1234728
0
ARC
8
DEFAULT_255_1_234
10
23.8028127
20
126.7423833
40
0.2884748
50
257.7258293
51
270.401361
0
ARC
8
DEFAULT_255_1_234
10
23.8073014
20
126.6978821
40
0.2439788
50
269.4204404
51
286.4209037
0
ARC
8
DEFAULT_255_1_234
10
23.8221501
20
126.6439657
40
0.1880666
50
286.7251356
51
320.600362
0
ARC
8
DEFAULT_255_1_234
10
23.7838326
20
126.6750595
40
0.2374121
50
320.6712579
51
344.5441685
0
ARC
8
DEFAULT_255_1_234
10
23.6681652
20
126.7090045
40
0.3579479
50
344.2412205
51
356.7357071
0
ARC
8
DEFAULT_255_1_234
10
23.5432801
20
126.7193444
40
0.4832297
50
356.3548756
51
0.0500261
0
ARC
8
DEFAULT_255_1_234
10
23.676931
20
126.722465
40
0.3495889
50
359.5576869
51
12.953486
0
ARC
8
DEFAULT_255_1_234
10
23.7824207
20
126.7480434
40
0.2410532
50
12.6490276
51
41.6081334
0
ARC
8
DEFAULT_255_1_234
10
23.8054578
20
126.7676321
40
0.2108218
50
41.7850273
51
85.9892764
0
ARC
8
DEFAULT_255_1_234
10
23.7931315
20
126.6863462
40
0.2928454
50
84.6957577
51
90.0676183
0
ARC
8
DEFAULT_255_1_234
10
23.7907799
20
126.6194716
40
0.3597255
50
89.6804936
51
99.1614436
0
ARC
8
DEFAULT_255_1_234
10
23.770243
20
126.7422131
40
0.235281
50
98.9830931
51
113.8908934
0
ARC
8
DEFAULT_255_1_234
10
23.747284
20
126.7963587
40
0.176479
50
114.1950727
51
127.3641004
0
LINE
8
DEFAULT_255_1_234
10
22.4115458
20
132.8097211
11
22.7151456
21
132.222601
0
LINE
8
DEFAULT_255_1_234
10
22.7151456
20
132.222601
11
23.0203516
21
132.8097211
0
LINE
8
DEFAULT_255_1_234
10
23.0203516
20
132.8097211
11
23.1954435
21
132.8097211
0
LINE
8
DEFAULT_255_1_234
10
23.1954435
20
132.8097211
11
22.7922502
21
132.0764234
0
LINE
8
DEFAULT_255_1_234
10
22.7922502
20
132.0764234
11
22.7922502
21
131.6403
0
LINE
8
DEFAULT_255_1_234
10
22.7922502
20
131.6403
11
22.6380409
21
131.6403
0
LINE
8
DEFAULT_255_1_234
10
22.6380409
20
131.6403
11
22.6380409
21
132.0764234
0
LINE
8
DEFAULT_255_1_234
10
22.6380409
20
132.0764234
11
22.2348476
21
132.8097211
0
LINE
8
DEFAULT_255_1_234
10
22.2348476
20
132.8097211
11
22.4115458
21
132.8097211
0
LINE
8
DEFAULT_255_1_234
10
23.9351666
20
132.8097211
11
23.9351666
21
132.033052
0
LINE
8
DEFAULT_255_1_234
10
23.9351666
20
132.033052
11
24.0974077
21
132.033052
0
LINE
8
DEFAULT_255_1_234
10
24.0974077
20
132.033052
11
24.0974077
21
131.9117728
0
LINE
8
DEFAULT_255_1_234
10
24.0974077
20
131.9117728
11
23.9351666
21
131.9117728
0
LINE
8
DEFAULT_255_1_234
10
23.9351666
20
131.9117728
11
23.9351666
21
131.6403
0
LINE
8
DEFAULT_255_1_234
10
23.9351666
20
131.6403
11
23.7857763
21
131.6403
0
LINE
8
DEFAULT_255_1_234
10
23.7857763
20
131.6403
11
23.7857763
21
131.9117728
0
LINE
8
DEFAULT_255_1_234
10
23.7857763
20
131.9117728
11
23.253272
21
131.9117728
0
LINE
8
DEFAULT_255_1_234
10
23.253272
20
131.9117728
11
23.253272
21
131.9993187
0
LINE
8
DEFAULT_255_1_234
10
23.253272
20
131.9993187
11
23.7769414
21
132.8097211
0
LINE
8
DEFAULT_255_1_234
10
23.7769414
20
132.8097211
11
23.9351666
21
132.8097211
0
LINE
8
DEFAULT_255_1_234
10
23.7681064
20
132.5743912
11
23.4219385
21
132.033052
0
LINE
8
DEFAULT_255_1_234
10
23.4219385
20
132.033052
11
23.7857763
21
132.033052
0
LINE
8
DEFAULT_255_1_234
10
23.7857763
20
132.033052
11
23.7857763
21
132.6065181
0
LINE
8
DEFAULT_255_1_234
10
23.7857763
20
132.6065181
11
23.7681064
21
132.5743912
0
LINE
8
DEFAULT_255_1_234
10
23.1851119
20
137.0532792
11
23.1851119
21
136.932
0
LINE
8
DEFAULT_255_1_234
10
23.1851119
20
136.932
11
22.418884
21
136.932
0
LINE
8
DEFAULT_255_1_234
10
22.418884
20
136.932
11
22.418884
21
137.0388221
0
LINE
8
DEFAULT_255_1_234
10
22.418884
20
137.0388221
11
22.8236836
21
137.4885995
0
LINE
8
DEFAULT_255_1_234
10
22.5449823
20
137.7568595
11
22.3963952
21
137.7568595
0
LINE
8
DEFAULT_255_1_234
10
22.9112296
20
137.3930218
11
22.5979918
21
137.0532792
0
LINE
8
DEFAULT_255_1_234
10
22.5979918
20
137.0532792
11
23.1851119
21
137.0532792
0
ARC
8
DEFAULT_255_1_234
10
21.474667
20
138.6815527
40
1.8008286
50
318.5132453
51
320.7828378
0
ARC
8
DEFAULT_255_1_234
10
22.0033644
20
138.2512426
40
1.1191493
50
320.7372736
51
323.9737074
0
ARC
8
DEFAULT_255_1_234
10
22.3953501
20
137.9672361
40
0.6350923
50
323.8961724
51
328.6421089
0
ARC
8
DEFAULT_255_1_234
10
22.6000096
20
137.8410031
40
0.3946393
50
328.8299013
51
331.789948
0
ARC
8
DEFAULT_255_1_234
10
22.6997274
20
137.7895509
40
0.2824501
50
331.4255242
51
352.9364833
0
ARC
8
DEFAULT_255_1_234
10
22.7133775
20
137.7864976
40
0.2685315
50
353.2248685
51
0.0169286
0
ARC
8
DEFAULT_255_1_234
10
22.7343652
20
137.788795
40
0.2475536
50
359.4866256
51
15.9339782
0
ARC
8
DEFAULT_255_1_234
10
22.7850637
20
137.8024286
40
0.1950618
50
16.1714718
51
43.5284424
0
ARC
8
DEFAULT_255_1_234
10
22.7927946
20
137.8101573
40
0.184134
50
43.4415429
51
83.1661404
0
ARC
8
DEFAULT_255_1_234
10
22.7793864
20
137.7364771
40
0.258926
50
82.160215
51
90.1505798
0
ARC
8
DEFAULT_255_1_234
10
22.7762291
20
137.6827865
40
0.3126255
50
89.5460705
51
102.5418777
0
ARC
8
DEFAULT_255_1_234
10
22.7519377
20
137.7858665
40
0.2067346
50
102.1739365
51
129.2061916
0
ARC
8
DEFAULT_255_1_234
10
22.7440449
20
137.7983094
40
0.1921118
50
129.7279328
51
135.7542026
0
ARC
8
DEFAULT_255_1_234
10
22.7561977
20
137.7886045
40
0.2075944
50
136.175737
51
166.3674722
0
ARC
8
DEFAULT_255_1_234
10
22.8568896
20
137.7616182
40
0.3118201
50
165.9092917
51
178.8683903
0
ARC
8
DEFAULT_255_1_234
10
22.9433757
20
137.7569179
40
0.3983935
50
178.438168
51
180.0083905
0
ARC
8
DEFAULT_255_1_234
10
22.8032359
20
137.7608231
40
0.4068601
50
163.2878735
51
180.5581814
0
ARC
8
DEFAULT_255_1_234
10
22.7230621
20
137.782884
40
0.3237344
50
133.454115
51
162.9470031
0
ARC
8
DEFAULT_255_1_234
10
22.7409162
20
137.7639
40
0.349795
50
100.7869394
51
133.4384016
0
ARC
8
DEFAULT_255_1_234
10
22.7756934
20
137.6090319
40
0.5084616
50
89.6605301
51
101.3704185
0
ARC
8
DEFAULT_255_1_234
10
22.7823273
20
137.6151496
40
0.502348
50
78.2171172
51
90.4130393
0
ARC
8
DEFAULT_255_1_234
10
22.8178351
20
137.7775637
40
0.3361092
50
55.9268222
51
78.4888551
0
ARC
8
DEFAULT_255_1_234
10
22.8374791
20
137.8114324
40
0.2970617
50
47.9292255
51
55.4054003
0
ARC
8
DEFAULT_255_1_234
10
22.8476352
20
137.8217502
40
0.2825983
50
4.3347696
51
48.0560701
0
ARC
8
DEFAULT_255_1_234
10
22.7380745
20
137.8047601
40
0.393225
50
359.925209
51
5.5967654
0
ARC
8
DEFAULT_255_1_234
10
22.7809637
20
137.8103816
40
0.3503892
50
337.8914096
51
358.9967724
0
ARC
8
DEFAULT_255_1_234
10
22.5096049
20
137.9150706
40
0.6412172
50
326.9135351
51
338.3505194
0
ARC
8
DEFAULT_255_1_234
10
22.1110353
20
138.1705284
40
1.1146189
50
319.6472867
51
327.095818
0
ARC
8
DEFAULT_255_1_234
10
21.7277356
20
138.4867
40
1.6114559
50
317.2586784
51
319.9046139
0
LINE
8
DEFAULT_255_1_234
10
24.0862729
20
137.3030663
11
24.2412854
21
137.3030663
0
LINE
8
DEFAULT_255_1_234
10
23.3409276
20
137.4620947
11
23.3409276
21
137.5745391
0
LINE
8
DEFAULT_255_1_234
10
24.2412854
20
137.7255357
11
24.0862729
21
137.7255357
0
LINE
8
DEFAULT_255_1_234
10
23.4959401
20
137.5705232
11
23.4959401
21
137.4572757
0
ARC
8
DEFAULT_255_1_234
10
23.6932241
20
137.3627846
40
0.5513052
50
340.1774281
51
353.7814284
0
ARC
8
DEFAULT_255_1_234
10
23.8503594
20
137.3042582
40
0.3836379
50
311.4558989
51
340.4421614
0
ARC
8
DEFAULT_255_1_234
10
23.8470262
20
137.3153528
40
0.3941894
50
282.4333181
51
310.7513653
0
ARC
8
DEFAULT_255_1_234
10
23.8031001
20
137.4968679
40
0.5809175
50
269.9358511
51
282.809604
0
ARC
8
DEFAULT_255_1_234
10
23.7979067
20
137.6426212
40
0.7266847
50
270.0021091
51
270.3581957
0
ARC
8
DEFAULT_255_1_234
10
23.7926484
20
137.3825585
40
0.4666519
50
250.7884749
51
270.6489167
0
ARC
8
DEFAULT_255_1_234
10
23.7758319
20
137.3188319
40
0.4009729
50
219.3627325
51
250.0611886
0
ARC
8
DEFAULT_255_1_234
10
23.858753
20
137.3893042
40
0.5097822
50
193.5479632
51
219.5756669
0
ARC
8
DEFAULT_255_1_234
10
24.0959151
20
137.4508919
40
0.7547848
50
181.1218675
51
193.87563
0
ARC
8
DEFAULT_255_1_234
10
24.3029332
20
137.461958
40
0.9620055
50
179.9918545
51
181.5394234
0
ARC
8
DEFAULT_255_1_234
10
24.1178434
20
137.5782788
40
0.7769248
50
169.5837241
51
180.2757934
0
ARC
8
DEFAULT_255_1_234
10
23.9341372
20
137.6122229
40
0.590109
50
155.0365899
51
169.6003176
0
ARC
8
DEFAULT_255_1_234
10
23.8205836
20
137.6669677
40
0.4640625
50
136.783148
51
155.2472683
0
ARC
8
DEFAULT_255_1_234
10
23.7816313
20
137.7000562
40
0.4130255
50
121.7633186
51
136.428115
0
ARC
8
DEFAULT_255_1_234
10
23.7951275
20
137.6751227
40
0.4413323
50
95.6459699
51
121.5490577
0
ARC
8
DEFAULT_255_1_234
10
23.8108557
20
137.5642949
40
0.55319
50
89.924208
51
96.1377933
0
ARC
8
DEFAULT_255_1_234
10
23.815899
20
137.5761542
40
0.5413475
50
76.6779277
51
90.4563316
0
ARC
8
DEFAULT_255_1_234
10
23.8552613
20
137.7352114
40
0.3775041
50
47.485847
51
76.9287264
0
ARC
8
DEFAULT_255_1_234
10
23.8405586
20
137.7252159
40
0.3948286
50
16.5424086
51
46.8933463
0
ARC
8
DEFAULT_255_1_234
10
23.6797743
20
137.6723861
40
0.564021
50
5.4072051
51
17.0365086
0
ARC
8
DEFAULT_255_1_234
10
23.535876
20
137.6492679
40
0.5556559
50
7.8891745
51
15.9239216
0
ARC
8
DEFAULT_255_1_234
10
23.7345773
20
137.7069631
40
0.3487515
50
15.7653144
51
27.9410532
0
ARC
8
DEFAULT_255_1_234
10
23.8449991
20
137.766079
40
0.2235026
50
27.8166557
51
46.4008329
0
ARC
8
DEFAULT_255_1_234
10
23.8499634
20
137.7655082
40
0.2205286
50
47.4371857
51
75.0698205
0
ARC
8
DEFAULT_255_1_234
10
23.8191029
20
137.6580765
40
0.3322915
50
74.7008593
51
87.8124495
0
ARC
8
DEFAULT_255_1_234
10
23.8117716
20
137.5524844
40
0.4380987
50
87.3814673
51
90.0240855
0
ARC
8
DEFAULT_255_1_234
10
23.8079259
20
137.6702291
40
0.3203749
50
89.3451631
51
108.5745436
0
ARC
8
DEFAULT_255_1_234
10
23.7942365
20
137.7215908
40
0.2673494
50
109.2998449
51
143.3037509
0
ARC
8
DEFAULT_255_1_234
10
23.8704437
20
137.6629881
40
0.3634757
50
143.0753173
51
163.1916937
0
ARC
8
DEFAULT_255_1_234
10
24.0656165
20
137.6013967
40
0.5681262
50
162.9373603
51
174.6208611
0
ARC
8
DEFAULT_255_1_234
10
24.3282207
20
137.572601
40
0.8322832
50
174.3419979
51
180.1430411
0
ARC
8
DEFAULT_255_1_234
10
24.2351363
20
137.4531698
40
0.7392076
50
179.6817502
51
189.150529
0
ARC
8
DEFAULT_255_1_234
10
23.9850611
20
137.411519
40
0.4856932
50
188.9910863
51
203.5773039
0
ARC
8
DEFAULT_255_1_234
10
23.8770944
20
137.3667211
40
0.3688271
50
203.9077269
51
215.1312379
0
ARC
8
DEFAULT_255_1_234
10
23.7848038
20
137.2951941
40
0.2522457
50
213.9071664
51
263.8849284
0
ARC
8
DEFAULT_255_1_234
10
23.7973367
20
137.3736518
40
0.3316174
50
263.1758525
51
270.1031083
0
ARC
8
DEFAULT_255_1_234
10
23.8005459
20
137.4983365
40
0.4563091
50
269.6719807
51
279.0609165
0
ARC
8
DEFAULT_255_1_234
10
23.8272227
20
137.3370907
40
0.2928759
50
278.8750225
51
293.6346586
0
ARC
8
DEFAULT_255_1_234
10
23.8592435
20
137.26189
40
0.2111472
50
293.8553404
51
310.0518804
0
ARC
8
DEFAULT_255_1_234
10
23.8597289
20
137.2556516
40
0.2060917
50
311.0646779
51
332.0108348
0
ARC
8
DEFAULT_255_1_234
10
23.7405016
20
137.3213978
40
0.3422352
50
331.6588543
51
343.2878891
0
ARC
8
DEFAULT_255_1_234
10
23.5342531
20
137.3847798
40
0.5580003
50
343.1446044
51
351.010618
0
ARC
8
DEFAULT_255_1_234
10
23.3801177
20
137.4128871
40
0.7146438
50
350.7157277
51
351.1602153
0
LINE
8
DEFAULT_255_1_234
10
22.5173458
20
143.3931211
11
22.8209456
21
142.806001
0
LINE
8
DEFAULT_255_1_234
10
22.8209456
20
142.806001
11
23.1261516
21
143.3931211
0
LINE
8
DEFAULT_255_1_234
10
23.1261516
20
143.3931211
11
23.3012435
21
143.3931211
0
LINE
8
DEFAULT_255_1_234
10
23.3012435
20
143.3931211
11
22.8980502
21
142.6598234
0
LINE
8
DEFAULT_255_1_234
10
22.8980502
20
142.6598234
11
22.8980502
21
142.2237
0
LINE
8
DEFAULT_255_1_234
10
22.8980502
20
142.2237
11
22.7438409
21
142.2237
0
LINE
8
DEFAULT_255_1_234
10
22.7438409
20
142.2237
11
22.7438409
21
142.6598234
0
LINE
8
DEFAULT_255_1_234
10
22.7438409
20
142.6598234
11
22.3406476
21
143.3931211
0
LINE
8
DEFAULT_255_1_234
10
22.3406476
20
143.3931211
11
22.5173458
21
143.3931211
0
LINE
8
DEFAULT_255_1_234
10
23.6297416
20
142.7594169
11
23.6297416
21
142.8806962
0
LINE
8
DEFAULT_255_1_234
10
23.6297416
20
142.8806962
11
23.7413828
21
142.8806962
0
LINE
8
DEFAULT_255_1_234
10
23.5510306
20
143.0863087
11
23.4024434
21
143.0863087
0
LINE
8
DEFAULT_255_1_234
10
23.3920021
20
142.5321188
11
23.5413925
21
142.5321188
0
LINE
8
DEFAULT_255_1_234
10
23.7413828
20
142.7594169
11
23.6297416
21
142.7594169
0
ARC
8
DEFAULT_255_1_234
10
23.7384694
20
143.2199713
40
0.3392876
50
270.4919872
51
281.8951556
0
ARC
8
DEFAULT_255_1_234
10
23.7625956
20
143.1097702
40
0.2264817
50
281.6691735
51
301.2943132
0
ARC
8
DEFAULT_255_1_234
10
23.7796166
20
143.0786304
40
0.1910381
50
301.7833094
51
311.7545298
0
ARC
8
DEFAULT_255_1_234
10
23.7887742
20
143.0684748
40
0.1773635
50
311.7323931
51
354.2802411
0
ARC
8
DEFAULT_255_1_234
10
23.7161367
20
143.0809722
40
0.2509385
50
353.0937916
51
0.1181479
0
ARC
8
DEFAULT_255_1_234
10
23.6700152
20
143.0857386
40
0.2970898
50
359.1805295
51
15.0453146
0
ARC
8
DEFAULT_255_1_234
10
23.8045989
20
143.1249992
40
0.1569564
50
13.9577229
51
77.6713066
0
ARC
8
DEFAULT_255_1_234
10
23.7659518
20
142.9864949
40
0.3006298
50
76.1116566
51
90.7026153
0
ARC
8
DEFAULT_255_1_234
10
23.7600356
20
143.0138545
40
0.2732568
50
89.5324876
51
103.531937
0
ARC
8
DEFAULT_255_1_234
10
23.7399801
20
143.0937884
40
0.1908508
50
103.2931773
51
133.5619022
0
ARC
8
DEFAULT_255_1_234
10
23.7355289
20
143.0997375
40
0.1834746
50
133.8349307
51
173.5344437
0
ARC
8
DEFAULT_255_1_234
10
23.8078332
20
143.0869213
40
0.2568033
50
172.5096846
51
180.1366907
0
ARC
8
DEFAULT_255_1_234
10
23.7127226
20
143.0903622
40
0.3103056
50
155.3484492
51
180.7484736
0
ARC
8
DEFAULT_255_1_234
10
23.7078315
20
143.0874846
40
0.3070957
50
131.5744599
51
154.4798489
0
ARC
8
DEFAULT_255_1_234
10
23.7391462
20
143.055831
40
0.3515643
50
96.9875458
51
131.9690667
0
ARC
8
DEFAULT_255_1_234
10
23.7610942
20
142.9312636
40
0.4779224
50
89.8596053
51
97.7825159
0
ARC
8
DEFAULT_255_1_234
10
23.7659005
20
142.9050616
40
0.5041361
50
78.3655447
51
90.4131539
0
ARC
8
DEFAULT_255_1_234
10
23.8016923
20
143.0709887
40
0.3344039
50
56.6229102
51
78.638727
0
ARC
8
DEFAULT_255_1_234
10
23.8231867
20
143.1085805
40
0.2912001
50
47.0253525
51
56.0854072
0
ARC
8
DEFAULT_255_1_234
10
23.8251647
20
143.1125223
40
0.2869704
50
10.9208013
51
46.7778124
0
ARC
8
DEFAULT_255_1_234
10
23.6887713
20
143.0809857
40
0.426899
50
359.6364486
51
11.6087304
0
ARC
8
DEFAULT_255_1_234
10
23.8722557
20
143.0794752
40
0.243409
50
332.3549906
51
359.7179418
0
ARC
8
DEFAULT_255_1_234
10
23.8072159
20
143.1103142
40
0.3153459
50
325.2333722
51
332.8745602
0
ARC
8
DEFAULT_255_1_234
10
23.8224783
20
143.0996828
40
0.2967456
50
292.9802137
51
325.2392345
0
ARC
8
DEFAULT_255_1_234
10
23.7950157
20
143.1530863
40
0.3566604
50
292.5402179
51
293.6924929
0
ARC
8
DEFAULT_255_1_234
10
23.8342752
20
142.5076091
40
0.3307468
50
57.6435486
51
72.8625112
0
ARC
8
DEFAULT_255_1_234
10
23.8697252
20
142.5650549
40
0.2632492
50
36.7248896
51
57.4697979
0
ARC
8
DEFAULT_255_1_234
10
23.8685885
20
142.566322
40
0.2634081
50
8.0545065
51
36.356114
0
ARC
8
DEFAULT_255_1_234
10
23.782307
20
142.5508174
40
0.3510261
50
359.8320645
51
8.5869982
0
ARC
8
DEFAULT_255_1_234
10
23.7447846
20
142.5460101
40
0.3885653
50
343.9829931
51
0.5571613
0
ARC
8
DEFAULT_255_1_234
10
23.8334043
20
142.5217438
40
0.2966924
50
311.6359546
51
343.7651759
0
ARC
8
DEFAULT_255_1_234
10
23.7955613
20
142.5644102
40
0.3537231
50
279.7829875
51
311.6255694
0
ARC
8
DEFAULT_255_1_234
10
23.7654389
20
142.708128
40
0.5004971
50
269.7286406
51
280.3856417
0
ARC
8
DEFAULT_255_1_234
10
23.7592461
20
142.7039996
40
0.4963778
50
256.6828919
51
270.4412052
0
ARC
8
DEFAULT_255_1_234
10
23.7253757
20
142.5655394
40
0.3538406
50
229.4223008
51
256.8556159
0
ARC
8
DEFAULT_255_1_234
10
23.683915
20
142.5188736
40
0.2914296
50
181.818294
51
229.6455059
0
ARC
8
DEFAULT_255_1_234
10
23.7879106
20
142.5319496
40
0.3959084
50
179.9755256
51
183.2323064
0
ARC
8
DEFAULT_255_1_234
10
23.7706852
20
142.5299037
40
0.2293034
50
179.4465117
51
196.2869258
0
ARC
8
DEFAULT_255_1_234
10
23.721926
20
142.5165651
40
0.1787621
50
196.5661473
51
227.705904
0
ARC
8
DEFAULT_255_1_234
10
23.7383355
20
142.5349155
40
0.2033784
50
227.7652068
51
257.8762805
0
ARC
8
DEFAULT_255_1_234
10
23.7608325
20
142.6292156
40
0.3003081
50
257.4584385
51
270.426602
0
ARC
8
DEFAULT_255_1_234
10
23.7653891
20
142.6581996
40
0.329292
50
269.5962073
51
280.8789248
0
ARC
8
DEFAULT_255_1_234
10
23.788342
20
142.5435685
40
0.2123908
50
280.6346389
51
299.8595945
0
ARC
8
DEFAULT_255_1_234
10
23.8074327
20
142.5073212
40
0.171457
50
300.3576302
51
314.5517981
0
ARC
8
DEFAULT_255_1_234
10
23.7991387
20
142.5133919
40
0.1816095
50
315.0728369
51
345.0431014
0
ARC
8
DEFAULT_255_1_234
10
23.7068201
20
142.5402841
40
0.2777492
50
344.5986631
51
357.9269593
0
ARC
8
DEFAULT_255_1_234
10
23.6172528
20
142.5464276
40
0.3674917
50
357.4748886
51
0.0231117
0
ARC
8
DEFAULT_255_1_234
10
23.7195637
20
142.5488679
40
0.2651907
50
359.5047933
51
13.4239635
0
ARC
8
DEFAULT_255_1_234
10
23.8062281
20
142.5710478
40
0.1757509
50
12.9498199
51
48.7551375
0
ARC
8
DEFAULT_255_1_234
10
23.7880014
20
142.54614
40
0.2065134
50
49.5088623
51
72.1836453
0
ARC
8
DEFAULT_255_1_234
10
23.7522167
20
142.4399291
40
0.3185836
50
71.9010081
51
84.3554254
0
ARC
8
DEFAULT_255_1_234
10
23.7360799
20
142.3038326
40
0.4556151
50
84.0193428
51
89.333121
0
LINE
8
DEFAULT_255_1_234
10
22.5173458
20
148.6847211
11
22.8209456
21
148.097601
0
LINE
8
DEFAULT_255_1_234
10
22.8209456
20
148.097601
11
23.1261516
21
148.6847211
0
LINE
8
DEFAULT_255_1_234
10
23.1261516
20
148.6847211
11
23.3012435
21
148.6847211
0
LINE
8
DEFAULT_255_1_234
10
23.3012435
20
148.6847211
11
22.8980502
21
147.9514234
0
LINE
8
DEFAULT_255_1_234
10
22.8980502
20
147.9514234
11
22.8980502
21
147.5153
0
LINE
8
DEFAULT_255_1_234
10
22.8980502
20
147.5153
11
22.7438409
21
147.5153
0
LINE
8
DEFAULT_255_1_234
10
22.7438409
20
147.5153
11
22.7438409
21
147.9514234
0
LINE
8
DEFAULT_255_1_234
10
22.7438409
20
147.9514234
11
22.3406476
21
148.6847211
0
LINE
8
DEFAULT_255_1_234
10
22.3406476
20
148.6847211
11
22.5173458
21
148.6847211
0
LINE
8
DEFAULT_255_1_234
10
24.1799157
20
147.6365792
11
24.1799157
21
147.5153
0
LINE
8
DEFAULT_255_1_234
10
24.1799157
20
147.5153
11
23.4136878
21
147.5153
0
LINE
8
DEFAULT_255_1_234
10
23.4136878
20
147.5153
11
23.4136878
21
147.6221221
0
LINE
8
DEFAULT_255_1_234
10
23.4136878
20
147.6221221
11
23.8184875
21
148.0718995
0
LINE
8
DEFAULT_255_1_234
10
23.5397861
20
148.3401595
11
23.391199
21
148.3401595
0
LINE
8
DEFAULT_255_1_234
10
23.9060334
20
147.9763218
11
23.5927956
21
147.6365792
0
LINE
8
DEFAULT_255_1_234
10
23.5927956
20
147.6365792
11
24.1799157
21
147.6365792
0
ARC
8
DEFAULT_255_1_234
10
22.4694708
20
149.2648527
40
1.8008286
50
318.5132453
51
320.7828378
0
ARC
8
DEFAULT_255_1_234
10
22.9981682
20
148.8345426
40
1.1191493
50
320.7372736
51
323.9737074
0
ARC
8
DEFAULT_255_1_234
10
23.3901539
20
148.5505361
40
0.6350923
50
323.8961724
51
328.6421089
0
ARC
8
DEFAULT_255_1_234
10
23.5948134
20
148.4243031
40
0.3946393
50
328.8299013
51
331.789948
0
ARC
8
DEFAULT_255_1_234
10
23.6945313
20
148.3728509
40
0.2824501
50
331.4255242
51
352.9364833
0
ARC
8
DEFAULT_255_1_234
10
23.7081813
20
148.3697976
40
0.2685315
50
353.2248685
51
0.0169286
0
ARC
8
DEFAULT_255_1_234
10
23.729169
20
148.372095
40
0.2475536
50
359.4866256
51
15.9339782
0
ARC
8
DEFAULT_255_1_234
10
23.7798675
20
148.3857286
40
0.1950618
50
16.1714718
51
43.5284424
0
ARC
8
DEFAULT_255_1_234
10
23.7875984
20
148.3934573
40
0.184134
50
43.4415429
51
83.1661404
0
ARC
8
DEFAULT_255_1_234
10
23.7741902
20
148.3197771
40
0.258926
50
82.160215
51
90.1505798
0
ARC
8
DEFAULT_255_1_234
10
23.7710329
20
148.2660865
40
0.3126255
50
89.5460705
51
102.5418777
0
ARC
8
DEFAULT_255_1_234
10
23.7467416
20
148.3691665
40
0.2067346
50
102.1739365
51
129.2061916
0
ARC
8
DEFAULT_255_1_234
10
23.7388487
20
148.3816094
40
0.1921118
50
129.7279328
51
135.7542026
0
ARC
8
DEFAULT_255_1_234
10
23.7510015
20
148.3719045
40
0.2075944
50
136.175737
51
166.3674722
0
ARC
8
DEFAULT_255_1_234
10
23.8516934
20
148.3449182
40
0.3118201
50
165.9092917
51
178.8683903
0
ARC
8
DEFAULT_255_1_234
10
23.9381795
20
148.3402179
40
0.3983935
50
178.438168
51
180.0083905
0
ARC
8
DEFAULT_255_1_234
10
23.7980398
20
148.3441231
40
0.4068601
50
163.2878735
51
180.5581814
0
ARC
8
DEFAULT_255_1_234
10
23.7178659
20
148.366184
40
0.3237344
50
133.454115
51
162.9470031
0
ARC
8
DEFAULT_255_1_234
10
23.73572
20
148.3472
40
0.349795
50
100.7869394
51
133.4384016
0
ARC
8
DEFAULT_255_1_234
10
23.7704972
20
148.1923319
40
0.5084616
50
89.6605301
51
101.3704185
0
ARC
8
DEFAULT_255_1_234
10
23.7771311
20
148.1984496
40
0.502348
50
78.2171172
51
90.4130393
0
ARC
8
DEFAULT_255_1_234
10
23.8126389
20
148.3608637
40
0.3361092
50
55.9268222
51
78.4888551
0
ARC
8
DEFAULT_255_1_234
10
23.8322829
20
148.3947324
40
0.2970617
50
47.9292255
51
55.4054003
0
ARC
8
DEFAULT_255_1_234
10
23.842439
20
148.4050502
40
0.2825983
50
4.3347696
51
48.0560701
0
ARC
8
DEFAULT_255_1_234
10
23.7328783
20
148.3880601
40
0.393225
50
359.925209
51
5.5967654
0
ARC
8
DEFAULT_255_1_234
10
23.7757675
20
148.3936816
40
0.3503892
50
337.8914096
51
358.9967724
0
ARC
8
DEFAULT_255_1_234
10
23.5044087
20
148.4983706
40
0.6412172
50
326.9135351
51
338.3505194
0
ARC
8
DEFAULT_255_1_234
10
23.1058391
20
148.7538284
40
1.1146189
50
319.6472867
51
327.095818
0
ARC
8
DEFAULT_255_1_234
10
22.7225394
20
149.07
40
1.6114559
50
317.2586784
51
319.9046139
0
LINE
8
DEFAULT_255_1_234
10
22.5261458
20
153.9764211
11
22.8297456
21
153.389301
0
LINE
8
DEFAULT_255_1_234
10
22.8297456
20
153.389301
11
23.1349516
21
153.9764211
0
LINE
8
DEFAULT_255_1_234
10
23.1349516
20
153.9764211
11
23.3100435
21
153.9764211
0
LINE
8
DEFAULT_255_1_234
10
23.3100435
20
153.9764211
11
22.9068502
21
153.2431234
0
LINE
8
DEFAULT_255_1_234
10
22.9068502
20
153.2431234
11
22.9068502
21
152.807
0
LINE
8
DEFAULT_255_1_234
10
22.9068502
20
152.807
11
22.7526409
21
152.807
0
LINE
8
DEFAULT_255_1_234
10
22.7526409
20
152.807
11
22.7526409
21
153.2431234
0
LINE
8
DEFAULT_255_1_234
10
22.7526409
20
153.2431234
11
22.3494476
21
153.9764211
0
LINE
8
DEFAULT_255_1_234
10
22.3494476
20
153.9764211
11
22.5261458
21
153.9764211
0
LINE
8
DEFAULT_255_1_234
10
23.9108175
20
153.9820433
11
23.9108175
21
152.807
0
LINE
8
DEFAULT_255_1_234
10
23.9108175
20
152.807
11
23.7614272
21
152.807
0
LINE
8
DEFAULT_255_1_234
10
23.7614272
20
152.807
11
23.7614272
21
153.7973133
0
LINE
8
DEFAULT_255_1_234
10
23.7614272
20
153.7973133
11
23.4618434
21
153.6872785
0
LINE
8
DEFAULT_255_1_234
10
23.4618434
20
153.6872785
11
23.4618434
21
153.8222117
0
LINE
8
DEFAULT_255_1_234
10
23.4618434
20
153.8222117
11
23.8875255
21
153.9820433
0
LINE
8
DEFAULT_255_1_234
10
23.8875255
20
153.9820433
11
23.9108175
21
153.9820433
0
LINE
8
DEFAULT_255_1_234
10
22.5173458
20
159.2681211
11
22.8209456
21
158.681001
0
LINE
8
DEFAULT_255_1_234
10
22.8209456
20
158.681001
11
23.1261516
21
159.2681211
0
LINE
8
DEFAULT_255_1_234
10
23.1261516
20
159.2681211
11
23.3012435
21
159.2681211
0
LINE
8
DEFAULT_255_1_234
10
23.3012435
20
159.2681211
11
22.8980502
21
158.5348234
0
LINE
8
DEFAULT_255_1_234
10
22.8980502
20
158.5348234
11
22.8980502
21
158.0987
0
LINE
8
DEFAULT_255_1_234
10
22.8980502
20
158.0987
11
22.7438409
21
158.0987
0
LINE
8
DEFAULT_255_1_234
10
22.7438409
20
158.0987
11
22.7438409
21
158.5348234
0
LINE
8
DEFAULT_255_1_234
10
22.7438409
20
158.5348234
11
22.3406476
21
159.2681211
0
LINE
8
DEFAULT_255_1_234
10
22.3406476
20
159.2681211
11
22.5173458
21
159.2681211
0
LINE
8
DEFAULT_255_1_234
10
24.1469855
20
158.7902327
11
24.1469855
21
158.5974709
0
LINE
8
DEFAULT_255_1_234
10
23.4088688
20
158.5773916
11
23.4088688
21
158.7757755
0
LINE
8
DEFAULT_255_1_234
10
23.9983984
20
158.5573123
11
23.9983984
21
158.8006739
0
LINE
8
DEFAULT_255_1_234
10
23.557456
20
158.8119184
11
23.557456
21
158.5741789
0
ARC
8
DEFAULT_255_1_234
10
22.9222745
20
158.5925805
40
1.2247208
50
353.8441951
51
0.2287902
0
ARC
8
DEFAULT_255_1_234
10
23.3862249
20
158.5407806
40
0.7578929
50
344.4934747
51
353.9765454
0
ARC
8
DEFAULT_255_1_234
10
23.6854839
20
158.4556981
40
0.4467846
50
329.2803592
51
344.7472793
0
ARC
8
DEFAULT_255_1_234
10
23.7847664
20
158.4012018
40
0.3336173
50
324.9352394
51
328.6160465
0
ARC
8
DEFAULT_255_1_234
10
23.8224773
20
158.3748427
40
0.2876076
50
280.580143
51
324.9173126
0
ARC
8
DEFAULT_255_1_234
10
23.7823565
20
158.5419099
40
0.4592847
50
269.5977311
51
281.6734359
0
ARC
8
DEFAULT_255_1_234
10
23.7751471
20
158.5299173
40
0.4472986
50
256.6228859
51
270.51044
0
ARC
8
DEFAULT_255_1_234
10
23.7349449
20
158.3750877
40
0.2873874
50
215.8618325
51
257.2788573
0
ARC
8
DEFAULT_255_1_234
10
23.837048
20
158.4435977
40
0.4102928
50
197.9693508
51
215.2623606
0
ARC
8
DEFAULT_255_1_234
10
24.0855596
20
158.5274709
40
0.6725652
50
187.8816417
51
198.2346507
0
ARC
8
DEFAULT_255_1_234
10
24.4813804
20
158.5846079
40
1.0724845
50
180.8976217
51
188.0055519
0
ARC
8
DEFAULT_255_1_234
10
24.7613992
20
158.5949777
40
1.3526448
50
180.7449369
51
181.1510016
0
ARC
8
DEFAULT_255_1_234
10
24.6036721
20
158.7806042
40
1.1948131
50
173.7675579
51
180.231553
0
ARC
8
DEFAULT_255_1_234
10
24.1518868
20
158.8316666
40
0.7401564
50
164.3058563
51
173.9002247
0
ARC
8
DEFAULT_255_1_234
10
23.8606937
20
158.9155656
40
0.4371288
50
148.7922025
51
164.568378
0
ARC
8
DEFAULT_255_1_234
10
23.7655389
20
158.9686929
40
0.3282386
50
144.5883898
51
148.1176286
0
ARC
8
DEFAULT_255_1_234
10
23.7312287
20
158.9926315
40
0.2864044
50
101.6440918
51
144.514236
0
ARC
8
DEFAULT_255_1_234
10
23.7737354
20
158.8237069
40
0.4604934
50
89.5284041
51
102.5819763
0
ARC
8
DEFAULT_255_1_234
10
23.7816441
20
158.8198018
40
0.464401
50
77.0437873
51
90.5081339
0
ARC
8
DEFAULT_255_1_234
10
23.8218443
20
158.9840615
40
0.2953195
50
48.2778575
51
77.4994676
0
ARC
8
DEFAULT_255_1_234
10
23.8291074
20
158.9969746
40
0.2808655
50
36.3142134
51
47.6305865
0
ARC
8
DEFAULT_255_1_234
10
23.7422381
20
158.9384515
40
0.3855453
50
18.2931786
51
35.6769206
0
ARC
8
DEFAULT_255_1_234
10
23.487914
20
158.8511593
40
0.654423
50
8.024666
51
18.5605216
0
ARC
8
DEFAULT_255_1_234
10
23.071606
20
158.7896792
40
1.0752407
50
1.1274072
51
8.1718305
0
ARC
8
DEFAULT_255_1_234
10
22.7480251
20
158.7769885
40
1.3990231
50
0.5424119
51
1.3863029
0
ARC
8
DEFAULT_255_1_234
10
22.9301629
20
158.8042342
40
1.0682415
50
359.8090433
51
4.9407866
0
ARC
8
DEFAULT_255_1_234
10
23.3511643
20
158.8418113
40
0.6455691
50
4.8362157
51
12.2904523
0
ARC
8
DEFAULT_255_1_234
10
23.6266757
20
158.9031965
40
0.3633074
50
12.0805627
51
23.8173984
0
ARC
8
DEFAULT_255_1_234
10
23.7440463
20
158.9528919
40
0.2358723
50
24.2871213
51
31.3935614
0
ARC
8
DEFAULT_255_1_234
10
23.796516
20
158.9872233
40
0.1732111
50
30.7407893
51
82.4657128
0
ARC
8
DEFAULT_255_1_234
10
23.7785294
20
158.8988691
40
0.263235
50
81.1060089
51
90.2184952
0
ARC
8
DEFAULT_255_1_234
10
23.7749593
20
158.9246924
40
0.2374236
50
89.3806855
51
105.6762551
0
ARC
8
DEFAULT_255_1_234
10
23.7566224
20
158.9913567
40
0.1682847
50
105.7981136
51
149.7388061
0
ARC
8
DEFAULT_255_1_234
10
23.8630302
20
158.927395
40
0.2924306
50
149.4208916
51
163.6286378
0
ARC
8
DEFAULT_255_1_234
10
24.072119
20
158.863625
40
0.5110213
50
163.3763315
51
172.1410975
0
ARC
8
DEFAULT_255_1_234
10
24.4021909
20
158.8163518
40
0.8444586
50
172.0259487
51
178.0703232
0
ARC
8
DEFAULT_255_1_234
10
24.7051999
20
158.8019906
40
1.1477868
50
177.8631668
51
179.5044149
0
ARC
8
DEFAULT_255_1_234
10
24.5979403
20
158.5705389
40
1.0404907
50
179.7995573
51
185.2460446
0
ARC
8
DEFAULT_255_1_234
10
24.1936442
20
158.5322513
40
0.6343885
50
185.1411642
51
193.0079639
0
ARC
8
DEFAULT_255_1_234
10
23.9292915
20
158.4697641
40
0.3627568
50
192.7897626
51
205.2507664
0
ARC
8
DEFAULT_255_1_234
10
23.8246462
20
158.4230415
40
0.2481908
50
205.8005384
51
211.2537509
0
ARC
8
DEFAULT_255_1_234
10
23.7722902
20
158.387958
40
0.1852521
50
210.3789793
51
238.4008143
0
ARC
8
DEFAULT_255_1_234
10
23.7703424
20
158.3926376
40
0.1882621
50
239.6520629
51
265.9793761
0
ARC
8
DEFAULT_255_1_234
10
23.7788624
20
158.4598427
40
0.2559272
50
265.1315437
51
270.060332
0
ARC
8
DEFAULT_255_1_234
10
23.7817403
20
158.4274534
40
0.2235528
50
269.3314664
51
287.2178029
0
ARC
8
DEFAULT_255_1_234
10
23.7955255
20
158.3771279
40
0.1714108
50
287.7958004
51
329.080874
0
ARC
8
DEFAULT_255_1_234
10
23.6997712
20
158.436893
40
0.2842745
50
328.6634704
51
343.3325132
0
ARC
8
DEFAULT_255_1_234
10
23.4824732
20
158.5045863
40
0.5118644
50
343.0499468
51
351.9393422
0
ARC
8
DEFAULT_255_1_234
10
23.1358032
20
158.5556949
40
0.8622784
50
351.8069023
51
357.7959224
0
ARC
8
DEFAULT_255_1_234
10
22.8122588
20
158.5724721
40
1.1862365
50
357.5871873
51
359.2677531
0
LINE
8
DEFAULT_255_1_234
10
22.9072137
20
164.5653433
11
22.9072137
21
163.3903
0
LINE
8
DEFAULT_255_1_234
10
22.9072137
20
163.3903
11
22.7578234
21
163.3903
0
LINE
8
DEFAULT_255_1_234
10
22.7578234
20
163.3903
11
22.7578234
21
164.3806133
0
LINE
8
DEFAULT_255_1_234
10
22.7578234
20
164.3806133
11
22.4582396
21
164.2705785
0
LINE
8
DEFAULT_255_1_234
10
22.4582396
20
164.2705785
11
22.4582396
21
164.4055117
0
LINE
8
DEFAULT_255_1_234
10
22.4582396
20
164.4055117
11
22.8839217
21
164.5653433
0
LINE
8
DEFAULT_255_1_234
10
22.8839217
20
164.5653433
11
22.9072137
21
164.5653433
0
LINE
8
DEFAULT_255_1_234
10
24.0862729
20
163.7613663
11
24.2412854
21
163.7613663
0
LINE
8
DEFAULT_255_1_234
10
23.3409276
20
163.9203947
11
23.3409276
21
164.0328391
0
LINE
8
DEFAULT_255_1_234
10
24.2412854
20
164.1838357
11
24.0862729
21
164.1838357
0
LINE
8
DEFAULT_255_1_234
10
23.4959401
20
164.0288232
11
23.4959401
21
163.9155757
0
ARC
8
DEFAULT_255_1_234
10
23.6932241
20
163.8210846
40
0.5513052
50
340.1774281
51
353.7814284
0
ARC
8
DEFAULT_255_1_234
10
23.8503594
20
163.7625582
40
0.3836379
50
311.4558989
51
340.4421614
0
ARC
8
DEFAULT_255_1_234
10
23.8470262
20
163.7736528
40
0.3941894
50
282.4333181
51
310.7513653
0
ARC
8
DEFAULT_255_1_234
10
23.8031001
20
163.9551679
40
0.5809175
50
269.9358511
51
282.809604
0
ARC
8
DEFAULT_255_1_234
10
23.7979067
20
164.1009212
40
0.7266847
50
270.0021091
51
270.3581957
0
ARC
8
DEFAULT_255_1_234
10
23.7926484
20
163.8408585
40
0.4666519
50
250.7884749
51
270.6489167
0
ARC
8
DEFAULT_255_1_234
10
23.7758319
20
163.7771319
40
0.4009729
50
219.3627325
51
250.0611886
0
ARC
8
DEFAULT_255_1_234
10
23.858753
20
163.8476042
40
0.5097822
50
193.5479632
51
219.5756669
0
ARC
8
DEFAULT_255_1_234
10
24.0959151
20
163.9091919
40
0.7547848
50
181.1218675
51
193.87563
0
ARC
8
DEFAULT_255_1_234
10
24.3029332
20
163.920258
40
0.9620055
50
179.9918545
51
181.5394234
0
ARC
8
DEFAULT_255_1_234
10
24.1178434
20
164.0365788
40
0.7769248
50
169.5837241
51
180.2757934
0
ARC
8
DEFAULT_255_1_234
10
23.9341372
20
164.0705229
40
0.590109
50
155.0365899
51
169.6003176
0
ARC
8
DEFAULT_255_1_234
10
23.8205836
20
164.1252677
40
0.4640625
50
136.783148
51
155.2472683
0
ARC
8
DEFAULT_255_1_234
10
23.7816313
20
164.1583562
40
0.4130255
50
121.7633186
51
136.428115
0
ARC
8
DEFAULT_255_1_234
10
23.7951275
20
164.1334227
40
0.4413323
50
95.6459699
51
121.5490577
0
ARC
8
DEFAULT_255_1_234
10
23.8108557
20
164.0225949
40
0.55319
50
89.924208
51
96.1377933
0
ARC
8
DEFAULT_255_1_234
10
23.815899
20
164.0344542
40
0.5413475
50
76.6779277
51
90.4563316
0
ARC
8
DEFAULT_255_1_234
10
23.8552613
20
164.1935114
40
0.3775041
50
47.485847
51
76.9287264
0
ARC
8
DEFAULT_255_1_234
10
23.8405586
20
164.1835159
40
0.3948286
50
16.5424086
51
46.8933463
0
ARC
8
DEFAULT_255_1_234
10
23.6797743
20
164.1306861
40
0.564021
50
5.4072051
51
17.0365086
0
ARC
8
DEFAULT_255_1_234
10
23.535876
20
164.1075679
40
0.5556559
50
7.8891745
51
15.9239216
0
ARC
8
DEFAULT_255_1_234
10
23.7345773
20
164.1652631
40
0.3487515
50
15.7653144
51
27.9410532
0
ARC
8
DEFAULT_255_1_234
10
23.8449991
20
164.224379
40
0.2235026
50
27.8166557
51
46.4008329
0
ARC
8
DEFAULT_255_1_234
10
23.8499634
20
164.2238082
40
0.2205286
50
47.4371857
51
75.0698205
0
ARC
8
DEFAULT_255_1_234
10
23.8191029
20
164.1163765
40
0.3322915
50
74.7008593
51
87.8124495
0
ARC
8
DEFAULT_255_1_234
10
23.8117716
20
164.0107844
40
0.4380987
50
87.3814673
51
90.0240855
0
ARC
8
DEFAULT_255_1_234
10
23.8079259
20
164.1285291
40
0.3203749
50
89.3451631
51
108.5745436
0
ARC
8
DEFAULT_255_1_234
10
23.7942365
20
164.1798908
40
0.2673494
50
109.2998449
51
143.3037509
0
ARC
8
DEFAULT_255_1_234
10
23.8704437
20
164.1212881
40
0.3634757
50
143.0753173
51
163.1916937
0
ARC
8
DEFAULT_255_1_234
10
24.0656165
20
164.0596967
40
0.5681262
50
162.9373603
51
174.6208611
0
ARC
8
DEFAULT_255_1_234
10
24.3282207
20
164.030901
40
0.8322832
50
174.3419979
51
180.1430411
0
ARC
8
DEFAULT_255_1_234
10
24.2351363
20
163.9114698
40
0.7392076
50
179.6817502
51
189.150529
0
ARC
8
DEFAULT_255_1_234
10
23.9850611
20
163.869819
40
0.4856932
50
188.9910863
51
203.5773039
0
ARC
8
DEFAULT_255_1_234
10
23.8770944
20
163.8250211
40
0.3688271
50
203.9077269
51
215.1312379
0
ARC
8
DEFAULT_255_1_234
10
23.7848038
20
163.7534941
40
0.2522457
50
213.9071664
51
263.8849284
0
ARC
8
DEFAULT_255_1_234
10
23.7973367
20
163.8319518
40
0.3316174
50
263.1758525
51
270.1031083
0
ARC
8
DEFAULT_255_1_234
10
23.8005459
20
163.9566365
40
0.4563091
50
269.6719807
51
279.0609165
0
ARC
8
DEFAULT_255_1_234
10
23.8272227
20
163.7953907
40
0.2928759
50
278.8750225
51
293.6346586
0
ARC
8
DEFAULT_255_1_234
10
23.8592435
20
163.72019
40
0.2111472
50
293.8553404
51
310.0518804
0
ARC
8
DEFAULT_255_1_234
10
23.8597289
20
163.7139516
40
0.2060917
50
311.0646779
51
332.0108348
0
ARC
8
DEFAULT_255_1_234
10
23.7405016
20
163.7796978
40
0.3422352
50
331.6588543
51
343.2878891
0
ARC
8
DEFAULT_255_1_234
10
23.5342531
20
163.8430798
40
0.5580003
50
343.1446044
51
351.010618
0
ARC
8
DEFAULT_255_1_234
10
23.3801177
20
163.8711871
40
0.7146438
50
350.7157277
51
351.1602153
0
LINE
8
DEFAULT_255_1_234
10
22.9326522
20
169.8514211
11
23.2651662
21
168.8868093
0
LINE
8
DEFAULT_255_1_234
10
23.2651662
20
168.8868093
11
23.5992865
21
169.8514211
0
LINE
8
DEFAULT_255_1_234
10
23.5992865
20
169.8514211
11
23.767953
21
169.8514211
0
LINE
8
DEFAULT_255_1_234
10
23.767953
20
169.8514211
11
23.3342391
21
168.682
0
LINE
8
DEFAULT_255_1_234
10
23.3342391
20
168.682
11
23.1976996
21
168.682
0
LINE
8
DEFAULT_255_1_234
10
23.1976996
20
168.682
11
22.7647889
21
169.8514211
0
LINE
8
DEFAULT_255_1_234
10
22.7647889
20
169.8514211
11
22.9326522
21
169.8514211
0
LINE
8
DEFAULT_255_1_234
10
24.1807843
20
169.2394026
11
24.1807843
21
169.1181234
0
LINE
8
DEFAULT_255_1_234
10
24.1807843
20
169.1181234
11
23.7888355
21
169.1181234
0
LINE
8
DEFAULT_255_1_234
10
23.7888355
20
169.1181234
11
23.7888355
21
169.2394026
0
LINE
8
DEFAULT_255_1_234
10
23.7888355
20
169.2394026
11
24.1807843
21
169.2394026
0
ENDSEC
0
EOF