0
SECTION
2
HEADER
9
$MEASUREMENT
70
1
0
ENDSEC
0
SECTION
2
TABLES
0
TABLE
2
LTYPE
0
LTYPE
72
65
70
64
2
CONTINUOUS
3
______
73
0
40
0
0
ENDTAB
0
TABLE
2
LAYER
0
LAYER
2
DEFAULT_255_2_778
70
0
62
255
6
CONTINUOUS
0
LAYER
2
DEFAULT_255_1_234
70
0
62
255
6
CONTINUOUS
0
ENDTAB
0
ENDSEC
0
SECTION
2
ENTITIES
0
ARC
8
DEFAULT_255_2_778
10
3.5700693
20
155.1802019
40
0.7914215
50
129.1312896
51
180.1450914
0
ARC
8
DEFAULT_255_2_778
10
3.5703345
20
155.180689
40
0.7912112
50
89.854026
51
129.1684493
0
ARC
8
DEFAULT_255_2_778
10
25.7993937
20
155.1803756
40
0.7915249
50
39.4792447
51
90.147911
0
ARC
8
DEFAULT_255_2_778
10
25.7999935
20
155.1802222
40
0.7911595
50
359.8533901
51
39.5154338
0
ARC
8
DEFAULT_255_2_778
10
25.7996693
20
-1.9863503
40
0.7914836
50
309.4761667
51
0.1482649
0
ARC
8
DEFAULT_255_2_778
10
25.799398
20
-1.9867814
40
0.7913235
50
269.8517415
51
309.511178
0
ARC
8
DEFAULT_255_2_778
10
3.570342
20
-1.9867233
40
0.7913815
50
219.1282118
51
270.1454017
0
ARC
8
DEFAULT_255_2_778
10
3.5700247
20
-1.9863408
40
0.7913769
50
179.8524075
51
219.1641908
0
LINE
8
DEFAULT_255_2_778
10
3.5723503
20
155.9718978
11
25.7973503
21
155.9718978
0
LINE
8
DEFAULT_255_2_778
10
26.5911503
20
155.1781978
11
26.5911503
21
-1.9843022
0
LINE
8
DEFAULT_255_2_778
10
25.7973503
20
-2.7781022
11
3.5723503
21
-2.7781022
0
LINE
8
DEFAULT_255_2_778
10
2.7786503
20
-1.9843022
11
2.7786503
21
155.1781978
0
LINE
8
DEFAULT_255_1_234
10
7.9254392
20
-0.6513
11
7.5198364
21
-0.6513
0
LINE
8
DEFAULT_255_1_234
10
7.5198364
20
-0.6513
11
7.5198364
21
0.5181211
0
LINE
8
DEFAULT_255_1_234
10
7.5198364
20
0.5181211
11
7.9021471
21
0.5181211
0
LINE
8
DEFAULT_255_1_234
10
7.9310614
20
-0.1043386
11
7.6740458
21
-0.1043386
0
LINE
8
DEFAULT_255_1_234
10
7.6740458
20
-0.1043386
11
7.6740458
21
-0.5252017
0
LINE
8
DEFAULT_255_1_234
10
7.6740458
20
-0.5252017
11
7.9286519
21
-0.5252017
0
LINE
8
DEFAULT_255_1_234
10
7.6740458
20
0.3912196
11
7.6740458
21
0.0193501
0
LINE
8
DEFAULT_255_1_234
10
7.6740458
20
0.0193501
11
7.9069662
21
0.0193501
0
LINE
8
DEFAULT_255_1_234
10
7.9021471
20
0.3912196
11
7.6740458
21
0.3912196
0
ARC
8
DEFAULT_255_1_234
10
7.905918
20
-0.2186099
40
0.7367406
50
82.1257326
51
90.2932599
0
ARC
8
DEFAULT_255_1_234
10
7.9448135
20
0.0532013
40
0.4621653
50
69.9044149
51
82.2857423
0
ARC
8
DEFAULT_255_1_234
10
8.0018813
20
0.2074637
40
0.2976871
50
51.1838526
51
70.0181538
0
ARC
8
DEFAULT_255_1_234
10
8.0273779
20
0.244524
40
0.2528517
50
12.1017251
51
50.4214761
0
ARC
8
DEFAULT_255_1_234
10
7.8889653
20
0.2097676
40
0.3955061
50
359.5251267
51
12.8211707
0
ARC
8
DEFAULT_255_1_234
10
8.0469579
20
0.2028344
40
0.2375281
50
323.4908128
51
0.8817314
0
ARC
8
DEFAULT_255_1_234
10
8.0051266
20
0.235155
40
0.2903817
50
298.6825083
51
323.2756573
0
ARC
8
DEFAULT_255_1_234
10
7.9689629
20
0.2952649
40
0.3604842
50
293.1999386
51
299.1396394
0
ARC
8
DEFAULT_255_1_234
10
8.0362602
20
-0.3132874
40
0.2871098
50
54.0011765
51
74.9167975
0
ARC
8
DEFAULT_255_1_234
10
8.0478961
20
-0.2935668
40
0.2643248
50
36.3580696
51
53.5291921
0
ARC
8
DEFAULT_255_1_234
10
8.0352203
20
-0.3026002
40
0.2798884
50
4.8189881
51
36.3089977
0
ARC
8
DEFAULT_255_1_234
10
7.9573038
20
-0.313573
40
0.358478
50
359.9370252
51
5.5204067
0
ARC
8
DEFAULT_255_1_234
10
7.924856
20
-0.3176333
40
0.3909429
50
344.7478609
51
0.5373281
0
ARC
8
DEFAULT_255_1_234
10
8.0239531
20
-0.3443456
40
0.2883093
50
311.1786488
51
344.6886812
0
ARC
8
DEFAULT_255_1_234
10
7.9947578
20
-0.3080013
40
0.3348923
50
286.0418249
51
310.8441291
0
ARC
8
DEFAULT_255_1_234
10
7.944041
20
-0.1433193
40
0.5071869
50
274.1042341
51
286.4071509
0
ARC
8
DEFAULT_255_1_234
10
7.9263666
20
0.0450229
40
0.6963234
50
269.9236873
51
274.445647
0
ARC
8
DEFAULT_255_1_234
10
7.9309667
20
-0.1889463
40
0.3362634
50
269.6055768
51
281.3740047
0
ARC
8
DEFAULT_255_1_234
10
7.9540305
20
-0.2982647
40
0.224546
50
281.1055983
51
302.5132223
0
ARC
8
DEFAULT_255_1_234
10
7.9687204
20
-0.3246177
40
0.1944357
50
303.0368945
51
311.8811219
0
ARC
8
DEFAULT_255_1_234
10
7.9758611
20
-0.333111
40
0.1833454
50
311.9916004
51
351.7143462
0
ARC
8
DEFAULT_255_1_234
10
7.8941841
20
-0.316607
40
0.2665871
50
350.7339597
51
0.2221581
0
ARC
8
DEFAULT_255_1_234
10
7.8834287
20
-0.3109533
40
0.2773789
50
359.0456241
51
17.2296242
0
ARC
8
DEFAULT_255_1_234
10
7.9873404
20
-0.2800837
40
0.1689915
50
17.6685481
51
78.9940892
0
ARC
8
DEFAULT_255_1_234
10
7.9356568
20
-0.4655776
40
0.3612658
50
76.5635957
51
90.6980921
0
LINE
8
DEFAULT_255_1_234
10
7.9312552
20
-0.1043387
11
7.9310614
21
-0.1043386
0
ARC
8
DEFAULT_255_1_234
10
7.9092228
20
0.3479036
40
0.3285612
50
269.6064736
51
281.4533503
0
ARC
8
DEFAULT_255_1_234
10
7.9315048
20
0.2427688
40
0.2210975
50
281.2041486
51
302.5148063
0
ARC
8
DEFAULT_255_1_234
10
7.9451898
20
0.2181241
40
0.1929674
50
303.021671
51
309.8369575
0
ARC
8
DEFAULT_255_1_234
10
7.9635359
20
0.1975488
40
0.1654181
50
309.5228395
51
356.9509836
0
ARC
8
DEFAULT_255_1_234
10
7.8971942
20
0.2070932
40
0.2322512
50
355.4701227
51
0.0492546
0
ARC
8
DEFAULT_255_1_234
10
7.8693033
20
0.2093094
40
0.2601498
50
359.5558597
51
11.2096359
0
ARC
8
DEFAULT_255_1_234
10
7.9650323
20
0.229123
40
0.1623975
50
10.9182341
51
31.3230275
0
ARC
8
DEFAULT_255_1_234
10
7.9936056
20
0.2450214
40
0.1297302
50
31.8852677
51
52.1412565
0
ARC
8
DEFAULT_255_1_234
10
7.9661789
20
0.206275
40
0.1771663
50
52.8285564
51
71.9850297
0
ARC
8
DEFAULT_255_1_234
10
7.9285965
20
0.0956664
40
0.2939794
50
71.6863486
51
82.8455995
0
ARC
8
DEFAULT_255_1_234
10
7.9046501
20
-0.0852851
40
0.476506
50
82.6984714
51
90.1729175
0
ARC
8
DEFAULT_255_1_234
10
7.9024136
20
0.0370623
40
0.3541573
50
89.8708275
51
90.0431131
0
LINE
8
DEFAULT_255_1_234
10
8.6434766
20
0.5181211
11
8.9253906
21
0.0699501
0
LINE
8
DEFAULT_255_1_234
10
8.9253906
20
0.0699501
11
9.2056982
21
0.5181211
0
LINE
8
DEFAULT_255_1_234
10
9.2056982
20
0.5181211
11
9.3872155
21
0.5181211
0
LINE
8
DEFAULT_255_1_234
10
9.3872155
20
0.5181211
11
9.0177556
21
-0.0617704
0
LINE
8
DEFAULT_255_1_234
10
9.0177556
20
-0.0617704
11
9.3960504
21
-0.6513
0
LINE
8
DEFAULT_255_1_234
10
9.3960504
20
-0.6513
11
9.2129268
21
-0.6513
0
LINE
8
DEFAULT_255_1_234
10
9.2129268
20
-0.6513
11
8.9253906
21
-0.1950973
0
LINE
8
DEFAULT_255_1_234
10
8.9253906
20
-0.1950973
11
8.636248
21
-0.6513
0
LINE
8
DEFAULT_255_1_234
10
8.636248
20
-0.6513
11
8.4539275
21
-0.6513
0
LINE
8
DEFAULT_255_1_234
10
8.4539275
20
-0.6513
11
8.8330256
21
-0.0617704
0
LINE
8
DEFAULT_255_1_234
10
8.8330256
20
-0.0617704
11
8.4627625
21
0.5181211
0
LINE
8
DEFAULT_255_1_234
10
8.4627625
20
0.5181211
11
8.6434766
21
0.5181211
0
LINE
8
DEFAULT_255_1_234
10
9.8241421
20
-0.0938974
11
9.8241421
21
-0.2151766
0
LINE
8
DEFAULT_255_1_234
10
9.8241421
20
-0.2151766
11
9.4321933
21
-0.2151766
0
LINE
8
DEFAULT_255_1_234
10
9.4321933
20
-0.2151766
11
9.4321933
21
-0.0938974
0
LINE
8
DEFAULT_255_1_234
10
9.4321933
20
-0.0938974
11
9.8241421
21
-0.0938974
0
LINE
8
DEFAULT_255_1_234
10
10.3156845
20
-0.6513
11
9.9920054
21
-0.6513
0
LINE
8
DEFAULT_255_1_234
10
9.9920054
20
-0.6513
11
9.9920054
21
0.5181211
0
LINE
8
DEFAULT_255_1_234
10
9.9920054
20
0.5181211
11
10.3221099
21
0.5181211
0
LINE
8
DEFAULT_255_1_234
10
10.8377475
20
-0.0272339
11
10.8377475
21
-0.1019291
0
LINE
8
DEFAULT_255_1_234
10
10.3261257
20
0.3912196
11
10.1462148
21
0.3912196
0
LINE
8
DEFAULT_255_1_234
10
10.1462148
20
0.3912196
11
10.1462148
21
-0.5252017
0
LINE
8
DEFAULT_255_1_234
10
10.1462148
20
-0.5252017
11
10.3084559
21
-0.5252017
0
LINE
8
DEFAULT_255_1_234
10
10.6851444
20
-0.0987164
11
10.6851444
21
-0.0304466
0
ARC
8
DEFAULT_255_1_234
10
10.3260041
20
-0.0684106
40
0.5865446
50
75.4101064
51
90.3804066
0
ARC
8
DEFAULT_255_1_234
10
10.3489555
20
0.0272492
40
0.4881916
50
60.145586
51
75.1888407
0
ARC
8
DEFAULT_255_1_234
10
10.364833
20
0.0549199
40
0.4562893
50
26.5253612
51
60.1450928
0
ARC
8
DEFAULT_255_1_234
10
10.2528079
20
-0.0044842
40
0.5830602
50
7.4030428
51
26.8320788
0
ARC
8
DEFAULT_255_1_234
10
10.0933836
20
-0.0293196
40
0.7443669
50
0.1605367
51
7.7176192
0
ARC
8
DEFAULT_255_1_234
10
10.1097741
20
-0.1057566
40
0.7279835
50
348.7289388
51
0.3012466
0
ARC
8
DEFAULT_255_1_234
10
10.2754171
20
-0.1386614
40
0.559104
50
333.0706509
51
348.7181832
0
ARC
8
DEFAULT_255_1_234
10
10.3720929
20
-0.1911681
40
0.4491417
50
299.2531685
51
333.4571258
0
ARC
8
DEFAULT_255_1_234
10
10.3360068
20
-0.1226172
40
0.5265881
50
278.107187
51
299.0339503
0
ARC
8
DEFAULT_255_1_234
10
10.3104147
20
0.0281216
40
0.679442
50
270.4443897
51
278.4511052
0
ARC
8
DEFAULT_255_1_234
10
10.3124977
20
-0.0647787
40
0.4604407
50
269.4970433
51
284.0205042
0
ARC
8
DEFAULT_255_1_234
10
10.3480278
20
-0.2013022
40
0.3193797
50
283.7700273
51
318.1555492
0
ARC
8
DEFAULT_255_1_234
10
10.3143036
20
-0.1760633
40
0.3613588
50
318.7415601
51
343.6873628
0
ARC
8
DEFAULT_255_1_234
10
10.133906
20
-0.1197168
40
0.5503313
50
343.3325091
51
355.8548958
0
ARC
8
DEFAULT_255_1_234
10
9.9240744
20
-0.0997681
40
0.7610708
50
355.4988528
51
0.0791727
0
ARC
8
DEFAULT_255_1_234
10
10.0023367
20
-0.026222
40
0.6828208
50
359.6455037
51
9.8607896
0
ARC
8
DEFAULT_255_1_234
10
10.2384064
20
0.0164099
40
0.4429406
50
9.6571907
51
26.1932807
0
ARC
8
DEFAULT_255_1_234
10
10.3312053
20
0.0595118
40
0.3406537
50
26.5777228
51
40.1532208
0
ARC
8
DEFAULT_255_1_234
10
10.356778
20
0.0794619
40
0.308246
50
40.3840491
51
80.1431104
0
ARC
8
DEFAULT_255_1_234
10
10.3240897
20
-0.0654667
40
0.4566909
50
79.2152159
51
89.7445637
0
LINE
8
DEFAULT_255_1_234
10
11.0706679
20
0.5181211
11
11.269855
21
0.5181211
0
LINE
8
DEFAULT_255_1_234
10
11.269855
20
0.5181211
11
11.6521657
21
-0.4360494
0
LINE
8
DEFAULT_255_1_234
10
11.6521657
20
-0.4360494
11
12.0344765
21
0.5181211
0
LINE
8
DEFAULT_255_1_234
10
12.0344765
20
0.5181211
11
12.2344667
21
0.5181211
0
LINE
8
DEFAULT_255_1_234
10
12.2344667
20
0.5181211
11
12.2344667
21
-0.6513
0
LINE
8
DEFAULT_255_1_234
10
12.2344667
20
-0.6513
11
12.0802574
21
-0.6513
0
LINE
8
DEFAULT_255_1_234
10
12.0802574
20
-0.6513
11
12.0802574
21
-0.1959004
0
LINE
8
DEFAULT_255_1_234
10
12.0802574
20
-0.1959004
11
12.0947145
21
0.2956419
0
LINE
8
DEFAULT_255_1_234
10
12.0947145
20
0.2956419
11
11.7107974
21
-0.6513
0
LINE
8
DEFAULT_255_1_234
10
11.7107974
20
-0.6513
11
11.5927309
21
-0.6513
0
LINE
8
DEFAULT_255_1_234
10
11.5927309
20
-0.6513
11
11.2096169
21
0.2932324
0
LINE
8
DEFAULT_255_1_234
10
11.2096169
20
0.2932324
11
11.2248772
21
-0.1959004
0
LINE
8
DEFAULT_255_1_234
10
11.2248772
20
-0.1959004
11
11.2248772
21
-0.6513
0
LINE
8
DEFAULT_255_1_234
10
11.2248772
20
-0.6513
11
11.0706679
21
-0.6513
0
LINE
8
DEFAULT_255_1_234
10
11.0706679
20
-0.6513
11
11.0706679
21
0.5181211
0
LINE
8
DEFAULT_255_1_234
10
12.95652
20
0.5237433
11
12.95652
21
-0.6513
0
LINE
8
DEFAULT_255_1_234
10
12.95652
20
-0.6513
11
12.8071297
21
-0.6513
0
LINE
8
DEFAULT_255_1_234
10
12.8071297
20
-0.6513
11
12.8071297
21
0.3390133
0
LINE
8
DEFAULT_255_1_234
10
12.8071297
20
0.3390133
11
12.5075458
21
0.2289785
0
LINE
8
DEFAULT_255_1_234
10
12.5075458
20
0.2289785
11
12.5075458
21
0.3639117
0
LINE
8
DEFAULT_255_1_234
10
12.5075458
20
0.3639117
11
12.933228
21
0.5237433
0
LINE
8
DEFAULT_255_1_234
10
12.933228
20
0.5237433
11
12.95652
21
0.5237433
0
LINE
8
DEFAULT_255_1_234
10
14.0914046
20
0.0153343
11
14.0914046
21
-0.110764
0
LINE
8
DEFAULT_255_1_234
10
14.0914046
20
-0.110764
11
13.584602
21
-0.110764
0
LINE
8
DEFAULT_255_1_234
10
13.584602
20
-0.110764
11
13.584602
21
-0.5252017
0
LINE
8
DEFAULT_255_1_234
10
13.584602
20
-0.5252017
11
14.1733284
21
-0.5252017
0
LINE
8
DEFAULT_255_1_234
10
14.1733284
20
-0.5252017
11
14.1733284
21
-0.6513
0
LINE
8
DEFAULT_255_1_234
10
14.1733284
20
-0.6513
11
13.4303926
21
-0.6513
0
LINE
8
DEFAULT_255_1_234
10
13.4303926
20
-0.6513
11
13.4303926
21
0.5181211
0
LINE
8
DEFAULT_255_1_234
10
13.4303926
20
0.5181211
11
14.1652966
21
0.5181211
0
LINE
8
DEFAULT_255_1_234
10
14.1652966
20
0.5181211
11
14.1652966
21
0.3912196
0
LINE
8
DEFAULT_255_1_234
10
14.1652966
20
0.3912196
11
13.584602
21
0.3912196
0
LINE
8
DEFAULT_255_1_234
10
13.584602
20
0.3912196
11
13.584602
21
0.0153343
0
LINE
8
DEFAULT_255_1_234
10
13.584602
20
0.0153343
11
14.0914046
21
0.0153343
0
LINE
8
DEFAULT_255_1_234
10
14.6512168
20
-0.0938974
11
14.6512168
21
-0.2151766
0
LINE
8
DEFAULT_255_1_234
10
14.6512168
20
-0.2151766
11
14.259268
21
-0.2151766
0
LINE
8
DEFAULT_255_1_234
10
14.259268
20
-0.2151766
11
14.259268
21
-0.0938974
0
LINE
8
DEFAULT_255_1_234
10
14.259268
20
-0.0938974
11
14.6512168
21
-0.0938974
0
LINE
8
DEFAULT_255_1_234
10
15.2688575
20
0.5237433
11
15.2688575
21
-0.6513
0
LINE
8
DEFAULT_255_1_234
10
15.2688575
20
-0.6513
11
15.1194671
21
-0.6513
0
LINE
8
DEFAULT_255_1_234
10
15.1194671
20
-0.6513
11
15.1194671
21
0.3390133
0
LINE
8
DEFAULT_255_1_234
10
15.1194671
20
0.3390133
11
14.8198833
21
0.2289785
0
LINE
8
DEFAULT_255_1_234
10
14.8198833
20
0.2289785
11
14.8198833
21
0.3639117
0
LINE
8
DEFAULT_255_1_234
10
14.8198833
20
0.3639117
11
15.2455654
21
0.5237433
0
LINE
8
DEFAULT_255_1_234
10
15.2455654
20
0.5237433
11
15.2688575
21
0.5237433
0
ARC
8
DEFAULT_255_1_234
10
16.131156
20
0.2103703
40
0.2822356
50
338.8763615
51
0.5166041
0
ARC
8
DEFAULT_255_1_234
10
16.1480215
20
0.2058208
40
0.2648703
50
325.8412414
51
338.4795939
0
ARC
8
DEFAULT_255_1_234
10
16.1089582
20
0.2329042
40
0.3124019
50
296.7586019
51
325.753654
0
ARC
8
DEFAULT_255_1_234
10
16.0801691
20
0.2813789
40
0.368668
50
296.0902311
51
297.3618122
0
ARC
8
DEFAULT_255_1_234
10
16.1059149
20
-0.3740959
40
0.3518806
50
47.9009248
51
67.1946869
0
ARC
8
DEFAULT_255_1_234
10
16.125539
20
-0.3494605
40
0.320451
50
35.236241
51
47.551371
0
ARC
8
DEFAULT_255_1_234
10
16.1517008
20
-0.3320007
40
0.2890103
50
359.2759738
51
35.4014081
0
ARC
8
DEFAULT_255_1_234
10
16.077204
20
-0.3393174
40
0.3635026
50
343.1294516
51
0.5776525
0
ARC
8
DEFAULT_255_1_234
10
16.1496584
20
-0.359267
40
0.2883832
50
310.8497458
51
342.744803
0
ARC
8
DEFAULT_255_1_234
10
16.1078698
20
-0.3115706
40
0.3517954
50
281.5473923
51
310.9169905
0
ARC
8
DEFAULT_255_1_234
10
16.0722147
20
-0.1562916
40
0.5110832
50
269.6192722
51
281.9789957
0
ARC
8
DEFAULT_255_1_234
10
16.0649936
20
-0.1562172
40
0.5111606
50
257.4584469
51
270.4287458
0
ARC
8
DEFAULT_255_1_234
10
16.0269079
20
-0.3165656
40
0.3463762
50
228.7553743
51
257.8484423
0
ARC
8
DEFAULT_255_1_234
10
15.9959278
20
-0.3538558
40
0.297916
50
184.0104442
51
228.5071787
0
ARC
8
DEFAULT_255_1_234
10
16.1122222
20
-0.3361488
40
0.4152734
50
179.9315461
51
185.3254504
0
ARC
8
DEFAULT_255_1_234
10
15.9945867
20
-0.3324008
40
0.2976554
50
145.6795913
51
180.6259649
0
ARC
8
DEFAULT_255_1_234
10
16.0109217
20
-0.3438071
40
0.3175776
50
115.5537925
51
145.6416199
0
ARC
8
DEFAULT_255_1_234
10
16.0450147
20
-0.4048972
40
0.3874232
50
113.2437915
51
116.2054627
0
ARC
8
DEFAULT_255_1_234
10
16.0297359
20
0.234958
40
0.3154751
50
222.9548379
51
244.1372485
0
ARC
8
DEFAULT_255_1_234
10
16.0175435
20
0.2212834
40
0.2972382
50
213.3439227
51
222.6271327
0
ARC
8
DEFAULT_255_1_234
10
15.9983369
20
0.2082308
40
0.274019
50
180.4316517
51
213.2713999
0
ARC
8
DEFAULT_255_1_234
10
16.055837
20
0.212911
40
0.33158
50
179.9992944
51
181.1655061
0
ARC
8
DEFAULT_255_1_234
10
16.0967788
20
0.2163561
40
0.3725376
50
164.6186108
51
180.5292368
0
ARC
8
DEFAULT_255_1_234
10
16.006965
20
0.2405101
40
0.2795349
50
132.2454369
51
164.5092287
0
ARC
8
DEFAULT_255_1_234
10
16.0356754
20
0.2080028
40
0.3229019
50
100.7052766
51
132.1387266
0
ARC
8
DEFAULT_255_1_234
10
16.0661727
20
0.0702086
40
0.4639835
50
89.6732617
51
101.2449487
0
ARC
8
DEFAULT_255_1_234
10
16.0723925
20
0.087699
40
0.4464999
50
76.2876631
51
90.4586123
0
ARC
8
DEFAULT_255_1_234
10
16.1030157
20
0.209922
40
0.3205023
50
47.8240157
51
76.4266918
0
ARC
8
DEFAULT_255_1_234
10
16.1252706
20
0.235959
40
0.2862661
50
6.9168658
51
47.6261438
0
ARC
8
DEFAULT_255_1_234
10
16.0066109
20
0.214037
40
0.4067708
50
359.8419705
51
7.9694496
0
ARC
8
DEFAULT_255_1_234
10
16.0408006
20
-0.3300075
40
0.2513121
50
359.4454068
51
16.9256425
0
ARC
8
DEFAULT_255_1_234
10
16.0876817
20
-0.3170967
40
0.2027071
50
17.292259
51
45.462717
0
ARC
8
DEFAULT_255_1_234
10
16.0822753
20
-0.3217566
40
0.2098212
50
45.3028762
51
83.1921472
0
ARC
8
DEFAULT_255_1_234
10
16.0679438
20
-0.4019105
40
0.2911472
50
82.2614531
51
90.143954
0
ARC
8
DEFAULT_255_1_234
10
16.0648558
20
-0.378605
40
0.2678513
50
89.4959189
51
104.8579811
0
ARC
8
DEFAULT_255_1_234
10
16.0471816
20
-0.311611
40
0.1985654
50
104.8855873
51
135.2448349
0
ARC
8
DEFAULT_255_1_234
10
16.0521589
20
-0.3160664
40
0.2052373
50
135.3398955
51
172.104394
0
ARC
8
DEFAULT_255_1_234
10
16.1328647
20
-0.3315075
40
0.2873299
50
171.2651929
51
180.1859362
0
ARC
8
DEFAULT_255_1_234
10
16.1159349
20
-0.3347267
40
0.2704083
50
179.515471
51
193.6466734
0
ARC
8
DEFAULT_255_1_234
10
16.0343118
20
-0.3555223
40
0.1861855
50
193.3540587
51
225.8256931
0
ARC
8
DEFAULT_255_1_234
10
16.0383875
20
-0.3484476
40
0.1941102
50
226.418029
51
255.8553723
0
ARC
8
DEFAULT_255_1_234
10
16.0640307
20
-0.2548002
40
0.2911917
50
255.4655572
51
268.7985967
0
ARC
8
DEFAULT_255_1_234
10
16.0687499
20
-0.1709509
40
0.3751331
50
268.3464808
51
270.0104874
0
ARC
8
DEFAULT_255_1_234
10
16.0710887
20
-0.2393862
40
0.3067064
50
269.575914
51
282.0823146
0
ARC
8
DEFAULT_255_1_234
10
16.0935797
20
-0.3388197
40
0.2047712
50
281.7522535
51
306.6056425
0
ARC
8
DEFAULT_255_1_234
10
16.1034223
20
-0.3549513
40
0.1859604
50
307.1350025
51
314.0277951
0
ARC
8
DEFAULT_255_1_234
10
16.0998307
20
-0.3523234
40
0.1903475
50
314.2553419
51
350.169324
0
ARC
8
DEFAULT_255_1_234
10
16.0146775
20
-0.3338591
40
0.2774269
50
349.4145679
51
0.2930737
0
ARC
8
DEFAULT_255_1_234
10
16.0667209
20
0.1820353
40
0.2300764
50
89.477591
51
105.729794
0
ARC
8
DEFAULT_255_1_234
10
16.0531122
20
0.2325637
40
0.1777519
50
105.922966
51
135.1662921
0
ARC
8
DEFAULT_255_1_234
10
16.0551624
20
0.2311419
40
0.1802087
50
135.3053131
51
168.9882338
0
ARC
8
DEFAULT_255_1_234
10
16.1379197
20
0.2121721
40
0.2650806
50
168.3802067
51
180.3602358
0
ARC
8
DEFAULT_255_1_234
10
16.1150776
20
0.2084041
40
0.2422425
50
179.5029707
51
194.9126783
0
ARC
8
DEFAULT_255_1_234
10
16.0565437
20
0.193011
40
0.1817188
50
194.9722181
51
224.1943972
0
ARC
8
DEFAULT_255_1_234
10
16.0537305
20
0.1907169
40
0.1781027
50
224.2961434
51
262.0157375
0
ARC
8
DEFAULT_255_1_234
10
16.0679547
20
0.2638661
40
0.2525492
50
261.1250369
51
270.1959853
0
ARC
8
DEFAULT_255_1_234
10
16.0709302
20
0.2451339
40
0.233825
50
269.4825617
51
285.0988277
0
ARC
8
DEFAULT_255_1_234
10
16.0863462
20
0.187299
40
0.1739712
50
285.1585659
51
315.9484648
0
ARC
8
DEFAULT_255_1_234
10
16.0774473
20
0.1954886
40
0.1860616
50
316.0412958
51
351.9162715
0
ARC
8
DEFAULT_255_1_234
10
16.0041428
20
0.2096245
40
0.2606517
50
351.1056823
51
0.1936567
0
ARC
8
DEFAULT_255_1_234
10
16.0304257
20
0.2126369
40
0.234377
50
359.4789506
51
16.0679113
0
ARC
8
DEFAULT_255_1_234
10
16.0780216
20
0.225481
40
0.1850875
50
16.3251951
51
44.791304
0
ARC
8
DEFAULT_255_1_234
10
16.0762498
20
0.2255339
40
0.186312
50
44.3958661
51
88.2498933
0
ARC
8
DEFAULT_255_1_234
10
16.0689051
20
0.1644154
40
0.2476868
50
86.9833827
51
90.0200148
0
LINE
8
DEFAULT_255_1_234
10
17.327392
20
0.0153343
11
17.327392
21
-0.110764
0
LINE
8
DEFAULT_255_1_234
10
17.327392
20
-0.110764
11
16.8205893
21
-0.110764
0
LINE
8
DEFAULT_255_1_234
10
16.8205893
20
-0.110764
11
16.8205893
21
-0.5252017
0
LINE
8
DEFAULT_255_1_234
10
16.8205893
20
-0.5252017
11
17.4093157
21
-0.5252017
0
LINE
8
DEFAULT_255_1_234
10
17.4093157
20
-0.5252017
11
17.4093157
21
-0.6513
0
LINE
8
DEFAULT_255_1_234
10
17.4093157
20
-0.6513
11
16.6663799
21
-0.6513
0
LINE
8
DEFAULT_255_1_234
10
16.6663799
20
-0.6513
11
16.6663799
21
0.5181211
0
LINE
8
DEFAULT_255_1_234
10
16.6663799
20
0.5181211
11
17.401284
21
0.5181211
0
LINE
8
DEFAULT_255_1_234
10
17.401284
20
0.5181211
11
17.401284
21
0.3912196
0
LINE
8
DEFAULT_255_1_234
10
17.401284
20
0.3912196
11
16.8205893
21
0.3912196
0
LINE
8
DEFAULT_255_1_234
10
16.8205893
20
0.3912196
11
16.8205893
21
0.0153343
0
LINE
8
DEFAULT_255_1_234
10
16.8205893
20
0.0153343
11
17.327392
21
0.0153343
0
LINE
8
DEFAULT_255_1_234
10
18.283972
20
-0.6513
11
18.0301691
21
-0.1782306
0
LINE
8
DEFAULT_255_1_234
10
18.0301691
20
-0.1782306
11
17.7554836
21
-0.1782306
0
LINE
8
DEFAULT_255_1_234
10
17.7554836
20
-0.1782306
11
17.7554836
21
-0.6513
0
LINE
8
DEFAULT_255_1_234
10
17.7554836
20
-0.6513
11
17.6004711
21
-0.6513
0
LINE
8
DEFAULT_255_1_234
10
17.6004711
20
-0.6513
11
17.6004711
21
0.5181211
0
LINE
8
DEFAULT_255_1_234
10
17.6004711
20
0.5181211
11
17.9876009
21
0.5181211
0
LINE
8
DEFAULT_255_1_234
10
18.1747404
20
-0.1453005
11
18.4494258
21
-0.6416619
0
LINE
8
DEFAULT_255_1_234
10
18.4494258
20
-0.6416619
11
18.4494258
21
-0.6513
0
LINE
8
DEFAULT_255_1_234
10
18.4494258
20
-0.6513
11
18.283972
21
-0.6513
0
LINE
8
DEFAULT_255_1_234
10
17.7554836
20
0.3912196
11
17.7554836
21
-0.0521323
0
LINE
8
DEFAULT_255_1_234
10
17.7554836
20
-0.0521323
11
17.9924199
21
-0.0521323
0
LINE
8
DEFAULT_255_1_234
10
17.9916167
20
0.3912196
11
17.7554836
21
0.3912196
0
ARC
8
DEFAULT_255_1_234
10
17.9917648
20
-0.1780239
40
0.6961575
50
80.653586
51
90.3427061
0
ARC
8
DEFAULT_255_1_234
10
18.0337123
20
0.0682348
40
0.4463577
50
65.6987447
51
80.8329603
0
ARC
8
DEFAULT_255_1_234
10
18.0814764
20
0.1777322
40
0.3269094
50
50.0017161
51
65.4305835
0
ARC
8
DEFAULT_255_1_234
10
18.1033228
20
0.2072482
40
0.2902647
50
11.628416
51
49.5603263
0
ARC
8
DEFAULT_255_1_234
10
17.9497564
20
0.1697299
40
0.4482792
50
359.5655735
51
12.3691
0
ARC
8
DEFAULT_255_1_234
10
18.0574424
20
0.1634644
40
0.3405924
50
341.9983148
51
0.4822259
0
ARC
8
DEFAULT_255_1_234
10
18.0969264
20
0.1527471
40
0.2997359
50
323.8609373
51
341.61416
0
ARC
8
DEFAULT_255_1_234
10
18.0667508
20
0.1760484
40
0.3378487
50
296.7018614
51
323.6876402
0
ARC
8
DEFAULT_255_1_234
10
18.0226403
20
0.2549235
40
0.4281516
50
290.8086567
51
297.2323311
0
ARC
8
DEFAULT_255_1_234
10
17.9949933
20
0.3072351
40
0.3593766
50
269.589728
51
281.8058135
0
ARC
8
DEFAULT_255_1_234
10
18.0200832
20
0.1924743
40
0.2419125
50
281.5501019
51
303.9357432
0
ARC
8
DEFAULT_255_1_234
10
18.033802
20
0.1686936
40
0.2145323
50
304.4415616
51
311.2106213
0
ARC
8
DEFAULT_255_1_234
10
18.0470125
20
0.1547632
40
0.1953505
50
310.9875673
51
356.2715578
0
ARC
8
DEFAULT_255_1_234
10
17.9713774
20
0.1660422
40
0.2716331
50
354.9348262
51
0.0609027
0
ARC
8
DEFAULT_255_1_234
10
17.9526648
20
0.1687435
40
0.2903554
50
359.5239371
51
12.8808918
0
ARC
8
DEFAULT_255_1_234
10
18.0504203
20
0.1926728
40
0.1897315
50
12.4173452
51
43.1022135
0
ARC
8
DEFAULT_255_1_234
10
18.0565808
20
0.1963724
40
0.1827118
50
43.5751728
51
48.203944
0
ARC
8
DEFAULT_255_1_234
10
18.03963
20
0.1742302
40
0.2105272
50
48.7809703
51
72.6969569
0
ARC
8
DEFAULT_255_1_234
10
18.0041925
20
0.066682
40
0.3237537
50
72.3702241
51
84.8791103
0
ARC
8
DEFAULT_255_1_234
10
17.9894401
20
-0.0675231
40
0.4587478
50
84.5400526
51
89.7281406
0
LINE
8
DEFAULT_255_1_234
10
18.7915779
20
-0.1155831
11
18.7915779
21
0.0056962
0
LINE
8
DEFAULT_255_1_234
10
18.7915779
20
0.0056962
11
18.903219
21
0.0056962
0
LINE
8
DEFAULT_255_1_234
10
18.7128668
20
0.2113087
11
18.5642797
21
0.2113087
0
LINE
8
DEFAULT_255_1_234
10
18.5538384
20
-0.3428812
11
18.7032288
21
-0.3428812
0
LINE
8
DEFAULT_255_1_234
10
18.903219
20
-0.1155831
11
18.7915779
21
-0.1155831
0
ARC
8
DEFAULT_255_1_234
10
18.9003057
20
0.3449713
40
0.3392876
50
270.4919872
51
281.8951556
0
ARC
8
DEFAULT_255_1_234
10
18.9244318
20
0.2347702
40
0.2264817
50
281.6691735
51
301.2943132
0
ARC
8
DEFAULT_255_1_234
10
18.9414529
20
0.2036304
40
0.1910381
50
301.7833094
51
311.7545298
0
ARC
8
DEFAULT_255_1_234
10
18.9506104
20
0.1934748
40
0.1773635
50
311.7323931
51
354.2802411
0
ARC
8
DEFAULT_255_1_234
10
18.877973
20
0.2059722
40
0.2509385
50
353.0937916
51
0.1181479
0
ARC
8
DEFAULT_255_1_234
10
18.8318515
20
0.2107386
40
0.2970898
50
359.1805295
51
15.0453146
0
ARC
8
DEFAULT_255_1_234
10
18.9664352
20
0.2499992
40
0.1569564
50
13.9577229
51
77.6713066
0
ARC
8
DEFAULT_255_1_234
10
18.9277881
20
0.1114949
40
0.3006298
50
76.1116566
51
90.7026153
0
ARC
8
DEFAULT_255_1_234
10
18.9218719
20
0.1388545
40
0.2732568
50
89.5324876
51
103.531937
0
ARC
8
DEFAULT_255_1_234
10
18.9018163
20
0.2187884
40
0.1908508
50
103.2931773
51
133.5619022
0
ARC
8
DEFAULT_255_1_234
10
18.8973651
20
0.2247375
40
0.1834746
50
133.8349307
51
173.5344437
0
ARC
8
DEFAULT_255_1_234
10
18.9696695
20
0.2119213
40
0.2568033
50
172.5096846
51
180.1366907
0
ARC
8
DEFAULT_255_1_234
10
18.8745588
20
0.2153622
40
0.3103056
50
155.3484492
51
180.7484736
0
ARC
8
DEFAULT_255_1_234
10
18.8696678
20
0.2124846
40
0.3070957
50
131.5744599
51
154.4798489
0
ARC
8
DEFAULT_255_1_234
10
18.9009825
20
0.180831
40
0.3515643
50
96.9875458
51
131.9690667
0
ARC
8
DEFAULT_255_1_234
10
18.9229305
20
0.0562636
40
0.4779224
50
89.8596053
51
97.7825159
0
ARC
8
DEFAULT_255_1_234
10
18.9277368
20
0.0300616
40
0.5041361
50
78.3655447
51
90.4131539
0
ARC
8
DEFAULT_255_1_234
10
18.9635286
20
0.1959887
40
0.3344039
50
56.6229102
51
78.638727
0
ARC
8
DEFAULT_255_1_234
10
18.9850229
20
0.2335805
40
0.2912001
50
47.0253525
51
56.0854072
0
ARC
8
DEFAULT_255_1_234
10
18.9870009
20
0.2375223
40
0.2869704
50
10.9208013
51
46.7778124
0
ARC
8
DEFAULT_255_1_234
10
18.8506076
20
0.2059857
40
0.426899
50
359.6364486
51
11.6087304
0
ARC
8
DEFAULT_255_1_234
10
19.034092
20
0.2044752
40
0.243409
50
332.3549906
51
359.7179418
0
ARC
8
DEFAULT_255_1_234
10
18.9690521
20
0.2353142
40
0.3153459
50
325.2333722
51
332.8745602
0
ARC
8
DEFAULT_255_1_234
10
18.9843145
20
0.2246828
40
0.2967456
50
292.9802137
51
325.2392345
0
ARC
8
DEFAULT_255_1_234
10
18.9568519
20
0.2780863
40
0.3566604
50
292.5402179
51
293.6924929
0
ARC
8
DEFAULT_255_1_234
10
18.9961115
20
-0.3673909
40
0.3307468
50
57.6435486
51
72.8625112
0
ARC
8
DEFAULT_255_1_234
10
19.0315615
20
-0.3099451
40
0.2632492
50
36.7248896
51
57.4697979
0
ARC
8
DEFAULT_255_1_234
10
19.0304247
20
-0.308678
40
0.2634081
50
8.0545065
51
36.356114
0
ARC
8
DEFAULT_255_1_234
10
18.9441433
20
-0.3241826
40
0.3510261
50
359.8320645
51
8.5869982
0
ARC
8
DEFAULT_255_1_234
10
18.9066209
20
-0.3289899
40
0.3885653
50
343.9829931
51
0.5571613
0
ARC
8
DEFAULT_255_1_234
10
18.9952406
20
-0.3532562
40
0.2966924
50
311.6359546
51
343.7651759
0
ARC
8
DEFAULT_255_1_234
10
18.9573975
20
-0.3105898
40
0.3537231
50
279.7829875
51
311.6255694
0
ARC
8
DEFAULT_255_1_234
10
18.9272751
20
-0.166872
40
0.5004971
50
269.7286406
51
280.3856417
0
ARC
8
DEFAULT_255_1_234
10
18.9210824
20
-0.1710004
40
0.4963778
50
256.6828919
51
270.4412052
0
ARC
8
DEFAULT_255_1_234
10
18.887212
20
-0.3094606
40
0.3538406
50
229.4223008
51
256.8556159
0
ARC
8
DEFAULT_255_1_234
10
18.8457513
20
-0.3561264
40
0.2914296
50
181.818294
51
229.6455059
0
ARC
8
DEFAULT_255_1_234
10
18.9497469
20
-0.3430504
40
0.3959084
50
179.9755256
51
183.2323064
0
ARC
8
DEFAULT_255_1_234
10
18.9325215
20
-0.3450963
40
0.2293034
50
179.4465117
51
196.2869258
0
ARC
8
DEFAULT_255_1_234
10
18.8837623
20
-0.3584349
40
0.1787621
50
196.5661473
51
227.705904
0
ARC
8
DEFAULT_255_1_234
10
18.9001718
20
-0.3400845
40
0.2033784
50
227.7652068
51
257.8762805
0
ARC
8
DEFAULT_255_1_234
10
18.9226688
20
-0.2457844
40
0.3003081
50
257.4584385
51
270.426602
0
ARC
8
DEFAULT_255_1_234
10
18.9272254
20
-0.2168004
40
0.329292
50
269.5962073
51
280.8789248
0
ARC
8
DEFAULT_255_1_234
10
18.9501783
20
-0.3314315
40
0.2123908
50
280.6346389
51
299.8595945
0
ARC
8
DEFAULT_255_1_234
10
18.9692689
20
-0.3676788
40
0.171457
50
300.3576302
51
314.5517981
0
ARC
8
DEFAULT_255_1_234
10
18.9609749
20
-0.3616081
40
0.1816095
50
315.0728369
51
345.0431014
0
ARC
8
DEFAULT_255_1_234
10
18.8686564
20
-0.3347159
40
0.2777492
50
344.5986631
51
357.9269593
0
ARC
8
DEFAULT_255_1_234
10
18.779089
20
-0.3285724
40
0.3674917
50
357.4748886
51
0.0231117
0
ARC
8
DEFAULT_255_1_234
10
18.8813999
20
-0.3261321
40
0.2651907
50
359.5047933
51
13.4239635
0
ARC
8
DEFAULT_255_1_234
10
18.9680643
20
-0.3039522
40
0.1757509
50
12.9498199
51
48.7551375
0
ARC
8
DEFAULT_255_1_234
10
18.9498377
20
-0.32886
40
0.2065134
50
49.5088623
51
72.1836453
0
ARC
8
DEFAULT_255_1_234
10
18.914053
20
-0.4350709
40
0.3185836
50
71.9010081
51
84.3554254
0
ARC
8
DEFAULT_255_1_234
10
18.8979162
20
-0.5711674
40
0.4556151
50
84.0193428
51
89.333121
0
LINE
8
DEFAULT_255_1_234
10
19.8236563
20
-0.0938974
11
19.8236563
21
-0.2151766
0
LINE
8
DEFAULT_255_1_234
10
19.8236563
20
-0.2151766
11
19.4317074
21
-0.2151766
0
LINE
8
DEFAULT_255_1_234
10
19.4317074
20
-0.2151766
11
19.4317074
21
-0.0938974
0
LINE
8
DEFAULT_255_1_234
10
19.4317074
20
-0.0938974
11
19.8236563
21
-0.0938974
0
LINE
8
DEFAULT_255_1_234
10
20.3151986
20
-0.6513
11
19.9915196
21
-0.6513
0
LINE
8
DEFAULT_255_1_234
10
19.9915196
20
-0.6513
11
19.9915196
21
0.5181211
0
LINE
8
DEFAULT_255_1_234
10
19.9915196
20
0.5181211
11
20.321624
21
0.5181211
0
LINE
8
DEFAULT_255_1_234
10
20.8372616
20
-0.0272339
11
20.8372616
21
-0.1019291
0
LINE
8
DEFAULT_255_1_234
10
20.3256399
20
0.3912196
11
20.145729
21
0.3912196
0
LINE
8
DEFAULT_255_1_234
10
20.145729
20
0.3912196
11
20.145729
21
-0.5252017
0
LINE
8
DEFAULT_255_1_234
10
20.145729
20
-0.5252017
11
20.3079701
21
-0.5252017
0
LINE
8
DEFAULT_255_1_234
10
20.6846586
20
-0.0987164
11
20.6846586
21
-0.0304466
0
ARC
8
DEFAULT_255_1_234
10
20.3255183
20
-0.0684106
40
0.5865446
50
75.4101064
51
90.3804066
0
ARC
8
DEFAULT_255_1_234
10
20.3484696
20
0.0272492
40
0.4881916
50
60.145586
51
75.1888407
0
ARC
8
DEFAULT_255_1_234
10
20.3643472
20
0.0549199
40
0.4562893
50
26.5253612
51
60.1450928
0
ARC
8
DEFAULT_255_1_234
10
20.2523221
20
-0.0044842
40
0.5830602
50
7.4030428
51
26.8320788
0
ARC
8
DEFAULT_255_1_234
10
20.0928978
20
-0.0293196
40
0.7443669
50
0.1605367
51
7.7176192
0
ARC
8
DEFAULT_255_1_234
10
20.1092882
20
-0.1057566
40
0.7279835
50
348.7289388
51
0.3012466
0
ARC
8
DEFAULT_255_1_234
10
20.2749313
20
-0.1386614
40
0.559104
50
333.0706509
51
348.7181832
0
ARC
8
DEFAULT_255_1_234
10
20.371607
20
-0.1911681
40
0.4491417
50
299.2531685
51
333.4571258
0
ARC
8
DEFAULT_255_1_234
10
20.335521
20
-0.1226172
40
0.5265881
50
278.107187
51
299.0339503
0
ARC
8
DEFAULT_255_1_234
10
20.3099289
20
0.0281216
40
0.679442
50
270.4443897
51
278.4511052
0
ARC
8
DEFAULT_255_1_234
10
20.3120119
20
-0.0647787
40
0.4604407
50
269.4970433
51
284.0205042
0
ARC
8
DEFAULT_255_1_234
10
20.347542
20
-0.2013022
40
0.3193797
50
283.7700273
51
318.1555492
0
ARC
8
DEFAULT_255_1_234
10
20.3138178
20
-0.1760633
40
0.3613588
50
318.7415601
51
343.6873628
0
ARC
8
DEFAULT_255_1_234
10
20.1334201
20
-0.1197168
40
0.5503313
50
343.3325091
51
355.8548958
0
ARC
8
DEFAULT_255_1_234
10
19.9235886
20
-0.0997681
40
0.7610708
50
355.4988528
51
0.0791727
0
ARC
8
DEFAULT_255_1_234
10
20.0018508
20
-0.026222
40
0.6828208
50
359.6455037
51
9.8607896
0
ARC
8
DEFAULT_255_1_234
10
20.2379206
20
0.0164099
40
0.4429406
50
9.6571907
51
26.1932807
0
ARC
8
DEFAULT_255_1_234
10
20.3307195
20
0.0595118
40
0.3406537
50
26.5777228
51
40.1532208
0
ARC
8
DEFAULT_255_1_234
10
20.3562921
20
0.0794619
40
0.308246
50
40.3840491
51
80.1431104
0
ARC
8
DEFAULT_255_1_234
10
20.3236039
20
-0.0654667
40
0.4566909
50
79.2152159
51
89.7445637
0
ARC
8
DEFAULT_255_2_778
10
20.2534188
20
152.3616525
40
0.3580657
50
89.9945037
51
180.0054963
0
ARC
8
DEFAULT_255_2_778
10
20.2534875
20
152.3616525
40
0.3580657
50
359.9945037
51
90.0054963
0
ARC
8
DEFAULT_255_2_778
10
20.2534875
20
152.3615838
40
0.3580657
50
269.9945037
51
0.0054963
0
ARC
8
DEFAULT_255_2_778
10
20.2534188
20
152.3615838
40
0.3580657
50
179.9945037
51
270.0054963
0
ARC
8
DEFAULT_255_2_778
10
22.9622406
20
152.093282
40
2.3282817
50
111.9150345
51
128.7655504
0
ARC
8
DEFAULT_255_2_778
10
22.8791007
20
152.225352
40
2.1733214
50
129.2366206
51
154.7721516
0
ARC
8
DEFAULT_255_2_778
10
23.480657
20
151.9295583
40
2.8435961
50
154.5467617
51
165.9285636
0
ARC
8
DEFAULT_255_2_778
10
23.9646902
20
151.7921212
40
3.3465569
50
165.6609748
51
166.525375
0
ARC
8
DEFAULT_255_2_778
10
21.5282291
20
153.0103171
40
1.414623
50
156.0627036
51
175.7189082
0
ARC
8
DEFAULT_255_2_778
10
22.1164502
20
152.756783
40
2.0551309
50
144.7505594
51
156.2560535
0
ARC
8
DEFAULT_255_2_778
10
22.8861799
20
152.2214863
40
2.9926766
50
137.345293
51
144.8863205
0
ARC
8
DEFAULT_255_2_778
10
23.8131446
20
151.3723407
40
4.2497776
50
131.6389266
51
137.393651
0
ARC
8
DEFAULT_255_2_778
10
24.5393492
20
150.5756248
40
5.3277326
50
130.1334351
51
131.7826198
0
LINE
8
DEFAULT_255_2_778
10
19.8953532
20
152.3616182
11
19.8953532
21
152.3616182
0
LINE
8
DEFAULT_255_2_778
10
21.1052532
20
154.6489182
11
22.0932532
21
154.2533182
0
LINE
8
DEFAULT_255_2_778
10
20.7102532
20
152.5719182
11
20.1175532
21
153.1159182
0
LINE
8
DEFAULT_255_2_778
10
21.1052532
20
154.6489182
11
21.1052532
21
154.6489182
0
ARC
8
DEFAULT_255_2_778
10
13.7594907
20
153.1851437
40
0.8717226
50
88.9281645
51
133.9885749
0
ARC
8
DEFAULT_255_2_778
10
13.7757454
20
152.9600604
40
1.0966534
50
88.9487005
51
89.9972984
0
ARC
8
DEFAULT_255_2_778
10
13.7953
20
153.2555011
40
0.8010283
50
72.1310318
51
89.9594908
0
ARC
8
DEFAULT_255_2_778
10
13.8705373
20
153.5125083
40
0.5333823
50
60.6505783
51
71.3519493
0
ARC
8
DEFAULT_255_2_778
10
13.9543387
20
153.6396349
40
0.3816498
50
20.3938858
51
62.2625554
0
ARC
8
DEFAULT_255_2_778
10
14.9704645
20
153.1516628
40
0.9050345
50
89.7568633
51
136.6758865
0
ARC
8
DEFAULT_255_2_778
10
14.9742773
20
153.0340709
40
1.0226182
50
88.9864436
51
89.9984426
0
ARC
8
DEFAULT_255_2_778
10
14.992248
20
153.273192
40
0.7833372
50
71.373585
51
89.9913488
0
ARC
8
DEFAULT_255_2_778
10
15.0841803
20
153.552042
40
0.489734
50
42.2193789
51
71.1458349
0
ARC
8
DEFAULT_255_2_778
10
15.0590908
20
153.5445658
40
0.5134635
50
8.5226311
51
40.9558105
0
ARC
8
DEFAULT_255_2_778
10
14.7367896
20
153.4793045
40
0.8420446
50
359.6942069
51
9.6641803
0
ARC
8
DEFAULT_255_2_778
10
14.4472507
20
153.4763277
40
1.1315727
50
355.5855084
51
359.923173
0
ARC
8
DEFAULT_255_2_778
10
14.2502845
20
153.4486289
40
0.7547163
50
352.4548626
51
359.7652122
0
ARC
8
DEFAULT_255_2_778
10
14.4078893
20
153.4457192
40
0.5971052
50
359.9824407
51
2.1700815
0
ARC
8
DEFAULT_255_2_778
10
14.8167551
20
153.4615752
40
0.1879327
50
2.0595693
51
88.944897
0
ARC
8
DEFAULT_255_2_778
10
14.7529878
20
153.1742725
40
0.4799353
50
81.9476992
51
88.9638763
0
ARC
8
DEFAULT_255_2_778
10
14.7641352
20
153.1681844
40
0.4859511
50
90.2910974
51
140.7094043
0
ARC
8
DEFAULT_255_2_778
10
14.950423
20
152.9753111
40
0.7529164
50
138.3264016
51
141.8088804
0
ARC
8
DEFAULT_255_2_778
10
13.0111845
20
153.4452289
40
0.7547163
50
352.4548626
51
359.7652122
0
ARC
8
DEFAULT_255_2_778
10
13.1687893
20
153.4423192
40
0.5971052
50
359.9824407
51
2.1700815
0
ARC
8
DEFAULT_255_2_778
10
13.5767327
20
153.4591775
40
0.1888212
50
1.7455696
51
88.6065628
0
ARC
8
DEFAULT_255_2_778
10
13.5151974
20
153.1828897
40
0.469731
50
81.9072271
51
88.8693446
0
ARC
8
DEFAULT_255_2_778
10
13.5126914
20
153.1428568
40
0.5098084
50
88.6765396
51
89.9981553
0
ARC
8
DEFAULT_255_2_778
10
13.5179114
20
153.1464569
40
0.5062351
50
90.5889431
51
134.9317856
0
ARC
8
DEFAULT_255_2_778
10
13.6708307
20
152.9560835
40
0.749469
50
132.9288129
51
135.7848647
0
LINE
8
DEFAULT_255_2_778
10
12.6682663
20
154.0224292
11
13.2005663
21
154.0240292
0
LINE
8
DEFAULT_255_2_778
10
13.2005663
20
154.0240292
11
13.1540663
21
153.8123292
0
LINE
8
DEFAULT_255_2_778
10
15.5754663
20
153.3892292
11
15.5715663
21
153.3464292
0
LINE
8
DEFAULT_255_2_778
10
15.5715663
20
153.3464292
11
15.3386663
21
152.1610292
0
LINE
8
DEFAULT_255_2_778
10
15.3386663
20
152.1610292
11
14.7655663
21
152.1610292
0
LINE
8
DEFAULT_255_2_778
10
14.7655663
20
152.1610292
11
14.9984663
21
153.3495292
0
LINE
8
DEFAULT_255_2_778
10
14.3586663
20
153.4408292
11
14.3525663
21
153.4014292
0
LINE
8
DEFAULT_255_2_778
10
14.3525663
20
153.4014292
11
14.0975663
21
152.1610292
0
LINE
8
DEFAULT_255_2_778
10
14.0975663
20
152.1610292
11
13.5265663
21
152.1610292
0
LINE
8
DEFAULT_255_2_778
10
13.5265663
20
152.1610292
11
13.7593663
21
153.3461292
0
LINE
8
DEFAULT_255_2_778
10
13.1336663
20
153.4787292
11
12.8603663
21
152.1610292
0
LINE
8
DEFAULT_255_2_778
10
12.8603663
20
152.1610292
11
12.2893663
21
152.1610292
0
LINE
8
DEFAULT_255_2_778
10
12.2893663
20
152.1610292
11
12.6679663
21
154.0221292
0
LINE
8
DEFAULT_255_2_778
10
12.6679663
20
154.0221292
11
12.6682663
21
154.0224292
0
ARC
8
DEFAULT_255_2_778
10
16.6200275
20
152.8718402
40
1.1831221
50
72.5008211
51
90.0103536
0
ARC
8
DEFAULT_255_2_778
10
16.6947507
20
153.1348399
40
0.9098586
50
60.3242318
51
72.0085714
0
ARC
8
DEFAULT_255_2_778
10
16.7751012
20
153.2553126
40
0.7654736
50
24.9543019
51
61.0852427
0
ARC
8
DEFAULT_255_2_778
10
16.6805748
20
153.2134465
40
0.8688408
50
359.4872778
51
24.8275177
0
ARC
8
DEFAULT_255_2_778
10
16.4736953
20
153.2070476
40
1.0756863
50
353.6171666
51
359.9267064
0
ARC
8
DEFAULT_255_2_778
10
16.4716377
20
153.1770267
40
1.0748142
50
309.833105
51
355.2199932
0
ARC
8
DEFAULT_255_2_778
10
16.4130984
20
153.2436469
40
1.1634726
50
274.0073872
51
309.9453537
0
ARC
8
DEFAULT_255_2_778
10
16.3618842
20
153.6121028
40
1.5348158
50
269.9462811
51
274.9533663
0
ARC
8
DEFAULT_255_2_778
10
16.3604794
20
153.7358871
40
1.6585995
50
269.1686307
51
269.9988202
0
ARC
8
DEFAULT_255_2_778
10
16.3365813
20
153.2483263
40
1.170864
50
252.1092944
51
269.9918014
0
ARC
8
DEFAULT_255_2_778
10
16.2643696
20
152.9980397
40
0.9105332
50
240.5370236
51
251.5952644
0
ARC
8
DEFAULT_255_2_778
10
16.1851911
20
152.8762089
40
0.7655666
50
205.2400495
51
241.211713
0
ARC
8
DEFAULT_255_2_778
10
16.2644037
20
152.9133751
40
0.8530649
50
179.5368594
51
205.2293562
0
ARC
8
DEFAULT_255_2_778
10
16.4511084
20
152.9189748
40
1.0397424
50
173.5174505
51
179.9285896
0
ARC
8
DEFAULT_255_2_778
10
16.6391783
20
152.9076758
40
1.2279263
50
153.4099026
51
173.9843619
0
ARC
8
DEFAULT_255_2_778
10
16.479572
20
152.9754448
40
1.0549233
50
129.6863931
51
152.8211827
0
ARC
8
DEFAULT_255_2_778
10
16.5416975
20
152.9048495
40
1.1489256
50
92.7623759
51
129.8224215
0
ARC
8
DEFAULT_255_2_778
10
16.5842285
20
152.5614549
40
1.494196
50
89.9700369
51
93.7568045
0
ARC
8
DEFAULT_255_2_778
10
16.5848986
20
152.4598597
40
1.5957911
50
88.7355209
51
89.9960014
0
ARC
8
DEFAULT_255_2_778
10
16.4400613
20
152.851603
40
0.4277578
50
179.6036168
51
209.4859363
0
ARC
8
DEFAULT_255_2_778
10
16.339416
20
152.8046836
40
0.3171735
50
211.0570865
51
223.1755117
0
ARC
8
DEFAULT_255_2_778
10
16.3473605
20
152.8226914
40
0.3353769
50
224.4904912
51
268.822899
0
ARC
8
DEFAULT_255_2_778
10
16.3773279
20
153.0346578
40
0.5485121
50
266.1471365
51
268.8180779
0
ARC
8
DEFAULT_255_2_778
10
16.3834514
20
153.1642665
40
0.6782284
50
268.5267288
51
269.9955114
0
ARC
8
DEFAULT_255_2_778
10
16.3990205
20
152.9737446
40
0.4879566
50
268.1653241
51
325.4286401
0
ARC
8
DEFAULT_255_2_778
10
16.1704675
20
153.1403589
40
0.7707306
50
324.8706977
51
351.0886768
0
ARC
8
DEFAULT_255_2_778
10
15.7623164
20
153.219259
40
1.1862684
50
350.3775551
51
0.2885744
0
ARC
8
DEFAULT_255_2_778
10
15.4717168
20
153.2249545
40
1.4768528
50
0.0108339
51
1.7075744
0
ARC
8
DEFAULT_255_2_778
10
16.4932944
20
153.2598407
40
0.4547108
50
1.1494496
51
31.2166939
0
ARC
8
DEFAULT_255_2_778
10
16.5878459
20
153.3067329
40
0.3496592
50
32.6753678
51
41.7495025
0
ARC
8
DEFAULT_255_2_778
10
16.6094593
20
153.3153938
40
0.3278631
50
43.1354862
51
88.8367492
0
ARC
8
DEFAULT_255_2_778
10
16.5789315
20
153.1030566
40
0.5414112
50
86.0618601
51
88.8694569
0
ARC
8
DEFAULT_255_2_778
10
16.5725619
20
153.0017668
40
0.6428217
50
88.4799611
51
89.9943311
0
ARC
8
DEFAULT_255_2_778
10
16.5615507
20
153.1550787
40
0.4896349
50
88.7039519
51
145.0513377
0
ARC
8
DEFAULT_255_2_778
10
16.7596336
20
153.0017936
40
0.7399051
50
144.1087108
51
170.2824956
0
ARC
8
DEFAULT_255_2_778
10
17.1861932
20
152.9146764
40
1.1751307
50
169.6063184
51
180.3528002
0
ARC
8
DEFAULT_255_2_778
10
17.5222659
20
152.9078441
40
1.5111813
50
180.0153016
51
182.009194
0
LINE
8
DEFAULT_255_2_778
10
16.6201137
20
154.0552623
11
16.6198137
21
154.0549623
0
LINE
8
DEFAULT_255_2_778
10
16.0120137
20
152.8548623
11
16.0123137
21
152.8545623
0
ARC
8
DEFAULT_255_2_778
10
18.587937
20
151.9330854
40
1.642039
50
81.2830361
51
86.628458
0
ARC
8
DEFAULT_255_2_778
10
18.6429757
20
152.7715313
40
0.8018272
50
87.0310432
51
89.8986713
0
ARC
8
DEFAULT_255_2_778
10
18.6242064
20
152.6828997
40
0.8906863
50
88.7012797
51
89.9954117
0
ARC
8
DEFAULT_255_2_778
10
18.6103452
20
152.9271623
40
0.6465738
50
88.765285
51
116.6201427
0
ARC
8
DEFAULT_255_2_778
10
18.5802548
20
153.0111694
40
0.5580924
50
117.7228833
51
138.7756782
0
ARC
8
DEFAULT_255_2_778
10
18.7590475
20
153.3773707
40
0.6980151
50
116.489914
51
143.0810972
0
ARC
8
DEFAULT_255_2_778
10
18.7053938
20
153.4574223
40
0.6025621
50
89.4580016
51
115.3188873
0
ARC
8
DEFAULT_255_2_778
10
18.6965205
20
153.1226885
40
0.9373821
50
77.9674605
51
89.1092017
0
ARC
8
DEFAULT_255_2_778
10
18.6028478
20
152.5921466
40
1.4759175
50
78.008513
51
78.7045202
0
LINE
8
DEFAULT_255_2_778
10
18.9094938
20
154.0361573
11
18.8367938
21
153.5561573
0
LINE
8
DEFAULT_255_2_778
10
18.1604938
20
153.3789573
11
17.9072938
21
152.1610573
0
LINE
8
DEFAULT_255_2_778
10
17.9072938
20
152.1610573
11
17.3362938
21
152.1610573
0
LINE
8
DEFAULT_255_2_778
10
17.3362938
20
152.1610573
11
17.7169938
21
154.0221573
0
LINE
8
DEFAULT_255_2_778
10
17.7169938
20
154.0221573
11
18.2535938
21
154.0237573
0
LINE
8
DEFAULT_255_2_778
10
18.2535938
20
154.0237573
11
18.2009938
21
153.7966573
0
LINE
8
DEFAULT_255_2_778
10
18.9094938
20
154.0358573
11
18.9094938
21
154.0361573
0
ARC
8
DEFAULT_255_2_778
10
19.1571667
20
153.247675
40
1.1701724
50
250.1393411
51
270.3226852
0
ARC
8
DEFAULT_255_2_778
10
19.1022051
20
153.0678343
40
0.9824012
50
242.0502734
51
249.5907868
0
ARC
8
DEFAULT_255_2_778
10
19.001531
20
152.9083015
40
0.794417
50
208.3292132
51
243.0715083
0
ARC
8
DEFAULT_255_2_778
10
18.9937252
20
152.8992929
40
0.7832826
50
179.5739013
51
208.0201199
0
ARC
8
DEFAULT_255_2_778
10
19.1404713
20
152.9043153
40
0.9300073
50
174.3657638
51
179.9505495
0
ARC
8
DEFAULT_255_2_778
10
19.3222378
20
152.94618
40
1.1074063
50
145.2485417
51
173.7769976
0
ARC
8
DEFAULT_255_2_778
10
19.3043239
20
152.9706177
40
1.0788028
50
116.4826416
51
145.7726174
0
ARC
8
DEFAULT_255_2_778
10
19.3348976
20
152.9009316
40
1.1548163
50
89.3335424
51
116.2986099
0
ARC
8
DEFAULT_255_2_778
10
19.3482483
20
152.6585133
40
1.3971563
50
88.7200635
51
89.9966493
0
ARC
8
DEFAULT_255_2_778
10
19.3739264
20
152.9429187
40
1.1124162
50
73.6937809
51
89.7151452
0
ARC
8
DEFAULT_255_2_778
10
19.4851962
20
153.3148827
40
0.7241771
50
40.439997
51
73.880282
0
ARC
8
DEFAULT_255_2_778
10
19.4519455
20
153.2930624
40
0.7636535
50
0.3396925
51
40.0677766
0
ARC
8
DEFAULT_255_2_778
10
19.2144824
20
153.2694788
40
1.0014977
50
359.9940332
51
1.608453
0
ARC
8
DEFAULT_255_2_778
10
19.0855644
20
153.2716523
40
1.1304181
50
353.1542739
51
359.8845474
0
ARC
8
DEFAULT_255_2_778
10
18.9436927
20
153.2861317
40
1.2730067
50
352.3796891
51
353.2683443
0
ARC
8
DEFAULT_255_2_778
10
19.1535012
20
152.8476797
40
0.3608489
50
171.5634883
51
179.9015639
0
ARC
8
DEFAULT_255_2_778
10
19.1262943
20
152.8518702
40
0.3336607
50
180.6131262
51
227.843893
0
ARC
8
DEFAULT_255_2_778
10
19.2043051
20
153.1135151
40
0.5918171
50
239.3225098
51
268.8255118
0
ARC
8
DEFAULT_255_2_778
10
19.2271512
20
153.3469016
40
0.8258202
50
267.5725716
51
270.0162941
0
ARC
8
DEFAULT_255_2_778
10
19.2268973
20
153.4306346
40
0.9095533
50
270.0307885
51
273.2244191
0
ARC
8
DEFAULT_255_2_778
10
19.2542379
20
152.7702649
40
0.2488861
50
275.4917641
51
302.3582203
0
ARC
8
DEFAULT_255_2_778
10
19.3200418
20
152.6543063
40
0.115896
50
305.561706
51
314.7657745
0
ARC
8
DEFAULT_255_2_778
10
19.3095773
20
152.6871064
40
0.1473882
50
308.6632861
51
359.3837416
0
ARC
8
DEFAULT_255_2_778
10
17.807225
20
154.4097828
40
2.962762
50
318.8021847
51
324.4102292
0
ARC
8
DEFAULT_255_2_778
10
18.7925821
20
153.5414505
40
1.6494092
50
310.4033061
51
318.953359
0
ARC
8
DEFAULT_255_2_778
10
19.3188808
20
152.9148187
40
0.831118
50
295.9312381
51
310.7744109
0
ARC
8
DEFAULT_255_2_778
10
19.4407027
20
152.6859771
40
0.5721233
50
294.3678437
51
294.9811966
0
ARC
8
DEFAULT_255_2_778
10
19.1940828
20
153.4529614
40
1.3756016
50
269.5724547
51
290.5412856
0
ARC
8
DEFAULT_255_2_778
10
19.1838577
20
153.6712488
40
1.5938505
50
269.2881822
51
269.9985732
0
ARC
8
DEFAULT_255_2_778
10
19.3390649
20
153.0846819
40
0.5598634
50
88.7931239
51
89.9984438
0
ARC
8
DEFAULT_255_2_778
10
19.3326983
20
153.1815553
40
0.463034
50
89.2102909
51
125.5845733
0
ARC
8
DEFAULT_255_2_778
10
19.4008068
20
153.1098825
40
0.5611219
50
126.9818839
51
147.669232
0
ARC
8
DEFAULT_255_2_778
10
19.876359
20
152.7901894
40
1.1340353
50
146.870707
51
156.2884785
0
ARC
8
DEFAULT_255_2_778
10
19.2333366
20
153.3683392
40
0.4293753
50
349.7481736
51
359.8266598
0
ARC
8
DEFAULT_255_2_778
10
19.2961469
20
153.3675983
40
0.3665636
50
359.9127606
51
9.1392387
0
ARC
8
DEFAULT_255_2_778
10
19.4131569
20
153.3820587
40
0.2487794
50
10.1315408
51
54.8294252
0
ARC
8
DEFAULT_255_2_778
10
19.3593417
20
153.2862413
40
0.3582778
50
56.6210187
51
91.3472693
0
LINE
8
DEFAULT_255_2_778
10
18.2149569
20
152.9956211
11
18.2213569
21
153.0662211
0
LINE
8
DEFAULT_255_2_778
10
20.2054569
20
153.1173211
11
20.1723569
21
152.9006211
0
LINE
8
DEFAULT_255_2_778
10
20.1723569
20
152.9006211
11
18.7965569
21
152.9006211
0
LINE
8
DEFAULT_255_2_778
10
19.4569569
20
152.6855211
11
20.2165569
21
152.6855211
0
LINE
8
DEFAULT_255_2_778
10
18.8380569
20
153.2462211
11
19.6434569
21
153.2462211
0
LINE
8
DEFAULT_255_2_778
10
19.6434569
20
153.2462211
11
19.6558569
21
153.2919211
0
LINE
8
DEFAULT_255_2_778
10
11.4252281
20
153.8330177
11
12.8081281
21
153.0170177
0
LINE
8
DEFAULT_255_2_778
10
12.8081281
20
153.0170177
11
11.2770281
21
152.4236177
0
LINE
8
DEFAULT_255_2_778
10
11.2770281
20
152.4236177
11
11.5979281
21
153.1406177
0
LINE
8
DEFAULT_255_2_778
10
11.5979281
20
153.1406177
11
11.4252281
21
153.8330177
0
ARC
8
DEFAULT_255_2_778
10
7.8633492
20
153.5526349
40
1.734445
50
345.0500681
51
0.450213
0
ARC
8
DEFAULT_255_2_778
10
8.1424128
20
153.4884315
40
1.4482985
50
339.8011311
51
344.6559926
0
ARC
8
DEFAULT_255_2_778
10
8.2241959
20
153.4429595
40
1.3559213
50
318.9869254
51
340.4112117
0
ARC
8
DEFAULT_255_2_778
10
8.3403786
20
153.3550223
40
1.2105876
50
317.7755753
51
318.5188915
0
ARC
8
DEFAULT_255_2_778
10
8.3677776
20
153.3291224
40
1.1728926
50
293.4453171
51
317.8130059
0
ARC
8
DEFAULT_255_2_778
10
8.3381728
20
153.4073502
40
1.2564472
50
269.4376299
51
293.2645473
0
ARC
8
DEFAULT_255_2_778
10
8.6390116
20
153.6154305
40
1.0182316
50
68.112945
51
90.7974227
0
ARC
8
DEFAULT_255_2_778
10
8.6827218
20
153.7507759
40
0.8764035
50
66.6600337
51
67.4660887
0
ARC
8
DEFAULT_255_2_778
10
8.6950616
20
153.7625129
40
0.860764
50
41.8199578
51
67.1046866
0
ARC
8
DEFAULT_255_2_778
10
8.5939144
20
153.6862866
40
0.9870277
50
18.4442061
51
41.2024761
0
ARC
8
DEFAULT_255_2_778
10
8.2913394
20
153.5826986
40
1.3068358
50
359.9236227
51
18.5554774
0
ARC
8
DEFAULT_255_2_778
10
7.9767371
20
153.5662824
40
1.6215036
50
359.9993331
51
0.5185192
0
ARC
8
DEFAULT_255_2_778
10
8.1161265
20
153.5724191
40
1.1556879
50
359.3527282
51
15.3461488
0
ARC
8
DEFAULT_255_2_778
10
8.3555709
20
153.6275091
40
0.9102591
50
15.9909101
51
17.2384514
0
ARC
8
DEFAULT_255_2_778
10
8.5215656
20
153.6909942
40
0.7329962
50
16.3441173
51
39.0583428
0
ARC
8
DEFAULT_255_2_778
10
8.6385861
20
153.7765513
40
0.5882641
50
39.7694118
51
66.0014919
0
ARC
8
DEFAULT_255_2_778
10
8.6052911
20
153.6835083
40
0.6868457
50
66.6208799
51
90.9301944
0
ARC
8
DEFAULT_255_2_778
10
8.3674619
20
153.2785777
40
0.865983
50
269.2774049
51
294.6427005
0
ARC
8
DEFAULT_255_2_778
10
8.3809787
20
153.2305801
40
0.8167574
50
295.184769
51
321.1699914
0
ARC
8
DEFAULT_255_2_778
10
8.188821
20
153.3770326
40
1.0582969
50
321.5163412
51
341.7776814
0
ARC
8
DEFAULT_255_2_778
10
7.8940618
20
153.4925931
40
1.374523
50
341.044332
51
342.4824039
0
ARC
8
DEFAULT_255_2_778
10
7.7898077
20
153.5142334
40
1.4804949
50
342.8981919
51
356.6952858
0
ARC
8
DEFAULT_255_2_778
10
7.2862441
20
153.5579849
40
1.9857973
50
356.2725814
51
0.0484329
0
LINE
8
DEFAULT_255_2_778
10
8.3258407
20
152.1509635
11
7.2765407
21
152.1266635
0
LINE
8
DEFAULT_255_2_778
10
7.2765407
20
152.1266635
11
7.7858407
21
154.6335635
0
LINE
8
DEFAULT_255_2_778
10
7.7858407
20
154.6335635
11
8.6248407
21
154.6335635
0
LINE
8
DEFAULT_255_2_778
10
9.5982407
20
153.5662635
11
9.5977407
21
153.5662635
0
LINE
8
DEFAULT_255_2_778
10
8.5941407
20
154.3702635
11
7.9962407
21
154.3522635
0
LINE
8
DEFAULT_255_2_778
10
7.9962407
20
154.3522635
11
7.6363407
21
152.3740635
0
LINE
8
DEFAULT_255_2_778
10
7.6363407
20
152.3740635
11
8.3565407
21
152.4126635
0
LINE
8
DEFAULT_255_2_778
10
9.2720407
20
153.5596635
11
9.2717407
21
153.5593635
0
ARC
8
DEFAULT_255_2_778
10
10.302374
20
152.954919
40
0.5777251
50
269.3131992
51
298.9193317
0
ARC
8
DEFAULT_255_2_778
10
10.2422898
20
153.0595114
40
0.6983333
50
299.0845099
51
323.1838183
0
ARC
8
DEFAULT_255_2_778
10
10.0730419
20
153.1834915
40
0.9081244
50
323.3206017
51
342.9705556
0
ARC
8
DEFAULT_255_2_778
10
9.9076255
20
153.2409416
40
1.0831324
50
342.6274164
51
0.2324268
0
ARC
8
DEFAULT_255_2_778
10
10.2433391
20
153.2580185
40
0.7475175
50
359.0278167
51
16.1300251
0
ARC
8
DEFAULT_255_2_778
10
10.5672449
20
153.3511392
40
0.4104922
50
16.2042834
51
41.9480466
0
ARC
8
DEFAULT_255_2_778
10
10.5796118
20
153.3429262
40
0.4070383
50
43.9719544
51
85.3997935
0
ARC
8
DEFAULT_255_2_778
10
10.5322186
20
153.0672297
40
0.686108
50
83.300847
51
90.1477804
0
ARC
8
DEFAULT_255_2_778
10
10.5219616
20
153.1719474
40
0.58145
50
89.163628
51
118.6648078
0
ARC
8
DEFAULT_255_2_778
10
10.581079
20
153.0749564
40
0.6949321
50
119.1056578
51
143.2104754
0
ARC
8
DEFAULT_255_2_778
10
10.7542438
20
152.9479766
40
0.9096571
50
143.3373192
51
162.9538381
0
ARC
8
DEFAULT_255_2_778
10
10.9180519
20
152.8909321
40
1.0830106
50
162.6089297
51
180.2167337
0
ARC
8
DEFAULT_255_2_778
10
10.590132
20
152.8741465
40
0.7551896
50
179.037255
51
196.0102976
0
ARC
8
DEFAULT_255_2_778
10
10.2623689
20
152.7806213
40
0.4143448
50
196.0798237
51
221.5429745
0
ARC
8
DEFAULT_255_2_778
10
10.2435386
20
152.7822741
40
0.4015819
50
223.501568
51
264.945498
0
ARC
8
DEFAULT_255_2_778
10
10.2934062
20
153.062423
40
0.6854906
50
262.8561454
51
270.170743
0
ARC
8
DEFAULT_255_2_778
10
10.2496801
20
153.1201733
40
0.993603
50
251.4783364
51
270.6555979
0
ARC
8
DEFAULT_255_2_778
10
10.1671823
20
152.8744369
40
0.7343883
50
228.2272369
51
251.4910714
0
ARC
8
DEFAULT_255_2_778
10
10.1298392
20
152.8237077
40
0.671704
50
202.6960886
51
227.720176
0
ARC
8
DEFAULT_255_2_778
10
10.2495562
20
152.8690656
40
0.7996635
50
179.6456167
51
202.3846702
0
ARC
8
DEFAULT_255_2_778
10
10.5173927
20
152.8852351
40
1.0675438
50
179.9999853
51
180.6023814
0
ARC
8
DEFAULT_255_2_778
10
10.5536721
20
152.892223
40
1.1038452
50
157.230675
51
180.3627006
0
ARC
8
DEFAULT_255_2_778
10
10.5843324
20
152.8826196
40
1.135837
50
135.6908415
51
157.3825693
0
ARC
8
DEFAULT_255_2_778
10
10.5546282
20
152.909315
40
1.0959349
50
113.1058727
51
135.604761
0
ARC
8
DEFAULT_255_2_778
10
10.5551078
20
152.9135049
40
1.0922713
50
89.5047522
51
113.2152626
0
ARC
8
DEFAULT_255_2_778
10
10.5759287
20
153.0104295
40
0.9953709
50
71.5130801
51
90.6550541
0
ARC
8
DEFAULT_255_2_778
10
10.6573575
20
153.2562115
40
0.7364524
50
48.2602918
51
71.4580165
0
ARC
8
DEFAULT_255_2_778
10
10.6956984
20
153.3096961
40
0.6710546
50
22.5497085
51
47.6627683
0
ARC
8
DEFAULT_255_2_778
10
10.5670556
20
153.2603328
40
0.8088011
50
359.0650515
51
22.2845409
0
ARC
8
DEFAULT_255_2_778
10
10.2767028
20
153.2410709
40
1.0990629
50
337.1812514
51
0.316152
0
ARC
8
DEFAULT_255_2_778
10
10.2412655
20
153.2516512
40
1.135837
50
315.6908415
51
337.3825693
0
ARC
8
DEFAULT_255_2_778
10
10.2631229
20
153.2336107
40
1.1075969
50
293.2336194
51
315.5688359
0
ARC
8
DEFAULT_255_2_778
10
10.268874
20
153.2129991
40
1.0863919
50
269.5873092
51
293.383724
0
LINE
8
DEFAULT_255_2_778
10
10.295449
20
152.3769354
11
10.295449
21
152.3772354
0
LINE
8
DEFAULT_255_2_778
10
10.261049
20
152.1266354
11
10.261049
21
152.1266354
0
LINE
8
DEFAULT_255_1_234
10
10.6980392
20
149.4997
11
10.2924364
21
149.4997
0
LINE
8
DEFAULT_255_1_234
10
10.2924364
20
149.4997
11
10.2924364
21
150.6691211
0
LINE
8
DEFAULT_255_1_234
10
10.2924364
20
150.6691211
11
10.6747471
21
150.6691211
0
LINE
8
DEFAULT_255_1_234
10
10.7036614
20
150.0466614
11
10.4466458
21
150.0466614
0
LINE
8
DEFAULT_255_1_234
10
10.4466458
20
150.0466614
11
10.4466458
21
149.6257983
0
LINE
8
DEFAULT_255_1_234
10
10.4466458
20
149.6257983
11
10.7012519
21
149.6257983
0
LINE
8
DEFAULT_255_1_234
10
10.4466458
20
150.5422196
11
10.4466458
21
150.1703501
0
LINE
8
DEFAULT_255_1_234
10
10.4466458
20
150.1703501
11
10.6795662
21
150.1703501
0
LINE
8
DEFAULT_255_1_234
10
10.6747471
20
150.5422196
11
10.4466458
21
150.5422196
0
ARC
8
DEFAULT_255_1_234
10
10.678518
20
149.9323901
40
0.7367406
50
82.1257326
51
90.2932599
0
ARC
8
DEFAULT_255_1_234
10
10.7174135
20
150.2042013
40
0.4621653
50
69.9044149
51
82.2857423
0
ARC
8
DEFAULT_255_1_234
10
10.7744813
20
150.3584637
40
0.2976871
50
51.1838526
51
70.0181538
0
ARC
8
DEFAULT_255_1_234
10
10.7999779
20
150.395524
40
0.2528517
50
12.1017251
51
50.4214761
0
ARC
8
DEFAULT_255_1_234
10
10.6615653
20
150.3607676
40
0.3955061
50
359.5251267
51
12.8211707
0
ARC
8
DEFAULT_255_1_234
10
10.8195579
20
150.3538344
40
0.2375281
50
323.4908128
51
0.8817314
0
ARC
8
DEFAULT_255_1_234
10
10.7777266
20
150.386155
40
0.2903817
50
298.6825083
51
323.2756573
0
ARC
8
DEFAULT_255_1_234
10
10.7415629
20
150.4462649
40
0.3604842
50
293.1999386
51
299.1396394
0
ARC
8
DEFAULT_255_1_234
10
10.8088602
20
149.8377126
40
0.2871098
50
54.0011765
51
74.9167975
0
ARC
8
DEFAULT_255_1_234
10
10.8204961
20
149.8574332
40
0.2643248
50
36.3580696
51
53.5291921
0
ARC
8
DEFAULT_255_1_234
10
10.8078203
20
149.8483998
40
0.2798884
50
4.8189881
51
36.3089977
0
ARC
8
DEFAULT_255_1_234
10
10.7299038
20
149.837427
40
0.358478
50
359.9370252
51
5.5204067
0
ARC
8
DEFAULT_255_1_234
10
10.697456
20
149.8333667
40
0.3909429
50
344.7478609
51
0.5373281
0
ARC
8
DEFAULT_255_1_234
10
10.7965531
20
149.8066544
40
0.2883093
50
311.1786488
51
344.6886812
0
ARC
8
DEFAULT_255_1_234
10
10.7673578
20
149.8429987
40
0.3348923
50
286.0418249
51
310.8441291
0
ARC
8
DEFAULT_255_1_234
10
10.716641
20
150.0076807
40
0.5071869
50
274.1042341
51
286.4071509
0
ARC
8
DEFAULT_255_1_234
10
10.6989666
20
150.1960229
40
0.6963234
50
269.9236873
51
274.445647
0
ARC
8
DEFAULT_255_1_234
10
10.7035667
20
149.9620537
40
0.3362634
50
269.6055768
51
281.3740047
0
ARC
8
DEFAULT_255_1_234
10
10.7266305
20
149.8527353
40
0.224546
50
281.1055983
51
302.5132223
0
ARC
8
DEFAULT_255_1_234
10
10.7413204
20
149.8263823
40
0.1944357
50
303.0368945
51
311.8811219
0
ARC
8
DEFAULT_255_1_234
10
10.7484611
20
149.817889
40
0.1833454
50
311.9916004
51
351.7143462
0
ARC
8
DEFAULT_255_1_234
10
10.6667841
20
149.834393
40
0.2665871
50
350.7339597
51
0.2221581
0
ARC
8
DEFAULT_255_1_234
10
10.6560287
20
149.8400467
40
0.2773789
50
359.0456241
51
17.2296242
0
ARC
8
DEFAULT_255_1_234
10
10.7599404
20
149.8709163
40
0.1689915
50
17.6685481
51
78.9940892
0
ARC
8
DEFAULT_255_1_234
10
10.7082568
20
149.6854224
40
0.3612658
50
76.5635957
51
90.6980921
0
LINE
8
DEFAULT_255_1_234
10
10.7038552
20
150.0466613
11
10.7036614
21
150.0466614
0
ARC
8
DEFAULT_255_1_234
10
10.6818228
20
150.4989036
40
0.3285612
50
269.6064736
51
281.4533503
0
ARC
8
DEFAULT_255_1_234
10
10.7041048
20
150.3937688
40
0.2210975
50
281.2041486
51
302.5148063
0
ARC
8
DEFAULT_255_1_234
10
10.7177898
20
150.3691241
40
0.1929674
50
303.021671
51
309.8369575
0
ARC
8
DEFAULT_255_1_234
10
10.7361359
20
150.3485488
40
0.1654181
50
309.5228395
51
356.9509836
0
ARC
8
DEFAULT_255_1_234
10
10.6697942
20
150.3580932
40
0.2322512
50
355.4701227
51
0.0492546
0
ARC
8
DEFAULT_255_1_234
10
10.6419033
20
150.3603094
40
0.2601498
50
359.5558597
51
11.2096359
0
ARC
8
DEFAULT_255_1_234
10
10.7376323
20
150.380123
40
0.1623975
50
10.9182341
51
31.3230275
0
ARC
8
DEFAULT_255_1_234
10
10.7662056
20
150.3960214
40
0.1297302
50
31.8852677
51
52.1412565
0
ARC
8
DEFAULT_255_1_234
10
10.7387789
20
150.357275
40
0.1771663
50
52.8285564
51
71.9850297
0
ARC
8
DEFAULT_255_1_234
10
10.7011965
20
150.2466664
40
0.2939794
50
71.6863486
51
82.8455995
0
ARC
8
DEFAULT_255_1_234
10
10.6772501
20
150.0657149
40
0.476506
50
82.6984714
51
90.1729175
0
ARC
8
DEFAULT_255_1_234
10
10.6750136
20
150.1880623
40
0.3541573
50
89.8708275
51
90.0431131
0
LINE
8
DEFAULT_255_1_234
10
11.9991808
20
149.4997
11
11.7453778
21
149.9727694
0
LINE
8
DEFAULT_255_1_234
10
11.7453778
20
149.9727694
11
11.4706924
21
149.9727694
0
LINE
8
DEFAULT_255_1_234
10
11.4706924
20
149.9727694
11
11.4706924
21
149.4997
0
LINE
8
DEFAULT_255_1_234
10
11.4706924
20
149.4997
11
11.3156798
21
149.4997
0
LINE
8
DEFAULT_255_1_234
10
11.3156798
20
149.4997
11
11.3156798
21
150.6691211
0
LINE
8
DEFAULT_255_1_234
10
11.3156798
20
150.6691211
11
11.7028096
21
150.6691211
0
LINE
8
DEFAULT_255_1_234
10
11.8899491
20
150.0056995
11
12.1646346
21
149.5093381
0
LINE
8
DEFAULT_255_1_234
10
12.1646346
20
149.5093381
11
12.1646346
21
149.4997
0
LINE
8
DEFAULT_255_1_234
10
12.1646346
20
149.4997
11
11.9991808
21
149.4997
0
LINE
8
DEFAULT_255_1_234
10
11.4706924
20
150.5422196
11
11.4706924
21
150.0988677
0
LINE
8
DEFAULT_255_1_234
10
11.4706924
20
150.0988677
11
11.7076287
21
150.0988677
0
LINE
8
DEFAULT_255_1_234
10
11.7068255
20
150.5422196
11
11.4706924
21
150.5422196
0
ARC
8
DEFAULT_255_1_234
10
11.7069736
20
149.9729761
40
0.6961575
50
80.653586
51
90.3427061
0
ARC
8
DEFAULT_255_1_234
10
11.748921
20
150.2192348
40
0.4463577
50
65.6987447
51
80.8329603
0
ARC
8
DEFAULT_255_1_234
10
11.7966851
20
150.3287322
40
0.3269094
50
50.0017161
51
65.4305835
0
ARC
8
DEFAULT_255_1_234
10
11.8185315
20
150.3582482
40
0.2902647
50
11.628416
51
49.5603263
0
ARC
8
DEFAULT_255_1_234
10
11.6649651
20
150.3207299
40
0.4482792
50
359.5655735
51
12.3691
0
ARC
8
DEFAULT_255_1_234
10
11.7726511
20
150.3144644
40
0.3405924
50
341.9983148
51
0.4822259
0
ARC
8
DEFAULT_255_1_234
10
11.8121351
20
150.3037471
40
0.2997359
50
323.8609373
51
341.61416
0
ARC
8
DEFAULT_255_1_234
10
11.7819595
20
150.3270484
40
0.3378487
50
296.7018614
51
323.6876402
0
ARC
8
DEFAULT_255_1_234
10
11.7378491
20
150.4059235
40
0.4281516
50
290.8086567
51
297.2323311
0
ARC
8
DEFAULT_255_1_234
10
11.710202
20
150.4582351
40
0.3593766
50
269.589728
51
281.8058135
0
ARC
8
DEFAULT_255_1_234
10
11.7352919
20
150.3434743
40
0.2419125
50
281.5501019
51
303.9357432
0
ARC
8
DEFAULT_255_1_234
10
11.7490107
20
150.3196936
40
0.2145323
50
304.4415616
51
311.2106213
0
ARC
8
DEFAULT_255_1_234
10
11.7622212
20
150.3057632
40
0.1953505
50
310.9875673
51
356.2715578
0
ARC
8
DEFAULT_255_1_234
10
11.6865861
20
150.3170422
40
0.2716331
50
354.9348262
51
0.0609027
0
ARC
8
DEFAULT_255_1_234
10
11.6678735
20
150.3197435
40
0.2903554
50
359.5239371
51
12.8808918
0
ARC
8
DEFAULT_255_1_234
10
11.7656291
20
150.3436728
40
0.1897315
50
12.4173452
51
43.1022135
0
ARC
8
DEFAULT_255_1_234
10
11.7717895
20
150.3473724
40
0.1827118
50
43.5751728
51
48.203944
0
ARC
8
DEFAULT_255_1_234
10
11.7548387
20
150.3252302
40
0.2105272
50
48.7809703
51
72.6969569
0
ARC
8
DEFAULT_255_1_234
10
11.7194012
20
150.217682
40
0.3237537
50
72.3702241
51
84.8791103
0
ARC
8
DEFAULT_255_1_234
10
11.7046488
20
150.0834769
40
0.4587478
50
84.5400526
51
89.7281406
0
LINE
8
DEFAULT_255_1_234
10
12.4288788
20
150.6691211
11
12.7107928
21
150.2209501
0
LINE
8
DEFAULT_255_1_234
10
12.7107928
20
150.2209501
11
12.9911004
21
150.6691211
0
LINE
8
DEFAULT_255_1_234
10
12.9911004
20
150.6691211
11
13.1726177
21
150.6691211
0
LINE
8
DEFAULT_255_1_234
10
13.1726177
20
150.6691211
11
12.8031578
21
150.0892296
0
LINE
8
DEFAULT_255_1_234
10
12.8031578
20
150.0892296
11
13.1814526
21
149.4997
0
LINE
8
DEFAULT_255_1_234
10
13.1814526
20
149.4997
11
12.998329
21
149.4997
0
LINE
8
DEFAULT_255_1_234
10
12.998329
20
149.4997
11
12.7107928
21
149.9559027
0
LINE
8
DEFAULT_255_1_234
10
12.7107928
20
149.9559027
11
12.4216502
21
149.4997
0
LINE
8
DEFAULT_255_1_234
10
12.4216502
20
149.4997
11
12.2393297
21
149.4997
0
LINE
8
DEFAULT_255_1_234
10
12.2393297
20
149.4997
11
12.6184278
21
150.0892296
0
LINE
8
DEFAULT_255_1_234
10
12.6184278
20
150.0892296
11
12.2481646
21
150.6691211
0
LINE
8
DEFAULT_255_1_234
10
12.2481646
20
150.6691211
11
12.4288788
21
150.6691211
0
LINE
8
DEFAULT_255_1_234
10
14.5436354
20
150.3309849
11
14.3886229
21
150.3309849
0
LINE
8
DEFAULT_255_1_234
10
13.6962871
20
149.8386394
11
13.8512996
21
149.8386394
0
ARC
8
DEFAULT_255_1_234
10
14.4545042
20
151.2256768
40
1.252368
50
248.9199003
51
254.1439814
0
ARC
8
DEFAULT_255_1_234
10
14.2864537
20
150.7930234
40
0.788226
50
241.633709
51
249.0064503
0
ARC
8
DEFAULT_255_1_234
10
14.1335931
20
150.5129317
40
0.4691427
50
230.498225
51
241.8087113
0
ARC
8
DEFAULT_255_1_234
10
14.0551505
20
150.4129906
40
0.3421437
50
227.4064532
51
229.9881192
0
ARC
8
DEFAULT_255_1_234
10
14.0064026
20
150.3654088
40
0.2741476
50
200.6781896
51
228.1763934
0
ARC
8
DEFAULT_255_1_234
10
14.0136337
20
150.3639077
40
0.2804109
50
179.5061581
51
199.8694617
0
ARC
8
DEFAULT_255_1_234
10
14.0127088
20
150.371321
40
0.2795204
50
132.4834203
51
181.0242172
0
ARC
8
DEFAULT_255_1_234
10
14.0722671
20
150.3150704
40
0.3612768
50
129.2532479
51
133.4242687
0
ARC
8
DEFAULT_255_1_234
10
14.086912
20
150.2930965
40
0.3875675
50
101.98776
51
128.8742646
0
ARC
8
DEFAULT_255_1_234
10
14.1267731
20
150.1209741
40
0.5642249
50
89.5906553
51
102.3169264
0
ARC
8
DEFAULT_255_1_234
10
14.1338223
20
150.1528148
40
0.5323783
50
77.2360837
51
90.3248275
0
ARC
8
DEFAULT_255_1_234
10
14.1545302
20
150.24954
40
0.4334697
50
63.837784
51
77.0809408
0
ARC
8
DEFAULT_255_1_234
10
14.1823064
20
150.3012911
40
0.3747796
50
45.9864267
51
64.1607727
0
ARC
8
DEFAULT_255_1_234
10
14.2083945
20
150.3310866
40
0.3352302
50
32.2747395
51
45.6547121
0
ARC
8
DEFAULT_255_1_234
10
14.2150386
20
150.332988
40
0.328603
50
359.6507365
51
32.6130309
0
ARC
8
DEFAULT_255_1_234
10
14.1207481
20
150.333466
40
0.2678863
50
359.469343
51
14.9832209
0
ARC
8
DEFAULT_255_1_234
10
14.1912544
20
150.3523539
40
0.1948938
50
14.9781179
51
48.2004265
0
ARC
8
DEFAULT_255_1_234
10
14.1748188
20
150.3316983
40
0.2212521
50
48.5927837
51
74.1241538
0
ARC
8
DEFAULT_255_1_234
10
14.1414677
20
150.2216248
40
0.3362561
50
73.7888341
51
86.6652678
0
ARC
8
DEFAULT_255_1_234
10
14.1312243
20
150.1008881
40
0.4573953
50
86.2640471
51
90.0526343
0
ARC
8
DEFAULT_255_1_234
10
14.1283955
20
150.1404192
40
0.4178709
50
89.6697524
51
99.2309573
0
ARC
8
DEFAULT_255_1_234
10
14.1041406
20
150.2848964
40
0.2713749
50
99.069534
51
113.7658566
0
ARC
8
DEFAULT_255_1_234
10
14.0767597
20
150.3494677
40
0.2012469
50
114.0401004
51
127.9850673
0
ARC
8
DEFAULT_255_1_234
10
14.0527161
20
150.379073
40
0.1631167
50
127.7287463
51
176.7105154
0
ARC
8
DEFAULT_255_1_234
10
14.1205879
20
150.3689693
40
0.2315392
50
175.1779447
51
180.0581938
0
ARC
8
DEFAULT_255_1_234
10
14.0362726
20
150.3677428
40
0.1472271
50
179.6142195
51
228.1246017
0
ARC
8
DEFAULT_255_1_234
10
14.0804394
20
150.4086308
40
0.2072299
50
226.5779593
51
230.8800004
0
ARC
8
DEFAULT_255_1_234
10
14.1275473
20
150.4711636
40
0.2854818
50
231.4635071
51
241.9260842
0
ARC
8
DEFAULT_255_1_234
10
14.2472651
20
150.69148
40
0.53622
50
241.7178533
51
248.3259551
0
ARC
8
DEFAULT_255_1_234
10
14.3858023
20
151.0347064
40
0.9063478
50
248.2007737
51
252.4528373
0
ARC
8
DEFAULT_255_1_234
10
14.5061748
20
151.4068441
40
1.2974635
50
252.3391078
51
254.3469452
0
ARC
8
DEFAULT_255_1_234
10
13.751945
20
148.7091148
40
1.5037162
50
71.0197183
51
74.4087047
0
ARC
8
DEFAULT_255_1_234
10
13.9214136
20
149.1983111
40
0.9859993
50
66.1847285
51
71.086374
0
ARC
8
DEFAULT_255_1_234
10
14.0770448
20
149.54872
40
0.6025855
50
59.3536294
51
66.2691831
0
ARC
8
DEFAULT_255_1_234
10
14.16591
20
149.6990609
40
0.4279449
50
49.1020879
51
59.3293958
0
ARC
8
DEFAULT_255_1_234
10
14.247784
20
149.7923834
40
0.3038015
50
32.7919921
51
49.2505539
0
ARC
8
DEFAULT_255_1_234
10
14.279893
20
149.8152191
40
0.264448
50
31.1181161
51
32.4005348
0
ARC
8
DEFAULT_255_1_234
10
14.2710468
20
149.8116779
40
0.2738556
50
8.1116974
51
30.7958831
0
ARC
8
DEFAULT_255_1_234
10
14.1900136
20
149.7978753
40
0.3560327
50
359.8389159
51
8.4706516
0
ARC
8
DEFAULT_255_1_234
10
14.2525927
20
149.7930137
40
0.2934776
50
337.4731098
51
0.7537279
0
ARC
8
DEFAULT_255_1_234
10
14.2704622
20
149.7910387
40
0.2762607
50
307.5917067
51
336.4315538
0
ARC
8
DEFAULT_255_1_234
10
14.224445
20
149.8423102
40
0.3449979
50
307.6551545
51
308.4529766
0
ARC
8
DEFAULT_255_1_234
10
14.2014169
20
149.877825
40
0.3871988
50
284.3734338
51
307.1424381
0
ARC
8
DEFAULT_255_1_234
10
14.1518999
20
150.0599932
40
0.5759636
50
272.4382747
51
284.646547
0
ARC
8
DEFAULT_255_1_234
10
14.1392208
20
150.2399893
40
0.7563528
50
269.9708387
51
272.8178037
0
ARC
8
DEFAULT_255_1_234
10
14.1349248
20
150.0361716
40
0.5525489
50
248.2707594
51
270.4055579
0
ARC
8
DEFAULT_255_1_234
10
14.1294989
20
150.0171192
40
0.5328452
50
246.1383403
51
248.0542782
0
ARC
8
DEFAULT_255_1_234
10
14.0876368
20
149.9291843
40
0.4355005
50
233.1670131
51
246.4950969
0
ARC
8
DEFAULT_255_1_234
10
14.0322273
20
149.8543812
40
0.3424126
50
215.3403242
51
233.0843104
0
ARC
8
DEFAULT_255_1_234
10
14.0049704
20
149.8345549
40
0.3087104
50
179.2419209
51
215.2648451
0
ARC
8
DEFAULT_255_1_234
10
14.0817298
20
149.8359666
40
0.2304457
50
179.335461
51
199.1045811
0
ARC
8
DEFAULT_255_1_234
10
14.0484974
20
149.8272766
40
0.1962176
50
199.8828939
51
232.7063202
0
ARC
8
DEFAULT_255_1_234
10
14.0957243
20
149.8866788
40
0.2720938
50
232.3738199
51
255.5136649
0
ARC
8
DEFAULT_255_1_234
10
14.1298109
20
150.0110835
40
0.4010747
50
255.2446292
51
267.5320849
0
ARC
8
DEFAULT_255_1_234
10
14.1385733
20
150.1343702
40
0.5246356
50
267.1557994
51
270.0286766
0
ARC
8
DEFAULT_255_1_234
10
14.1413505
20
150.089995
40
0.4802668
50
269.7000017
51
278.1660162
0
ARC
8
DEFAULT_255_1_234
10
14.166951
20
149.9169515
40
0.3053425
50
278.0231263
51
290.625471
0
ARC
8
DEFAULT_255_1_234
10
14.2017197
20
149.8242025
40
0.206291
50
290.6619762
51
307.0370976
0
ARC
8
DEFAULT_255_1_234
10
14.2317586
20
149.7873504
40
0.1587906
50
306.3943566
51
355.3030547
0
ARC
8
DEFAULT_255_1_234
10
14.1805518
20
149.7950113
40
0.2104809
50
354.3660432
51
0.0698737
0
ARC
8
DEFAULT_255_1_234
10
14.1947863
20
149.7972617
40
0.1962563
50
359.417946
51
16.1971788
0
ARC
8
DEFAULT_255_1_234
10
14.2403173
20
149.8097418
40
0.149053
50
16.4723299
51
52.6262157
0
ARC
8
DEFAULT_255_1_234
10
14.1582227
20
149.7013433
40
0.2850296
50
52.7386432
51
62.4979148
0
ARC
8
DEFAULT_255_1_234
10
14.0197304
20
149.4407283
40
0.5801521
50
62.2515216
51
68.1220564
0
ARC
8
DEFAULT_255_1_234
10
13.8477215
20
149.0179872
40
1.0365451
50
68.0062803
51
71.8053402
0
ARC
8
DEFAULT_255_1_234
10
13.6681586
20
148.4794758
40
1.6042013
50
71.7183119
51
73.9258742
0
LINE
8
DEFAULT_255_1_234
10
14.6825845
20
149.9101218
11
14.6825845
21
149.9374297
0
LINE
8
DEFAULT_255_1_234
10
15.4198981
20
149.9534932
11
15.4198981
21
149.8916488
0
LINE
8
DEFAULT_255_1_234
10
15.4198981
20
149.8916488
11
14.8311717
21
149.8916488
0
LINE
8
DEFAULT_255_1_234
10
15.317895
20
149.7221792
11
15.4086537
21
149.6514999
0
LINE
8
DEFAULT_255_1_234
10
14.8359907
20
150.0137313
11
15.2713109
21
150.0137313
0
LINE
8
DEFAULT_255_1_234
10
15.2713109
20
150.0137313
11
15.2713109
21
150.0249757
0
ARC
8
DEFAULT_255_1_234
10
15.076521
20
149.9212332
40
0.4376191
50
252.3266134
51
270.5810217
0
ARC
8
DEFAULT_255_1_234
10
15.0560299
20
149.8471644
40
0.3608374
50
223.3000567
51
251.8561855
0
ARC
8
DEFAULT_255_1_234
10
15.077166
20
149.8676937
40
0.3902993
50
190.9374509
51
223.3654032
0
ARC
8
DEFAULT_255_1_234
10
15.2496632
20
149.9066885
40
0.5670891
50
179.6531105
51
191.4989439
0
ARC
8
DEFAULT_255_1_234
10
15.2618645
20
149.9406417
40
0.5792888
50
167.4007466
51
180.3176909
0
ARC
8
DEFAULT_255_1_234
10
15.1566706
20
149.9628885
40
0.471777
50
154.1835823
51
167.250763
0
ARC
8
DEFAULT_255_1_234
10
15.0935174
20
149.9961417
40
0.4004528
50
134.3149965
51
154.5315275
0
ARC
8
DEFAULT_255_1_234
10
15.0717669
20
150.0152228
40
0.371612
50
122.8616532
51
133.9707695
0
ARC
8
DEFAULT_255_1_234
10
15.0614243
20
150.0374703
40
0.3473289
50
89.8249009
51
123.4199222
0
ARC
8
DEFAULT_255_1_234
10
15.0664284
20
149.9727967
40
0.4120197
50
74.7876118
51
90.5482747
0
ARC
8
DEFAULT_255_1_234
10
15.0958027
20
150.081303
40
0.2996077
50
39.8178249
51
74.7633718
0
ARC
8
DEFAULT_255_1_234
10
15.0445347
20
150.0413351
40
0.3645855
50
16.8990863
51
39.4829761
0
ARC
8
DEFAULT_255_1_234
10
14.8550644
20
149.9806526
40
0.5635218
50
4.9636328
51
17.2026414
0
ARC
8
DEFAULT_255_1_234
10
14.6132714
20
149.955134
40
0.8066286
50
359.8834553
51
5.2834307
0
ARC
8
DEFAULT_255_1_234
10
15.2170238
20
149.8982803
40
0.3859091
50
180.9846213
51
194.9401313
0
ARC
8
DEFAULT_255_1_234
10
15.1120516
20
149.8695849
40
0.2770883
50
194.80314
51
222.0412631
0
ARC
8
DEFAULT_255_1_234
10
15.0816398
20
149.8394116
40
0.2343055
50
221.5417084
51
268.8614402
0
ARC
8
DEFAULT_255_1_234
10
15.0889393
20
149.9070686
40
0.3021528
50
267.732405
51
270.0097136
0
ARC
8
DEFAULT_255_1_234
10
15.0907203
20
149.9272105
40
0.3222994
50
269.6924892
51
280.4117579
0
ARC
8
DEFAULT_255_1_234
10
15.1083609
20
149.8353193
40
0.2287344
50
280.2255091
51
298.6338936
0
ARC
8
DEFAULT_255_1_234
10
15.1200401
20
149.8109223
40
0.2017294
50
299.0430333
51
300.4643464
0
ARC
8
DEFAULT_255_1_234
10
15.0520407
20
149.9243038
40
0.3339357
50
300.6577328
51
322.0378878
0
ARC
8
DEFAULT_255_1_234
10
15.0169946
20
149.9547021
40
0.3802736
50
321.6750233
51
322.3046845
0
ARC
8
DEFAULT_255_1_234
10
15.1100907
20
149.838037
40
0.3520454
50
276.9728461
51
328.0035423
0
ARC
8
DEFAULT_255_1_234
10
15.082396
20
149.9860841
40
0.5024498
50
269.8361028
51
278.0581756
0
ARC
8
DEFAULT_255_1_234
10
15.0596698
20
150.0605757
40
0.202159
50
89.2018686
51
117.2851756
0
ARC
8
DEFAULT_255_1_234
10
15.0649867
20
150.0563752
40
0.2083484
50
118.0551165
51
137.4540413
0
ARC
8
DEFAULT_255_1_234
10
15.1024607
20
150.0223304
40
0.2589774
50
137.5109581
51
158.8516286
0
ARC
8
DEFAULT_255_1_234
10
15.2162442
20
149.9764074
40
0.38167
50
158.5845963
51
170.1721436
0
ARC
8
DEFAULT_255_1_234
10
15.3331831
20
149.9531823
40
0.5008657
50
169.8376422
51
173.0566086
0
ARC
8
DEFAULT_255_1_234
10
14.8634905
20
150.0042509
40
0.4083467
50
2.9091802
51
12.8847116
0
ARC
8
DEFAULT_255_1_234
10
15.0005582
20
150.0365101
40
0.2675383
50
12.6957781
51
28.6404489
0
ARC
8
DEFAULT_255_1_234
10
15.0547253
20
150.0645458
40
0.2065654
50
29.0169854
51
41.1487595
0
ARC
8
DEFAULT_255_1_234
10
15.0750038
20
150.0822003
40
0.1796786
50
41.1646065
51
85.0013516
0
ARC
8
DEFAULT_255_1_234
10
15.0629134
20
150.0087431
40
0.2539726
50
83.7280015
51
90.0964893
0
LINE
8
DEFAULT_255_1_234
10
16.0118372
20
150.3735531
11
16.0118372
21
150.2354072
0
LINE
8
DEFAULT_255_1_234
10
15.7403645
20
150.1165375
11
15.7403645
21
149.4997
0
LINE
8
DEFAULT_255_1_234
10
15.7403645
20
149.4997
11
15.5917773
21
149.4997
0
LINE
8
DEFAULT_255_1_234
10
15.5917773
20
149.4997
11
15.5917773
21
150.3687341
0
LINE
8
DEFAULT_255_1_234
10
15.5917773
20
150.3687341
11
15.7363486
21
150.3687341
0
LINE
8
DEFAULT_255_1_234
10
15.7363486
20
150.3687341
11
15.7387581
21
150.2683374
0
ARC
8
DEFAULT_255_1_234
10
15.9451778
20
149.8294342
40
0.4114092
50
80.6754243
51
86.8932892
0
ARC
8
DEFAULT_255_1_234
10
15.9391312
20
149.73267
40
0.5083596
50
86.8038578
51
90.0431435
0
ARC
8
DEFAULT_255_1_234
10
15.9354293
20
149.9783866
40
0.2626638
50
89.2759698
51
106.6213787
0
ARC
8
DEFAULT_255_1_234
10
15.9149857
20
150.052683
40
0.1856317
50
107.1346045
51
157.6458115
0
ARC
8
DEFAULT_255_1_234
10
15.9841458
20
150.0143311
40
0.2643398
50
155.6586782
51
157.2539184
0
ARC
8
DEFAULT_255_1_234
10
15.963666
20
150.1312157
40
0.2634121
50
127.8165941
51
148.6302098
0
ARC
8
DEFAULT_255_1_234
10
15.9383129
20
150.1572218
40
0.2273596
50
91.3329982
51
126.7875809
0
ARC
8
DEFAULT_255_1_234
10
15.945907
20
150.0857195
40
0.299078
50
89.986594
51
92.4688449
0
ARC
8
DEFAULT_255_1_234
10
15.9467465
20
150.1132078
40
0.2715908
50
85.3589899
51
90.1623399
0
ARC
8
DEFAULT_255_1_234
10
15.955198
20
150.2136164
40
0.1708278
50
78.401942
51
85.4594656
0
ARC
8
DEFAULT_255_1_234
10
15.9696864
20
150.2827236
40
0.1002194
50
67.7858312
51
78.5728455
0
ARC
8
DEFAULT_255_1_234
10
15.9804717
20
150.3106887
40
0.0702548
50
63.4835954
51
67.3062642
0
LINE
8
DEFAULT_255_1_234
10
16.3098147
20
150.3687341
11
16.3098147
21
149.4997
0
LINE
8
DEFAULT_255_1_234
10
16.3098147
20
149.4997
11
16.1612275
21
149.4997
0
LINE
8
DEFAULT_255_1_234
10
16.1612275
20
149.4997
11
16.1612275
21
150.3687341
0
LINE
8
DEFAULT_255_1_234
10
16.1612275
20
150.3687341
11
16.3098147
21
150.3687341
0
ARC
8
DEFAULT_255_1_234
10
16.2470424
20
150.6001889
40
0.097867
50
161.415052
51
180.5526306
0
ARC
8
DEFAULT_255_1_234
10
16.2346202
20
150.6036077
40
0.0850062
50
138.1827368
51
160.9307106
0
ARC
8
DEFAULT_255_1_234
10
16.2236148
20
150.6131588
40
0.0704362
50
104.6368899
51
138.0039868
0
ARC
8
DEFAULT_255_1_234
10
16.2343303
20
150.5764963
40
0.1086221
50
92.0600725
51
105.2189128
0
ARC
8
DEFAULT_255_1_234
10
16.2366651
20
150.5422117
40
0.1429728
50
89.9756393
51
92.5012496
0
ARC
8
DEFAULT_255_1_234
10
16.237667
20
150.5647731
40
0.1204151
50
78.0235316
51
90.4478182
0
ARC
8
DEFAULT_255_1_234
10
16.2468762
20
150.6061295
40
0.0780493
50
55.051506
51
78.3369085
0
ARC
8
DEFAULT_255_1_234
10
16.2519037
20
150.6145711
40
0.0682538
50
42.0501187
51
54.4513741
0
ARC
8
DEFAULT_255_1_234
10
16.2383904
20
150.6021798
40
0.0865878
50
1.7497075
51
42.1496013
0
ARC
8
DEFAULT_255_1_234
10
16.2129237
20
150.5992738
40
0.1121515
50
359.9852656
51
2.8364544
0
ARC
8
DEFAULT_255_1_234
10
16.2295229
20
150.5983229
40
0.0955566
50
342.1070653
51
0.552888
0
ARC
8
DEFAULT_255_1_234
10
16.2437926
20
150.5943904
40
0.0807713
50
316.7107116
51
341.6516965
0
ARC
8
DEFAULT_255_1_234
10
16.2504963
20
150.5883823
40
0.0717724
50
285.4397031
51
316.5324284
0
ARC
8
DEFAULT_255_1_234
10
16.239488
20
150.6249554
40
0.1099597
50
272.3547054
51
285.8953117
0
ARC
8
DEFAULT_255_1_234
10
16.2368038
20
150.6615048
40
0.1465932
50
269.9695369
51
272.8160237
0
ARC
8
DEFAULT_255_1_234
10
16.235822
20
150.6395863
40
0.1246779
50
258.8431134
51
270.4153935
0
ARC
8
DEFAULT_255_1_234
10
16.2268262
20
150.5960414
40
0.0802162
50
238.5431189
51
259.1288175
0
ARC
8
DEFAULT_255_1_234
10
16.2200147
20
150.5836856
40
0.0661247
50
222.5062634
51
237.9906969
0
ARC
8
DEFAULT_255_1_234
10
16.2327734
20
150.5952889
40
0.0833707
50
184.1069131
51
222.460413
0
ARC
8
DEFAULT_255_1_234
10
16.2596975
20
150.5991349
40
0.1105176
50
179.9429482
51
185.0960898
0
LINE
8
DEFAULT_255_1_234
10
16.509805
20
149.9101218
11
16.509805
21
149.9374297
0
LINE
8
DEFAULT_255_1_234
10
17.2471186
20
149.9534932
11
17.2471186
21
149.8916488
0
LINE
8
DEFAULT_255_1_234
10
17.2471186
20
149.8916488
11
16.6583921
21
149.8916488
0
LINE
8
DEFAULT_255_1_234
10
17.1451155
20
149.7221792
11
17.2358741
21
149.6514999
0
LINE
8
DEFAULT_255_1_234
10
16.6632112
20
150.0137313
11
17.0985314
21
150.0137313
0
LINE
8
DEFAULT_255_1_234
10
17.0985314
20
150.0137313
11
17.0985314
21
150.0249757
0
ARC
8
DEFAULT_255_1_234
10
16.9037415
20
149.9212332
40
0.4376191
50
252.3266134
51
270.5810217
0
ARC
8
DEFAULT_255_1_234
10
16.8832504
20
149.8471644
40
0.3608374
50
223.3000567
51
251.8561855
0
ARC
8
DEFAULT_255_1_234
10
16.9043865
20
149.8676937
40
0.3902993
50
190.9374509
51
223.3654032
0
ARC
8
DEFAULT_255_1_234
10
17.0768837
20
149.9066885
40
0.5670891
50
179.6531105
51
191.4989439
0
ARC
8
DEFAULT_255_1_234
10
17.0890849
20
149.9406417
40
0.5792888
50
167.4007466
51
180.3176909
0
ARC
8
DEFAULT_255_1_234
10
16.9838911
20
149.9628885
40
0.471777
50
154.1835823
51
167.250763
0
ARC
8
DEFAULT_255_1_234
10
16.9207378
20
149.9961417
40
0.4004528
50
134.3149965
51
154.5315275
0
ARC
8
DEFAULT_255_1_234
10
16.8989873
20
150.0152228
40
0.371612
50
122.8616532
51
133.9707695
0
ARC
8
DEFAULT_255_1_234
10
16.8886447
20
150.0374703
40
0.3473289
50
89.8249009
51
123.4199222
0
ARC
8
DEFAULT_255_1_234
10
16.8936488
20
149.9727967
40
0.4120197
50
74.7876118
51
90.5482747
0
ARC
8
DEFAULT_255_1_234
10
16.9230232
20
150.081303
40
0.2996077
50
39.8178249
51
74.7633718
0
ARC
8
DEFAULT_255_1_234
10
16.8717552
20
150.0413351
40
0.3645855
50
16.8990863
51
39.4829761
0
ARC
8
DEFAULT_255_1_234
10
16.6822848
20
149.9806526
40
0.5635218
50
4.9636328
51
17.2026414
0
ARC
8
DEFAULT_255_1_234
10
16.4404918
20
149.955134
40
0.8066286
50
359.8834553
51
5.2834307
0
ARC
8
DEFAULT_255_1_234
10
17.0442443
20
149.8982803
40
0.3859091
50
180.9846213
51
194.9401313
0
ARC
8
DEFAULT_255_1_234
10
16.9392721
20
149.8695849
40
0.2770883
50
194.80314
51
222.0412631
0
ARC
8
DEFAULT_255_1_234
10
16.9088603
20
149.8394116
40
0.2343055
50
221.5417084
51
268.8614402
0
ARC
8
DEFAULT_255_1_234
10
16.9161597
20
149.9070686
40
0.3021528
50
267.732405
51
270.0097136
0
ARC
8
DEFAULT_255_1_234
10
16.9179407
20
149.9272105
40
0.3222994
50
269.6924892
51
280.4117579
0
ARC
8
DEFAULT_255_1_234
10
16.9355814
20
149.8353193
40
0.2287344
50
280.2255091
51
298.6338936
0
ARC
8
DEFAULT_255_1_234
10
16.9472606
20
149.8109223
40
0.2017294
50
299.0430333
51
300.4643464
0
ARC
8
DEFAULT_255_1_234
10
16.8792611
20
149.9243038
40
0.3339357
50
300.6577328
51
322.0378878
0
ARC
8
DEFAULT_255_1_234
10
16.8442151
20
149.9547021
40
0.3802736
50
321.6750233
51
322.3046845
0
ARC
8
DEFAULT_255_1_234
10
16.9373112
20
149.838037
40
0.3520454
50
276.9728461
51
328.0035423
0
ARC
8
DEFAULT_255_1_234
10
16.9096165
20
149.9860841
40
0.5024498
50
269.8361028
51
278.0581756
0
ARC
8
DEFAULT_255_1_234
10
16.8868902
20
150.0605757
40
0.202159
50
89.2018686
51
117.2851756
0
ARC
8
DEFAULT_255_1_234
10
16.8922071
20
150.0563752
40
0.2083484
50
118.0551165
51
137.4540413
0
ARC
8
DEFAULT_255_1_234
10
16.9296811
20
150.0223304
40
0.2589774
50
137.5109581
51
158.8516286
0
ARC
8
DEFAULT_255_1_234
10
17.0434647
20
149.9764074
40
0.38167
50
158.5845963
51
170.1721436
0
ARC
8
DEFAULT_255_1_234
10
17.1604036
20
149.9531823
40
0.5008657
50
169.8376422
51
173.0566086
0
ARC
8
DEFAULT_255_1_234
10
16.690711
20
150.0042509
40
0.4083467
50
2.9091802
51
12.8847116
0
ARC
8
DEFAULT_255_1_234
10
16.8277786
20
150.0365101
40
0.2675383
50
12.6957781
51
28.6404489
0
ARC
8
DEFAULT_255_1_234
10
16.8819457
20
150.0645458
40
0.2065654
50
29.0169854
51
41.1487595
0
ARC
8
DEFAULT_255_1_234
10
16.9022242
20
150.0822003
40
0.1796786
50
41.1646065
51
85.0013516
0
ARC
8
DEFAULT_255_1_234
10
16.8901339
20
150.0087431
40
0.2539726
50
83.7280015
51
90.0964893
0
LINE
8
DEFAULT_255_1_234
10
18.0655527
20
150.1133248
11
17.9161624
21
150.1133248
0
LINE
8
DEFAULT_255_1_234
10
17.3828549
20
149.7671569
11
17.5314421
21
149.7671569
0
ARC
8
DEFAULT_255_1_234
10
17.7973442
20
149.7316959
40
0.1276617
50
359.3334982
51
18.5871358
0
ARC
8
DEFAULT_255_1_234
10
17.8182079
20
149.7372133
40
0.1061371
50
19.3540742
51
54.6485071
0
ARC
8
DEFAULT_255_1_234
10
17.7677981
20
149.6676919
40
0.1920087
50
54.3827097
51
65.0622807
0
ARC
8
DEFAULT_255_1_234
10
17.6909378
20
149.50599
40
0.3710447
50
64.8282493
51
71.4200025
0
ARC
8
DEFAULT_255_1_234
10
17.6007253
20
149.2413107
40
0.6506741
50
71.3164301
51
75.8006402
0
ARC
8
DEFAULT_255_1_234
10
17.5166073
20
148.9172561
40
0.9854641
50
75.6809531
51
78.0061883
0
ARC
8
DEFAULT_255_1_234
10
17.9614606
20
151.015177
40
1.1591028
50
254.6901892
51
258.0466452
0
ARC
8
DEFAULT_255_1_234
10
17.8576515
20
150.6392781
40
0.7691345
50
249.9010773
51
254.755261
0
ARC
8
DEFAULT_255_1_234
10
17.7572857
20
150.3666982
40
0.478665
50
243.3097214
51
249.9709442
0
ARC
8
DEFAULT_255_1_234
10
17.6943878
20
150.2412778
40
0.3383568
50
234.4047477
51
243.2862168
0
ARC
8
DEFAULT_255_1_234
10
17.6321401
20
150.1553232
40
0.2322322
50
220.8667099
51
234.5493881
0
ARC
8
DEFAULT_255_1_234
10
17.5979342
20
150.1241817
40
0.1859923
50
214.3062465
51
220.5065136
0
ARC
8
DEFAULT_255_1_234
10
17.5953422
20
150.121088
40
0.1821108
50
186.912965
51
213.9618616
0
ARC
8
DEFAULT_255_1_234
10
17.6485516
20
150.1297009
40
0.2359799
50
179.8808832
51
187.4339886
0
ARC
8
DEFAULT_255_1_234
10
17.633065
20
150.1317088
40
0.2204978
50
132.005434
51
180.3942919
0
ARC
8
DEFAULT_255_1_234
10
17.6987263
20
150.0711083
40
0.3095791
50
129.2319861
51
133.5302299
0
ARC
8
DEFAULT_255_1_234
10
17.7040771
20
150.0616928
40
0.3202615
50
100.4410011
51
128.9081242
0
ARC
8
DEFAULT_255_1_234
10
17.7314655
20
149.9331455
40
0.4516583
50
89.6985377
51
100.9026564
0
ARC
8
DEFAULT_255_1_234
10
17.7371697
20
149.9171166
40
0.4676928
50
77.6965325
51
90.4076836
0
ARC
8
DEFAULT_255_1_234
10
17.7702681
20
150.0598413
40
0.3211988
50
50.7276602
51
78.0399361
0
ARC
8
DEFAULT_255_1_234
10
17.814714
20
150.1116296
40
0.2529778
50
25.7545084
51
51.0957453
0
ARC
8
DEFAULT_255_1_234
10
17.8148364
20
150.1166206
40
0.250738
50
359.2468627
51
24.7394243
0
ARC
8
DEFAULT_255_1_234
10
17.7863816
20
150.1137664
40
0.1297815
50
359.8050318
51
45.1544908
0
ARC
8
DEFAULT_255_1_234
10
17.7456958
20
150.0789794
40
0.1831883
50
43.8047702
51
49.6271585
0
ARC
8
DEFAULT_255_1_234
10
17.746486
20
150.0790678
40
0.18261
50
49.7980766
51
82.1218353
0
ARC
8
DEFAULT_255_1_234
10
17.7345831
20
150.0143998
40
0.2483163
50
81.4465357
51
90.1710293
0
ARC
8
DEFAULT_255_1_234
10
17.7321434
20
149.961788
40
0.300932
50
89.6766211
51
99.1264602
0
ARC
8
DEFAULT_255_1_234
10
17.7149896
20
150.0651537
40
0.1961547
50
98.968313
51
113.4570237
0
ARC
8
DEFAULT_255_1_234
10
17.6953981
20
150.1119965
40
0.1453859
50
113.722589
51
127.4763106
0
ARC
8
DEFAULT_255_1_234
10
17.6785627
20
150.1320124
40
0.1192639
50
126.9083309
51
150.3165862
0
ARC
8
DEFAULT_255_1_234
10
17.673796
20
150.1370981
40
0.112623
50
151.3635175
51
180.0701457
0
ARC
8
DEFAULT_255_1_234
10
17.7046745
20
150.134999
40
0.1435149
50
179.2169974
51
179.9954013
0
ARC
8
DEFAULT_255_1_234
10
17.6685802
20
150.1337056
40
0.1074286
50
179.3040112
51
198.4225446
0
ARC
8
DEFAULT_255_1_234
10
17.6493936
20
150.1287127
40
0.0876573
50
199.2895851
51
238.6034594
0
ARC
8
DEFAULT_255_1_234
10
17.7096782
20
150.223345
40
0.1998512
50
237.9846301
51
246.8744712
0
ARC
8
DEFAULT_255_1_234
10
17.7954727
20
150.4196205
40
0.4140547
50
246.6234531
51
251.8168941
0
ARC
8
DEFAULT_255_1_234
10
17.8985271
20
150.7290905
40
0.7402308
50
251.713434
51
255.0778414
0
ARC
8
DEFAULT_255_1_234
10
18.0184533
20
151.1757563
40
1.2027155
50
255.0367487
51
257.4705983
0
ARC
8
DEFAULT_255_1_234
10
17.5076543
20
148.8743863
40
1.1546601
50
73.6837552
51
77.5016755
0
ARC
8
DEFAULT_255_1_234
10
17.6165318
20
149.2443581
40
0.7690009
50
68.7044154
51
73.7249639
0
ARC
8
DEFAULT_255_1_234
10
17.7068339
20
149.4770654
40
0.5193873
50
63.590599
51
68.6626804
0
ARC
8
DEFAULT_255_1_234
10
17.7839358
20
149.6308123
40
0.3473927
50
54.7106439
51
63.7013633
0
ARC
8
DEFAULT_255_1_234
10
17.8463812
20
149.71804
40
0.2401192
50
41.0622434
51
54.8487496
0
ARC
8
DEFAULT_255_1_234
10
17.8805199
20
149.7493592
40
0.1938094
50
34.4950568
51
40.7105546
0
ARC
8
DEFAULT_255_1_234
10
17.8852006
20
149.7542078
40
0.1872106
50
9.3763373
51
34.0833615
0
ARC
8
DEFAULT_255_1_234
10
17.8198876
20
149.7416728
40
0.2536988
50
359.7694872
51
9.7663171
0
ARC
8
DEFAULT_255_1_234
10
17.8396377
20
149.7373764
40
0.2339696
50
335.8654732
51
0.8022045
0
ARC
8
DEFAULT_255_1_234
10
17.8471422
20
149.7387197
40
0.2277108
50
307.7357725
51
334.7849066
0
ARC
8
DEFAULT_255_1_234
10
17.8070597
20
149.7837645
40
0.2878951
50
307.0241536
51
308.5578354
0
ARC
8
DEFAULT_255_1_234
10
17.7812929
20
149.8223801
40
0.3342515
50
282.9362969
51
306.5646424
0
ARC
8
DEFAULT_255_1_234
10
17.7451226
20
149.9691108
40
0.4853615
50
271.1026298
51
283.2200835
0
ARC
8
DEFAULT_255_1_234
10
17.738747
20
150.0932418
40
0.6096052
50
269.9919117
51
271.4772449
0
ARC
8
DEFAULT_255_1_234
10
17.7361225
20
149.9854436
40
0.5018135
50
259.0723564
51
270.289833
0
ARC
8
DEFAULT_255_1_234
10
17.7148957
20
149.8737271
40
0.388099
50
245.4963068
51
259.0227342
0
ARC
8
DEFAULT_255_1_234
10
17.6870914
20
149.8155615
40
0.3236422
50
228.9684658
51
245.7044727
0
ARC
8
DEFAULT_255_1_234
10
17.6605357
20
149.7828575
40
0.2815426
50
214.4011705
51
228.6759915
0
ARC
8
DEFAULT_255_1_234
10
17.6316098
20
149.767029
40
0.2487548
50
179.9705531
51
215.1572795
0
ARC
8
DEFAULT_255_1_234
10
17.7016698
20
149.7743806
40
0.1703809
50
182.4299387
51
203.0329699
0
ARC
8
DEFAULT_255_1_234
10
17.6832355
20
149.7687396
40
0.1512226
50
203.798802
51
232.548466
0
ARC
8
DEFAULT_255_1_234
10
17.7108877
20
149.8038826
40
0.1959374
50
232.3782728
51
256.3934612
0
ARC
8
DEFAULT_255_1_234
10
17.7339238
20
149.8928842
40
0.2878639
50
256.104506
51
268.4626716
0
ARC
8
DEFAULT_255_1_234
10
17.7385723
20
149.9725487
40
0.3676329
50
268.0715632
51
270.0138206
0
ARC
8
DEFAULT_255_1_234
10
17.7404247
20
149.9453083
40
0.3403971
50
269.7031147
51
278.8341955
0
ARC
8
DEFAULT_255_1_234
10
17.7586341
20
149.8322876
40
0.2259217
50
278.6728789
51
292.8232582
0
ARC
8
DEFAULT_255_1_234
10
17.7786879
20
149.7821449
40
0.171929
50
293.1452328
51
303.6655899
0
ARC
8
DEFAULT_255_1_234
10
17.8051758
20
149.7445204
40
0.1259367
50
303.1248165
51
321.742847
0
ARC
8
DEFAULT_255_1_234
10
17.8237638
20
149.7282156
40
0.1012531
50
322.4748573
51
1.1291126
0
LINE
8
DEFAULT_255_2_778
10
9.3932417
20
132.1593987
11
10.7161417
21
132.1593987
0
LINE
8
DEFAULT_255_2_778
10
10.7161417
20
132.1593987
11
10.7161417
21
87.1801987
0
LINE
8
DEFAULT_255_2_778
10
10.7161417
20
81.8885987
11
10.7161417
21
36.9093987
0
LINE
8
DEFAULT_255_2_778
10
10.7161417
20
36.9093987
11
9.3932417
21
36.9093987
0
LINE
8
DEFAULT_255_2_778
10
9.3932834
20
87.1802333
11
12.0390834
21
87.1802333
0
LINE
8
DEFAULT_255_2_778
10
12.0390834
20
87.1802333
11
12.0390834
21
81.8885333
0
LINE
8
DEFAULT_255_2_778
10
12.0390834
20
81.8885333
11
9.3932834
21
81.8885333
0
LINE
8
DEFAULT_255_2_778
10
9.3932834
20
81.8885333
11
9.3932834
21
87.1802333
0
LINE
8
DEFAULT_255_2_778
10
10.187
20
82.4177666
11
10.187
21
86.6510666
0
LINE
8
DEFAULT_255_2_778
10
9.9224167
20
85.857375
11
10.1870167
21
86.651075
0
LINE
8
DEFAULT_255_2_778
10
10.1870167
20
86.651075
11
10.4516167
21
85.857375
0
LINE
8
DEFAULT_255_2_778
10
10.4516167
20
85.857375
11
9.9224167
21
85.857375
0
LINE
8
DEFAULT_255_2_778
10
11.2453
20
86.6510666
11
11.2453
21
82.4177666
0
LINE
8
DEFAULT_255_2_778
10
10.9807167
20
83.211475
11
11.2453167
21
82.417775
0
LINE
8
DEFAULT_255_2_778
10
11.2453167
20
82.417775
11
11.5099167
21
83.211475
0
LINE
8
DEFAULT_255_2_778
10
11.5099167
20
83.211475
11
10.9807167
21
83.211475
0
LINE
8
DEFAULT_255_2_778
10
19.9765417
20
132.1593982
11
18.6536417
21
132.1593982
0
LINE
8
DEFAULT_255_2_778
10
18.6536417
20
132.1593982
11
18.6536417
21
71.3051982
0
LINE
8
DEFAULT_255_2_778
10
18.6536417
20
66.0135982
11
18.6536417
21
5.1593982
0
LINE
8
DEFAULT_255_2_778
10
18.6536417
20
5.1593982
11
19.9765417
21
5.1593982
0
LINE
8
DEFAULT_255_2_778
10
17.3307834
20
71.3052333
11
19.9765834
21
71.3052333
0
LINE
8
DEFAULT_255_2_778
10
19.9765834
20
71.3052333
11
19.9765834
21
66.0135333
0
LINE
8
DEFAULT_255_2_778
10
19.9765834
20
66.0135333
11
17.3307834
21
66.0135333
0
LINE
8
DEFAULT_255_2_778
10
17.3307834
20
66.0135333
11
17.3307834
21
71.3052333
0
LINE
8
DEFAULT_255_2_778
10
18.1245
20
66.5427666
11
18.1245
21
70.7760666
0
LINE
8
DEFAULT_255_2_778
10
17.8599167
20
69.982375
11
18.1245167
21
70.776075
0
LINE
8
DEFAULT_255_2_778
10
18.1245167
20
70.776075
11
18.3891167
21
69.982375
0
LINE
8
DEFAULT_255_2_778
10
18.3891167
20
69.982375
11
17.8599167
21
69.982375
0
LINE
8
DEFAULT_255_2_778
10
19.1828
20
70.7760666
11
19.1828
21
66.5427666
0
LINE
8
DEFAULT_255_2_778
10
18.9182167
20
67.336475
11
19.1828167
21
66.542775
0
LINE
8
DEFAULT_255_2_778
10
19.1828167
20
66.542775
11
19.4474167
21
67.336475
0
LINE
8
DEFAULT_255_2_778
10
19.4474167
20
67.336475
11
18.9182167
21
67.336475
0
LINE
8
DEFAULT_255_1_234
10
4.2121489
20
148.6848211
11
4.2121489
21
147.6414983
0
LINE
8
DEFAULT_255_1_234
10
4.2121489
20
147.6414983
11
4.7663389
21
147.6414983
0
LINE
8
DEFAULT_255_1_234
10
4.7663389
20
147.6414983
11
4.7663389
21
147.5154
0
LINE
8
DEFAULT_255_1_234
10
4.7663389
20
147.5154
11
4.0571364
21
147.5154
0
LINE
8
DEFAULT_255_1_234
10
4.0571364
20
147.5154
11
4.0571364
21
148.6848211
0
LINE
8
DEFAULT_255_1_234
10
4.0571364
20
148.6848211
11
4.2121489
21
148.6848211
0
LINE
8
DEFAULT_255_1_234
10
4.9078482
20
36.972701
11
4.9078482
21
36.5438062
0
LINE
8
DEFAULT_255_1_234
10
4.0066872
20
36.9188884
11
4.0066872
21
37.0208915
0
LINE
8
DEFAULT_255_1_234
10
4.9078482
20
37.2168659
11
4.7536389
21
37.2168659
0
LINE
8
DEFAULT_255_1_234
10
4.1616998
20
37.0249073
11
4.1616998
21
36.9293296
0
LINE
8
DEFAULT_255_1_234
10
4.754442
20
36.5847681
11
4.754442
21
36.8474059
0
LINE
8
DEFAULT_255_1_234
10
4.754442
20
36.8474059
11
4.4837725
21
36.8474059
0
LINE
8
DEFAULT_255_1_234
10
4.4837725
20
36.8474059
11
4.4837725
21
36.972701
0
LINE
8
DEFAULT_255_1_234
10
4.4837725
20
36.972701
11
4.9078482
21
36.972701
0
ARC
8
DEFAULT_255_1_234
10
4.6246989
20
36.7431396
40
0.3462765
50
295.8437914
51
324.8549609
0
ARC
8
DEFAULT_255_1_234
10
4.5830956
20
36.8184567
40
0.4322211
50
291.5695085
51
296.4549398
0
ARC
8
DEFAULT_255_1_234
10
4.5320207
20
36.9549275
40
0.5779178
50
278.6622409
51
291.3045483
0
ARC
8
DEFAULT_255_1_234
10
4.4980699
20
37.1697408
40
0.7953952
50
270.020006
51
278.7494541
0
ARC
8
DEFAULT_255_1_234
10
4.4942623
20
37.3014036
40
0.927067
50
269.9969998
51
270.2524872
0
ARC
8
DEFAULT_255_1_234
10
4.4904336
20
36.8930589
40
0.5187361
50
253.5786322
51
270.4175299
0
ARC
8
DEFAULT_255_1_234
10
4.4730992
20
36.8259236
40
0.4494451
50
238.8203306
51
253.2788235
0
ARC
8
DEFAULT_255_1_234
10
4.4711365
20
36.8208231
40
0.4440665
50
206.7883783
51
238.6962764
0
ARC
8
DEFAULT_255_1_234
10
4.5485275
20
36.8672405
40
0.5341121
50
206.1129412
51
207.4916643
0
ARC
8
DEFAULT_255_1_234
10
4.608219
20
36.8926488
40
0.5989041
50
188.6921119
51
205.7821245
0
ARC
8
DEFAULT_255_1_234
10
4.7938552
20
36.924223
40
0.7871862
50
180.3882829
51
188.9219216
0
ARC
8
DEFAULT_255_1_234
10
4.9166366
20
37.0265464
40
0.909967
50
170.2024264
51
180.3560651
0
ARC
8
DEFAULT_255_1_234
10
4.6002884
20
37.0831237
40
0.5886083
50
154.2857445
51
170.3893044
0
ARC
8
DEFAULT_255_1_234
10
4.4721087
20
37.141795
40
0.4476743
50
139.8401567
51
153.9332699
0
ARC
8
DEFAULT_255_1_234
10
4.4361823
20
37.1705577
40
0.4016697
50
98.4190291
51
139.6707122
0
ARC
8
DEFAULT_255_1_234
10
4.4741341
20
36.9860328
40
0.5898566
50
89.7659205
51
99.4415478
0
ARC
8
DEFAULT_255_1_234
10
4.480659
20
36.9925844
40
0.5833147
50
78.0551672
51
90.4042112
0
ARC
8
DEFAULT_255_1_234
10
4.52111
20
37.1744644
40
0.3970055
50
54.6380464
51
78.3339173
0
ARC
8
DEFAULT_255_1_234
10
4.5401156
20
37.2064795
40
0.3599102
50
50.031736
51
54.1558201
0
ARC
8
DEFAULT_255_1_234
10
4.5293944
20
37.1968766
40
0.3741624
50
18.1092409
51
49.7180913
0
ARC
8
DEFAULT_255_1_234
10
4.3837144
20
37.1435089
40
0.5292424
50
7.9672797
51
18.6984571
0
ARC
8
DEFAULT_255_1_234
10
4.3987622
20
37.1558504
40
0.3600838
50
9.7557294
51
27.3215714
0
ARC
8
DEFAULT_255_1_234
10
4.5115094
20
37.2121912
40
0.2340608
50
27.7361077
51
84.5257964
0
ARC
8
DEFAULT_255_1_234
10
4.4787481
20
37.047864
40
0.4011215
50
82.106034
51
90.2001166
0
ARC
8
DEFAULT_255_1_234
10
4.4737698
20
37.0986215
40
0.3503799
50
89.4150119
51
105.5823402
0
ARC
8
DEFAULT_255_1_234
10
4.4480696
20
37.1921867
40
0.2533503
50
105.6678618
51
144.2648758
0
ARC
8
DEFAULT_255_1_234
10
4.5373951
20
37.1286289
40
0.3629787
50
144.3561283
51
162.8564086
0
ARC
8
DEFAULT_255_1_234
10
4.745786
20
37.0617017
40
0.5818441
50
162.6076014
51
173.6780284
0
ARC
8
DEFAULT_255_1_234
10
5.0519004
20
37.024489
40
0.8902007
50
173.4670142
51
179.9730753
0
ARC
8
DEFAULT_255_1_234
10
4.8610675
20
36.925126
40
0.6993804
50
179.6556203
51
190.0080463
0
ARC
8
DEFAULT_255_1_234
10
4.6294504
20
36.8826375
40
0.4639066
50
189.8116607
51
206.6796816
0
ARC
8
DEFAULT_255_1_234
10
4.5449656
20
36.8432503
40
0.3707421
50
207.1031645
51
217.7074368
0
ARC
8
DEFAULT_255_1_234
10
4.4815345
20
36.7880559
40
0.2868417
50
216.7345547
51
265.6812148
0
ARC
8
DEFAULT_255_1_234
10
4.4946136
20
36.8784855
40
0.3780509
50
264.7366618
51
270.0611241
0
ARC
8
DEFAULT_255_1_234
10
4.4969399
20
37.1625111
40
0.662079
50
269.8335834
51
276.0539546
0
ARC
8
DEFAULT_255_1_234
10
4.5176404
20
36.972356
40
0.4708016
50
275.9894168
51
284.4615085
0
ARC
8
DEFAULT_255_1_234
10
4.5374411
20
36.8890663
40
0.3852094
50
284.7034461
51
286.4953897
0
ARC
8
DEFAULT_255_1_234
10
4.5781424
20
36.7579965
40
0.2479842
50
286.0770838
51
304.2625829
0
ARC
8
DEFAULT_255_1_234
10
4.5914838
20
36.7361594
40
0.2224291
50
304.5891602
51
317.1073298
0
LINE
8
DEFAULT_255_1_234
10
4.3084299
20
45.4973211
11
4.5903439
21
45.0491501
0
LINE
8
DEFAULT_255_1_234
10
4.5903439
20
45.0491501
11
4.8706516
21
45.4973211
0
LINE
8
DEFAULT_255_1_234
10
4.8706516
20
45.4973211
11
5.0521689
21
45.4973211
0
LINE
8
DEFAULT_255_1_234
10
5.0521689
20
45.4973211
11
4.6827089
21
44.9174296
0
LINE
8
DEFAULT_255_1_234
10
4.6827089
20
44.9174296
11
5.0610038
21
44.3279
0
LINE
8
DEFAULT_255_1_234
10
5.0610038
20
44.3279
11
4.8778802
21
44.3279
0
LINE
8
DEFAULT_255_1_234
10
4.8778802
20
44.3279
11
4.5903439
21
44.7841027
0
LINE
8
DEFAULT_255_1_234
10
4.5903439
20
44.7841027
11
4.3012014
21
44.3279
0
LINE
8
DEFAULT_255_1_234
10
4.3012014
20
44.3279
11
4.1188809
21
44.3279
0
LINE
8
DEFAULT_255_1_234
10
4.1188809
20
44.3279
11
4.497979
21
44.9174296
0
LINE
8
DEFAULT_255_1_234
10
4.497979
20
44.9174296
11
4.1277158
21
45.4973211
0
LINE
8
DEFAULT_255_1_234
10
4.1277158
20
45.4973211
11
4.3084299
21
45.4973211
0
LINE
8
DEFAULT_255_1_234
10
5.9203998
20
45.0298739
11
5.9203998
21
44.9865025
0
LINE
8
DEFAULT_255_1_234
10
5.3782575
20
44.3270968
11
5.3493432
21
44.3270968
0
LINE
8
DEFAULT_255_1_234
10
5.3493432
20
44.3270968
11
5.3493432
21
44.4523919
0
LINE
8
DEFAULT_255_1_234
10
5.3493432
20
44.4523919
11
5.380667
21
44.4523919
0
LINE
8
DEFAULT_255_1_234
10
5.7718126
20
45.0009597
11
5.7718126
21
45.0603945
0
ARC
8
DEFAULT_255_1_234
10
5.4924396
20
45.0755403
40
0.3635579
50
297.4037347
51
320.016758
0
ARC
8
DEFAULT_255_1_234
10
5.5214345
20
45.019824
40
0.3007486
50
270.2633101
51
297.3851877
0
ARC
8
DEFAULT_255_1_234
10
5.51803
20
45.0661904
40
0.3471448
50
269.9966443
51
270.7900392
0
ARC
8
DEFAULT_255_1_234
10
5.5154782
20
45.0660143
40
0.3469779
50
254.5999133
51
270.4180344
0
ARC
8
DEFAULT_255_1_234
10
5.5012141
20
45.0095647
40
0.2887697
50
236.4717942
51
254.3541279
0
ARC
8
DEFAULT_255_1_234
10
5.5168359
20
45.0305711
40
0.3149125
50
208.4727207
51
236.2134933
0
ARC
8
DEFAULT_255_1_234
10
5.5807134
20
45.0696455
40
0.3897115
50
204.3447514
51
209.0453999
0
ARC
8
DEFAULT_255_1_234
10
5.648671
20
45.0984656
40
0.4635101
50
183.9375985
51
204.1276318
0
ARC
8
DEFAULT_255_1_234
10
5.7394961
20
45.1082482
40
0.5548037
50
179.9652252
51
184.3013875
0
ARC
8
DEFAULT_255_1_234
10
5.7155007
20
45.1115507
40
0.5308164
50
166.7585989
51
180.3201225
0
ARC
8
DEFAULT_255_1_234
10
5.6308621
20
45.1299488
40
0.4442163
50
154.6955053
51
166.5679793
0
ARC
8
DEFAULT_255_1_234
10
5.5455491
20
45.172921
40
0.3487299
50
136.3324195
51
155.0871442
0
ARC
8
DEFAULT_255_1_234
10
5.5174564
20
45.1969954
40
0.3117924
50
121.236733
51
135.9680508
0
ARC
8
DEFAULT_255_1_234
10
5.5315062
20
45.1709743
40
0.3413302
50
96.845628
51
120.9881519
0
ARC
8
DEFAULT_255_1_234
10
5.5460643
20
45.0774515
40
0.4359341
50
89.8870174
51
97.2802754
0
ARC
8
DEFAULT_255_1_234
10
5.5513082
20
45.1412095
40
0.3722009
50
70.6505584
51
90.6749113
0
ARC
8
DEFAULT_255_1_234
10
5.5644361
20
45.1925361
40
0.3194571
50
36.7492984
51
69.8219918
0
ARC
8
DEFAULT_255_1_234
10
5.4645525
20
45.1146993
40
0.4460685
50
15.39587
51
37.0840084
0
ARC
8
DEFAULT_255_1_234
10
5.2515959
20
45.0526242
40
0.6678714
50
3.9488873
51
15.6798563
0
ARC
8
DEFAULT_255_1_234
10
5.0114587
20
45.0309964
40
0.9089418
50
359.929245
51
4.2665314
0
ARC
8
DEFAULT_255_1_234
10
4.5509024
20
44.9798513
40
1.3695135
50
352.8366322
51
0.2782669
0
ARC
8
DEFAULT_255_1_234
10
5.0796703
20
44.9111629
40
0.8363105
50
341.8359505
51
352.9884176
0
ARC
8
DEFAULT_255_1_234
10
5.4015422
20
44.80267
40
0.4966642
50
322.8578092
51
342.1527901
0
ARC
8
DEFAULT_255_1_234
10
5.4879378
20
44.7437384
40
0.3922466
50
319.334325
51
322.0998941
0
ARC
8
DEFAULT_255_1_234
10
5.4569715
20
44.7748209
40
0.4360033
50
285.9541367
51
318.8878087
0
ARC
8
DEFAULT_255_1_234
10
5.3842976
20
45.00586
40
0.678149
50
272.9281676
51
286.4922826
0
ARC
8
DEFAULT_255_1_234
10
5.3653094
20
45.2309587
40
0.9039547
50
270.8207226
51
273.4012994
0
ARC
8
DEFAULT_255_1_234
10
5.3741945
20
45.0490666
40
0.5967098
50
270.6214993
51
281.4062806
0
ARC
8
DEFAULT_255_1_234
10
5.4171925
20
44.8434833
40
0.3866861
50
281.1852553
51
299.0621114
0
ARC
8
DEFAULT_255_1_234
10
5.4545497
20
44.7713798
40
0.3055236
50
299.5067782
51
313.1200873
0
ARC
8
DEFAULT_255_1_234
10
5.4567464
20
44.7634554
40
0.2982623
50
313.8526205
51
338.5989322
0
ARC
8
DEFAULT_255_1_234
10
5.2943538
20
44.8301781
40
0.4738131
50
338.2523585
51
351.2430902
0
ARC
8
DEFAULT_255_1_234
10
5.0532834
20
44.8711447
40
0.7183203
50
350.9409515
51
357.6691871
0
ARC
8
DEFAULT_255_1_234
10
5.5423264
20
45.0713764
40
0.2294452
50
269.9447023
51
306.8248917
0
ARC
8
DEFAULT_255_1_234
10
5.5186179
20
45.1136898
40
0.2775994
50
305.5072438
51
327.0773448
0
ARC
8
DEFAULT_255_1_234
10
5.530462
20
45.1042025
40
0.2625056
50
327.4104943
51
336.840169
0
ARC
8
DEFAULT_255_1_234
10
5.2210685
20
45.0636302
40
0.5507537
50
359.6633817
51
10.117533
0
ARC
8
DEFAULT_255_1_234
10
5.3964483
20
45.0960777
40
0.372403
50
9.9430141
51
26.7700076
0
ARC
8
DEFAULT_255_1_234
10
5.4561695
20
45.1236187
40
0.3066865
50
27.2015464
51
34.6829435
0
ARC
8
DEFAULT_255_1_234
10
5.5051175
20
45.1603977
40
0.245519
50
34.1250343
51
50.3070065
0
ARC
8
DEFAULT_255_1_234
10
5.5497855
20
45.2138385
40
0.1758693
50
50.3851167
51
90.6705993
0
ARC
8
DEFAULT_255_1_234
10
5.5451088
20
45.1833799
40
0.2063326
50
89.272901
51
111.9140407
0
ARC
8
DEFAULT_255_1_234
10
5.5431616
20
45.197444
40
0.1925887
50
112.9382311
51
142.5320782
0
ARC
8
DEFAULT_255_1_234
10
5.5977796
20
45.1530969
40
0.2629232
50
142.1021256
51
166.3835592
0
ARC
8
DEFAULT_255_1_234
10
5.7159101
20
45.1225915
40
0.3849193
50
166.1100289
51
178.665427
0
ARC
8
DEFAULT_255_1_234
10
5.820669
20
45.1167117
40
0.4897989
50
178.2632126
51
180.0111093
0
ARC
8
DEFAULT_255_1_234
10
5.7404811
20
45.1138728
40
0.40962
50
179.6161962
51
191.8787166
0
ARC
8
DEFAULT_255_1_234
10
5.618465
20
45.0868896
40
0.2846655
50
191.6191692
51
215.2972286
0
ARC
8
DEFAULT_255_1_234
10
5.5987841
20
45.0753918
40
0.2619665
50
215.7320102
51
216.5355409
0
ARC
8
DEFAULT_255_1_234
10
5.5448927
20
45.0321647
40
0.1929497
50
215.7486685
51
239.9727502
0
ARC
8
DEFAULT_255_1_234
10
5.5378843
20
45.0270894
40
0.1850822
50
241.0650169
51
269.2810483
0
ARC
8
DEFAULT_255_1_234
10
5.5420758
20
45.0761371
40
0.2342059
50
268.4062526
51
270.0071348
0
LINE
8
DEFAULT_255_1_234
10
4.3084299
20
53.4348211
11
4.5903439
21
52.9866501
0
LINE
8
DEFAULT_255_1_234
10
4.5903439
20
52.9866501
11
4.8706516
21
53.4348211
0
LINE
8
DEFAULT_255_1_234
10
4.8706516
20
53.4348211
11
5.0521689
21
53.4348211
0
LINE
8
DEFAULT_255_1_234
10
5.0521689
20
53.4348211
11
4.6827089
21
52.8549296
0
LINE
8
DEFAULT_255_1_234
10
4.6827089
20
52.8549296
11
5.0610038
21
52.2654
0
LINE
8
DEFAULT_255_1_234
10
5.0610038
20
52.2654
11
4.8778802
21
52.2654
0
LINE
8
DEFAULT_255_1_234
10
4.8778802
20
52.2654
11
4.5903439
21
52.7216027
0
LINE
8
DEFAULT_255_1_234
10
4.5903439
20
52.7216027
11
4.3012014
21
52.2654
0
LINE
8
DEFAULT_255_1_234
10
4.3012014
20
52.2654
11
4.1188809
21
52.2654
0
LINE
8
DEFAULT_255_1_234
10
4.1188809
20
52.2654
11
4.497979
21
52.8549296
0
LINE
8
DEFAULT_255_1_234
10
4.497979
20
52.8549296
11
4.1277158
21
53.4348211
0
LINE
8
DEFAULT_255_1_234
10
4.1277158
20
53.4348211
11
4.3084299
21
53.4348211
0
ARC
8
DEFAULT_255_1_234
10
5.6285376
20
53.1270703
40
0.2822356
50
338.8763615
51
0.5166041
0
ARC
8
DEFAULT_255_1_234
10
5.645403
20
53.1225208
40
0.2648703
50
325.8412414
51
338.4795939
0
ARC
8
DEFAULT_255_1_234
10
5.6063398
20
53.1496042
40
0.3124019
50
296.7586019
51
325.753654
0
ARC
8
DEFAULT_255_1_234
10
5.5775506
20
53.1980789
40
0.368668
50
296.0902311
51
297.3618122
0
ARC
8
DEFAULT_255_1_234
10
5.6032964
20
52.5426041
40
0.3518806
50
47.9009248
51
67.1946869
0
ARC
8
DEFAULT_255_1_234
10
5.6229206
20
52.5672395
40
0.320451
50
35.236241
51
47.551371
0
ARC
8
DEFAULT_255_1_234
10
5.6490824
20
52.5846993
40
0.2890103
50
359.2759738
51
35.4014081
0
ARC
8
DEFAULT_255_1_234
10
5.5745855
20
52.5773826
40
0.3635026
50
343.1294516
51
0.5776525
0
ARC
8
DEFAULT_255_1_234
10
5.64704
20
52.557433
40
0.2883832
50
310.8497458
51
342.744803
0
ARC
8
DEFAULT_255_1_234
10
5.6052513
20
52.6051294
40
0.3517954
50
281.5473923
51
310.9169905
0
ARC
8
DEFAULT_255_1_234
10
5.5695962
20
52.7604084
40
0.5110832
50
269.6192722
51
281.9789957
0
ARC
8
DEFAULT_255_1_234
10
5.5623752
20
52.7604828
40
0.5111606
50
257.4584469
51
270.4287458
0
ARC
8
DEFAULT_255_1_234
10
5.5242895
20
52.6001344
40
0.3463762
50
228.7553743
51
257.8484423
0
ARC
8
DEFAULT_255_1_234
10
5.4933093
20
52.5628442
40
0.297916
50
184.0104442
51
228.5071787
0
ARC
8
DEFAULT_255_1_234
10
5.6096037
20
52.5805512
40
0.4152734
50
179.9315461
51
185.3254504
0
ARC
8
DEFAULT_255_1_234
10
5.4919683
20
52.5842992
40
0.2976554
50
145.6795913
51
180.6259649
0
ARC
8
DEFAULT_255_1_234
10
5.5083032
20
52.5728929
40
0.3175776
50
115.5537925
51
145.6416199
0
ARC
8
DEFAULT_255_1_234
10
5.5423962
20
52.5118028
40
0.3874232
50
113.2437915
51
116.2054627
0
ARC
8
DEFAULT_255_1_234
10
5.5271175
20
53.151658
40
0.3154751
50
222.9548379
51
244.1372485
0
ARC
8
DEFAULT_255_1_234
10
5.514925
20
53.1379834
40
0.2972382
50
213.3439227
51
222.6271327
0
ARC
8
DEFAULT_255_1_234
10
5.4957184
20
53.1249308
40
0.274019
50
180.4316517
51
213.2713999
0
ARC
8
DEFAULT_255_1_234
10
5.5532186
20
53.129611
40
0.33158
50
179.9992944
51
181.1655061
0
ARC
8
DEFAULT_255_1_234
10
5.5941603
20
53.1330561
40
0.3725376
50
164.6186108
51
180.5292368
0
ARC
8
DEFAULT_255_1_234
10
5.5043466
20
53.1572101
40
0.2795349
50
132.2454369
51
164.5092287
0
ARC
8
DEFAULT_255_1_234
10
5.533057
20
53.1247028
40
0.3229019
50
100.7052766
51
132.1387266
0
ARC
8
DEFAULT_255_1_234
10
5.5635542
20
52.9869086
40
0.4639835
50
89.6732617
51
101.2449487
0
ARC
8
DEFAULT_255_1_234
10
5.569774
20
53.004399
40
0.4464999
50
76.2876631
51
90.4586123
0
ARC
8
DEFAULT_255_1_234
10
5.6003972
20
53.126622
40
0.3205023
50
47.8240157
51
76.4266918
0
ARC
8
DEFAULT_255_1_234
10
5.6226522
20
53.152659
40
0.2862661
50
6.9168658
51
47.6261438
0
ARC
8
DEFAULT_255_1_234
10
5.5039925
20
53.130737
40
0.4067708
50
359.8419705
51
7.9694496
0
ARC
8
DEFAULT_255_1_234
10
5.5381822
20
52.5866925
40
0.2513121
50
359.4454068
51
16.9256425
0
ARC
8
DEFAULT_255_1_234
10
5.5850633
20
52.5996033
40
0.2027071
50
17.292259
51
45.462717
0
ARC
8
DEFAULT_255_1_234
10
5.5796569
20
52.5949434
40
0.2098212
50
45.3028762
51
83.1921472
0
ARC
8
DEFAULT_255_1_234
10
5.5653253
20
52.5147895
40
0.2911472
50
82.2614531
51
90.143954
0
ARC
8
DEFAULT_255_1_234
10
5.5622373
20
52.538095
40
0.2678513
50
89.4959189
51
104.8579811
0
ARC
8
DEFAULT_255_1_234
10
5.5445632
20
52.605089
40
0.1985654
50
104.8855873
51
135.2448349
0
ARC
8
DEFAULT_255_1_234
10
5.5495405
20
52.6006336
40
0.2052373
50
135.3398955
51
172.104394
0
ARC
8
DEFAULT_255_1_234
10
5.6302463
20
52.5851925
40
0.2873299
50
171.2651929
51
180.1859362
0
ARC
8
DEFAULT_255_1_234
10
5.6133164
20
52.5819733
40
0.2704083
50
179.515471
51
193.6466734
0
ARC
8
DEFAULT_255_1_234
10
5.5316933
20
52.5611777
40
0.1861855
50
193.3540587
51
225.8256931
0
ARC
8
DEFAULT_255_1_234
10
5.535769
20
52.5682524
40
0.1941102
50
226.418029
51
255.8553723
0
ARC
8
DEFAULT_255_1_234
10
5.5614123
20
52.6618998
40
0.2911917
50
255.4655572
51
268.7985967
0
ARC
8
DEFAULT_255_1_234
10
5.5661315
20
52.7457491
40
0.3751331
50
268.3464808
51
270.0104874
0
ARC
8
DEFAULT_255_1_234
10
5.5684703
20
52.6773138
40
0.3067064
50
269.575914
51
282.0823146
0
ARC
8
DEFAULT_255_1_234
10
5.5909612
20
52.5778803
40
0.2047712
50
281.7522535
51
306.6056425
0
ARC
8
DEFAULT_255_1_234
10
5.6008038
20
52.5617487
40
0.1859604
50
307.1350025
51
314.0277951
0
ARC
8
DEFAULT_255_1_234
10
5.5972122
20
52.5643766
40
0.1903475
50
314.2553419
51
350.169324
0
ARC
8
DEFAULT_255_1_234
10
5.5120591
20
52.5828409
40
0.2774269
50
349.4145679
51
0.2930737
0
ARC
8
DEFAULT_255_1_234
10
5.5641024
20
53.0987353
40
0.2300764
50
89.477591
51
105.729794
0
ARC
8
DEFAULT_255_1_234
10
5.5504937
20
53.1492637
40
0.1777519
50
105.922966
51
135.1662921
0
ARC
8
DEFAULT_255_1_234
10
5.552544
20
53.1478419
40
0.1802087
50
135.3053131
51
168.9882338
0
ARC
8
DEFAULT_255_1_234
10
5.6353012
20
53.1288721
40
0.2650806
50
168.3802067
51
180.3602358
0
ARC
8
DEFAULT_255_1_234
10
5.6124592
20
53.1251041
40
0.2422425
50
179.5029707
51
194.9126783
0
ARC
8
DEFAULT_255_1_234
10
5.5539253
20
53.109711
40
0.1817188
50
194.9722181
51
224.1943972
0
ARC
8
DEFAULT_255_1_234
10
5.551112
20
53.1074169
40
0.1781027
50
224.2961434
51
262.0157375
0
ARC
8
DEFAULT_255_1_234
10
5.5653363
20
53.1805661
40
0.2525492
50
261.1250369
51
270.1959853
0
ARC
8
DEFAULT_255_1_234
10
5.5683118
20
53.1618339
40
0.233825
50
269.4825617
51
285.0988277
0
ARC
8
DEFAULT_255_1_234
10
5.5837277
20
53.103999
40
0.1739712
50
285.1585659
51
315.9484648
0
ARC
8
DEFAULT_255_1_234
10
5.5748289
20
53.1121886
40
0.1860616
50
316.0412958
51
351.9162715
0
ARC
8
DEFAULT_255_1_234
10
5.5015244
20
53.1263245
40
0.2606517
50
351.1056823
51
0.1936567
0
ARC
8
DEFAULT_255_1_234
10
5.5278073
20
53.1293369
40
0.234377
50
359.4789506
51
16.0679113
0
ARC
8
DEFAULT_255_1_234
10
5.5754032
20
53.142181
40
0.1850875
50
16.3251951
51
44.791304
0
ARC
8
DEFAULT_255_1_234
10
5.5736313
20
53.1422339
40
0.186312
50
44.3958661
51
88.2498933
0
ARC
8
DEFAULT_255_1_234
10
5.5662867
20
53.0811154
40
0.2476868
50
86.9833827
51
90.0200148
0
LINE
8
DEFAULT_255_1_234
10
4.3084299
20
61.3723211
11
4.5903439
21
60.9241501
0
LINE
8
DEFAULT_255_1_234
10
4.5903439
20
60.9241501
11
4.8706516
21
61.3723211
0
LINE
8
DEFAULT_255_1_234
10
4.8706516
20
61.3723211
11
5.0521689
21
61.3723211
0
LINE
8
DEFAULT_255_1_234
10
5.0521689
20
61.3723211
11
4.6827089
21
60.7924296
0
LINE
8
DEFAULT_255_1_234
10
4.6827089
20
60.7924296
11
5.0610038
21
60.2029
0
LINE
8
DEFAULT_255_1_234
10
5.0610038
20
60.2029
11
4.8778802
21
60.2029
0
LINE
8
DEFAULT_255_1_234
10
4.8778802
20
60.2029
11
4.5903439
21
60.6591027
0
LINE
8
DEFAULT_255_1_234
10
4.5903439
20
60.6591027
11
4.3012014
21
60.2029
0
LINE
8
DEFAULT_255_1_234
10
4.3012014
20
60.2029
11
4.1188809
21
60.2029
0
LINE
8
DEFAULT_255_1_234
10
4.1188809
20
60.2029
11
4.497979
21
60.7924296
0
LINE
8
DEFAULT_255_1_234
10
4.497979
20
60.7924296
11
4.1277158
21
61.3723211
0
LINE
8
DEFAULT_255_1_234
10
4.1277158
20
61.3723211
11
4.3084299
21
61.3723211
0
LINE
8
DEFAULT_255_1_234
10
5.9565426
20
61.3723211
11
5.9565426
21
61.288791
0
LINE
8
DEFAULT_255_1_234
10
5.9565426
20
61.288791
11
5.4722288
21
60.2029
0
LINE
8
DEFAULT_255_1_234
10
5.4722288
20
60.2029
11
5.3164131
21
60.2029
0
LINE
8
DEFAULT_255_1_234
10
5.3164131
20
60.2029
11
5.7991206
21
61.2502387
0
LINE
8
DEFAULT_255_1_234
10
5.7991206
20
61.2502387
11
5.1662196
21
61.2502387
0
LINE
8
DEFAULT_255_1_234
10
5.1662196
20
61.2502387
11
5.1662196
21
61.3723211
0
LINE
8
DEFAULT_255_1_234
10
5.1662196
20
61.3723211
11
5.9565426
21
61.3723211
0
LINE
8
DEFAULT_255_1_234
10
4.3084299
20
69.3098211
11
4.5903439
21
68.8616501
0
LINE
8
DEFAULT_255_1_234
10
4.5903439
20
68.8616501
11
4.8706516
21
69.3098211
0
LINE
8
DEFAULT_255_1_234
10
4.8706516
20
69.3098211
11
5.0521689
21
69.3098211
0
LINE
8
DEFAULT_255_1_234
10
5.0521689
20
69.3098211
11
4.6827089
21
68.7299296
0
LINE
8
DEFAULT_255_1_234
10
4.6827089
20
68.7299296
11
5.0610038
21
68.1404
0
LINE
8
DEFAULT_255_1_234
10
5.0610038
20
68.1404
11
4.8778802
21
68.1404
0
LINE
8
DEFAULT_255_1_234
10
4.8778802
20
68.1404
11
4.5903439
21
68.5966027
0
LINE
8
DEFAULT_255_1_234
10
4.5903439
20
68.5966027
11
4.3012014
21
68.1404
0
LINE
8
DEFAULT_255_1_234
10
4.3012014
20
68.1404
11
4.1188809
21
68.1404
0
LINE
8
DEFAULT_255_1_234
10
4.1188809
20
68.1404
11
4.497979
21
68.7299296
0
LINE
8
DEFAULT_255_1_234
10
4.497979
20
68.7299296
11
4.1277158
21
69.3098211
0
LINE
8
DEFAULT_255_1_234
10
4.1277158
20
69.3098211
11
4.3084299
21
69.3098211
0
LINE
8
DEFAULT_255_1_234
10
5.7581587
20
69.3106243
11
5.7846634
21
69.3106243
0
LINE
8
DEFAULT_255_1_234
10
5.7846634
20
69.3106243
11
5.7846634
21
69.184526
0
LINE
8
DEFAULT_255_1_234
10
5.7846634
20
69.184526
11
5.7573555
21
69.184526
0
LINE
8
DEFAULT_255_1_234
10
5.2103941
20
68.5853583
11
5.2103941
21
68.6423836
0
LINE
8
DEFAULT_255_1_234
10
5.3597845
20
68.6231075
11
5.3597845
21
68.5684917
0
ARC
8
DEFAULT_255_1_234
10
5.7625903
20
68.6847455
40
0.4998079
50
90.6001036
51
104.514704
0
ARC
8
DEFAULT_255_1_234
10
5.7237419
20
68.8292131
40
0.3502176
50
104.2855254
51
133.862935
0
ARC
8
DEFAULT_255_1_234
10
5.7401176
20
68.818383
40
0.3693984
50
134.5302688
51
161.6210873
0
ARC
8
DEFAULT_255_1_234
10
5.9054365
20
68.7600895
40
0.5446739
50
161.2849839
51
174.2076652
0
ARC
8
DEFAULT_255_1_234
10
6.0461302
20
68.7406787
40
0.6866274
50
173.7810589
51
174.9254635
0
ARC
8
DEFAULT_255_1_234
10
5.5911134
20
68.6023839
40
0.3033419
50
95.8330959
51
138.9954921
0
ARC
8
DEFAULT_255_1_234
10
5.613449
20
68.4745375
40
0.4328947
50
89.8753725
51
97.0544009
0
ARC
8
DEFAULT_255_1_234
10
5.6181956
20
68.5580748
40
0.3493769
50
71.6407809
51
90.6240094
0
ARC
8
DEFAULT_255_1_234
10
5.6332529
20
68.6135082
40
0.2920396
50
39.6367836
51
71.019018
0
ARC
8
DEFAULT_255_1_234
10
5.5696002
20
68.5584998
40
0.3761538
50
10.658731
51
39.9043955
0
ARC
8
DEFAULT_255_1_234
10
5.4148085
20
68.5248686
40
0.5345136
50
359.682601
51
11.132623
0
ARC
8
DEFAULT_255_1_234
10
5.4108216
20
68.517801
40
0.5385081
50
347.2486944
51
0.4369317
0
ARC
8
DEFAULT_255_1_234
10
5.5775693
20
68.4776807
40
0.3670249
50
318.1409698
51
347.6118597
0
ARC
8
DEFAULT_255_1_234
10
5.6100686
20
68.4509702
40
0.3250007
50
275.6342139
51
317.8248465
0
ARC
8
DEFAULT_255_1_234
10
5.5879797
20
68.5809219
40
0.4565864
50
269.8874292
51
276.7917694
0
ARC
8
DEFAULT_255_1_234
10
5.5824868
20
68.4783743
40
0.3540676
50
246.9140195
51
270.7437342
0
ARC
8
DEFAULT_255_1_234
10
5.5831258
20
68.4641384
40
0.3412781
50
218.1665114
51
245.878116
0
ARC
8
DEFAULT_255_1_234
10
5.6710719
20
68.5377279
40
0.455911
50
191.4115814
51
218.6077802
0
ARC
8
DEFAULT_255_1_234
10
5.8648808
20
68.5811833
40
0.6545001
50
179.6345085
51
191.7836486
0
ARC
8
DEFAULT_255_1_234
10
6.4231145
20
68.6490697
40
1.2127388
50
171.4525249
51
180.3158839
0
ARC
8
DEFAULT_255_1_234
10
5.9836021
20
68.7174608
40
0.7679464
50
157.9802646
51
171.6246686
0
ARC
8
DEFAULT_255_1_234
10
5.7622042
20
68.8057421
40
0.5296008
50
141.4298019
51
157.854097
0
ARC
8
DEFAULT_255_1_234
10
5.6980362
20
68.8511381
40
0.4511509
50
102.8715806
51
140.8564722
0
ARC
8
DEFAULT_255_1_234
10
5.7627978
20
68.6071552
40
0.7034845
50
90.3778349
51
103.5869322
0
ARC
8
DEFAULT_255_1_234
10
5.5889754
20
68.546673
40
0.2370698
50
89.8751008
51
126.2071704
0
ARC
8
DEFAULT_255_1_234
10
5.5935544
20
68.5312303
40
0.2522934
50
124.9745049
51
144.895901
0
ARC
8
DEFAULT_255_1_234
10
5.5759734
20
68.545556
40
0.2296779
50
145.2974905
51
160.2660252
0
ARC
8
DEFAULT_255_1_234
10
5.8832273
20
68.5653071
40
0.5234525
50
179.6514266
51
190.2855912
0
ARC
8
DEFAULT_255_1_234
10
5.713841
20
68.5333786
40
0.3510893
50
190.0945431
51
207.5098196
0
ARC
8
DEFAULT_255_1_234
10
5.657268
20
68.5064623
40
0.288489
50
207.9583163
51
216.3251085
0
ARC
8
DEFAULT_255_1_234
10
5.6232788
20
68.4785105
40
0.2445587
50
215.7661442
51
232.5456785
0
ARC
8
DEFAULT_255_1_234
10
5.5849771
20
68.4298482
40
0.1826382
50
232.8005391
51
270.6605633
0
ARC
8
DEFAULT_255_1_234
10
5.5895472
20
68.4662612
40
0.2190529
50
269.35537
51
288.4744281
0
ARC
8
DEFAULT_255_1_234
10
5.5988369
20
68.4313118
40
0.1829749
50
289.1833337
51
322.9683818
0
ARC
8
DEFAULT_255_1_234
10
5.5376891
20
68.4795391
40
0.2608399
50
322.6007884
51
346.5182367
0
ARC
8
DEFAULT_255_1_234
10
5.4219487
20
68.5090616
40
0.3802777
50
346.2582162
51
358.7741648
0
ARC
8
DEFAULT_255_1_234
10
5.3201156
20
68.5145965
40
0.4822176
50
358.3755224
51
0.0098023
0
ARC
8
DEFAULT_255_1_234
10
5.3957343
20
68.5173657
40
0.4066078
50
359.6214041
51
11.2839074
0
ARC
8
DEFAULT_255_1_234
10
5.523449
20
68.5440066
40
0.2761514
50
11.0482309
51
31.8146458
0
ARC
8
DEFAULT_255_1_234
10
5.5543533
20
68.5607584
40
0.2410679
50
32.3035391
51
38.082671
0
ARC
8
DEFAULT_255_1_234
10
5.5964193
20
68.5988662
40
0.1844966
50
36.825067
51
85.7415724
0
ARC
8
DEFAULT_255_1_234
10
5.5897026
20
68.5488301
40
0.2349122
50
85.0140713
51
90.0513278
0
LINE
8
DEFAULT_255_1_234
10
4.3084299
20
77.2473211
11
4.5903439
21
76.7991501
0
LINE
8
DEFAULT_255_1_234
10
4.5903439
20
76.7991501
11
4.8706516
21
77.2473211
0
LINE
8
DEFAULT_255_1_234
10
4.8706516
20
77.2473211
11
5.0521689
21
77.2473211
0
LINE
8
DEFAULT_255_1_234
10
5.0521689
20
77.2473211
11
4.6827089
21
76.6674296
0
LINE
8
DEFAULT_255_1_234
10
4.6827089
20
76.6674296
11
5.0610038
21
76.0779
0
LINE
8
DEFAULT_255_1_234
10
5.0610038
20
76.0779
11
4.8778802
21
76.0779
0
LINE
8
DEFAULT_255_1_234
10
4.8778802
20
76.0779
11
4.5903439
21
76.5341027
0
LINE
8
DEFAULT_255_1_234
10
4.5903439
20
76.5341027
11
4.3012014
21
76.0779
0
LINE
8
DEFAULT_255_1_234
10
4.3012014
20
76.0779
11
4.1188809
21
76.0779
0
LINE
8
DEFAULT_255_1_234
10
4.1188809
20
76.0779
11
4.497979
21
76.6674296
0
LINE
8
DEFAULT_255_1_234
10
4.497979
20
76.6674296
11
4.1277158
21
77.2473211
0
LINE
8
DEFAULT_255_1_234
10
4.1277158
20
77.2473211
11
4.3084299
21
77.2473211
0
LINE
8
DEFAULT_255_1_234
10
5.3886987
20
76.6336963
11
5.269829
21
76.6642169
0
LINE
8
DEFAULT_255_1_234
10
5.269829
20
76.6642169
11
5.3292639
21
77.2473211
0
LINE
8
DEFAULT_255_1_234
10
5.3292639
20
77.2473211
11
5.9284315
21
77.2473211
0
LINE
8
DEFAULT_255_1_234
10
5.9284315
20
77.2473211
11
5.9284315
21
77.1099784
0
LINE
8
DEFAULT_255_1_234
10
5.9284315
20
77.1099784
11
5.4553622
21
77.1099784
0
LINE
8
DEFAULT_255_1_234
10
5.4553622
20
77.1099784
11
5.4200225
21
76.7911184
0
LINE
8
DEFAULT_255_1_234
10
5.228064
20
76.3855156
11
5.3686194
21
76.3855156
0
LINE
8
DEFAULT_255_1_234
10
5.4280542
20
76.6658232
11
5.3886987
21
76.6336963
0
ARC
8
DEFAULT_255_1_234
10
5.6055009
20
76.473123
40
0.3681349
50
93.7182161
51
120.2538958
0
ARC
8
DEFAULT_255_1_234
10
5.6149272
20
76.3923394
40
0.449379
50
89.9660152
51
94.2496022
0
ARC
8
DEFAULT_255_1_234
10
5.6190006
20
76.4512549
40
0.390482
50
73.8043271
51
90.5585896
0
ARC
8
DEFAULT_255_1_234
10
5.6424903
20
76.5370602
40
0.3015334
50
41.3071453
51
73.5430202
0
ARC
8
DEFAULT_255_1_234
10
5.600873
20
76.5012324
40
0.3564457
50
13.5075983
51
41.2174222
0
ARC
8
DEFAULT_255_1_234
10
5.4366934
20
76.4582486
40
0.5261351
50
1.1331335
51
13.8829381
0
ARC
8
DEFAULT_255_1_234
10
5.2955303
20
76.4506665
40
0.6674378
50
359.9919444
51
1.544251
0
ARC
8
DEFAULT_255_1_234
10
5.4232129
20
76.446528
40
0.5397702
50
347.8572367
51
0.4293338
0
ARC
8
DEFAULT_255_1_234
10
5.5982447
20
76.4068736
40
0.3603188
50
323.673004
51
348.1672506
0
ARC
8
DEFAULT_255_1_234
10
5.6276955
20
76.3889168
40
0.3259678
50
316.8171152
51
323.1492751
0
ARC
8
DEFAULT_255_1_234
10
5.6338144
20
76.385246
40
0.3189975
50
281.8396411
51
316.5457803
0
ARC
8
DEFAULT_255_1_234
10
5.5962408
20
76.5407762
40
0.4789527
50
269.5770101
51
282.4214771
0
ARC
8
DEFAULT_255_1_234
10
5.5891219
20
76.5194125
40
0.45759
50
256.2427136
51
270.4486331
0
ARC
8
DEFAULT_255_1_234
10
5.5592121
20
76.3994229
40
0.3339303
50
228.9023911
51
256.3314342
0
ARC
8
DEFAULT_255_1_234
10
5.5518354
20
76.3877746
40
0.32031
50
193.753695
51
228.5271154
0
ARC
8
DEFAULT_255_1_234
10
5.6756308
20
76.42408
40
0.4492253
50
184.924711
51
194.497588
0
ARC
8
DEFAULT_255_1_234
10
5.6948875
20
76.4276591
40
0.3289787
50
187.3600538
51
198.6732863
0
ARC
8
DEFAULT_255_1_234
10
5.5899169
20
76.3912674
40
0.217884
50
198.4451669
51
217.794479
0
ARC
8
DEFAULT_255_1_234
10
5.5603344
20
76.3703085
40
0.1816698
50
218.2887171
51
228.5612368
0
ARC
8
DEFAULT_255_1_234
10
5.5701131
20
76.3834963
40
0.1980329
50
228.9654866
51
258.1234728
0
ARC
8
DEFAULT_255_1_234
10
5.5906841
20
76.4715833
40
0.2884748
50
257.7258293
51
270.401361
0
ARC
8
DEFAULT_255_1_234
10
5.5951727
20
76.4270821
40
0.2439788
50
269.4204404
51
286.4209037
0
ARC
8
DEFAULT_255_1_234
10
5.6100215
20
76.3731657
40
0.1880666
50
286.7251356
51
320.600362
0
ARC
8
DEFAULT_255_1_234
10
5.571704
20
76.4042595
40
0.2374121
50
320.6712579
51
344.5441685
0
ARC
8
DEFAULT_255_1_234
10
5.4560366
20
76.4382045
40
0.3579479
50
344.2412205
51
356.7357071
0
ARC
8
DEFAULT_255_1_234
10
5.3311515
20
76.4485444
40
0.4832297
50
356.3548756
51
0.0500261
0
ARC
8
DEFAULT_255_1_234
10
5.4648024
20
76.451665
40
0.3495889
50
359.5576869
51
12.953486
0
ARC
8
DEFAULT_255_1_234
10
5.5702921
20
76.4772434
40
0.2410532
50
12.6490276
51
41.6081334
0
ARC
8
DEFAULT_255_1_234
10
5.5933292
20
76.4968321
40
0.2108218
50
41.7850273
51
85.9892764
0
ARC
8
DEFAULT_255_1_234
10
5.5810029
20
76.4155462
40
0.2928454
50
84.6957577
51
90.0676183
0
ARC
8
DEFAULT_255_1_234
10
5.5786513
20
76.3486716
40
0.3597255
50
89.6804936
51
99.1614436
0
ARC
8
DEFAULT_255_1_234
10
5.5581144
20
76.4714131
40
0.235281
50
98.9830931
51
113.8908934
0
ARC
8
DEFAULT_255_1_234
10
5.5351554
20
76.5255587
40
0.176479
50
114.1950727
51
127.3641004
0
LINE
8
DEFAULT_255_1_234
10
4.8566119
20
84.1366792
11
4.8566119
21
84.0154
0
LINE
8
DEFAULT_255_1_234
10
4.8566119
20
84.0154
11
4.090384
21
84.0154
0
LINE
8
DEFAULT_255_1_234
10
4.090384
20
84.0154
11
4.090384
21
84.1222221
0
LINE
8
DEFAULT_255_1_234
10
4.090384
20
84.1222221
11
4.4951836
21
84.5719995
0
LINE
8
DEFAULT_255_1_234
10
4.2164823
20
84.8402595
11
4.0678952
21
84.8402595
0
LINE
8
DEFAULT_255_1_234
10
4.5827296
20
84.4764218
11
4.2694918
21
84.1366792
0
LINE
8
DEFAULT_255_1_234
10
4.2694918
20
84.1366792
11
4.8566119
21
84.1366792
0
ARC
8
DEFAULT_255_1_234
10
3.146167
20
85.7649527
40
1.8008286
50
318.5132453
51
320.7828378
0
ARC
8
DEFAULT_255_1_234
10
3.6748644
20
85.3346426
40
1.1191493
50
320.7372736
51
323.9737074
0
ARC
8
DEFAULT_255_1_234
10
4.0668501
20
85.0506361
40
0.6350923
50
323.8961724
51
328.6421089
0
ARC
8
DEFAULT_255_1_234
10
4.2715096
20
84.9244031
40
0.3946393
50
328.8299013
51
331.789948
0
ARC
8
DEFAULT_255_1_234
10
4.3712274
20
84.8729509
40
0.2824501
50
331.4255242
51
352.9364833
0
ARC
8
DEFAULT_255_1_234
10
4.3848775
20
84.8698976
40
0.2685315
50
353.2248685
51
0.0169286
0
ARC
8
DEFAULT_255_1_234
10
4.4058652
20
84.872195
40
0.2475536
50
359.4866256
51
15.9339782
0
ARC
8
DEFAULT_255_1_234
10
4.4565637
20
84.8858286
40
0.1950618
50
16.1714718
51
43.5284424
0
ARC
8
DEFAULT_255_1_234
10
4.4642946
20
84.8935573
40
0.184134
50
43.4415429
51
83.1661404
0
ARC
8
DEFAULT_255_1_234
10
4.4508864
20
84.8198771
40
0.258926
50
82.160215
51
90.1505798
0
ARC
8
DEFAULT_255_1_234
10
4.4477291
20
84.7661865
40
0.3126255
50
89.5460705
51
102.5418777
0
ARC
8
DEFAULT_255_1_234
10
4.4234377
20
84.8692665
40
0.2067346
50
102.1739365
51
129.2061916
0
ARC
8
DEFAULT_255_1_234
10
4.4155449
20
84.8817094
40
0.1921118
50
129.7279328
51
135.7542026
0
ARC
8
DEFAULT_255_1_234
10
4.4276977
20
84.8720045
40
0.2075944
50
136.175737
51
166.3674722
0
ARC
8
DEFAULT_255_1_234
10
4.5283896
20
84.8450182
40
0.3118201
50
165.9092917
51
178.8683903
0
ARC
8
DEFAULT_255_1_234
10
4.6148757
20
84.8403179
40
0.3983935
50
178.438168
51
180.0083905
0
ARC
8
DEFAULT_255_1_234
10
4.4747359
20
84.8442231
40
0.4068601
50
163.2878735
51
180.5581814
0
ARC
8
DEFAULT_255_1_234
10
4.3945621
20
84.866284
40
0.3237344
50
133.454115
51
162.9470031
0
ARC
8
DEFAULT_255_1_234
10
4.4124162
20
84.8473
40
0.349795
50
100.7869394
51
133.4384016
0
ARC
8
DEFAULT_255_1_234
10
4.4471934
20
84.6924319
40
0.5084616
50
89.6605301
51
101.3704185
0
ARC
8
DEFAULT_255_1_234
10
4.4538273
20
84.6985496
40
0.502348
50
78.2171172
51
90.4130393
0
ARC
8
DEFAULT_255_1_234
10
4.4893351
20
84.8609637
40
0.3361092
50
55.9268222
51
78.4888551
0
ARC
8
DEFAULT_255_1_234
10
4.5089791
20
84.8948324
40
0.2970617
50
47.9292255
51
55.4054003
0
ARC
8
DEFAULT_255_1_234
10
4.5191352
20
84.9051502
40
0.2825983
50
4.3347696
51
48.0560701
0
ARC
8
DEFAULT_255_1_234
10
4.4095745
20
84.8881601
40
0.393225
50
359.925209
51
5.5967654
0
ARC
8
DEFAULT_255_1_234
10
4.4524637
20
84.8937816
40
0.3503892
50
337.8914096
51
358.9967724
0
ARC
8
DEFAULT_255_1_234
10
4.1811049
20
84.9984706
40
0.6412172
50
326.9135351
51
338.3505194
0
ARC
8
DEFAULT_255_1_234
10
3.7825353
20
85.2539284
40
1.1146189
50
319.6472867
51
327.095818
0
ARC
8
DEFAULT_255_1_234
10
3.3992356
20
85.5701
40
1.6114559
50
317.2586784
51
319.9046139
0
LINE
8
DEFAULT_255_1_234
10
5.7577729
20
84.3864663
11
5.9127854
21
84.3864663
0
LINE
8
DEFAULT_255_1_234
10
5.0124276
20
84.5454947
11
5.0124276
21
84.6579391
0
LINE
8
DEFAULT_255_1_234
10
5.9127854
20
84.8089357
11
5.7577729
21
84.8089357
0
LINE
8
DEFAULT_255_1_234
10
5.1674401
20
84.6539232
11
5.1674401
21
84.5406757
0
ARC
8
DEFAULT_255_1_234
10
5.3647241
20
84.4461846
40
0.5513052
50
340.1774281
51
353.7814284
0
ARC
8
DEFAULT_255_1_234
10
5.5218594
20
84.3876582
40
0.3836379
50
311.4558989
51
340.4421614
0
ARC
8
DEFAULT_255_1_234
10
5.5185262
20
84.3987528
40
0.3941894
50
282.4333181
51
310.7513653
0
ARC
8
DEFAULT_255_1_234
10
5.4746001
20
84.5802679
40
0.5809175
50
269.9358511
51
282.809604
0
ARC
8
DEFAULT_255_1_234
10
5.4694067
20
84.7260212
40
0.7266847
50
270.0021091
51
270.3581957
0
ARC
8
DEFAULT_255_1_234
10
5.4641484
20
84.4659585
40
0.4666519
50
250.7884749
51
270.6489167
0
ARC
8
DEFAULT_255_1_234
10
5.4473319
20
84.4022319
40
0.4009729
50
219.3627325
51
250.0611886
0
ARC
8
DEFAULT_255_1_234
10
5.530253
20
84.4727042
40
0.5097822
50
193.5479632
51
219.5756669
0
ARC
8
DEFAULT_255_1_234
10
5.7674151
20
84.5342919
40
0.7547848
50
181.1218675
51
193.87563
0
ARC
8
DEFAULT_255_1_234
10
5.9744332
20
84.545358
40
0.9620055
50
179.9918545
51
181.5394234
0
ARC
8
DEFAULT_255_1_234
10
5.7893434
20
84.6616788
40
0.7769248
50
169.5837241
51
180.2757934
0
ARC
8
DEFAULT_255_1_234
10
5.6056372
20
84.6956229
40
0.590109
50
155.0365899
51
169.6003176
0
ARC
8
DEFAULT_255_1_234
10
5.4920836
20
84.7503677
40
0.4640625
50
136.783148
51
155.2472683
0
ARC
8
DEFAULT_255_1_234
10
5.4531313
20
84.7834562
40
0.4130255
50
121.7633186
51
136.428115
0
ARC
8
DEFAULT_255_1_234
10
5.4666275
20
84.7585227
40
0.4413323
50
95.6459699
51
121.5490577
0
ARC
8
DEFAULT_255_1_234
10
5.4823557
20
84.6476949
40
0.55319
50
89.924208
51
96.1377933
0
ARC
8
DEFAULT_255_1_234
10
5.487399
20
84.6595542
40
0.5413475
50
76.6779277
51
90.4563316
0
ARC
8
DEFAULT_255_1_234
10
5.5267613
20
84.8186114
40
0.3775041
50
47.485847
51
76.9287264
0
ARC
8
DEFAULT_255_1_234
10
5.5120586
20
84.8086159
40
0.3948286
50
16.5424086
51
46.8933463
0
ARC
8
DEFAULT_255_1_234
10
5.3512743
20
84.7557861
40
0.564021
50
5.4072051
51
17.0365086
0
ARC
8
DEFAULT_255_1_234
10
5.207376
20
84.7326679
40
0.5556559
50
7.8891745
51
15.9239216
0
ARC
8
DEFAULT_255_1_234
10
5.4060773
20
84.7903631
40
0.3487515
50
15.7653144
51
27.9410532
0
ARC
8
DEFAULT_255_1_234
10
5.5164991
20
84.849479
40
0.2235026
50
27.8166557
51
46.4008329
0
ARC
8
DEFAULT_255_1_234
10
5.5214634
20
84.8489082
40
0.2205286
50
47.4371857
51
75.0698205
0
ARC
8
DEFAULT_255_1_234
10
5.4906029
20
84.7414765
40
0.3322915
50
74.7008593
51
87.8124495
0
ARC
8
DEFAULT_255_1_234
10
5.4832716
20
84.6358844
40
0.4380987
50
87.3814673
51
90.0240855
0
ARC
8
DEFAULT_255_1_234
10
5.4794259
20
84.7536291
40
0.3203749
50
89.3451631
51
108.5745436
0
ARC
8
DEFAULT_255_1_234
10
5.4657365
20
84.8049908
40
0.2673494
50
109.2998449
51
143.3037509
0
ARC
8
DEFAULT_255_1_234
10
5.5419437
20
84.7463881
40
0.3634757
50
143.0753173
51
163.1916937
0
ARC
8
DEFAULT_255_1_234
10
5.7371165
20
84.6847967
40
0.5681262
50
162.9373603
51
174.6208611
0
ARC
8
DEFAULT_255_1_234
10
5.9997207
20
84.656001
40
0.8322832
50
174.3419979
51
180.1430411
0
ARC
8
DEFAULT_255_1_234
10
5.9066363
20
84.5365698
40
0.7392076
50
179.6817502
51
189.150529
0
ARC
8
DEFAULT_255_1_234
10
5.6565611
20
84.494919
40
0.4856932
50
188.9910863
51
203.5773039
0
ARC
8
DEFAULT_255_1_234
10
5.5485944
20
84.4501211
40
0.3688271
50
203.9077269
51
215.1312379
0
ARC
8
DEFAULT_255_1_234
10
5.4563038
20
84.3785941
40
0.2522457
50
213.9071664
51
263.8849284
0
ARC
8
DEFAULT_255_1_234
10
5.4688367
20
84.4570518
40
0.3316174
50
263.1758525
51
270.1031083
0
ARC
8
DEFAULT_255_1_234
10
5.4720459
20
84.5817365
40
0.4563091
50
269.6719807
51
279.0609165
0
ARC
8
DEFAULT_255_1_234
10
5.4987227
20
84.4204907
40
0.2928759
50
278.8750225
51
293.6346586
0
ARC
8
DEFAULT_255_1_234
10
5.5307435
20
84.34529
40
0.2111472
50
293.8553404
51
310.0518804
0
ARC
8
DEFAULT_255_1_234
10
5.5312289
20
84.3390516
40
0.2060917
50
311.0646779
51
332.0108348
0
ARC
8
DEFAULT_255_1_234
10
5.4120016
20
84.4047978
40
0.3422352
50
331.6588543
51
343.2878891
0
ARC
8
DEFAULT_255_1_234
10
5.2057531
20
84.4681798
40
0.5580003
50
343.1446044
51
351.010618
0
ARC
8
DEFAULT_255_1_234
10
5.0516177
20
84.4962871
40
0.7146438
50
350.7157277
51
351.1602153
0
LINE
8
DEFAULT_255_1_234
10
4.4142299
20
93.1223211
11
4.6961439
21
92.6741501
0
LINE
8
DEFAULT_255_1_234
10
4.6961439
20
92.6741501
11
4.9764516
21
93.1223211
0
LINE
8
DEFAULT_255_1_234
10
4.9764516
20
93.1223211
11
5.1579689
21
93.1223211
0
LINE
8
DEFAULT_255_1_234
10
5.1579689
20
93.1223211
11
4.7885089
21
92.5424296
0
LINE
8
DEFAULT_255_1_234
10
4.7885089
20
92.5424296
11
5.1668038
21
91.9529
0
LINE
8
DEFAULT_255_1_234
10
5.1668038
20
91.9529
11
4.9836802
21
91.9529
0
LINE
8
DEFAULT_255_1_234
10
4.9836802
20
91.9529
11
4.6961439
21
92.4091027
0
LINE
8
DEFAULT_255_1_234
10
4.6961439
20
92.4091027
11
4.4070014
21
91.9529
0
LINE
8
DEFAULT_255_1_234
10
4.4070014
20
91.9529
11
4.2246809
21
91.9529
0
LINE
8
DEFAULT_255_1_234
10
4.2246809
20
91.9529
11
4.603779
21
92.5424296
0
LINE
8
DEFAULT_255_1_234
10
4.603779
20
92.5424296
11
4.2335158
21
93.1223211
0
LINE
8
DEFAULT_255_1_234
10
4.2335158
20
93.1223211
11
4.4142299
21
93.1223211
0
LINE
8
DEFAULT_255_1_234
10
5.934638
20
93.1223211
11
5.934638
21
92.345652
0
LINE
8
DEFAULT_255_1_234
10
5.934638
20
92.345652
11
6.0968791
21
92.345652
0
LINE
8
DEFAULT_255_1_234
10
6.0968791
20
92.345652
11
6.0968791
21
92.2243728
0
LINE
8
DEFAULT_255_1_234
10
6.0968791
20
92.2243728
11
5.934638
21
92.2243728
0
LINE
8
DEFAULT_255_1_234
10
5.934638
20
92.2243728
11
5.934638
21
91.9529
0
LINE
8
DEFAULT_255_1_234
10
5.934638
20
91.9529
11
5.7852477
21
91.9529
0
LINE
8
DEFAULT_255_1_234
10
5.7852477
20
91.9529
11
5.7852477
21
92.2243728
0
LINE
8
DEFAULT_255_1_234
10
5.7852477
20
92.2243728
11
5.2527434
21
92.2243728
0
LINE
8
DEFAULT_255_1_234
10
5.2527434
20
92.2243728
11
5.2527434
21
92.3119187
0
LINE
8
DEFAULT_255_1_234
10
5.2527434
20
92.3119187
11
5.7764127
21
93.1223211
0
LINE
8
DEFAULT_255_1_234
10
5.7764127
20
93.1223211
11
5.934638
21
93.1223211
0
LINE
8
DEFAULT_255_1_234
10
5.7675778
20
92.8869912
11
5.4214099
21
92.345652
0
LINE
8
DEFAULT_255_1_234
10
5.4214099
20
92.345652
11
5.7852477
21
92.345652
0
LINE
8
DEFAULT_255_1_234
10
5.7852477
20
92.345652
11
5.7852477
21
92.9191181
0
LINE
8
DEFAULT_255_1_234
10
5.7852477
20
92.9191181
11
5.7675778
21
92.8869912
0
LINE
8
DEFAULT_255_1_234
10
4.3084299
20
101.0598211
11
4.5903439
21
100.6116501
0
LINE
8
DEFAULT_255_1_234
10
4.5903439
20
100.6116501
11
4.8706516
21
101.0598211
0
LINE
8
DEFAULT_255_1_234
10
4.8706516
20
101.0598211
11
5.0521689
21
101.0598211
0
LINE
8
DEFAULT_255_1_234
10
5.0521689
20
101.0598211
11
4.6827089
21
100.4799296
0
LINE
8
DEFAULT_255_1_234
10
4.6827089
20
100.4799296
11
5.0610038
21
99.8904
0
LINE
8
DEFAULT_255_1_234
10
5.0610038
20
99.8904
11
4.8778802
21
99.8904
0
LINE
8
DEFAULT_255_1_234
10
4.8778802
20
99.8904
11
4.5903439
21
100.3466027
0
LINE
8
DEFAULT_255_1_234
10
4.5903439
20
100.3466027
11
4.3012014
21
99.8904
0
LINE
8
DEFAULT_255_1_234
10
4.3012014
20
99.8904
11
4.1188809
21
99.8904
0
LINE
8
DEFAULT_255_1_234
10
4.1188809
20
99.8904
11
4.497979
21
100.4799296
0
LINE
8
DEFAULT_255_1_234
10
4.497979
20
100.4799296
11
4.1277158
21
101.0598211
0
LINE
8
DEFAULT_255_1_234
10
4.1277158
20
101.0598211
11
4.3084299
21
101.0598211
0
LINE
8
DEFAULT_255_1_234
10
5.417613
20
100.4261169
11
5.417613
21
100.5473962
0
LINE
8
DEFAULT_255_1_234
10
5.417613
20
100.5473962
11
5.5292542
21
100.5473962
0
LINE
8
DEFAULT_255_1_234
10
5.338902
20
100.7530087
11
5.1903148
21
100.7530087
0
LINE
8
DEFAULT_255_1_234
10
5.1798735
20
100.1988188
11
5.3292639
21
100.1988188
0
LINE
8
DEFAULT_255_1_234
10
5.5292542
20
100.4261169
11
5.417613
21
100.4261169
0
ARC
8
DEFAULT_255_1_234
10
5.5263408
20
100.8866713
40
0.3392876
50
270.4919872
51
281.8951556
0
ARC
8
DEFAULT_255_1_234
10
5.550467
20
100.7764702
40
0.2264817
50
281.6691735
51
301.2943132
0
ARC
8
DEFAULT_255_1_234
10
5.567488
20
100.7453304
40
0.1910381
50
301.7833094
51
311.7545298
0
ARC
8
DEFAULT_255_1_234
10
5.5766456
20
100.7351748
40
0.1773635
50
311.7323931
51
354.2802411
0
ARC
8
DEFAULT_255_1_234
10
5.5040081
20
100.7476722
40
0.2509385
50
353.0937916
51
0.1181479
0
ARC
8
DEFAULT_255_1_234
10
5.4578866
20
100.7524386
40
0.2970898
50
359.1805295
51
15.0453146
0
ARC
8
DEFAULT_255_1_234
10
5.5924703
20
100.7916992
40
0.1569564
50
13.9577229
51
77.6713066
0
ARC
8
DEFAULT_255_1_234
10
5.5538232
20
100.6531949
40
0.3006298
50
76.1116566
51
90.7026153
0
ARC
8
DEFAULT_255_1_234
10
5.547907
20
100.6805545
40
0.2732568
50
89.5324876
51
103.531937
0
ARC
8
DEFAULT_255_1_234
10
5.5278514
20
100.7604884
40
0.1908508
50
103.2931773
51
133.5619022
0
ARC
8
DEFAULT_255_1_234
10
5.5234003
20
100.7664375
40
0.1834746
50
133.8349307
51
173.5344437
0
ARC
8
DEFAULT_255_1_234
10
5.5957046
20
100.7536213
40
0.2568033
50
172.5096846
51
180.1366907
0
ARC
8
DEFAULT_255_1_234
10
5.500594
20
100.7570622
40
0.3103056
50
155.3484492
51
180.7484736
0
ARC
8
DEFAULT_255_1_234
10
5.4957029
20
100.7541846
40
0.3070957
50
131.5744599
51
154.4798489
0
ARC
8
DEFAULT_255_1_234
10
5.5270176
20
100.722531
40
0.3515643
50
96.9875458
51
131.9690667
0
ARC
8
DEFAULT_255_1_234
10
5.5489656
20
100.5979636
40
0.4779224
50
89.8596053
51
97.7825159
0
ARC
8
DEFAULT_255_1_234
10
5.5537719
20
100.5717616
40
0.5041361
50
78.3655447
51
90.4131539
0
ARC
8
DEFAULT_255_1_234
10
5.5895637
20
100.7376887
40
0.3344039
50
56.6229102
51
78.638727
0
ARC
8
DEFAULT_255_1_234
10
5.6110581
20
100.7752805
40
0.2912001
50
47.0253525
51
56.0854072
0
ARC
8
DEFAULT_255_1_234
10
5.6130361
20
100.7792223
40
0.2869704
50
10.9208013
51
46.7778124
0
ARC
8
DEFAULT_255_1_234
10
5.4766427
20
100.7476857
40
0.426899
50
359.6364486
51
11.6087304
0
ARC
8
DEFAULT_255_1_234
10
5.6601271
20
100.7461752
40
0.243409
50
332.3549906
51
359.7179418
0
ARC
8
DEFAULT_255_1_234
10
5.5950873
20
100.7770142
40
0.3153459
50
325.2333722
51
332.8745602
0
ARC
8
DEFAULT_255_1_234
10
5.6103496
20
100.7663828
40
0.2967456
50
292.9802137
51
325.2392345
0
ARC
8
DEFAULT_255_1_234
10
5.582887
20
100.8197863
40
0.3566604
50
292.5402179
51
293.6924929
0
ARC
8
DEFAULT_255_1_234
10
5.6221466
20
100.1743091
40
0.3307468
50
57.6435486
51
72.8625112
0
ARC
8
DEFAULT_255_1_234
10
5.6575966
20
100.2317549
40
0.2632492
50
36.7248896
51
57.4697979
0
ARC
8
DEFAULT_255_1_234
10
5.6564598
20
100.233022
40
0.2634081
50
8.0545065
51
36.356114
0
ARC
8
DEFAULT_255_1_234
10
5.5701784
20
100.2175174
40
0.3510261
50
359.8320645
51
8.5869982
0
ARC
8
DEFAULT_255_1_234
10
5.532656
20
100.2127101
40
0.3885653
50
343.9829931
51
0.5571613
0
ARC
8
DEFAULT_255_1_234
10
5.6212757
20
100.1884438
40
0.2966924
50
311.6359546
51
343.7651759
0
ARC
8
DEFAULT_255_1_234
10
5.5834326
20
100.2311102
40
0.3537231
50
279.7829875
51
311.6255694
0
ARC
8
DEFAULT_255_1_234
10
5.5533102
20
100.374828
40
0.5004971
50
269.7286406
51
280.3856417
0
ARC
8
DEFAULT_255_1_234
10
5.5471175
20
100.3706996
40
0.4963778
50
256.6828919
51
270.4412052
0
ARC
8
DEFAULT_255_1_234
10
5.5132471
20
100.2322394
40
0.3538406
50
229.4223008
51
256.8556159
0
ARC
8
DEFAULT_255_1_234
10
5.4717864
20
100.1855736
40
0.2914296
50
181.818294
51
229.6455059
0
ARC
8
DEFAULT_255_1_234
10
5.575782
20
100.1986496
40
0.3959084
50
179.9755256
51
183.2323064
0
ARC
8
DEFAULT_255_1_234
10
5.5585566
20
100.1966037
40
0.2293034
50
179.4465117
51
196.2869258
0
ARC
8
DEFAULT_255_1_234
10
5.5097974
20
100.1832651
40
0.1787621
50
196.5661473
51
227.705904
0
ARC
8
DEFAULT_255_1_234
10
5.5262069
20
100.2016155
40
0.2033784
50
227.7652068
51
257.8762805
0
ARC
8
DEFAULT_255_1_234
10
5.5487039
20
100.2959156
40
0.3003081
50
257.4584385
51
270.426602
0
ARC
8
DEFAULT_255_1_234
10
5.5532605
20
100.3248996
40
0.329292
50
269.5962073
51
280.8789248
0
ARC
8
DEFAULT_255_1_234
10
5.5762134
20
100.2102685
40
0.2123908
50
280.6346389
51
299.8595945
0
ARC
8
DEFAULT_255_1_234
10
5.595304
20
100.1740212
40
0.171457
50
300.3576302
51
314.5517981
0
ARC
8
DEFAULT_255_1_234
10
5.5870101
20
100.1800919
40
0.1816095
50
315.0728369
51
345.0431014
0
ARC
8
DEFAULT_255_1_234
10
5.4946915
20
100.2069841
40
0.2777492
50
344.5986631
51
357.9269593
0
ARC
8
DEFAULT_255_1_234
10
5.4051241
20
100.2131276
40
0.3674917
50
357.4748886
51
0.0231117
0
ARC
8
DEFAULT_255_1_234
10
5.5074351
20
100.2155679
40
0.2651907
50
359.5047933
51
13.4239635
0
ARC
8
DEFAULT_255_1_234
10
5.5940994
20
100.2377478
40
0.1757509
50
12.9498199
51
48.7551375
0
ARC
8
DEFAULT_255_1_234
10
5.5758728
20
100.21284
40
0.2065134
50
49.5088623
51
72.1836453
0
ARC
8
DEFAULT_255_1_234
10
5.5400881
20
100.1066291
40
0.3185836
50
71.9010081
51
84.3554254
0
ARC
8
DEFAULT_255_1_234
10
5.5239513
20
99.9705326
40
0.4556151
50
84.0193428
51
89.333121
0
LINE
8
DEFAULT_255_1_234
10
4.3084299
20
108.9973211
11
4.5903439
21
108.5491501
0
LINE
8
DEFAULT_255_1_234
10
4.5903439
20
108.5491501
11
4.8706516
21
108.9973211
0
LINE
8
DEFAULT_255_1_234
10
4.8706516
20
108.9973211
11
5.0521689
21
108.9973211
0
LINE
8
DEFAULT_255_1_234
10
5.0521689
20
108.9973211
11
4.6827089
21
108.4174296
0
LINE
8
DEFAULT_255_1_234
10
4.6827089
20
108.4174296
11
5.0610038
21
107.8279
0
LINE
8
DEFAULT_255_1_234
10
5.0610038
20
107.8279
11
4.8778802
21
107.8279
0
LINE
8
DEFAULT_255_1_234
10
4.8778802
20
107.8279
11
4.5903439
21
108.2841027
0
LINE
8
DEFAULT_255_1_234
10
4.5903439
20
108.2841027
11
4.3012014
21
107.8279
0
LINE
8
DEFAULT_255_1_234
10
4.3012014
20
107.8279
11
4.1188809
21
107.8279
0
LINE
8
DEFAULT_255_1_234
10
4.1188809
20
107.8279
11
4.497979
21
108.4174296
0
LINE
8
DEFAULT_255_1_234
10
4.497979
20
108.4174296
11
4.1277158
21
108.9973211
0
LINE
8
DEFAULT_255_1_234
10
4.1277158
20
108.9973211
11
4.3084299
21
108.9973211
0
LINE
8
DEFAULT_255_1_234
10
5.9677871
20
107.9491792
11
5.9677871
21
107.8279
0
LINE
8
DEFAULT_255_1_234
10
5.9677871
20
107.8279
11
5.2015592
21
107.8279
0
LINE
8
DEFAULT_255_1_234
10
5.2015592
20
107.8279
11
5.2015592
21
107.9347221
0
LINE
8
DEFAULT_255_1_234
10
5.2015592
20
107.9347221
11
5.6063588
21
108.3844995
0
LINE
8
DEFAULT_255_1_234
10
5.3276575
20
108.6527595
11
5.1790704
21
108.6527595
0
LINE
8
DEFAULT_255_1_234
10
5.6939048
20
108.2889218
11
5.380667
21
107.9491792
0
LINE
8
DEFAULT_255_1_234
10
5.380667
20
107.9491792
11
5.9677871
21
107.9491792
0
ARC
8
DEFAULT_255_1_234
10
4.2573422
20
109.5774527
40
1.8008286
50
318.5132453
51
320.7828378
0
ARC
8
DEFAULT_255_1_234
10
4.7860396
20
109.1471426
40
1.1191493
50
320.7372736
51
323.9737074
0
ARC
8
DEFAULT_255_1_234
10
5.1780252
20
108.8631361
40
0.6350923
50
323.8961724
51
328.6421089
0
ARC
8
DEFAULT_255_1_234
10
5.3826848
20
108.7369031
40
0.3946393
50
328.8299013
51
331.789948
0
ARC
8
DEFAULT_255_1_234
10
5.4824026
20
108.6854509
40
0.2824501
50
331.4255242
51
352.9364833
0
ARC
8
DEFAULT_255_1_234
10
5.4960527
20
108.6823976
40
0.2685315
50
353.2248685
51
0.0169286
0
ARC
8
DEFAULT_255_1_234
10
5.5170404
20
108.684695
40
0.2475536
50
359.4866256
51
15.9339782
0
ARC
8
DEFAULT_255_1_234
10
5.5677389
20
108.6983286
40
0.1950618
50
16.1714718
51
43.5284424
0
ARC
8
DEFAULT_255_1_234
10
5.5754698
20
108.7060573
40
0.184134
50
43.4415429
51
83.1661404
0
ARC
8
DEFAULT_255_1_234
10
5.5620616
20
108.6323771
40
0.258926
50
82.160215
51
90.1505798
0
ARC
8
DEFAULT_255_1_234
10
5.5589043
20
108.5786865
40
0.3126255
50
89.5460705
51
102.5418777
0
ARC
8
DEFAULT_255_1_234
10
5.5346129
20
108.6817665
40
0.2067346
50
102.1739365
51
129.2061916
0
ARC
8
DEFAULT_255_1_234
10
5.5267201
20
108.6942094
40
0.1921118
50
129.7279328
51
135.7542026
0
ARC
8
DEFAULT_255_1_234
10
5.5388729
20
108.6845045
40
0.2075944
50
136.175737
51
166.3674722
0
ARC
8
DEFAULT_255_1_234
10
5.6395648
20
108.6575182
40
0.3118201
50
165.9092917
51
178.8683903
0
ARC
8
DEFAULT_255_1_234
10
5.7260509
20
108.6528179
40
0.3983935
50
178.438168
51
180.0083905
0
ARC
8
DEFAULT_255_1_234
10
5.5859111
20
108.6567231
40
0.4068601
50
163.2878735
51
180.5581814
0
ARC
8
DEFAULT_255_1_234
10
5.5057373
20
108.678784
40
0.3237344
50
133.454115
51
162.9470031
0
ARC
8
DEFAULT_255_1_234
10
5.5235914
20
108.6598
40
0.349795
50
100.7869394
51
133.4384016
0
ARC
8
DEFAULT_255_1_234
10
5.5583686
20
108.5049319
40
0.5084616
50
89.6605301
51
101.3704185
0
ARC
8
DEFAULT_255_1_234
10
5.5650024
20
108.5110496
40
0.502348
50
78.2171172
51
90.4130393
0
ARC
8
DEFAULT_255_1_234
10
5.6005103
20
108.6734637
40
0.3361092
50
55.9268222
51
78.4888551
0
ARC
8
DEFAULT_255_1_234
10
5.6201543
20
108.7073324
40
0.2970617
50
47.9292255
51
55.4054003
0
ARC
8
DEFAULT_255_1_234
10
5.6303103
20
108.7176502
40
0.2825983
50
4.3347696
51
48.0560701
0
ARC
8
DEFAULT_255_1_234
10
5.5207497
20
108.7006601
40
0.393225
50
359.925209
51
5.5967654
0
ARC
8
DEFAULT_255_1_234
10
5.5636389
20
108.7062816
40
0.3503892
50
337.8914096
51
358.9967724
0
ARC
8
DEFAULT_255_1_234
10
5.2922801
20
108.8109706
40
0.6412172
50
326.9135351
51
338.3505194
0
ARC
8
DEFAULT_255_1_234
10
4.8937105
20
109.0664284
40
1.1146189
50
319.6472867
51
327.095818
0
ARC
8
DEFAULT_255_1_234
10
4.5104108
20
109.3826
40
1.6114559
50
317.2586784
51
319.9046139
0
LINE
8
DEFAULT_255_1_234
10
4.3000299
20
116.9348211
11
4.5819439
21
116.4866501
0
LINE
8
DEFAULT_255_1_234
10
4.5819439
20
116.4866501
11
4.8622516
21
116.9348211
0
LINE
8
DEFAULT_255_1_234
10
4.8622516
20
116.9348211
11
5.0437689
21
116.9348211
0
LINE
8
DEFAULT_255_1_234
10
5.0437689
20
116.9348211
11
4.6743089
21
116.3549296
0
LINE
8
DEFAULT_255_1_234
10
4.6743089
20
116.3549296
11
5.0526038
21
115.7654
0
LINE
8
DEFAULT_255_1_234
10
5.0526038
20
115.7654
11
4.8694802
21
115.7654
0
LINE
8
DEFAULT_255_1_234
10
4.8694802
20
115.7654
11
4.5819439
21
116.2216027
0
LINE
8
DEFAULT_255_1_234
10
4.5819439
20
116.2216027
11
4.2928014
21
115.7654
0
LINE
8
DEFAULT_255_1_234
10
4.2928014
20
115.7654
11
4.1104809
21
115.7654
0
LINE
8
DEFAULT_255_1_234
10
4.1104809
20
115.7654
11
4.489579
21
116.3549296
0
LINE
8
DEFAULT_255_1_234
10
4.489579
20
116.3549296
11
4.1193158
21
116.9348211
0
LINE
8
DEFAULT_255_1_234
10
4.1193158
20
116.9348211
11
4.3000299
21
116.9348211
0
LINE
8
DEFAULT_255_1_234
10
5.6814889
20
116.9404433
11
5.6814889
21
115.7654
0
LINE
8
DEFAULT_255_1_234
10
5.6814889
20
115.7654
11
5.5320986
21
115.7654
0
LINE
8
DEFAULT_255_1_234
10
5.5320986
20
115.7654
11
5.5320986
21
116.7557133
0
LINE
8
DEFAULT_255_1_234
10
5.5320986
20
116.7557133
11
5.2325147
21
116.6456785
0
LINE
8
DEFAULT_255_1_234
10
5.2325147
20
116.6456785
11
5.2325147
21
116.7806117
0
LINE
8
DEFAULT_255_1_234
10
5.2325147
20
116.7806117
11
5.6581969
21
116.9404433
0
LINE
8
DEFAULT_255_1_234
10
5.6581969
20
116.9404433
11
5.6814889
21
116.9404433
0
LINE
8
DEFAULT_255_1_234
10
4.3084299
20
124.8723211
11
4.5903439
21
124.4241501
0
LINE
8
DEFAULT_255_1_234
10
4.5903439
20
124.4241501
11
4.8706516
21
124.8723211
0
LINE
8
DEFAULT_255_1_234
10
4.8706516
20
124.8723211
11
5.0521689
21
124.8723211
0
LINE
8
DEFAULT_255_1_234
10
5.0521689
20
124.8723211
11
4.6827089
21
124.2924296
0
LINE
8
DEFAULT_255_1_234
10
4.6827089
20
124.2924296
11
5.0610038
21
123.7029
0
LINE
8
DEFAULT_255_1_234
10
5.0610038
20
123.7029
11
4.8778802
21
123.7029
0
LINE
8
DEFAULT_255_1_234
10
4.8778802
20
123.7029
11
4.5903439
21
124.1591027
0
LINE
8
DEFAULT_255_1_234
10
4.5903439
20
124.1591027
11
4.3012014
21
123.7029
0
LINE
8
DEFAULT_255_1_234
10
4.3012014
20
123.7029
11
4.1188809
21
123.7029
0
LINE
8
DEFAULT_255_1_234
10
4.1188809
20
123.7029
11
4.497979
21
124.2924296
0
LINE
8
DEFAULT_255_1_234
10
4.497979
20
124.2924296
11
4.1277158
21
124.8723211
0
LINE
8
DEFAULT_255_1_234
10
4.1277158
20
124.8723211
11
4.3084299
21
124.8723211
0
LINE
8
DEFAULT_255_1_234
10
5.9348569
20
124.3944327
11
5.9348569
21
124.2016709
0
LINE
8
DEFAULT_255_1_234
10
5.1967402
20
124.1815916
11
5.1967402
21
124.3799755
0
LINE
8
DEFAULT_255_1_234
10
5.7862698
20
124.1615123
11
5.7862698
21
124.4048739
0
LINE
8
DEFAULT_255_1_234
10
5.3453273
20
124.4161184
11
5.3453273
21
124.1783789
0
ARC
8
DEFAULT_255_1_234
10
4.7101459
20
124.1967805
40
1.2247208
50
353.8441951
51
0.2287902
0
ARC
8
DEFAULT_255_1_234
10
5.1740963
20
124.1449806
40
0.7578929
50
344.4934747
51
353.9765454
0
ARC
8
DEFAULT_255_1_234
10
5.4733553
20
124.0598981
40
0.4467846
50
329.2803592
51
344.7472793
0
ARC
8
DEFAULT_255_1_234
10
5.5726378
20
124.0054018
40
0.3336173
50
324.9352394
51
328.6160465
0
ARC
8
DEFAULT_255_1_234
10
5.6103486
20
123.9790427
40
0.2876076
50
280.580143
51
324.9173126
0
ARC
8
DEFAULT_255_1_234
10
5.5702279
20
124.1461099
40
0.4592847
50
269.5977311
51
281.6734359
0
ARC
8
DEFAULT_255_1_234
10
5.5630185
20
124.1341173
40
0.4472986
50
256.6228859
51
270.51044
0
ARC
8
DEFAULT_255_1_234
10
5.5228162
20
123.9792877
40
0.2873874
50
215.8618325
51
257.2788573
0
ARC
8
DEFAULT_255_1_234
10
5.6249194
20
124.0477977
40
0.4102928
50
197.9693508
51
215.2623606
0
ARC
8
DEFAULT_255_1_234
10
5.873431
20
124.1316709
40
0.6725652
50
187.8816417
51
198.2346507
0
ARC
8
DEFAULT_255_1_234
10
6.2692518
20
124.1888079
40
1.0724845
50
180.8976217
51
188.0055519
0
ARC
8
DEFAULT_255_1_234
10
6.5492706
20
124.1991777
40
1.3526448
50
180.7449369
51
181.1510016
0
ARC
8
DEFAULT_255_1_234
10
6.3915435
20
124.3848042
40
1.1948131
50
173.7675579
51
180.231553
0
ARC
8
DEFAULT_255_1_234
10
5.9397582
20
124.4358666
40
0.7401564
50
164.3058563
51
173.9002247
0
ARC
8
DEFAULT_255_1_234
10
5.648565
20
124.5197656
40
0.4371288
50
148.7922025
51
164.568378
0
ARC
8
DEFAULT_255_1_234
10
5.5534103
20
124.5728929
40
0.3282386
50
144.5883898
51
148.1176286
0
ARC
8
DEFAULT_255_1_234
10
5.5191001
20
124.5968315
40
0.2864044
50
101.6440918
51
144.514236
0
ARC
8
DEFAULT_255_1_234
10
5.5616067
20
124.4279069
40
0.4604934
50
89.5284041
51
102.5819763
0
ARC
8
DEFAULT_255_1_234
10
5.5695155
20
124.4240018
40
0.464401
50
77.0437873
51
90.5081339
0
ARC
8
DEFAULT_255_1_234
10
5.6097157
20
124.5882615
40
0.2953195
50
48.2778575
51
77.4994676
0
ARC
8
DEFAULT_255_1_234
10
5.6169788
20
124.6011746
40
0.2808655
50
36.3142134
51
47.6305865
0
ARC
8
DEFAULT_255_1_234
10
5.5301095
20
124.5426515
40
0.3855453
50
18.2931786
51
35.6769206
0
ARC
8
DEFAULT_255_1_234
10
5.2757854
20
124.4553593
40
0.654423
50
8.024666
51
18.5605216
0
ARC
8
DEFAULT_255_1_234
10
4.8594774
20
124.3938792
40
1.0752407
50
1.1274072
51
8.1718305
0
ARC
8
DEFAULT_255_1_234
10
4.5358964
20
124.3811885
40
1.3990231
50
0.5424119
51
1.3863029
0
ARC
8
DEFAULT_255_1_234
10
4.7180342
20
124.4084342
40
1.0682415
50
359.8090433
51
4.9407866
0
ARC
8
DEFAULT_255_1_234
10
5.1390356
20
124.4460113
40
0.6455691
50
4.8362157
51
12.2904523
0
ARC
8
DEFAULT_255_1_234
10
5.4145471
20
124.5073965
40
0.3633074
50
12.0805627
51
23.8173984
0
ARC
8
DEFAULT_255_1_234
10
5.5319176
20
124.5570919
40
0.2358723
50
24.2871213
51
31.3935614
0
ARC
8
DEFAULT_255_1_234
10
5.5843874
20
124.5914233
40
0.1732111
50
30.7407893
51
82.4657128
0
ARC
8
DEFAULT_255_1_234
10
5.5664008
20
124.5030691
40
0.263235
50
81.1060089
51
90.2184952
0
ARC
8
DEFAULT_255_1_234
10
5.5628307
20
124.5288924
40
0.2374236
50
89.3806855
51
105.6762551
0
ARC
8
DEFAULT_255_1_234
10
5.5444938
20
124.5955567
40
0.1682847
50
105.7981136
51
149.7388061
0
ARC
8
DEFAULT_255_1_234
10
5.6509016
20
124.531595
40
0.2924306
50
149.4208916
51
163.6286378
0
ARC
8
DEFAULT_255_1_234
10
5.8599904
20
124.467825
40
0.5110213
50
163.3763315
51
172.1410975
0
ARC
8
DEFAULT_255_1_234
10
6.1900623
20
124.4205518
40
0.8444586
50
172.0259487
51
178.0703232
0
ARC
8
DEFAULT_255_1_234
10
6.4930712
20
124.4061906
40
1.1477868
50
177.8631668
51
179.5044149
0
ARC
8
DEFAULT_255_1_234
10
6.3858117
20
124.1747389
40
1.0404907
50
179.7995573
51
185.2460446
0
ARC
8
DEFAULT_255_1_234
10
5.9815156
20
124.1364513
40
0.6343885
50
185.1411642
51
193.0079639
0
ARC
8
DEFAULT_255_1_234
10
5.7171629
20
124.0739641
40
0.3627568
50
192.7897626
51
205.2507664
0
ARC
8
DEFAULT_255_1_234
10
5.6125176
20
124.0272415
40
0.2481908
50
205.8005384
51
211.2537509
0
ARC
8
DEFAULT_255_1_234
10
5.5601616
20
123.992158
40
0.1852521
50
210.3789793
51
238.4008143
0
ARC
8
DEFAULT_255_1_234
10
5.5582138
20
123.9968376
40
0.1882621
50
239.6520629
51
265.9793761
0
ARC
8
DEFAULT_255_1_234
10
5.5667338
20
124.0640427
40
0.2559272
50
265.1315437
51
270.060332
0
ARC
8
DEFAULT_255_1_234
10
5.5696117
20
124.0316534
40
0.2235528
50
269.3314664
51
287.2178029
0
ARC
8
DEFAULT_255_1_234
10
5.5833969
20
123.9813279
40
0.1714108
50
287.7958004
51
329.080874
0
ARC
8
DEFAULT_255_1_234
10
5.4876426
20
124.041093
40
0.2842745
50
328.6634704
51
343.3325132
0
ARC
8
DEFAULT_255_1_234
10
5.2703446
20
124.1087863
40
0.5118644
50
343.0499468
51
351.9393422
0
ARC
8
DEFAULT_255_1_234
10
4.9236746
20
124.1598949
40
0.8622784
50
351.8069023
51
357.7959224
0
ARC
8
DEFAULT_255_1_234
10
4.6001302
20
124.1766721
40
1.1862365
50
357.5871873
51
359.2677531
0
LINE
8
DEFAULT_255_1_234
10
4.5787137
20
132.8154433
11
4.5787137
21
131.6404
0
LINE
8
DEFAULT_255_1_234
10
4.5787137
20
131.6404
11
4.4293234
21
131.6404
0
LINE
8
DEFAULT_255_1_234
10
4.4293234
20
131.6404
11
4.4293234
21
132.6307133
0
LINE
8
DEFAULT_255_1_234
10
4.4293234
20
132.6307133
11
4.1297396
21
132.5206785
0
LINE
8
DEFAULT_255_1_234
10
4.1297396
20
132.5206785
11
4.1297396
21
132.6556117
0
LINE
8
DEFAULT_255_1_234
10
4.1297396
20
132.6556117
11
4.5554217
21
132.8154433
0
LINE
8
DEFAULT_255_1_234
10
4.5554217
20
132.8154433
11
4.5787137
21
132.8154433
0
LINE
8
DEFAULT_255_1_234
10
5.7577729
20
132.0114663
11
5.9127854
21
132.0114663
0
LINE
8
DEFAULT_255_1_234
10
5.0124276
20
132.1704947
11
5.0124276
21
132.2829391
0
LINE
8
DEFAULT_255_1_234
10
5.9127854
20
132.4339357
11
5.7577729
21
132.4339357
0
LINE
8
DEFAULT_255_1_234
10
5.1674401
20
132.2789232
11
5.1674401
21
132.1656757
0
ARC
8
DEFAULT_255_1_234
10
5.3647241
20
132.0711846
40
0.5513052
50
340.1774281
51
353.7814284
0
ARC
8
DEFAULT_255_1_234
10
5.5218594
20
132.0126582
40
0.3836379
50
311.4558989
51
340.4421614
0
ARC
8
DEFAULT_255_1_234
10
5.5185262
20
132.0237528
40
0.3941894
50
282.4333181
51
310.7513653
0
ARC
8
DEFAULT_255_1_234
10
5.4746001
20
132.2052679
40
0.5809175
50
269.9358511
51
282.809604
0
ARC
8
DEFAULT_255_1_234
10
5.4694067
20
132.3510212
40
0.7266847
50
270.0021091
51
270.3581957
0
ARC
8
DEFAULT_255_1_234
10
5.4641484
20
132.0909585
40
0.4666519
50
250.7884749
51
270.6489167
0
ARC
8
DEFAULT_255_1_234
10
5.4473319
20
132.0272319
40
0.4009729
50
219.3627325
51
250.0611886
0
ARC
8
DEFAULT_255_1_234
10
5.530253
20
132.0977042
40
0.5097822
50
193.5479632
51
219.5756669
0
ARC
8
DEFAULT_255_1_234
10
5.7674151
20
132.1592919
40
0.7547848
50
181.1218675
51
193.87563
0
ARC
8
DEFAULT_255_1_234
10
5.9744332
20
132.170358
40
0.9620055
50
179.9918545
51
181.5394234
0
ARC
8
DEFAULT_255_1_234
10
5.7893434
20
132.2866788
40
0.7769248
50
169.5837241
51
180.2757934
0
ARC
8
DEFAULT_255_1_234
10
5.6056372
20
132.3206229
40
0.590109
50
155.0365899
51
169.6003176
0
ARC
8
DEFAULT_255_1_234
10
5.4920836
20
132.3753677
40
0.4640625
50
136.783148
51
155.2472683
0
ARC
8
DEFAULT_255_1_234
10
5.4531313
20
132.4084562
40
0.4130255
50
121.7633186
51
136.428115
0
ARC
8
DEFAULT_255_1_234
10
5.4666275
20
132.3835227
40
0.4413323
50
95.6459699
51
121.5490577
0
ARC
8
DEFAULT_255_1_234
10
5.4823557
20
132.2726949
40
0.55319
50
89.924208
51
96.1377933
0
ARC
8
DEFAULT_255_1_234
10
5.487399
20
132.2845542
40
0.5413475
50
76.6779277
51
90.4563316
0
ARC
8
DEFAULT_255_1_234
10
5.5267613
20
132.4436114
40
0.3775041
50
47.485847
51
76.9287264
0
ARC
8
DEFAULT_255_1_234
10
5.5120586
20
132.4336159
40
0.3948286
50
16.5424086
51
46.8933463
0
ARC
8
DEFAULT_255_1_234
10
5.3512743
20
132.3807861
40
0.564021
50
5.4072051
51
17.0365086
0
ARC
8
DEFAULT_255_1_234
10
5.207376
20
132.3576679
40
0.5556559
50
7.8891745
51
15.9239216
0
ARC
8
DEFAULT_255_1_234
10
5.4060773
20
132.4153631
40
0.3487515
50
15.7653144
51
27.9410532
0
ARC
8
DEFAULT_255_1_234
10
5.5164991
20
132.474479
40
0.2235026
50
27.8166557
51
46.4008329
0
ARC
8
DEFAULT_255_1_234
10
5.5214634
20
132.4739082
40
0.2205286
50
47.4371857
51
75.0698205
0
ARC
8
DEFAULT_255_1_234
10
5.4906029
20
132.3664765
40
0.3322915
50
74.7008593
51
87.8124495
0
ARC
8
DEFAULT_255_1_234
10
5.4832716
20
132.2608844
40
0.4380987
50
87.3814673
51
90.0240855
0
ARC
8
DEFAULT_255_1_234
10
5.4794259
20
132.3786291
40
0.3203749
50
89.3451631
51
108.5745436
0
ARC
8
DEFAULT_255_1_234
10
5.4657365
20
132.4299908
40
0.2673494
50
109.2998449
51
143.3037509
0
ARC
8
DEFAULT_255_1_234
10
5.5419437
20
132.3713881
40
0.3634757
50
143.0753173
51
163.1916937
0
ARC
8
DEFAULT_255_1_234
10
5.7371165
20
132.3097967
40
0.5681262
50
162.9373603
51
174.6208611
0
ARC
8
DEFAULT_255_1_234
10
5.9997207
20
132.281001
40
0.8322832
50
174.3419979
51
180.1430411
0
ARC
8
DEFAULT_255_1_234
10
5.9066363
20
132.1615698
40
0.7392076
50
179.6817502
51
189.150529
0
ARC
8
DEFAULT_255_1_234
10
5.6565611
20
132.119919
40
0.4856932
50
188.9910863
51
203.5773039
0
ARC
8
DEFAULT_255_1_234
10
5.5485944
20
132.0751211
40
0.3688271
50
203.9077269
51
215.1312379
0
ARC
8
DEFAULT_255_1_234
10
5.4563038
20
132.0035941
40
0.2522457
50
213.9071664
51
263.8849284
0
ARC
8
DEFAULT_255_1_234
10
5.4688367
20
132.0820518
40
0.3316174
50
263.1758525
51
270.1031083
0
ARC
8
DEFAULT_255_1_234
10
5.4720459
20
132.2067365
40
0.4563091
50
269.6719807
51
279.0609165
0
ARC
8
DEFAULT_255_1_234
10
5.4987227
20
132.0454907
40
0.2928759
50
278.8750225
51
293.6346586
0
ARC
8
DEFAULT_255_1_234
10
5.5307435
20
131.97029
40
0.2111472
50
293.8553404
51
310.0518804
0
ARC
8
DEFAULT_255_1_234
10
5.5312289
20
131.9640516
40
0.2060917
50
311.0646779
51
332.0108348
0
ARC
8
DEFAULT_255_1_234
10
5.4120016
20
132.0297978
40
0.3422352
50
331.6588543
51
343.2878891
0
ARC
8
DEFAULT_255_1_234
10
5.2057531
20
132.0931798
40
0.5580003
50
343.1446044
51
351.010618
0
ARC
8
DEFAULT_255_1_234
10
5.0516177
20
132.1212871
40
0.7146438
50
350.7157277
51
351.1602153
0
LINE
8
DEFAULT_255_1_234
10
4.2610522
20
140.7473211
11
4.5935662
21
139.7827093
0
LINE
8
DEFAULT_255_1_234
10
4.5935662
20
139.7827093
11
4.9276865
21
140.7473211
0
LINE
8
DEFAULT_255_1_234
10
4.9276865
20
140.7473211
11
5.096353
21
140.7473211
0
LINE
8
DEFAULT_255_1_234
10
5.096353
20
140.7473211
11
4.6626391
21
139.5779
0
LINE
8
DEFAULT_255_1_234
10
4.6626391
20
139.5779
11
4.5260996
21
139.5779
0
LINE
8
DEFAULT_255_1_234
10
4.5260996
20
139.5779
11
4.0931889
21
140.7473211
0
LINE
8
DEFAULT_255_1_234
10
4.0931889
20
140.7473211
11
4.2610522
21
140.7473211
0
LINE
8
DEFAULT_255_1_234
10
5.655362
20
140.5465276
11
5.655362
21
140.2051788
0
LINE
8
DEFAULT_255_1_234
10
5.655362
20
140.2051788
11
5.9814505
21
140.2051788
0
LINE
8
DEFAULT_255_1_234
10
5.9814505
20
140.2051788
11
5.9814505
21
140.0646233
0
LINE
8
DEFAULT_255_1_234
10
5.9814505
20
140.0646233
11
5.655362
21
140.0646233
0
LINE
8
DEFAULT_255_1_234
10
5.655362
20
140.0646233
11
5.655362
21
139.6951634
0
LINE
8
DEFAULT_255_1_234
10
5.655362
20
139.6951634
11
5.5059716
21
139.6951634
0
LINE
8
DEFAULT_255_1_234
10
5.5059716
20
139.6951634
11
5.5059716
21
140.0646233
0
LINE
8
DEFAULT_255_1_234
10
5.5059716
20
140.0646233
11
5.1798831
21
140.0646233
0
LINE
8
DEFAULT_255_1_234
10
5.1798831
20
140.0646233
11
5.1798831
21
140.2051788
0
LINE
8
DEFAULT_255_1_234
10
5.1798831
20
140.2051788
11
5.5059716
21
140.2051788
0
LINE
8
DEFAULT_255_1_234
10
5.5059716
20
140.2051788
11
5.5059716
21
140.5465276
0
LINE
8
DEFAULT_255_1_234
10
5.5059716
20
140.5465276
11
5.655362
21
140.5465276
0
LINE
8
DEFAULT_255_1_234
10
24.2614879
20
148.6848211
11
24.2614879
21
147.5154
0
LINE
8
DEFAULT_255_1_234
10
24.2614879
20
147.5154
11
24.1064753
21
147.5154
0
LINE
8
DEFAULT_255_1_234
10
24.1064753
20
147.5154
11
23.5177489
21
148.416561
0
LINE
8
DEFAULT_255_1_234
10
23.5177489
20
148.416561
11
23.5177489
21
147.5154
0
LINE
8
DEFAULT_255_1_234
10
23.5177489
20
147.5154
11
23.3627364
21
147.5154
0
LINE
8
DEFAULT_255_1_234
10
23.3627364
20
147.5154
11
23.3627364
21
148.6848211
0
LINE
8
DEFAULT_255_1_234
10
23.3627364
20
148.6848211
11
23.5177489
21
148.6848211
0
LINE
8
DEFAULT_255_1_234
10
23.5177489
20
148.6848211
11
24.1080817
21
147.7796442
0
LINE
8
DEFAULT_255_1_234
10
24.1080817
20
147.7796442
11
24.1080817
21
148.6848211
0
LINE
8
DEFAULT_255_1_234
10
24.1080817
20
148.6848211
11
24.2614879
21
148.6848211
0
LINE
8
DEFAULT_255_1_234
10
21.9710484
20
5.3070343
11
21.9710484
21
5.180936
0
LINE
8
DEFAULT_255_1_234
10
21.9710484
20
5.180936
11
21.4642458
21
5.180936
0
LINE
8
DEFAULT_255_1_234
10
21.4642458
20
5.180936
11
21.4642458
21
4.7664983
0
LINE
8
DEFAULT_255_1_234
10
21.4642458
20
4.7664983
11
22.0529722
21
4.7664983
0
LINE
8
DEFAULT_255_1_234
10
22.0529722
20
4.7664983
11
22.0529722
21
4.6404
0
LINE
8
DEFAULT_255_1_234
10
22.0529722
20
4.6404
11
21.3100364
21
4.6404
0
LINE
8
DEFAULT_255_1_234
10
21.3100364
20
4.6404
11
21.3100364
21
5.8098211
0
LINE
8
DEFAULT_255_1_234
10
21.3100364
20
5.8098211
11
22.0449404
21
5.8098211
0
LINE
8
DEFAULT_255_1_234
10
22.0449404
20
5.8098211
11
22.0449404
21
5.6829196
0
LINE
8
DEFAULT_255_1_234
10
22.0449404
20
5.6829196
11
21.4642458
21
5.6829196
0
LINE
8
DEFAULT_255_1_234
10
21.4642458
20
5.6829196
11
21.4642458
21
5.3070343
0
LINE
8
DEFAULT_255_1_234
10
21.4642458
20
5.3070343
11
21.9710484
21
5.3070343
0
LINE
8
DEFAULT_255_1_234
10
23.0689871
20
5.8098211
11
23.0689871
21
5.6829196
0
LINE
8
DEFAULT_255_1_234
10
23.0689871
20
5.6829196
11
22.6931017
21
5.6829196
0
LINE
8
DEFAULT_255_1_234
10
22.6931017
20
5.6829196
11
22.6931017
21
4.6404
0
LINE
8
DEFAULT_255_1_234
10
22.6931017
20
4.6404
11
22.5396955
21
4.6404
0
LINE
8
DEFAULT_255_1_234
10
22.5396955
20
4.6404
11
22.5396955
21
5.6829196
0
LINE
8
DEFAULT_255_1_234
10
22.5396955
20
5.6829196
11
22.1646133
21
5.6829196
0
LINE
8
DEFAULT_255_1_234
10
22.1646133
20
5.6829196
11
22.1646133
21
5.8098211
0
LINE
8
DEFAULT_255_1_234
10
22.1646133
20
5.8098211
11
23.0689871
21
5.8098211
0
LINE
8
DEFAULT_255_1_234
10
24.1412241
20
5.8098211
11
24.1412241
21
4.6404
0
LINE
8
DEFAULT_255_1_234
10
24.1412241
20
4.6404
11
23.9862116
21
4.6404
0
LINE
8
DEFAULT_255_1_234
10
23.9862116
20
4.6404
11
23.9862116
21
5.180936
0
LINE
8
DEFAULT_255_1_234
10
23.9862116
20
5.180936
11
23.396682
21
5.180936
0
LINE
8
DEFAULT_255_1_234
10
23.396682
20
5.180936
11
23.396682
21
4.6404
0
LINE
8
DEFAULT_255_1_234
10
23.396682
20
4.6404
11
23.2424726
21
4.6404
0
LINE
8
DEFAULT_255_1_234
10
23.2424726
20
4.6404
11
23.2424726
21
5.8098211
0
LINE
8
DEFAULT_255_1_234
10
23.2424726
20
5.8098211
11
23.396682
21
5.8098211
0
LINE
8
DEFAULT_255_1_234
10
23.396682
20
5.8098211
11
23.396682
21
5.3070343
0
LINE
8
DEFAULT_255_1_234
10
23.396682
20
5.3070343
11
23.9862116
21
5.3070343
0
LINE
8
DEFAULT_255_1_234
10
23.9862116
20
5.3070343
11
23.9862116
21
5.8098211
0
LINE
8
DEFAULT_255_1_234
10
23.9862116
20
5.8098211
11
24.1412241
21
5.8098211
0
LINE
8
DEFAULT_255_1_234
10
21.8620482
20
13.160201
11
21.8620482
21
12.7313062
0
LINE
8
DEFAULT_255_1_234
10
20.9608872
20
13.1063884
11
20.9608872
21
13.2083915
0
LINE
8
DEFAULT_255_1_234
10
21.8620482
20
13.4043659
11
21.7078389
21
13.4043659
0
LINE
8
DEFAULT_255_1_234
10
21.1158998
20
13.2124073
11
21.1158998
21
13.1168296
0
LINE
8
DEFAULT_255_1_234
10
21.708642
20
12.7722681
11
21.708642
21
13.0349059
0
LINE
8
DEFAULT_255_1_234
10
21.708642
20
13.0349059
11
21.4379725
21
13.0349059
0
LINE
8
DEFAULT_255_1_234
10
21.4379725
20
13.0349059
11
21.4379725
21
13.160201
0
LINE
8
DEFAULT_255_1_234
10
21.4379725
20
13.160201
11
21.8620482
21
13.160201
0
ARC
8
DEFAULT_255_1_234
10
21.5788989
20
12.9306396
40
0.3462765
50
295.8437914
51
324.8549609
0
ARC
8
DEFAULT_255_1_234
10
21.5372956
20
13.0059567
40
0.4322211
50
291.5695085
51
296.4549398
0
ARC
8
DEFAULT_255_1_234
10
21.4862207
20
13.1424275
40
0.5779178
50
278.6622409
51
291.3045483
0
ARC
8
DEFAULT_255_1_234
10
21.4522699
20
13.3572408
40
0.7953952
50
270.020006
51
278.7494541
0
ARC
8
DEFAULT_255_1_234
10
21.4484623
20
13.4889036
40
0.927067
50
269.9969998
51
270.2524872
0
ARC
8
DEFAULT_255_1_234
10
21.4446336
20
13.0805589
40
0.5187361
50
253.5786322
51
270.4175299
0
ARC
8
DEFAULT_255_1_234
10
21.4272992
20
13.0134236
40
0.4494451
50
238.8203306
51
253.2788235
0
ARC
8
DEFAULT_255_1_234
10
21.4253365
20
13.0083231
40
0.4440665
50
206.7883783
51
238.6962764
0
ARC
8
DEFAULT_255_1_234
10
21.5027275
20
13.0547405
40
0.5341121
50
206.1129412
51
207.4916643
0
ARC
8
DEFAULT_255_1_234
10
21.562419
20
13.0801488
40
0.5989041
50
188.6921119
51
205.7821245
0
ARC
8
DEFAULT_255_1_234
10
21.7480552
20
13.111723
40
0.7871862
50
180.3882829
51
188.9219216
0
ARC
8
DEFAULT_255_1_234
10
21.8708366
20
13.2140464
40
0.909967
50
170.2024264
51
180.3560651
0
ARC
8
DEFAULT_255_1_234
10
21.5544884
20
13.2706237
40
0.5886083
50
154.2857445
51
170.3893044
0
ARC
8
DEFAULT_255_1_234
10
21.4263087
20
13.329295
40
0.4476743
50
139.8401567
51
153.9332699
0
ARC
8
DEFAULT_255_1_234
10
21.3903823
20
13.3580577
40
0.4016697
50
98.4190291
51
139.6707122
0
ARC
8
DEFAULT_255_1_234
10
21.4283341
20
13.1735328
40
0.5898566
50
89.7659205
51
99.4415478
0
ARC
8
DEFAULT_255_1_234
10
21.434859
20
13.1800844
40
0.5833147
50
78.0551672
51
90.4042112
0
ARC
8
DEFAULT_255_1_234
10
21.47531
20
13.3619644
40
0.3970055
50
54.6380464
51
78.3339173
0
ARC
8
DEFAULT_255_1_234
10
21.4943156
20
13.3939795
40
0.3599102
50
50.031736
51
54.1558201
0
ARC
8
DEFAULT_255_1_234
10
21.4835944
20
13.3843766
40
0.3741624
50
18.1092409
51
49.7180913
0
ARC
8
DEFAULT_255_1_234
10
21.3379144
20
13.3310089
40
0.5292424
50
7.9672797
51
18.6984571
0
ARC
8
DEFAULT_255_1_234
10
21.3529622
20
13.3433504
40
0.3600838
50
9.7557294
51
27.3215714
0
ARC
8
DEFAULT_255_1_234
10
21.4657094
20
13.3996912
40
0.2340608
50
27.7361077
51
84.5257964
0
ARC
8
DEFAULT_255_1_234
10
21.4329481
20
13.235364
40
0.4011215
50
82.106034
51
90.2001166
0
ARC
8
DEFAULT_255_1_234
10
21.4279698
20
13.2861215
40
0.3503799
50
89.4150119
51
105.5823402
0
ARC
8
DEFAULT_255_1_234
10
21.4022696
20
13.3796867
40
0.2533503
50
105.6678618
51
144.2648758
0
ARC
8
DEFAULT_255_1_234
10
21.4915951
20
13.3161289
40
0.3629787
50
144.3561283
51
162.8564086
0
ARC
8
DEFAULT_255_1_234
10
21.699986
20
13.2492017
40
0.5818441
50
162.6076014
51
173.6780284
0
ARC
8
DEFAULT_255_1_234
10
22.0061004
20
13.211989
40
0.8902007
50
173.4670142
51
179.9730753
0
ARC
8
DEFAULT_255_1_234
10
21.8152675
20
13.112626
40
0.6993804
50
179.6556203
51
190.0080463
0
ARC
8
DEFAULT_255_1_234
10
21.5836504
20
13.0701375
40
0.4639066
50
189.8116607
51
206.6796816
0
ARC
8
DEFAULT_255_1_234
10
21.4991656
20
13.0307503
40
0.3707421
50
207.1031645
51
217.7074368
0
ARC
8
DEFAULT_255_1_234
10
21.4357345
20
12.9755559
40
0.2868417
50
216.7345547
51
265.6812148
0
ARC
8
DEFAULT_255_1_234
10
21.4488136
20
13.0659855
40
0.3780509
50
264.7366618
51
270.0611241
0
ARC
8
DEFAULT_255_1_234
10
21.4511399
20
13.3500111
40
0.662079
50
269.8335834
51
276.0539546
0
ARC
8
DEFAULT_255_1_234
10
21.4718404
20
13.159856
40
0.4708016
50
275.9894168
51
284.4615085
0
ARC
8
DEFAULT_255_1_234
10
21.4916411
20
13.0765663
40
0.3852094
50
284.7034461
51
286.4953897
0
ARC
8
DEFAULT_255_1_234
10
21.5323424
20
12.9454965
40
0.2479842
50
286.0770838
51
304.2625829
0
ARC
8
DEFAULT_255_1_234
10
21.5456838
20
12.9236594
40
0.2224291
50
304.5891602
51
317.1073298
0
LINE
8
DEFAULT_255_1_234
10
23.0178154
20
13.7473211
11
23.0178154
21
12.5779
0
LINE
8
DEFAULT_255_1_234
10
23.0178154
20
12.5779
11
22.8628028
21
12.5779
0
LINE
8
DEFAULT_255_1_234
10
22.8628028
20
12.5779
11
22.2740764
21
13.479061
0
LINE
8
DEFAULT_255_1_234
10
22.2740764
20
13.479061
11
22.2740764
21
12.5779
0
LINE
8
DEFAULT_255_1_234
10
22.2740764
20
12.5779
11
22.1190639
21
12.5779
0
LINE
8
DEFAULT_255_1_234
10
22.1190639
20
12.5779
11
22.1190639
21
13.7473211
0
LINE
8
DEFAULT_255_1_234
10
22.1190639
20
13.7473211
11
22.2740764
21
13.7473211
0
LINE
8
DEFAULT_255_1_234
10
22.2740764
20
13.7473211
11
22.8644092
21
12.8421442
0
LINE
8
DEFAULT_255_1_234
10
22.8644092
20
12.8421442
11
22.8644092
21
13.7473211
0
LINE
8
DEFAULT_255_1_234
10
22.8644092
20
13.7473211
11
23.0178154
21
13.7473211
0
LINE
8
DEFAULT_255_1_234
10
23.6153767
20
12.5779
11
23.2916977
21
12.5779
0
LINE
8
DEFAULT_255_1_234
10
23.2916977
20
12.5779
11
23.2916977
21
13.7473211
0
LINE
8
DEFAULT_255_1_234
10
23.2916977
20
13.7473211
11
23.6218021
21
13.7473211
0
LINE
8
DEFAULT_255_1_234
10
24.1374397
20
13.2019661
11
24.1374397
21
13.1272709
0
LINE
8
DEFAULT_255_1_234
10
23.625818
20
13.6204196
11
23.445907
21
13.6204196
0
LINE
8
DEFAULT_255_1_234
10
23.445907
20
13.6204196
11
23.445907
21
12.7039983
0
LINE
8
DEFAULT_255_1_234
10
23.445907
20
12.7039983
11
23.6081481
21
12.7039983
0
LINE
8
DEFAULT_255_1_234
10
23.9848367
20
13.1304836
11
23.9848367
21
13.1987534
0
ARC
8
DEFAULT_255_1_234
10
23.6256963
20
13.1607894
40
0.5865446
50
75.4101064
51
90.3804066
0
ARC
8
DEFAULT_255_1_234
10
23.6486477
20
13.2564492
40
0.4881916
50
60.145586
51
75.1888407
0
ARC
8
DEFAULT_255_1_234
10
23.6645252
20
13.2841199
40
0.4562893
50
26.5253612
51
60.1450928
0
ARC
8
DEFAULT_255_1_234
10
23.5525002
20
13.2247158
40
0.5830602
50
7.4030428
51
26.8320788
0
ARC
8
DEFAULT_255_1_234
10
23.3930758
20
13.1998804
40
0.7443669
50
0.1605367
51
7.7176192
0
ARC
8
DEFAULT_255_1_234
10
23.4094663
20
13.1234434
40
0.7279835
50
348.7289388
51
0.3012466
0
ARC
8
DEFAULT_255_1_234
10
23.5751093
20
13.0905386
40
0.559104
50
333.0706509
51
348.7181832
0
ARC
8
DEFAULT_255_1_234
10
23.6717851
20
13.0380319
40
0.4491417
50
299.2531685
51
333.4571258
0
ARC
8
DEFAULT_255_1_234
10
23.6356991
20
13.1065828
40
0.5265881
50
278.107187
51
299.0339503
0
ARC
8
DEFAULT_255_1_234
10
23.610107
20
13.2573216
40
0.679442
50
270.4443897
51
278.4511052
0
ARC
8
DEFAULT_255_1_234
10
23.61219
20
13.1644213
40
0.4604407
50
269.4970433
51
284.0205042
0
ARC
8
DEFAULT_255_1_234
10
23.6477201
20
13.0278978
40
0.3193797
50
283.7700273
51
318.1555492
0
ARC
8
DEFAULT_255_1_234
10
23.6139959
20
13.0531367
40
0.3613588
50
318.7415601
51
343.6873628
0
ARC
8
DEFAULT_255_1_234
10
23.4335982
20
13.1094832
40
0.5503313
50
343.3325091
51
355.8548958
0
ARC
8
DEFAULT_255_1_234
10
23.2237666
20
13.1294319
40
0.7610708
50
355.4988528
51
0.0791727
0
ARC
8
DEFAULT_255_1_234
10
23.3020289
20
13.202978
40
0.6828208
50
359.6455037
51
9.8607896
0
ARC
8
DEFAULT_255_1_234
10
23.5380987
20
13.2456099
40
0.4429406
50
9.6571907
51
26.1932807
0
ARC
8
DEFAULT_255_1_234
10
23.6308975
20
13.2887118
40
0.3406537
50
26.5777228
51
40.1532208
0
ARC
8
DEFAULT_255_1_234
10
23.6564702
20
13.3086619
40
0.308246
50
40.3840491
51
80.1431104
0
ARC
8
DEFAULT_255_1_234
10
23.623782
20
13.1637333
40
0.4566909
50
79.2152159
51
89.7445637
0
LINE
8
DEFAULT_255_1_234
10
23.2440154
20
20.5154
11
22.9203364
21
20.5154
0
LINE
8
DEFAULT_255_1_234
10
22.9203364
20
20.5154
11
22.9203364
21
21.6848211
0
LINE
8
DEFAULT_255_1_234
10
22.9203364
20
21.6848211
11
23.2504408
21
21.6848211
0
LINE
8
DEFAULT_255_1_234
10
23.7660784
20
21.1394661
11
23.7660784
21
21.0647709
0
LINE
8
DEFAULT_255_1_234
10
23.2544567
20
21.5579196
11
23.0745458
21
21.5579196
0
LINE
8
DEFAULT_255_1_234
10
23.0745458
20
21.5579196
11
23.0745458
21
20.6414983
0
LINE
8
DEFAULT_255_1_234
10
23.0745458
20
20.6414983
11
23.2367869
21
20.6414983
0
LINE
8
DEFAULT_255_1_234
10
23.6134754
20
21.0679836
11
23.6134754
21
21.1362534
0
ARC
8
DEFAULT_255_1_234
10
23.2543351
20
21.0982894
40
0.5865446
50
75.4101064
51
90.3804066
0
ARC
8
DEFAULT_255_1_234
10
23.2772864
20
21.1939492
40
0.4881916
50
60.145586
51
75.1888407
0
ARC
8
DEFAULT_255_1_234
10
23.293164
20
21.2216199
40
0.4562893
50
26.5253612
51
60.1450928
0
ARC
8
DEFAULT_255_1_234
10
23.1811389
20
21.1622158
40
0.5830602
50
7.4030428
51
26.8320788
0
ARC
8
DEFAULT_255_1_234
10
23.0217146
20
21.1373804
40
0.7443669
50
0.1605367
51
7.7176192
0
ARC
8
DEFAULT_255_1_234
10
23.038105
20
21.0609434
40
0.7279835
50
348.7289388
51
0.3012466
0
ARC
8
DEFAULT_255_1_234
10
23.2037481
20
21.0280386
40
0.559104
50
333.0706509
51
348.7181832
0
ARC
8
DEFAULT_255_1_234
10
23.3004238
20
20.9755319
40
0.4491417
50
299.2531685
51
333.4571258
0
ARC
8
DEFAULT_255_1_234
10
23.2643378
20
21.0440828
40
0.5265881
50
278.107187
51
299.0339503
0
ARC
8
DEFAULT_255_1_234
10
23.2387457
20
21.1948216
40
0.679442
50
270.4443897
51
278.4511052
0
ARC
8
DEFAULT_255_1_234
10
23.2408287
20
21.1019213
40
0.4604407
50
269.4970433
51
284.0205042
0
ARC
8
DEFAULT_255_1_234
10
23.2763588
20
20.9653978
40
0.3193797
50
283.7700273
51
318.1555492
0
ARC
8
DEFAULT_255_1_234
10
23.2426346
20
20.9906367
40
0.3613588
50
318.7415601
51
343.6873628
0
ARC
8
DEFAULT_255_1_234
10
23.0622369
20
21.0469832
40
0.5503313
50
343.3325091
51
355.8548958
0
ARC
8
DEFAULT_255_1_234
10
22.8524054
20
21.0669319
40
0.7610708
50
355.4988528
51
0.0791727
0
ARC
8
DEFAULT_255_1_234
10
22.9306676
20
21.140478
40
0.6828208
50
359.6455037
51
9.8607896
0
ARC
8
DEFAULT_255_1_234
10
23.1667374
20
21.1831099
40
0.4429406
50
9.6571907
51
26.1932807
0
ARC
8
DEFAULT_255_1_234
10
23.2595363
20
21.2262118
40
0.3406537
50
26.5777228
51
40.1532208
0
ARC
8
DEFAULT_255_1_234
10
23.2851089
20
21.2461619
40
0.308246
50
40.3840491
51
80.1431104
0
ARC
8
DEFAULT_255_1_234
10
23.2524207
20
21.1012333
40
0.4566909
50
79.2152159
51
89.7445637
0
LINE
8
DEFAULT_255_1_234
10
24.2849287
20
21.0728026
11
24.2849287
21
20.9515234
0
LINE
8
DEFAULT_255_1_234
10
24.2849287
20
20.9515234
11
23.8929799
21
20.9515234
0
LINE
8
DEFAULT_255_1_234
10
23.8929799
20
20.9515234
11
23.8929799
21
21.0728026
0
LINE
8
DEFAULT_255_1_234
10
23.8929799
20
21.0728026
11
24.2849287
21
21.0728026
0
LINE
8
DEFAULT_255_1_234
10
22.7926154
20
28.4529
11
22.4689364
21
28.4529
0
LINE
8
DEFAULT_255_1_234
10
22.4689364
20
28.4529
11
22.4689364
21
29.6223211
0
LINE
8
DEFAULT_255_1_234
10
22.4689364
20
29.6223211
11
22.7990408
21
29.6223211
0
LINE
8
DEFAULT_255_1_234
10
23.3146784
20
29.0769661
11
23.3146784
21
29.0022709
0
LINE
8
DEFAULT_255_1_234
10
22.8030567
20
29.4954196
11
22.6231458
21
29.4954196
0
LINE
8
DEFAULT_255_1_234
10
22.6231458
20
29.4954196
11
22.6231458
21
28.5789983
0
LINE
8
DEFAULT_255_1_234
10
22.6231458
20
28.5789983
11
22.7853869
21
28.5789983
0
LINE
8
DEFAULT_255_1_234
10
23.1620754
20
29.0054836
11
23.1620754
21
29.0737534
0
ARC
8
DEFAULT_255_1_234
10
22.8029351
20
29.0357894
40
0.5865446
50
75.4101064
51
90.3804066
0
ARC
8
DEFAULT_255_1_234
10
22.8258864
20
29.1314492
40
0.4881916
50
60.145586
51
75.1888407
0
ARC
8
DEFAULT_255_1_234
10
22.841764
20
29.1591199
40
0.4562893
50
26.5253612
51
60.1450928
0
ARC
8
DEFAULT_255_1_234
10
22.7297389
20
29.0997158
40
0.5830602
50
7.4030428
51
26.8320788
0
ARC
8
DEFAULT_255_1_234
10
22.5703146
20
29.0748804
40
0.7443669
50
0.1605367
51
7.7176192
0
ARC
8
DEFAULT_255_1_234
10
22.586705
20
28.9984434
40
0.7279835
50
348.7289388
51
0.3012466
0
ARC
8
DEFAULT_255_1_234
10
22.7523481
20
28.9655386
40
0.559104
50
333.0706509
51
348.7181832
0
ARC
8
DEFAULT_255_1_234
10
22.8490238
20
28.9130319
40
0.4491417
50
299.2531685
51
333.4571258
0
ARC
8
DEFAULT_255_1_234
10
22.8129378
20
28.9815828
40
0.5265881
50
278.107187
51
299.0339503
0
ARC
8
DEFAULT_255_1_234
10
22.7873457
20
29.1323216
40
0.679442
50
270.4443897
51
278.4511052
0
ARC
8
DEFAULT_255_1_234
10
22.7894287
20
29.0394213
40
0.4604407
50
269.4970433
51
284.0205042
0
ARC
8
DEFAULT_255_1_234
10
22.8249588
20
28.9028978
40
0.3193797
50
283.7700273
51
318.1555492
0
ARC
8
DEFAULT_255_1_234
10
22.7912346
20
28.9281367
40
0.3613588
50
318.7415601
51
343.6873628
0
ARC
8
DEFAULT_255_1_234
10
22.6108369
20
28.9844832
40
0.5503313
50
343.3325091
51
355.8548958
0
ARC
8
DEFAULT_255_1_234
10
22.4010054
20
29.0044319
40
0.7610708
50
355.4988528
51
0.0791727
0
ARC
8
DEFAULT_255_1_234
10
22.4792676
20
29.077978
40
0.6828208
50
359.6455037
51
9.8607896
0
ARC
8
DEFAULT_255_1_234
10
22.7153374
20
29.1206099
40
0.4429406
50
9.6571907
51
26.1932807
0
ARC
8
DEFAULT_255_1_234
10
22.8081363
20
29.1637118
40
0.3406537
50
26.5777228
51
40.1532208
0
ARC
8
DEFAULT_255_1_234
10
22.8337089
20
29.1836619
40
0.308246
50
40.3840491
51
80.1431104
0
ARC
8
DEFAULT_255_1_234
10
22.8010207
20
29.0387333
40
0.4566909
50
79.2152159
51
89.7445637
0
LINE
8
DEFAULT_255_1_234
10
23.9499889
20
29.4215276
11
23.9499889
21
29.0801788
0
LINE
8
DEFAULT_255_1_234
10
23.9499889
20
29.0801788
11
24.2760775
21
29.0801788
0
LINE
8
DEFAULT_255_1_234
10
24.2760775
20
29.0801788
11
24.2760775
21
28.9396233
0
LINE
8
DEFAULT_255_1_234
10
24.2760775
20
28.9396233
11
23.9499889
21
28.9396233
0
LINE
8
DEFAULT_255_1_234
10
23.9499889
20
28.9396233
11
23.9499889
21
28.5701634
0
LINE
8
DEFAULT_255_1_234
10
23.9499889
20
28.5701634
11
23.8005986
21
28.5701634
0
LINE
8
DEFAULT_255_1_234
10
23.8005986
20
28.5701634
11
23.8005986
21
28.9396233
0
LINE
8
DEFAULT_255_1_234
10
23.8005986
20
28.9396233
11
23.47451
21
28.9396233
0
LINE
8
DEFAULT_255_1_234
10
23.47451
20
28.9396233
11
23.47451
21
29.0801788
0
LINE
8
DEFAULT_255_1_234
10
23.47451
20
29.0801788
11
23.8005986
21
29.0801788
0
LINE
8
DEFAULT_255_1_234
10
23.8005986
20
29.0801788
11
23.8005986
21
29.4215276
0
LINE
8
DEFAULT_255_1_234
10
23.8005986
20
29.4215276
11
23.9499889
21
29.4215276
0
LINE
8
DEFAULT_255_1_234
10
21.085103
20
37.5598211
11
21.269833
21
36.7590568
0
LINE
8
DEFAULT_255_1_234
10
21.269833
20
36.7590568
11
21.2923218
21
36.6048474
0
LINE
8
DEFAULT_255_1_234
10
21.2923218
20
36.6048474
11
21.325252
21
36.7437965
0
LINE
8
DEFAULT_255_1_234
10
21.325252
20
36.7437965
11
21.556566
21
37.5598211
0
LINE
8
DEFAULT_255_1_234
10
21.556566
20
37.5598211
11
21.6866802
21
37.5598211
0
LINE
8
DEFAULT_255_1_234
10
21.6866802
20
37.5598211
11
21.912372
21
36.7437965
0
LINE
8
DEFAULT_255_1_234
10
21.912372
20
36.7437965
11
21.944499
21
36.6024379
0
LINE
8
DEFAULT_255_1_234
10
21.944499
20
36.6024379
11
21.9693974
21
36.75986
0
LINE
8
DEFAULT_255_1_234
10
21.9693974
20
36.75986
11
22.1509146
21
37.5598211
0
LINE
8
DEFAULT_255_1_234
10
22.1509146
20
37.5598211
11
22.3059272
21
37.5598211
0
LINE
8
DEFAULT_255_1_234
10
22.3059272
20
37.5598211
11
22.0224068
21
36.3904
0
LINE
8
DEFAULT_255_1_234
10
22.0224068
20
36.3904
11
21.8818514
21
36.3904
0
LINE
8
DEFAULT_255_1_234
10
21.8818514
20
36.3904
11
21.6408993
21
37.2425674
0
LINE
8
DEFAULT_255_1_234
10
21.6408993
20
37.2425674
11
21.6224263
21
37.3317197
0
LINE
8
DEFAULT_255_1_234
10
21.6224263
20
37.3317197
11
21.6039533
21
37.2425674
0
LINE
8
DEFAULT_255_1_234
10
21.6039533
20
37.2425674
11
21.3541662
21
36.3904
0
LINE
8
DEFAULT_255_1_234
10
21.3541662
20
36.3904
11
21.2136108
21
36.3904
0
LINE
8
DEFAULT_255_1_234
10
21.2136108
20
36.3904
11
20.9308936
21
37.5598211
0
LINE
8
DEFAULT_255_1_234
10
20.9308936
20
37.5598211
11
21.085103
21
37.5598211
0
LINE
8
DEFAULT_255_1_234
10
22.5300127
20
37.5598211
11
22.8336124
21
36.972701
0
LINE
8
DEFAULT_255_1_234
10
22.8336124
20
36.972701
11
23.1388185
21
37.5598211
0
LINE
8
DEFAULT_255_1_234
10
23.1388185
20
37.5598211
11
23.3139104
21
37.5598211
0
LINE
8
DEFAULT_255_1_234
10
23.3139104
20
37.5598211
11
22.9107171
21
36.8265234
0
LINE
8
DEFAULT_255_1_234
10
22.9107171
20
36.8265234
11
22.9107171
21
36.3904
0
LINE
8
DEFAULT_255_1_234
10
22.9107171
20
36.3904
11
22.7565077
21
36.3904
0
LINE
8
DEFAULT_255_1_234
10
22.7565077
20
36.3904
11
22.7565077
21
36.8265234
0
LINE
8
DEFAULT_255_1_234
10
22.7565077
20
36.8265234
11
22.3533145
21
37.5598211
0
LINE
8
DEFAULT_255_1_234
10
22.3533145
20
37.5598211
11
22.5300127
21
37.5598211
0
LINE
8
DEFAULT_255_1_234
10
24.1596524
20
37.0819327
11
24.1596524
21
36.8891709
0
LINE
8
DEFAULT_255_1_234
10
23.4215356
20
36.8690916
11
23.4215356
21
37.0674755
0
LINE
8
DEFAULT_255_1_234
10
24.0110652
20
36.8490123
11
24.0110652
21
37.0923739
0
LINE
8
DEFAULT_255_1_234
10
23.5701228
20
37.1036184
11
23.5701228
21
36.8658789
0
ARC
8
DEFAULT_255_1_234
10
22.9349413
20
36.8842805
40
1.2247208
50
353.8441951
51
0.2287902
0
ARC
8
DEFAULT_255_1_234
10
23.3988917
20
36.8324806
40
0.7578929
50
344.4934747
51
353.9765454
0
ARC
8
DEFAULT_255_1_234
10
23.6981507
20
36.7473981
40
0.4467846
50
329.2803592
51
344.7472793
0
ARC
8
DEFAULT_255_1_234
10
23.7974332
20
36.6929018
40
0.3336173
50
324.9352394
51
328.6160465
0
ARC
8
DEFAULT_255_1_234
10
23.8351441
20
36.6665427
40
0.2876076
50
280.580143
51
324.9173126
0
ARC
8
DEFAULT_255_1_234
10
23.7950234
20
36.8336099
40
0.4592847
50
269.5977311
51
281.6734359
0
ARC
8
DEFAULT_255_1_234
10
23.7878139
20
36.8216173
40
0.4472986
50
256.6228859
51
270.51044
0
ARC
8
DEFAULT_255_1_234
10
23.7476117
20
36.6667877
40
0.2873874
50
215.8618325
51
257.2788573
0
ARC
8
DEFAULT_255_1_234
10
23.8497149
20
36.7352977
40
0.4102928
50
197.9693508
51
215.2623606
0
ARC
8
DEFAULT_255_1_234
10
24.0982264
20
36.8191709
40
0.6725652
50
187.8816417
51
198.2346507
0
ARC
8
DEFAULT_255_1_234
10
24.4940472
20
36.8763079
40
1.0724845
50
180.8976217
51
188.0055519
0
ARC
8
DEFAULT_255_1_234
10
24.7740661
20
36.8866777
40
1.3526448
50
180.7449369
51
181.1510016
0
ARC
8
DEFAULT_255_1_234
10
24.616339
20
37.0723042
40
1.1948131
50
173.7675579
51
180.231553
0
ARC
8
DEFAULT_255_1_234
10
24.1645536
20
37.1233666
40
0.7401564
50
164.3058563
51
173.9002247
0
ARC
8
DEFAULT_255_1_234
10
23.8733605
20
37.2072656
40
0.4371288
50
148.7922025
51
164.568378
0
ARC
8
DEFAULT_255_1_234
10
23.7782057
20
37.2603929
40
0.3282386
50
144.5883898
51
148.1176286
0
ARC
8
DEFAULT_255_1_234
10
23.7438955
20
37.2843315
40
0.2864044
50
101.6440918
51
144.514236
0
ARC
8
DEFAULT_255_1_234
10
23.7864022
20
37.1154069
40
0.4604934
50
89.5284041
51
102.5819763
0
ARC
8
DEFAULT_255_1_234
10
23.794311
20
37.1115018
40
0.464401
50
77.0437873
51
90.5081339
0
ARC
8
DEFAULT_255_1_234
10
23.8345111
20
37.2757615
40
0.2953195
50
48.2778575
51
77.4994676
0
ARC
8
DEFAULT_255_1_234
10
23.8417743
20
37.2886746
40
0.2808655
50
36.3142134
51
47.6305865
0
ARC
8
DEFAULT_255_1_234
10
23.754905
20
37.2301515
40
0.3855453
50
18.2931786
51
35.6769206
0
ARC
8
DEFAULT_255_1_234
10
23.5005808
20
37.1428593
40
0.654423
50
8.024666
51
18.5605216
0
ARC
8
DEFAULT_255_1_234
10
23.0842729
20
37.0813792
40
1.0752407
50
1.1274072
51
8.1718305
0
ARC
8
DEFAULT_255_1_234
10
22.7606919
20
37.0686885
40
1.3990231
50
0.5424119
51
1.3863029
0
ARC
8
DEFAULT_255_1_234
10
22.9428297
20
37.0959342
40
1.0682415
50
359.8090433
51
4.9407866
0
ARC
8
DEFAULT_255_1_234
10
23.3638311
20
37.1335113
40
0.6455691
50
4.8362157
51
12.2904523
0
ARC
8
DEFAULT_255_1_234
10
23.6393426
20
37.1948965
40
0.3633074
50
12.0805627
51
23.8173984
0
ARC
8
DEFAULT_255_1_234
10
23.7567131
20
37.2445919
40
0.2358723
50
24.2871213
51
31.3935614
0
ARC
8
DEFAULT_255_1_234
10
23.8091828
20
37.2789233
40
0.1732111
50
30.7407893
51
82.4657128
0
ARC
8
DEFAULT_255_1_234
10
23.7911963
20
37.1905691
40
0.263235
50
81.1060089
51
90.2184952
0
ARC
8
DEFAULT_255_1_234
10
23.7876262
20
37.2163924
40
0.2374236
50
89.3806855
51
105.6762551
0
ARC
8
DEFAULT_255_1_234
10
23.7692892
20
37.2830567
40
0.1682847
50
105.7981136
51
149.7388061
0
ARC
8
DEFAULT_255_1_234
10
23.875697
20
37.219095
40
0.2924306
50
149.4208916
51
163.6286378
0
ARC
8
DEFAULT_255_1_234
10
24.0847859
20
37.155325
40
0.5110213
50
163.3763315
51
172.1410975
0
ARC
8
DEFAULT_255_1_234
10
24.4148577
20
37.1080518
40
0.8444586
50
172.0259487
51
178.0703232
0
ARC
8
DEFAULT_255_1_234
10
24.7178667
20
37.0936906
40
1.1477868
50
177.8631668
51
179.5044149
0
ARC
8
DEFAULT_255_1_234
10
24.6106071
20
36.8622389
40
1.0404907
50
179.7995573
51
185.2460446
0
ARC
8
DEFAULT_255_1_234
10
24.2063111
20
36.8239513
40
0.6343885
50
185.1411642
51
193.0079639
0
ARC
8
DEFAULT_255_1_234
10
23.9419583
20
36.7614641
40
0.3627568
50
192.7897626
51
205.2507664
0
ARC
8
DEFAULT_255_1_234
10
23.837313
20
36.7147415
40
0.2481908
50
205.8005384
51
211.2537509
0
ARC
8
DEFAULT_255_1_234
10
23.7849571
20
36.679658
40
0.1852521
50
210.3789793
51
238.4008143
0
ARC
8
DEFAULT_255_1_234
10
23.7830093
20
36.6843376
40
0.1882621
50
239.6520629
51
265.9793761
0
ARC
8
DEFAULT_255_1_234
10
23.7915293
20
36.7515427
40
0.2559272
50
265.1315437
51
270.060332
0
ARC
8
DEFAULT_255_1_234
10
23.7944072
20
36.7191534
40
0.2235528
50
269.3314664
51
287.2178029
0
ARC
8
DEFAULT_255_1_234
10
23.8081924
20
36.6688279
40
0.1714108
50
287.7958004
51
329.080874
0
ARC
8
DEFAULT_255_1_234
10
23.712438
20
36.728593
40
0.2842745
50
328.6634704
51
343.3325132
0
ARC
8
DEFAULT_255_1_234
10
23.49514
20
36.7962863
40
0.5118644
50
343.0499468
51
351.9393422
0
ARC
8
DEFAULT_255_1_234
10
23.14847
20
36.8473949
40
0.8622784
50
351.8069023
51
357.7959224
0
ARC
8
DEFAULT_255_1_234
10
22.8249256
20
36.8641721
40
1.1862365
50
357.5871873
51
359.2677531
0
LINE
8
DEFAULT_255_1_234
10
21.038703
20
45.4973211
11
21.223433
21
44.6965568
0
LINE
8
DEFAULT_255_1_234
10
21.223433
20
44.6965568
11
21.2459218
21
44.5423474
0
LINE
8
DEFAULT_255_1_234
10
21.2459218
20
44.5423474
11
21.278852
21
44.6812965
0
LINE
8
DEFAULT_255_1_234
10
21.278852
20
44.6812965
11
21.510166
21
45.4973211
0
LINE
8
DEFAULT_255_1_234
10
21.510166
20
45.4973211
11
21.6402802
21
45.4973211
0
LINE
8
DEFAULT_255_1_234
10
21.6402802
20
45.4973211
11
21.865972
21
44.6812965
0
LINE
8
DEFAULT_255_1_234
10
21.865972
20
44.6812965
11
21.898099
21
44.5399379
0
LINE
8
DEFAULT_255_1_234
10
21.898099
20
44.5399379
11
21.9229974
21
44.69736
0
LINE
8
DEFAULT_255_1_234
10
21.9229974
20
44.69736
11
22.1045146
21
45.4973211
0
LINE
8
DEFAULT_255_1_234
10
22.1045146
20
45.4973211
11
22.2595272
21
45.4973211
0
LINE
8
DEFAULT_255_1_234
10
22.2595272
20
45.4973211
11
21.9760068
21
44.3279
0
LINE
8
DEFAULT_255_1_234
10
21.9760068
20
44.3279
11
21.8354514
21
44.3279
0
LINE
8
DEFAULT_255_1_234
10
21.8354514
20
44.3279
11
21.5944993
21
45.1800674
0
LINE
8
DEFAULT_255_1_234
10
21.5944993
20
45.1800674
11
21.5760263
21
45.2692197
0
LINE
8
DEFAULT_255_1_234
10
21.5760263
20
45.2692197
11
21.5575533
21
45.1800674
0
LINE
8
DEFAULT_255_1_234
10
21.5575533
20
45.1800674
11
21.3077662
21
44.3279
0
LINE
8
DEFAULT_255_1_234
10
21.3077662
20
44.3279
11
21.1672108
21
44.3279
0
LINE
8
DEFAULT_255_1_234
10
21.1672108
20
44.3279
11
20.8844936
21
45.4973211
0
LINE
8
DEFAULT_255_1_234
10
20.8844936
20
45.4973211
11
21.038703
21
45.4973211
0
LINE
8
DEFAULT_255_1_234
10
22.5301968
20
45.4973211
11
22.8121108
21
45.0491501
0
LINE
8
DEFAULT_255_1_234
10
22.8121108
20
45.0491501
11
23.0924185
21
45.4973211
0
LINE
8
DEFAULT_255_1_234
10
23.0924185
20
45.4973211
11
23.2739357
21
45.4973211
0
LINE
8
DEFAULT_255_1_234
10
23.2739357
20
45.4973211
11
22.9044758
21
44.9174296
0
LINE
8
DEFAULT_255_1_234
10
22.9044758
20
44.9174296
11
23.2827707
21
44.3279
0
LINE
8
DEFAULT_255_1_234
10
23.2827707
20
44.3279
11
23.099647
21
44.3279
0
LINE
8
DEFAULT_255_1_234
10
23.099647
20
44.3279
11
22.8121108
21
44.7841027
0
LINE
8
DEFAULT_255_1_234
10
22.8121108
20
44.7841027
11
22.5229682
21
44.3279
0
LINE
8
DEFAULT_255_1_234
10
22.5229682
20
44.3279
11
22.3406478
21
44.3279
0
LINE
8
DEFAULT_255_1_234
10
22.3406478
20
44.3279
11
22.7197458
21
44.9174296
0
LINE
8
DEFAULT_255_1_234
10
22.7197458
20
44.9174296
11
22.3494827
21
45.4973211
0
LINE
8
DEFAULT_255_1_234
10
22.3494827
20
45.4973211
11
22.5301968
21
45.4973211
0
LINE
8
DEFAULT_255_1_234
10
24.1566238
20
45.0194327
11
24.1566238
21
44.8266709
0
LINE
8
DEFAULT_255_1_234
10
23.418507
20
44.8065916
11
23.418507
21
45.0049755
0
LINE
8
DEFAULT_255_1_234
10
24.0080366
20
44.7865123
11
24.0080366
21
45.0298739
0
LINE
8
DEFAULT_255_1_234
10
23.5670942
20
45.0411184
11
23.5670942
21
44.8033789
0
ARC
8
DEFAULT_255_1_234
10
22.9319127
20
44.8217805
40
1.2247208
50
353.8441951
51
0.2287902
0
ARC
8
DEFAULT_255_1_234
10
23.3958631
20
44.7699806
40
0.7578929
50
344.4934747
51
353.9765454
0
ARC
8
DEFAULT_255_1_234
10
23.6951221
20
44.6848981
40
0.4467846
50
329.2803592
51
344.7472793
0
ARC
8
DEFAULT_255_1_234
10
23.7944046
20
44.6304018
40
0.3336173
50
324.9352394
51
328.6160465
0
ARC
8
DEFAULT_255_1_234
10
23.8321155
20
44.6040427
40
0.2876076
50
280.580143
51
324.9173126
0
ARC
8
DEFAULT_255_1_234
10
23.7919947
20
44.7711099
40
0.4592847
50
269.5977311
51
281.6734359
0
ARC
8
DEFAULT_255_1_234
10
23.7847853
20
44.7591173
40
0.4472986
50
256.6228859
51
270.51044
0
ARC
8
DEFAULT_255_1_234
10
23.7445831
20
44.6042877
40
0.2873874
50
215.8618325
51
257.2788573
0
ARC
8
DEFAULT_255_1_234
10
23.8466862
20
44.6727977
40
0.4102928
50
197.9693508
51
215.2623606
0
ARC
8
DEFAULT_255_1_234
10
24.0951978
20
44.7566709
40
0.6725652
50
187.8816417
51
198.2346507
0
ARC
8
DEFAULT_255_1_234
10
24.4910186
20
44.8138079
40
1.0724845
50
180.8976217
51
188.0055519
0
ARC
8
DEFAULT_255_1_234
10
24.7710374
20
44.8241777
40
1.3526448
50
180.7449369
51
181.1510016
0
ARC
8
DEFAULT_255_1_234
10
24.6133104
20
45.0098042
40
1.1948131
50
173.7675579
51
180.231553
0
ARC
8
DEFAULT_255_1_234
10
24.161525
20
45.0608666
40
0.7401564
50
164.3058563
51
173.9002247
0
ARC
8
DEFAULT_255_1_234
10
23.8703319
20
45.1447656
40
0.4371288
50
148.7922025
51
164.568378
0
ARC
8
DEFAULT_255_1_234
10
23.7751771
20
45.1978929
40
0.3282386
50
144.5883898
51
148.1176286
0
ARC
8
DEFAULT_255_1_234
10
23.7408669
20
45.2218315
40
0.2864044
50
101.6440918
51
144.514236
0
ARC
8
DEFAULT_255_1_234
10
23.7833736
20
45.0529069
40
0.4604934
50
89.5284041
51
102.5819763
0
ARC
8
DEFAULT_255_1_234
10
23.7912824
20
45.0490018
40
0.464401
50
77.0437873
51
90.5081339
0
ARC
8
DEFAULT_255_1_234
10
23.8314825
20
45.2132615
40
0.2953195
50
48.2778575
51
77.4994676
0
ARC
8
DEFAULT_255_1_234
10
23.8387457
20
45.2261746
40
0.2808655
50
36.3142134
51
47.6305865
0
ARC
8
DEFAULT_255_1_234
10
23.7518764
20
45.1676515
40
0.3855453
50
18.2931786
51
35.6769206
0
ARC
8
DEFAULT_255_1_234
10
23.4975522
20
45.0803593
40
0.654423
50
8.024666
51
18.5605216
0
ARC
8
DEFAULT_255_1_234
10
23.0812442
20
45.0188792
40
1.0752407
50
1.1274072
51
8.1718305
0
ARC
8
DEFAULT_255_1_234
10
22.7576633
20
45.0061885
40
1.3990231
50
0.5424119
51
1.3863029
0
ARC
8
DEFAULT_255_1_234
10
22.9398011
20
45.0334342
40
1.0682415
50
359.8090433
51
4.9407866
0
ARC
8
DEFAULT_255_1_234
10
23.3608025
20
45.0710113
40
0.6455691
50
4.8362157
51
12.2904523
0
ARC
8
DEFAULT_255_1_234
10
23.636314
20
45.1323965
40
0.3633074
50
12.0805627
51
23.8173984
0
ARC
8
DEFAULT_255_1_234
10
23.7536845
20
45.1820919
40
0.2358723
50
24.2871213
51
31.3935614
0
ARC
8
DEFAULT_255_1_234
10
23.8061542
20
45.2164233
40
0.1732111
50
30.7407893
51
82.4657128
0
ARC
8
DEFAULT_255_1_234
10
23.7881677
20
45.1280691
40
0.263235
50
81.1060089
51
90.2184952
0
ARC
8
DEFAULT_255_1_234
10
23.7845975
20
45.1538924
40
0.2374236
50
89.3806855
51
105.6762551
0
ARC
8
DEFAULT_255_1_234
10
23.7662606
20
45.2205567
40
0.1682847
50
105.7981136
51
149.7388061
0
ARC
8
DEFAULT_255_1_234
10
23.8726684
20
45.156595
40
0.2924306
50
149.4208916
51
163.6286378
0
ARC
8
DEFAULT_255_1_234
10
24.0817572
20
45.092825
40
0.5110213
50
163.3763315
51
172.1410975
0
ARC
8
DEFAULT_255_1_234
10
24.4118291
20
45.0455518
40
0.8444586
50
172.0259487
51
178.0703232
0
ARC
8
DEFAULT_255_1_234
10
24.7148381
20
45.0311906
40
1.1477868
50
177.8631668
51
179.5044149
0
ARC
8
DEFAULT_255_1_234
10
24.6075785
20
44.7997389
40
1.0404907
50
179.7995573
51
185.2460446
0
ARC
8
DEFAULT_255_1_234
10
24.2032825
20
44.7614513
40
0.6343885
50
185.1411642
51
193.0079639
0
ARC
8
DEFAULT_255_1_234
10
23.9389297
20
44.6989641
40
0.3627568
50
192.7897626
51
205.2507664
0
ARC
8
DEFAULT_255_1_234
10
23.8342844
20
44.6522415
40
0.2481908
50
205.8005384
51
211.2537509
0
ARC
8
DEFAULT_255_1_234
10
23.7819285
20
44.617158
40
0.1852521
50
210.3789793
51
238.4008143
0
ARC
8
DEFAULT_255_1_234
10
23.7799806
20
44.6218376
40
0.1882621
50
239.6520629
51
265.9793761
0
ARC
8
DEFAULT_255_1_234
10
23.7885007
20
44.6890427
40
0.2559272
50
265.1315437
51
270.060332
0
ARC
8
DEFAULT_255_1_234
10
23.7913785
20
44.6566534
40
0.2235528
50
269.3314664
51
287.2178029
0
ARC
8
DEFAULT_255_1_234
10
23.8051637
20
44.6063279
40
0.1714108
50
287.7958004
51
329.080874
0
ARC
8
DEFAULT_255_1_234
10
23.7094094
20
44.666093
40
0.2842745
50
328.6634704
51
343.3325132
0
ARC
8
DEFAULT_255_1_234
10
23.4921114
20
44.7337863
40
0.5118644
50
343.0499468
51
351.9393422
0
ARC
8
DEFAULT_255_1_234
10
23.1454414
20
44.7848949
40
0.8622784
50
351.8069023
51
357.7959224
0
ARC
8
DEFAULT_255_1_234
10
22.821897
20
44.8016721
40
1.1862365
50
357.5871873
51
359.2677531
0
LINE
8
DEFAULT_255_1_234
10
22.9083137
20
53.4404433
11
22.9083137
21
52.2654
0
LINE
8
DEFAULT_255_1_234
10
22.9083137
20
52.2654
11
22.7589234
21
52.2654
0
LINE
8
DEFAULT_255_1_234
10
22.7589234
20
52.2654
11
22.7589234
21
53.2557133
0
LINE
8
DEFAULT_255_1_234
10
22.7589234
20
53.2557133
11
22.4593396
21
53.1456785
0
LINE
8
DEFAULT_255_1_234
10
22.4593396
20
53.1456785
11
22.4593396
21
53.2806117
0
LINE
8
DEFAULT_255_1_234
10
22.4593396
20
53.2806117
11
22.8850217
21
53.4404433
0
LINE
8
DEFAULT_255_1_234
10
22.8850217
20
53.4404433
11
22.9083137
21
53.4404433
0
LINE
8
DEFAULT_255_1_234
10
24.0873729
20
52.6364663
11
24.2423854
21
52.6364663
0
LINE
8
DEFAULT_255_1_234
10
23.3420276
20
52.7954947
11
23.3420276
21
52.9079391
0
LINE
8
DEFAULT_255_1_234
10
24.2423854
20
53.0589357
11
24.0873729
21
53.0589357
0
LINE
8
DEFAULT_255_1_234
10
23.4970401
20
52.9039232
11
23.4970401
21
52.7906757
0
ARC
8
DEFAULT_255_1_234
10
23.6943241
20
52.6961846
40
0.5513052
50
340.1774281
51
353.7814284
0
ARC
8
DEFAULT_255_1_234
10
23.8514594
20
52.6376582
40
0.3836379
50
311.4558989
51
340.4421614
0
ARC
8
DEFAULT_255_1_234
10
23.8481262
20
52.6487528
40
0.3941894
50
282.4333181
51
310.7513653
0
ARC
8
DEFAULT_255_1_234
10
23.8042001
20
52.8302679
40
0.5809175
50
269.9358511
51
282.809604
0
ARC
8
DEFAULT_255_1_234
10
23.7990067
20
52.9760212
40
0.7266847
50
270.0021091
51
270.3581957
0
ARC
8
DEFAULT_255_1_234
10
23.7937484
20
52.7159585
40
0.4666519
50
250.7884749
51
270.6489167
0
ARC
8
DEFAULT_255_1_234
10
23.7769319
20
52.6522319
40
0.4009729
50
219.3627325
51
250.0611886
0
ARC
8
DEFAULT_255_1_234
10
23.859853
20
52.7227042
40
0.5097822
50
193.5479632
51
219.5756669
0
ARC
8
DEFAULT_255_1_234
10
24.0970151
20
52.7842919
40
0.7547848
50
181.1218675
51
193.87563
0
ARC
8
DEFAULT_255_1_234
10
24.3040332
20
52.795358
40
0.9620055
50
179.9918545
51
181.5394234
0
ARC
8
DEFAULT_255_1_234
10
24.1189434
20
52.9116788
40
0.7769248
50
169.5837241
51
180.2757934
0
ARC
8
DEFAULT_255_1_234
10
23.9352372
20
52.9456229
40
0.590109
50
155.0365899
51
169.6003176
0
ARC
8
DEFAULT_255_1_234
10
23.8216836
20
53.0003677
40
0.4640625
50
136.783148
51
155.2472683
0
ARC
8
DEFAULT_255_1_234
10
23.7827313
20
53.0334562
40
0.4130255
50
121.7633186
51
136.428115
0
ARC
8
DEFAULT_255_1_234
10
23.7962275
20
53.0085227
40
0.4413323
50
95.6459699
51
121.5490577
0
ARC
8
DEFAULT_255_1_234
10
23.8119557
20
52.8976949
40
0.55319
50
89.924208
51
96.1377933
0
ARC
8
DEFAULT_255_1_234
10
23.816999
20
52.9095542
40
0.5413475
50
76.6779277
51
90.4563316
0
ARC
8
DEFAULT_255_1_234
10
23.8563613
20
53.0686114
40
0.3775041
50
47.485847
51
76.9287264
0
ARC
8
DEFAULT_255_1_234
10
23.8416586
20
53.0586159
40
0.3948286
50
16.5424086
51
46.8933463
0
ARC
8
DEFAULT_255_1_234
10
23.6808743
20
53.0057861
40
0.564021
50
5.4072051
51
17.0365086
0
ARC
8
DEFAULT_255_1_234
10
23.536976
20
52.9826679
40
0.5556559
50
7.8891745
51
15.9239216
0
ARC
8
DEFAULT_255_1_234
10
23.7356773
20
53.0403631
40
0.3487515
50
15.7653144
51
27.9410532
0
ARC
8
DEFAULT_255_1_234
10
23.8460991
20
53.099479
40
0.2235026
50
27.8166557
51
46.4008329
0
ARC
8
DEFAULT_255_1_234
10
23.8510634
20
53.0989082
40
0.2205286
50
47.4371857
51
75.0698205
0
ARC
8
DEFAULT_255_1_234
10
23.8202029
20
52.9914765
40
0.3322915
50
74.7008593
51
87.8124495
0
ARC
8
DEFAULT_255_1_234
10
23.8128716
20
52.8858844
40
0.4380987
50
87.3814673
51
90.0240855
0
ARC
8
DEFAULT_255_1_234
10
23.8090259
20
53.0036291
40
0.3203749
50
89.3451631
51
108.5745436
0
ARC
8
DEFAULT_255_1_234
10
23.7953365
20
53.0549908
40
0.2673494
50
109.2998449
51
143.3037509
0
ARC
8
DEFAULT_255_1_234
10
23.8715437
20
52.9963881
40
0.3634757
50
143.0753173
51
163.1916937
0
ARC
8
DEFAULT_255_1_234
10
24.0667165
20
52.9347967
40
0.5681262
50
162.9373603
51
174.6208611
0
ARC
8
DEFAULT_255_1_234
10
24.3293207
20
52.906001
40
0.8322832
50
174.3419979
51
180.1430411
0
ARC
8
DEFAULT_255_1_234
10
24.2362363
20
52.7865698
40
0.7392076
50
179.6817502
51
189.150529
0
ARC
8
DEFAULT_255_1_234
10
23.9861611
20
52.744919
40
0.4856932
50
188.9910863
51
203.5773039
0
ARC
8
DEFAULT_255_1_234
10
23.8781944
20
52.7001211
40
0.3688271
50
203.9077269
51
215.1312379
0
ARC
8
DEFAULT_255_1_234
10
23.7859038
20
52.6285941
40
0.2522457
50
213.9071664
51
263.8849284
0
ARC
8
DEFAULT_255_1_234
10
23.7984367
20
52.7070518
40
0.3316174
50
263.1758525
51
270.1031083
0
ARC
8
DEFAULT_255_1_234
10
23.8016459
20
52.8317365
40
0.4563091
50
269.6719807
51
279.0609165
0
ARC
8
DEFAULT_255_1_234
10
23.8283227
20
52.6704907
40
0.2928759
50
278.8750225
51
293.6346586
0
ARC
8
DEFAULT_255_1_234
10
23.8603435
20
52.59529
40
0.2111472
50
293.8553404
51
310.0518804
0
ARC
8
DEFAULT_255_1_234
10
23.8608289
20
52.5890516
40
0.2060917
50
311.0646779
51
332.0108348
0
ARC
8
DEFAULT_255_1_234
10
23.7416016
20
52.6547978
40
0.3422352
50
331.6588543
51
343.2878891
0
ARC
8
DEFAULT_255_1_234
10
23.5353531
20
52.7181798
40
0.5580003
50
343.1446044
51
351.010618
0
ARC
8
DEFAULT_255_1_234
10
23.3812177
20
52.7462871
40
0.7146438
50
350.7157277
51
351.1602153
0
LINE
8
DEFAULT_255_1_234
10
22.5167458
20
61.3723211
11
22.8203456
21
60.785201
0
LINE
8
DEFAULT_255_1_234
10
22.8203456
20
60.785201
11
23.1255516
21
61.3723211
0
LINE
8
DEFAULT_255_1_234
10
23.1255516
20
61.3723211
11
23.3006435
21
61.3723211
0
LINE
8
DEFAULT_255_1_234
10
23.3006435
20
61.3723211
11
22.8974502
21
60.6390234
0
LINE
8
DEFAULT_255_1_234
10
22.8974502
20
60.6390234
11
22.8974502
21
60.2029
0
LINE
8
DEFAULT_255_1_234
10
22.8974502
20
60.2029
11
22.7432409
21
60.2029
0
LINE
8
DEFAULT_255_1_234
10
22.7432409
20
60.2029
11
22.7432409
21
60.6390234
0
LINE
8
DEFAULT_255_1_234
10
22.7432409
20
60.6390234
11
22.3400476
21
61.3723211
0
LINE
8
DEFAULT_255_1_234
10
22.3400476
20
61.3723211
11
22.5167458
21
61.3723211
0
LINE
8
DEFAULT_255_1_234
10
24.1680712
20
61.3723211
11
24.1680712
21
61.288791
0
LINE
8
DEFAULT_255_1_234
10
24.1680712
20
61.288791
11
23.6837574
21
60.2029
0
LINE
8
DEFAULT_255_1_234
10
23.6837574
20
60.2029
11
23.5279417
21
60.2029
0
LINE
8
DEFAULT_255_1_234
10
23.5279417
20
60.2029
11
24.0106492
21
61.2502387
0
LINE
8
DEFAULT_255_1_234
10
24.0106492
20
61.2502387
11
23.3777482
21
61.2502387
0
LINE
8
DEFAULT_255_1_234
10
23.3777482
20
61.2502387
11
23.3777482
21
61.3723211
0
LINE
8
DEFAULT_255_1_234
10
23.3777482
20
61.3723211
11
24.1680712
21
61.3723211
0
LINE
8
DEFAULT_255_1_234
10
22.5167458
20
69.3098211
11
22.8203456
21
68.722701
0
LINE
8
DEFAULT_255_1_234
10
22.8203456
20
68.722701
11
23.1255516
21
69.3098211
0
LINE
8
DEFAULT_255_1_234
10
23.1255516
20
69.3098211
11
23.3006435
21
69.3098211
0
LINE
8
DEFAULT_255_1_234
10
23.3006435
20
69.3098211
11
22.8974502
21
68.5765234
0
LINE
8
DEFAULT_255_1_234
10
22.8974502
20
68.5765234
11
22.8974502
21
68.1404
0
LINE
8
DEFAULT_255_1_234
10
22.8974502
20
68.1404
11
22.7432409
21
68.1404
0
LINE
8
DEFAULT_255_1_234
10
22.7432409
20
68.1404
11
22.7432409
21
68.5765234
0
LINE
8
DEFAULT_255_1_234
10
22.7432409
20
68.5765234
11
22.3400476
21
69.3098211
0
LINE
8
DEFAULT_255_1_234
10
22.3400476
20
69.3098211
11
22.5167458
21
69.3098211
0
LINE
8
DEFAULT_255_1_234
10
23.9696873
20
69.3106243
11
23.996192
21
69.3106243
0
LINE
8
DEFAULT_255_1_234
10
23.996192
20
69.3106243
11
23.996192
21
69.184526
0
LINE
8
DEFAULT_255_1_234
10
23.996192
20
69.184526
11
23.9688841
21
69.184526
0
LINE
8
DEFAULT_255_1_234
10
23.4219228
20
68.5853583
11
23.4219228
21
68.6423836
0
LINE
8
DEFAULT_255_1_234
10
23.5713131
20
68.6231075
11
23.5713131
21
68.5684917
0
ARC
8
DEFAULT_255_1_234
10
23.9741189
20
68.6847455
40
0.4998079
50
90.6001036
51
104.514704
0
ARC
8
DEFAULT_255_1_234
10
23.9352705
20
68.8292131
40
0.3502176
50
104.2855254
51
133.862935
0
ARC
8
DEFAULT_255_1_234
10
23.9516462
20
68.818383
40
0.3693984
50
134.5302688
51
161.6210873
0
ARC
8
DEFAULT_255_1_234
10
24.1169651
20
68.7600895
40
0.5446739
50
161.2849839
51
174.2076652
0
ARC
8
DEFAULT_255_1_234
10
24.2576588
20
68.7406787
40
0.6866274
50
173.7810589
51
174.9254635
0
ARC
8
DEFAULT_255_1_234
10
23.802642
20
68.6023839
40
0.3033419
50
95.8330959
51
138.9954921
0
ARC
8
DEFAULT_255_1_234
10
23.8249776
20
68.4745375
40
0.4328947
50
89.8753725
51
97.0544009
0
ARC
8
DEFAULT_255_1_234
10
23.8297242
20
68.5580748
40
0.3493769
50
71.6407809
51
90.6240094
0
ARC
8
DEFAULT_255_1_234
10
23.8447815
20
68.6135082
40
0.2920396
50
39.6367836
51
71.019018
0
ARC
8
DEFAULT_255_1_234
10
23.7811288
20
68.5584998
40
0.3761538
50
10.658731
51
39.9043955
0
ARC
8
DEFAULT_255_1_234
10
23.6263371
20
68.5248686
40
0.5345136
50
359.682601
51
11.132623
0
ARC
8
DEFAULT_255_1_234
10
23.6223502
20
68.517801
40
0.5385081
50
347.2486944
51
0.4369317
0
ARC
8
DEFAULT_255_1_234
10
23.7890979
20
68.4776807
40
0.3670249
50
318.1409698
51
347.6118597
0
ARC
8
DEFAULT_255_1_234
10
23.8215972
20
68.4509702
40
0.3250007
50
275.6342139
51
317.8248465
0
ARC
8
DEFAULT_255_1_234
10
23.7995083
20
68.5809219
40
0.4565864
50
269.8874292
51
276.7917694
0
ARC
8
DEFAULT_255_1_234
10
23.7940154
20
68.4783743
40
0.3540676
50
246.9140195
51
270.7437342
0
ARC
8
DEFAULT_255_1_234
10
23.7946544
20
68.4641384
40
0.3412781
50
218.1665114
51
245.878116
0
ARC
8
DEFAULT_255_1_234
10
23.8826005
20
68.5377279
40
0.455911
50
191.4115814
51
218.6077802
0
ARC
8
DEFAULT_255_1_234
10
24.0764094
20
68.5811833
40
0.6545001
50
179.6345085
51
191.7836486
0
ARC
8
DEFAULT_255_1_234
10
24.6346431
20
68.6490697
40
1.2127388
50
171.4525249
51
180.3158839
0
ARC
8
DEFAULT_255_1_234
10
24.1951307
20
68.7174608
40
0.7679464
50
157.9802646
51
171.6246686
0
ARC
8
DEFAULT_255_1_234
10
23.9737328
20
68.8057421
40
0.5296008
50
141.4298019
51
157.854097
0
ARC
8
DEFAULT_255_1_234
10
23.9095649
20
68.8511381
40
0.4511509
50
102.8715806
51
140.8564722
0
ARC
8
DEFAULT_255_1_234
10
23.9743264
20
68.6071552
40
0.7034845
50
90.3778349
51
103.5869322
0
ARC
8
DEFAULT_255_1_234
10
23.800504
20
68.546673
40
0.2370698
50
89.8751008
51
126.2071704
0
ARC
8
DEFAULT_255_1_234
10
23.805083
20
68.5312303
40
0.2522934
50
124.9745049
51
144.895901
0
ARC
8
DEFAULT_255_1_234
10
23.7875021
20
68.545556
40
0.2296779
50
145.2974905
51
160.2660252
0
ARC
8
DEFAULT_255_1_234
10
24.0947559
20
68.5653071
40
0.5234525
50
179.6514266
51
190.2855912
0
ARC
8
DEFAULT_255_1_234
10
23.9253697
20
68.5333786
40
0.3510893
50
190.0945431
51
207.5098196
0
ARC
8
DEFAULT_255_1_234
10
23.8687966
20
68.5064623
40
0.288489
50
207.9583163
51
216.3251085
0
ARC
8
DEFAULT_255_1_234
10
23.8348074
20
68.4785105
40
0.2445587
50
215.7661442
51
232.5456785
0
ARC
8
DEFAULT_255_1_234
10
23.7965057
20
68.4298482
40
0.1826382
50
232.8005391
51
270.6605633
0
ARC
8
DEFAULT_255_1_234
10
23.8010758
20
68.4662612
40
0.2190529
50
269.35537
51
288.4744281
0
ARC
8
DEFAULT_255_1_234
10
23.8103655
20
68.4313118
40
0.1829749
50
289.1833337
51
322.9683818
0
ARC
8
DEFAULT_255_1_234
10
23.7492177
20
68.4795391
40
0.2608399
50
322.6007884
51
346.5182367
0
ARC
8
DEFAULT_255_1_234
10
23.6334773
20
68.5090616
40
0.3802777
50
346.2582162
51
358.7741648
0
ARC
8
DEFAULT_255_1_234
10
23.5316442
20
68.5145965
40
0.4822176
50
358.3755224
51
0.0098023
0
ARC
8
DEFAULT_255_1_234
10
23.6072629
20
68.5173657
40
0.4066078
50
359.6214041
51
11.2839074
0
ARC
8
DEFAULT_255_1_234
10
23.7349776
20
68.5440066
40
0.2761514
50
11.0482309
51
31.8146458
0
ARC
8
DEFAULT_255_1_234
10
23.7658819
20
68.5607584
40
0.2410679
50
32.3035391
51
38.082671
0
ARC
8
DEFAULT_255_1_234
10
23.8079479
20
68.5988662
40
0.1844966
50
36.825067
51
85.7415724
0
ARC
8
DEFAULT_255_1_234
10
23.8012312
20
68.5488301
40
0.2349122
50
85.0140713
51
90.0513278
0
LINE
8
DEFAULT_255_1_234
10
22.5167458
20
77.2473211
11
22.8203456
21
76.660201
0
LINE
8
DEFAULT_255_1_234
10
22.8203456
20
76.660201
11
23.1255516
21
77.2473211
0
LINE
8
DEFAULT_255_1_234
10
23.1255516
20
77.2473211
11
23.3006435
21
77.2473211
0
LINE
8
DEFAULT_255_1_234
10
23.3006435
20
77.2473211
11
22.8974502
21
76.5140234
0
LINE
8
DEFAULT_255_1_234
10
22.8974502
20
76.5140234
11
22.8974502
21
76.0779
0
LINE
8
DEFAULT_255_1_234
10
22.8974502
20
76.0779
11
22.7432409
21
76.0779
0
LINE
8
DEFAULT_255_1_234
10
22.7432409
20
76.0779
11
22.7432409
21
76.5140234
0
LINE
8
DEFAULT_255_1_234
10
22.7432409
20
76.5140234
11
22.3400476
21
77.2473211
0
LINE
8
DEFAULT_255_1_234
10
22.3400476
20
77.2473211
11
22.5167458
21
77.2473211
0
LINE
8
DEFAULT_255_1_234
10
23.6002273
20
76.6336963
11
23.4813576
21
76.6642169
0
LINE
8
DEFAULT_255_1_234
10
23.4813576
20
76.6642169
11
23.5407925
21
77.2473211
0
LINE
8
DEFAULT_255_1_234
10
23.5407925
20
77.2473211
11
24.1399602
21
77.2473211
0
LINE
8
DEFAULT_255_1_234
10
24.1399602
20
77.2473211
11
24.1399602
21
77.1099784
0
LINE
8
DEFAULT_255_1_234
10
24.1399602
20
77.1099784
11
23.6668908
21
77.1099784
0
LINE
8
DEFAULT_255_1_234
10
23.6668908
20
77.1099784
11
23.6315511
21
76.7911184
0
LINE
8
DEFAULT_255_1_234
10
23.4395926
20
76.3855156
11
23.580148
21
76.3855156
0
LINE
8
DEFAULT_255_1_234
10
23.6395829
20
76.6658232
11
23.6002273
21
76.6336963
0
ARC
8
DEFAULT_255_1_234
10
23.8170295
20
76.473123
40
0.3681349
50
93.7182161
51
120.2538958
0
ARC
8
DEFAULT_255_1_234
10
23.8264558
20
76.3923394
40
0.449379
50
89.9660152
51
94.2496022
0
ARC
8
DEFAULT_255_1_234
10
23.8305292
20
76.4512549
40
0.390482
50
73.8043271
51
90.5585896
0
ARC
8
DEFAULT_255_1_234
10
23.8540189
20
76.5370602
40
0.3015334
50
41.3071453
51
73.5430202
0
ARC
8
DEFAULT_255_1_234
10
23.8124016
20
76.5012324
40
0.3564457
50
13.5075983
51
41.2174222
0
ARC
8
DEFAULT_255_1_234
10
23.648222
20
76.4582486
40
0.5261351
50
1.1331335
51
13.8829381
0
ARC
8
DEFAULT_255_1_234
10
23.5070589
20
76.4506665
40
0.6674378
50
359.9919444
51
1.544251
0
ARC
8
DEFAULT_255_1_234
10
23.6347415
20
76.446528
40
0.5397702
50
347.8572367
51
0.4293338
0
ARC
8
DEFAULT_255_1_234
10
23.8097733
20
76.4068736
40
0.3603188
50
323.673004
51
348.1672506
0
ARC
8
DEFAULT_255_1_234
10
23.8392241
20
76.3889168
40
0.3259678
50
316.8171152
51
323.1492751
0
ARC
8
DEFAULT_255_1_234
10
23.845343
20
76.385246
40
0.3189975
50
281.8396411
51
316.5457803
0
ARC
8
DEFAULT_255_1_234
10
23.8077694
20
76.5407762
40
0.4789527
50
269.5770101
51
282.4214771
0
ARC
8
DEFAULT_255_1_234
10
23.8006505
20
76.5194125
40
0.45759
50
256.2427136
51
270.4486331
0
ARC
8
DEFAULT_255_1_234
10
23.7707408
20
76.3994229
40
0.3339303
50
228.9023911
51
256.3314342
0
ARC
8
DEFAULT_255_1_234
10
23.763364
20
76.3877746
40
0.32031
50
193.753695
51
228.5271154
0
ARC
8
DEFAULT_255_1_234
10
23.8871594
20
76.42408
40
0.4492253
50
184.924711
51
194.497588
0
ARC
8
DEFAULT_255_1_234
10
23.9064161
20
76.4276591
40
0.3289787
50
187.3600538
51
198.6732863
0
ARC
8
DEFAULT_255_1_234
10
23.8014455
20
76.3912674
40
0.217884
50
198.4451669
51
217.794479
0
ARC
8
DEFAULT_255_1_234
10
23.771863
20
76.3703085
40
0.1816698
50
218.2887171
51
228.5612368
0
ARC
8
DEFAULT_255_1_234
10
23.7816417
20
76.3834963
40
0.1980329
50
228.9654866
51
258.1234728
0
ARC
8
DEFAULT_255_1_234
10
23.8022127
20
76.4715833
40
0.2884748
50
257.7258293
51
270.401361
0
ARC
8
DEFAULT_255_1_234
10
23.8067014
20
76.4270821
40
0.2439788
50
269.4204404
51
286.4209037
0
ARC
8
DEFAULT_255_1_234
10
23.8215501
20
76.3731657
40
0.1880666
50
286.7251356
51
320.600362
0
ARC
8
DEFAULT_255_1_234
10
23.7832326
20
76.4042595
40
0.2374121
50
320.6712579
51
344.5441685
0
ARC
8
DEFAULT_255_1_234
10
23.6675652
20
76.4382045
40
0.3579479
50
344.2412205
51
356.7357071
0
ARC
8
DEFAULT_255_1_234
10
23.5426801
20
76.4485444
40
0.4832297
50
356.3548756
51
0.0500261
0
ARC
8
DEFAULT_255_1_234
10
23.676331
20
76.451665
40
0.3495889
50
359.5576869
51
12.953486
0
ARC
8
DEFAULT_255_1_234
10
23.7818207
20
76.4772434
40
0.2410532
50
12.6490276
51
41.6081334
0
ARC
8
DEFAULT_255_1_234
10
23.8048578
20
76.4968321
40
0.2108218
50
41.7850273
51
85.9892764
0
ARC
8
DEFAULT_255_1_234
10
23.7925315
20
76.4155462
40
0.2928454
50
84.6957577
51
90.0676183
0
ARC
8
DEFAULT_255_1_234
10
23.7901799
20
76.3486716
40
0.3597255
50
89.6804936
51
99.1614436
0
ARC
8
DEFAULT_255_1_234
10
23.769643
20
76.4714131
40
0.235281
50
98.9830931
51
113.8908934
0
ARC
8
DEFAULT_255_1_234
10
23.746684
20
76.5255587
40
0.176479
50
114.1950727
51
127.3641004
0
LINE
8
DEFAULT_255_1_234
10
22.4109458
20
85.1848211
11
22.7145456
21
84.597701
0
LINE
8
DEFAULT_255_1_234
10
22.7145456
20
84.597701
11
23.0197516
21
85.1848211
0
LINE
8
DEFAULT_255_1_234
10
23.0197516
20
85.1848211
11
23.1948435
21
85.1848211
0
LINE
8
DEFAULT_255_1_234
10
23.1948435
20
85.1848211
11
22.7916502
21
84.4515234
0
LINE
8
DEFAULT_255_1_234
10
22.7916502
20
84.4515234
11
22.7916502
21
84.0154
0
LINE
8
DEFAULT_255_1_234
10
22.7916502
20
84.0154
11
22.6374409
21
84.0154
0
LINE
8
DEFAULT_255_1_234
10
22.6374409
20
84.0154
11
22.6374409
21
84.4515234
0
LINE
8
DEFAULT_255_1_234
10
22.6374409
20
84.4515234
11
22.2342476
21
85.1848211
0
LINE
8
DEFAULT_255_1_234
10
22.2342476
20
85.1848211
11
22.4109458
21
85.1848211
0
LINE
8
DEFAULT_255_1_234
10
23.9345666
20
85.1848211
11
23.9345666
21
84.408152
0
LINE
8
DEFAULT_255_1_234
10
23.9345666
20
84.408152
11
24.0968077
21
84.408152
0
LINE
8
DEFAULT_255_1_234
10
24.0968077
20
84.408152
11
24.0968077
21
84.2868728
0
LINE
8
DEFAULT_255_1_234
10
24.0968077
20
84.2868728
11
23.9345666
21
84.2868728
0
LINE
8
DEFAULT_255_1_234
10
23.9345666
20
84.2868728
11
23.9345666
21
84.0154
0
LINE
8
DEFAULT_255_1_234
10
23.9345666
20
84.0154
11
23.7851763
21
84.0154
0
LINE
8
DEFAULT_255_1_234
10
23.7851763
20
84.0154
11
23.7851763
21
84.2868728
0
LINE
8
DEFAULT_255_1_234
10
23.7851763
20
84.2868728
11
23.252672
21
84.2868728
0
LINE
8
DEFAULT_255_1_234
10
23.252672
20
84.2868728
11
23.252672
21
84.3744187
0
LINE
8
DEFAULT_255_1_234
10
23.252672
20
84.3744187
11
23.7763414
21
85.1848211
0
LINE
8
DEFAULT_255_1_234
10
23.7763414
20
85.1848211
11
23.9345666
21
85.1848211
0
LINE
8
DEFAULT_255_1_234
10
23.7675064
20
84.9494912
11
23.4213385
21
84.408152
0
LINE
8
DEFAULT_255_1_234
10
23.4213385
20
84.408152
11
23.7851763
21
84.408152
0
LINE
8
DEFAULT_255_1_234
10
23.7851763
20
84.408152
11
23.7851763
21
84.9816181
0
LINE
8
DEFAULT_255_1_234
10
23.7851763
20
84.9816181
11
23.7675064
21
84.9494912
0
LINE
8
DEFAULT_255_1_234
10
23.1862119
20
92.0741792
11
23.1862119
21
91.9529
0
LINE
8
DEFAULT_255_1_234
10
23.1862119
20
91.9529
11
22.419984
21
91.9529
0
LINE
8
DEFAULT_255_1_234
10
22.419984
20
91.9529
11
22.419984
21
92.0597221
0
LINE
8
DEFAULT_255_1_234
10
22.419984
20
92.0597221
11
22.8247836
21
92.5094995
0
LINE
8
DEFAULT_255_1_234
10
22.5460823
20
92.7777595
11
22.3974952
21
92.7777595
0
LINE
8
DEFAULT_255_1_234
10
22.9123296
20
92.4139218
11
22.5990918
21
92.0741792
0
LINE
8
DEFAULT_255_1_234
10
22.5990918
20
92.0741792
11
23.1862119
21
92.0741792
0
ARC
8
DEFAULT_255_1_234
10
21.475767
20
93.7024527
40
1.8008286
50
318.5132453
51
320.7828378
0
ARC
8
DEFAULT_255_1_234
10
22.0044644
20
93.2721426
40
1.1191493
50
320.7372736
51
323.9737074
0
ARC
8
DEFAULT_255_1_234
10
22.3964501
20
92.9881361
40
0.6350923
50
323.8961724
51
328.6421089
0
ARC
8
DEFAULT_255_1_234
10
22.6011096
20
92.8619031
40
0.3946393
50
328.8299013
51
331.789948
0
ARC
8
DEFAULT_255_1_234
10
22.7008274
20
92.8104509
40
0.2824501
50
331.4255242
51
352.9364833
0
ARC
8
DEFAULT_255_1_234
10
22.7144775
20
92.8073976
40
0.2685315
50
353.2248685
51
0.0169286
0
ARC
8
DEFAULT_255_1_234
10
22.7354652
20
92.809695
40
0.2475536
50
359.4866256
51
15.9339782
0
ARC
8
DEFAULT_255_1_234
10
22.7861637
20
92.8233286
40
0.1950618
50
16.1714718
51
43.5284424
0
ARC
8
DEFAULT_255_1_234
10
22.7938946
20
92.8310573
40
0.184134
50
43.4415429
51
83.1661404
0
ARC
8
DEFAULT_255_1_234
10
22.7804864
20
92.7573771
40
0.258926
50
82.160215
51
90.1505798
0
ARC
8
DEFAULT_255_1_234
10
22.7773291
20
92.7036865
40
0.3126255
50
89.5460705
51
102.5418777
0
ARC
8
DEFAULT_255_1_234
10
22.7530377
20
92.8067665
40
0.2067346
50
102.1739365
51
129.2061916
0
ARC
8
DEFAULT_255_1_234
10
22.7451449
20
92.8192094
40
0.1921118
50
129.7279328
51
135.7542026
0
ARC
8
DEFAULT_255_1_234
10
22.7572977
20
92.8095045
40
0.2075944
50
136.175737
51
166.3674722
0
ARC
8
DEFAULT_255_1_234
10
22.8579896
20
92.7825182
40
0.3118201
50
165.9092917
51
178.8683903
0
ARC
8
DEFAULT_255_1_234
10
22.9444757
20
92.7778179
40
0.3983935
50
178.438168
51
180.0083905
0
ARC
8
DEFAULT_255_1_234
10
22.8043359
20
92.7817231
40
0.4068601
50
163.2878735
51
180.5581814
0
ARC
8
DEFAULT_255_1_234
10
22.7241621
20
92.803784
40
0.3237344
50
133.454115
51
162.9470031
0
ARC
8
DEFAULT_255_1_234
10
22.7420162
20
92.7848
40
0.349795
50
100.7869394
51
133.4384016
0
ARC
8
DEFAULT_255_1_234
10
22.7767934
20
92.6299319
40
0.5084616
50
89.6605301
51
101.3704185
0
ARC
8
DEFAULT_255_1_234
10
22.7834273
20
92.6360496
40
0.502348
50
78.2171172
51
90.4130393
0
ARC
8
DEFAULT_255_1_234
10
22.8189351
20
92.7984637
40
0.3361092
50
55.9268222
51
78.4888551
0
ARC
8
DEFAULT_255_1_234
10
22.8385791
20
92.8323324
40
0.2970617
50
47.9292255
51
55.4054003
0
ARC
8
DEFAULT_255_1_234
10
22.8487352
20
92.8426502
40
0.2825983
50
4.3347696
51
48.0560701
0
ARC
8
DEFAULT_255_1_234
10
22.7391745
20
92.8256601
40
0.393225
50
359.925209
51
5.5967654
0
ARC
8
DEFAULT_255_1_234
10
22.7820637
20
92.8312816
40
0.3503892
50
337.8914096
51
358.9967724
0
ARC
8
DEFAULT_255_1_234
10
22.5107049
20
92.9359706
40
0.6412172
50
326.9135351
51
338.3505194
0
ARC
8
DEFAULT_255_1_234
10
22.1121353
20
93.1914284
40
1.1146189
50
319.6472867
51
327.095818
0
ARC
8
DEFAULT_255_1_234
10
21.7288356
20
93.5076
40
1.6114559
50
317.2586784
51
319.9046139
0
LINE
8
DEFAULT_255_1_234
10
24.0873729
20
92.3239663
11
24.2423854
21
92.3239663
0
LINE
8
DEFAULT_255_1_234
10
23.3420276
20
92.4829947
11
23.3420276
21
92.5954391
0
LINE
8
DEFAULT_255_1_234
10
24.2423854
20
92.7464357
11
24.0873729
21
92.7464357
0
LINE
8
DEFAULT_255_1_234
10
23.4970401
20
92.5914232
11
23.4970401
21
92.4781757
0
ARC
8
DEFAULT_255_1_234
10
23.6943241
20
92.3836846
40
0.5513052
50
340.1774281
51
353.7814284
0
ARC
8
DEFAULT_255_1_234
10
23.8514594
20
92.3251582
40
0.3836379
50
311.4558989
51
340.4421614
0
ARC
8
DEFAULT_255_1_234
10
23.8481262
20
92.3362528
40
0.3941894
50
282.4333181
51
310.7513653
0
ARC
8
DEFAULT_255_1_234
10
23.8042001
20
92.5177679
40
0.5809175
50
269.9358511
51
282.809604
0
ARC
8
DEFAULT_255_1_234
10
23.7990067
20
92.6635212
40
0.7266847
50
270.0021091
51
270.3581957
0
ARC
8
DEFAULT_255_1_234
10
23.7937484
20
92.4034585
40
0.4666519
50
250.7884749
51
270.6489167
0
ARC
8
DEFAULT_255_1_234
10
23.7769319
20
92.3397319
40
0.4009729
50
219.3627325
51
250.0611886
0
ARC
8
DEFAULT_255_1_234
10
23.859853
20
92.4102042
40
0.5097822
50
193.5479632
51
219.5756669
0
ARC
8
DEFAULT_255_1_234
10
24.0970151
20
92.4717919
40
0.7547848
50
181.1218675
51
193.87563
0
ARC
8
DEFAULT_255_1_234
10
24.3040332
20
92.482858
40
0.9620055
50
179.9918545
51
181.5394234
0
ARC
8
DEFAULT_255_1_234
10
24.1189434
20
92.5991788
40
0.7769248
50
169.5837241
51
180.2757934
0
ARC
8
DEFAULT_255_1_234
10
23.9352372
20
92.6331229
40
0.590109
50
155.0365899
51
169.6003176
0
ARC
8
DEFAULT_255_1_234
10
23.8216836
20
92.6878677
40
0.4640625
50
136.783148
51
155.2472683
0
ARC
8
DEFAULT_255_1_234
10
23.7827313
20
92.7209562
40
0.4130255
50
121.7633186
51
136.428115
0
ARC
8
DEFAULT_255_1_234
10
23.7962275
20
92.6960227
40
0.4413323
50
95.6459699
51
121.5490577
0
ARC
8
DEFAULT_255_1_234
10
23.8119557
20
92.5851949
40
0.55319
50
89.924208
51
96.1377933
0
ARC
8
DEFAULT_255_1_234
10
23.816999
20
92.5970542
40
0.5413475
50
76.6779277
51
90.4563316
0
ARC
8
DEFAULT_255_1_234
10
23.8563613
20
92.7561114
40
0.3775041
50
47.485847
51
76.9287264
0
ARC
8
DEFAULT_255_1_234
10
23.8416586
20
92.7461159
40
0.3948286
50
16.5424086
51
46.8933463
0
ARC
8
DEFAULT_255_1_234
10
23.6808743
20
92.6932861
40
0.564021
50
5.4072051
51
17.0365086
0
ARC
8
DEFAULT_255_1_234
10
23.536976
20
92.6701679
40
0.5556559
50
7.8891745
51
15.9239216
0
ARC
8
DEFAULT_255_1_234
10
23.7356773
20
92.7278631
40
0.3487515
50
15.7653144
51
27.9410532
0
ARC
8
DEFAULT_255_1_234
10
23.8460991
20
92.786979
40
0.2235026
50
27.8166557
51
46.4008329
0
ARC
8
DEFAULT_255_1_234
10
23.8510634
20
92.7864082
40
0.2205286
50
47.4371857
51
75.0698205
0
ARC
8
DEFAULT_255_1_234
10
23.8202029
20
92.6789765
40
0.3322915
50
74.7008593
51
87.8124495
0
ARC
8
DEFAULT_255_1_234
10
23.8128716
20
92.5733844
40
0.4380987
50
87.3814673
51
90.0240855
0
ARC
8
DEFAULT_255_1_234
10
23.8090259
20
92.6911291
40
0.3203749
50
89.3451631
51
108.5745436
0
ARC
8
DEFAULT_255_1_234
10
23.7953365
20
92.7424908
40
0.2673494
50
109.2998449
51
143.3037509
0
ARC
8
DEFAULT_255_1_234
10
23.8715437
20
92.6838881
40
0.3634757
50
143.0753173
51
163.1916937
0
ARC
8
DEFAULT_255_1_234
10
24.0667165
20
92.6222967
40
0.5681262
50
162.9373603
51
174.6208611
0
ARC
8
DEFAULT_255_1_234
10
24.3293207
20
92.593501
40
0.8322832
50
174.3419979
51
180.1430411
0
ARC
8
DEFAULT_255_1_234
10
24.2362363
20
92.4740698
40
0.7392076
50
179.6817502
51
189.150529
0
ARC
8
DEFAULT_255_1_234
10
23.9861611
20
92.432419
40
0.4856932
50
188.9910863
51
203.5773039
0
ARC
8
DEFAULT_255_1_234
10
23.8781944
20
92.3876211
40
0.3688271
50
203.9077269
51
215.1312379
0
ARC
8
DEFAULT_255_1_234
10
23.7859038
20
92.3160941
40
0.2522457
50
213.9071664
51
263.8849284
0
ARC
8
DEFAULT_255_1_234
10
23.7984367
20
92.3945518
40
0.3316174
50
263.1758525
51
270.1031083
0
ARC
8
DEFAULT_255_1_234
10
23.8016459
20
92.5192365
40
0.4563091
50
269.6719807
51
279.0609165
0
ARC
8
DEFAULT_255_1_234
10
23.8283227
20
92.3579907
40
0.2928759
50
278.8750225
51
293.6346586
0
ARC
8
DEFAULT_255_1_234
10
23.8603435
20
92.28279
40
0.2111472
50
293.8553404
51
310.0518804
0
ARC
8
DEFAULT_255_1_234
10
23.8608289
20
92.2765516
40
0.2060917
50
311.0646779
51
332.0108348
0
ARC
8
DEFAULT_255_1_234
10
23.7416016
20
92.3422978
40
0.3422352
50
331.6588543
51
343.2878891
0
ARC
8
DEFAULT_255_1_234
10
23.5353531
20
92.4056798
40
0.5580003
50
343.1446044
51
351.010618
0
ARC
8
DEFAULT_255_1_234
10
23.3812177
20
92.4337871
40
0.7146438
50
350.7157277
51
351.1602153
0
LINE
8
DEFAULT_255_1_234
10
22.5167458
20
101.0598211
11
22.8203456
21
100.472701
0
LINE
8
DEFAULT_255_1_234
10
22.8203456
20
100.472701
11
23.1255516
21
101.0598211
0
LINE
8
DEFAULT_255_1_234
10
23.1255516
20
101.0598211
11
23.3006435
21
101.0598211
0
LINE
8
DEFAULT_255_1_234
10
23.3006435
20
101.0598211
11
22.8974502
21
100.3265234
0
LINE
8
DEFAULT_255_1_234
10
22.8974502
20
100.3265234
11
22.8974502
21
99.8904
0
LINE
8
DEFAULT_255_1_234
10
22.8974502
20
99.8904
11
22.7432409
21
99.8904
0
LINE
8
DEFAULT_255_1_234
10
22.7432409
20
99.8904
11
22.7432409
21
100.3265234
0
LINE
8
DEFAULT_255_1_234
10
22.7432409
20
100.3265234
11
22.3400476
21
101.0598211
0
LINE
8
DEFAULT_255_1_234
10
22.3400476
20
101.0598211
11
22.5167458
21
101.0598211
0
LINE
8
DEFAULT_255_1_234
10
23.6291416
20
100.4261169
11
23.6291416
21
100.5473962
0
LINE
8
DEFAULT_255_1_234
10
23.6291416
20
100.5473962
11
23.7407828
21
100.5473962
0
LINE
8
DEFAULT_255_1_234
10
23.5504306
20
100.7530087
11
23.4018434
21
100.7530087
0
LINE
8
DEFAULT_255_1_234
10
23.3914021
20
100.1988188
11
23.5407925
21
100.1988188
0
LINE
8
DEFAULT_255_1_234
10
23.7407828
20
100.4261169
11
23.6291416
21
100.4261169
0
ARC
8
DEFAULT_255_1_234
10
23.7378694
20
100.8866713
40
0.3392876
50
270.4919872
51
281.8951556
0
ARC
8
DEFAULT_255_1_234
10
23.7619956
20
100.7764702
40
0.2264817
50
281.6691735
51
301.2943132
0
ARC
8
DEFAULT_255_1_234
10
23.7790166
20
100.7453304
40
0.1910381
50
301.7833094
51
311.7545298
0
ARC
8
DEFAULT_255_1_234
10
23.7881742
20
100.7351748
40
0.1773635
50
311.7323931
51
354.2802411
0
ARC
8
DEFAULT_255_1_234
10
23.7155367
20
100.7476722
40
0.2509385
50
353.0937916
51
0.1181479
0
ARC
8
DEFAULT_255_1_234
10
23.6694152
20
100.7524386
40
0.2970898
50
359.1805295
51
15.0453146
0
ARC
8
DEFAULT_255_1_234
10
23.8039989
20
100.7916992
40
0.1569564
50
13.9577229
51
77.6713066
0
ARC
8
DEFAULT_255_1_234
10
23.7653518
20
100.6531949
40
0.3006298
50
76.1116566
51
90.7026153
0
ARC
8
DEFAULT_255_1_234
10
23.7594356
20
100.6805545
40
0.2732568
50
89.5324876
51
103.531937
0
ARC
8
DEFAULT_255_1_234
10
23.7393801
20
100.7604884
40
0.1908508
50
103.2931773
51
133.5619022
0
ARC
8
DEFAULT_255_1_234
10
23.7349289
20
100.7664375
40
0.1834746
50
133.8349307
51
173.5344437
0
ARC
8
DEFAULT_255_1_234
10
23.8072332
20
100.7536213
40
0.2568033
50
172.5096846
51
180.1366907
0
ARC
8
DEFAULT_255_1_234
10
23.7121226
20
100.7570622
40
0.3103056
50
155.3484492
51
180.7484736
0
ARC
8
DEFAULT_255_1_234
10
23.7072315
20
100.7541846
40
0.3070957
50
131.5744599
51
154.4798489
0
ARC
8
DEFAULT_255_1_234
10
23.7385462
20
100.722531
40
0.3515643
50
96.9875458
51
131.9690667
0
ARC
8
DEFAULT_255_1_234
10
23.7604942
20
100.5979636
40
0.4779224
50
89.8596053
51
97.7825159
0
ARC
8
DEFAULT_255_1_234
10
23.7653005
20
100.5717616
40
0.5041361
50
78.3655447
51
90.4131539
0
ARC
8
DEFAULT_255_1_234
10
23.8010923
20
100.7376887
40
0.3344039
50
56.6229102
51
78.638727
0
ARC
8
DEFAULT_255_1_234
10
23.8225867
20
100.7752805
40
0.2912001
50
47.0253525
51
56.0854072
0
ARC
8
DEFAULT_255_1_234
10
23.8245647
20
100.7792223
40
0.2869704
50
10.9208013
51
46.7778124
0
ARC
8
DEFAULT_255_1_234
10
23.6881713
20
100.7476857
40
0.426899
50
359.6364486
51
11.6087304
0
ARC
8
DEFAULT_255_1_234
10
23.8716557
20
100.7461752
40
0.243409
50
332.3549906
51
359.7179418
0
ARC
8
DEFAULT_255_1_234
10
23.8066159
20
100.7770142
40
0.3153459
50
325.2333722
51
332.8745602
0
ARC
8
DEFAULT_255_1_234
10
23.8218783
20
100.7663828
40
0.2967456
50
292.9802137
51
325.2392345
0
ARC
8
DEFAULT_255_1_234
10
23.7944157
20
100.8197863
40
0.3566604
50
292.5402179
51
293.6924929
0
ARC
8
DEFAULT_255_1_234
10
23.8336752
20
100.1743091
40
0.3307468
50
57.6435486
51
72.8625112
0
ARC
8
DEFAULT_255_1_234
10
23.8691252
20
100.2317549
40
0.2632492
50
36.7248896
51
57.4697979
0
ARC
8
DEFAULT_255_1_234
10
23.8679885
20
100.233022
40
0.2634081
50
8.0545065
51
36.356114
0
ARC
8
DEFAULT_255_1_234
10
23.781707
20
100.2175174
40
0.3510261
50
359.8320645
51
8.5869982
0
ARC
8
DEFAULT_255_1_234
10
23.7441846
20
100.2127101
40
0.3885653
50
343.9829931
51
0.5571613
0
ARC
8
DEFAULT_255_1_234
10
23.8328043
20
100.1884438
40
0.2966924
50
311.6359546
51
343.7651759
0
ARC
8
DEFAULT_255_1_234
10
23.7949613
20
100.2311102
40
0.3537231
50
279.7829875
51
311.6255694
0
ARC
8
DEFAULT_255_1_234
10
23.7648389
20
100.374828
40
0.5004971
50
269.7286406
51
280.3856417
0
ARC
8
DEFAULT_255_1_234
10
23.7586461
20
100.3706996
40
0.4963778
50
256.6828919
51
270.4412052
0
ARC
8
DEFAULT_255_1_234
10
23.7247757
20
100.2322394
40
0.3538406
50
229.4223008
51
256.8556159
0
ARC
8
DEFAULT_255_1_234
10
23.683315
20
100.1855736
40
0.2914296
50
181.818294
51
229.6455059
0
ARC
8
DEFAULT_255_1_234
10
23.7873106
20
100.1986496
40
0.3959084
50
179.9755256
51
183.2323064
0
ARC
8
DEFAULT_255_1_234
10
23.7700852
20
100.1966037
40
0.2293034
50
179.4465117
51
196.2869258
0
ARC
8
DEFAULT_255_1_234
10
23.721326
20
100.1832651
40
0.1787621
50
196.5661473
51
227.705904
0
ARC
8
DEFAULT_255_1_234
10
23.7377355
20
100.2016155
40
0.2033784
50
227.7652068
51
257.8762805
0
ARC
8
DEFAULT_255_1_234
10
23.7602325
20
100.2959156
40
0.3003081
50
257.4584385
51
270.426602
0
ARC
8
DEFAULT_255_1_234
10
23.7647891
20
100.3248996
40
0.329292
50
269.5962073
51
280.8789248
0
ARC
8
DEFAULT_255_1_234
10
23.787742
20
100.2102685
40
0.2123908
50
280.6346389
51
299.8595945
0
ARC
8
DEFAULT_255_1_234
10
23.8068327
20
100.1740212
40
0.171457
50
300.3576302
51
314.5517981
0
ARC
8
DEFAULT_255_1_234
10
23.7985387
20
100.1800919
40
0.1816095
50
315.0728369
51
345.0431014
0
ARC
8
DEFAULT_255_1_234
10
23.7062201
20
100.2069841
40
0.2777492
50
344.5986631
51
357.9269593
0
ARC
8
DEFAULT_255_1_234
10
23.6166528
20
100.2131276
40
0.3674917
50
357.4748886
51
0.0231117
0
ARC
8
DEFAULT_255_1_234
10
23.7189637
20
100.2155679
40
0.2651907
50
359.5047933
51
13.4239635
0
ARC
8
DEFAULT_255_1_234
10
23.8056281
20
100.2377478
40
0.1757509
50
12.9498199
51
48.7551375
0
ARC
8
DEFAULT_255_1_234
10
23.7874014
20
100.21284
40
0.2065134
50
49.5088623
51
72.1836453
0
ARC
8
DEFAULT_255_1_234
10
23.7516167
20
100.1066291
40
0.3185836
50
71.9010081
51
84.3554254
0
ARC
8
DEFAULT_255_1_234
10
23.7354799
20
99.9705326
40
0.4556151
50
84.0193428
51
89.333121
0
LINE
8
DEFAULT_255_1_234
10
22.5167458
20
108.9973211
11
22.8203456
21
108.410201
0
LINE
8
DEFAULT_255_1_234
10
22.8203456
20
108.410201
11
23.1255516
21
108.9973211
0
LINE
8
DEFAULT_255_1_234
10
23.1255516
20
108.9973211
11
23.3006435
21
108.9973211
0
LINE
8
DEFAULT_255_1_234
10
23.3006435
20
108.9973211
11
22.8974502
21
108.2640234
0
LINE
8
DEFAULT_255_1_234
10
22.8974502
20
108.2640234
11
22.8974502
21
107.8279
0
LINE
8
DEFAULT_255_1_234
10
22.8974502
20
107.8279
11
22.7432409
21
107.8279
0
LINE
8
DEFAULT_255_1_234
10
22.7432409
20
107.8279
11
22.7432409
21
108.2640234
0
LINE
8
DEFAULT_255_1_234
10
22.7432409
20
108.2640234
11
22.3400476
21
108.9973211
0
LINE
8
DEFAULT_255_1_234
10
22.3400476
20
108.9973211
11
22.5167458
21
108.9973211
0
LINE
8
DEFAULT_255_1_234
10
24.1793157
20
107.9491792
11
24.1793157
21
107.8279
0
LINE
8
DEFAULT_255_1_234
10
24.1793157
20
107.8279
11
23.4130878
21
107.8279
0
LINE
8
DEFAULT_255_1_234
10
23.4130878
20
107.8279
11
23.4130878
21
107.9347221
0
LINE
8
DEFAULT_255_1_234
10
23.4130878
20
107.9347221
11
23.8178875
21
108.3844995
0
LINE
8
DEFAULT_255_1_234
10
23.5391861
20
108.6527595
11
23.390599
21
108.6527595
0
LINE
8
DEFAULT_255_1_234
10
23.9054334
20
108.2889218
11
23.5921956
21
107.9491792
0
LINE
8
DEFAULT_255_1_234
10
23.5921956
20
107.9491792
11
24.1793157
21
107.9491792
0
ARC
8
DEFAULT_255_1_234
10
22.4688708
20
109.5774527
40
1.8008286
50
318.5132453
51
320.7828378
0
ARC
8
DEFAULT_255_1_234
10
22.9975682
20
109.1471426
40
1.1191493
50
320.7372736
51
323.9737074
0
ARC
8
DEFAULT_255_1_234
10
23.3895539
20
108.8631361
40
0.6350923
50
323.8961724
51
328.6421089
0
ARC
8
DEFAULT_255_1_234
10
23.5942134
20
108.7369031
40
0.3946393
50
328.8299013
51
331.789948
0
ARC
8
DEFAULT_255_1_234
10
23.6939313
20
108.6854509
40
0.2824501
50
331.4255242
51
352.9364833
0
ARC
8
DEFAULT_255_1_234
10
23.7075813
20
108.6823976
40
0.2685315
50
353.2248685
51
0.0169286
0
ARC
8
DEFAULT_255_1_234
10
23.728569
20
108.684695
40
0.2475536
50
359.4866256
51
15.9339782
0
ARC
8
DEFAULT_255_1_234
10
23.7792675
20
108.6983286
40
0.1950618
50
16.1714718
51
43.5284424
0
ARC
8
DEFAULT_255_1_234
10
23.7869984
20
108.7060573
40
0.184134
50
43.4415429
51
83.1661404
0
ARC
8
DEFAULT_255_1_234
10
23.7735902
20
108.6323771
40
0.258926
50
82.160215
51
90.1505798
0
ARC
8
DEFAULT_255_1_234
10
23.7704329
20
108.5786865
40
0.3126255
50
89.5460705
51
102.5418777
0
ARC
8
DEFAULT_255_1_234
10
23.7461416
20
108.6817665
40
0.2067346
50
102.1739365
51
129.2061916
0
ARC
8
DEFAULT_255_1_234
10
23.7382487
20
108.6942094
40
0.1921118
50
129.7279328
51
135.7542026
0
ARC
8
DEFAULT_255_1_234
10
23.7504015
20
108.6845045
40
0.2075944
50
136.175737
51
166.3674722
0
ARC
8
DEFAULT_255_1_234
10
23.8510934
20
108.6575182
40
0.3118201
50
165.9092917
51
178.8683903
0
ARC
8
DEFAULT_255_1_234
10
23.9375795
20
108.6528179
40
0.3983935
50
178.438168
51
180.0083905
0
ARC
8
DEFAULT_255_1_234
10
23.7974398
20
108.6567231
40
0.4068601
50
163.2878735
51
180.5581814
0
ARC
8
DEFAULT_255_1_234
10
23.7172659
20
108.678784
40
0.3237344
50
133.454115
51
162.9470031
0
ARC
8
DEFAULT_255_1_234
10
23.73512
20
108.6598
40
0.349795
50
100.7869394
51
133.4384016
0
ARC
8
DEFAULT_255_1_234
10
23.7698972
20
108.5049319
40
0.5084616
50
89.6605301
51
101.3704185
0
ARC
8
DEFAULT_255_1_234
10
23.7765311
20
108.5110496
40
0.502348
50
78.2171172
51
90.4130393
0
ARC
8
DEFAULT_255_1_234
10
23.8120389
20
108.6734637
40
0.3361092
50
55.9268222
51
78.4888551
0
ARC
8
DEFAULT_255_1_234
10
23.8316829
20
108.7073324
40
0.2970617
50
47.9292255
51
55.4054003
0
ARC
8
DEFAULT_255_1_234
10
23.841839
20
108.7176502
40
0.2825983
50
4.3347696
51
48.0560701
0
ARC
8
DEFAULT_255_1_234
10
23.7322783
20
108.7006601
40
0.393225
50
359.925209
51
5.5967654
0
ARC
8
DEFAULT_255_1_234
10
23.7751675
20
108.7062816
40
0.3503892
50
337.8914096
51
358.9967724
0
ARC
8
DEFAULT_255_1_234
10
23.5038087
20
108.8109706
40
0.6412172
50
326.9135351
51
338.3505194
0
ARC
8
DEFAULT_255_1_234
10
23.1052391
20
109.0664284
40
1.1146189
50
319.6472867
51
327.095818
0
ARC
8
DEFAULT_255_1_234
10
22.7219394
20
109.3826
40
1.6114559
50
317.2586784
51
319.9046139
0
LINE
8
DEFAULT_255_1_234
10
22.5255458
20
116.9348211
11
22.8291456
21
116.347701
0
LINE
8
DEFAULT_255_1_234
10
22.8291456
20
116.347701
11
23.1343516
21
116.9348211
0
LINE
8
DEFAULT_255_1_234
10
23.1343516
20
116.9348211
11
23.3094435
21
116.9348211
0
LINE
8
DEFAULT_255_1_234
10
23.3094435
20
116.9348211
11
22.9062502
21
116.2015234
0
LINE
8
DEFAULT_255_1_234
10
22.9062502
20
116.2015234
11
22.9062502
21
115.7654
0
LINE
8
DEFAULT_255_1_234
10
22.9062502
20
115.7654
11
22.7520409
21
115.7654
0
LINE
8
DEFAULT_255_1_234
10
22.7520409
20
115.7654
11
22.7520409
21
116.2015234
0
LINE
8
DEFAULT_255_1_234
10
22.7520409
20
116.2015234
11
22.3488476
21
116.9348211
0
LINE
8
DEFAULT_255_1_234
10
22.3488476
20
116.9348211
11
22.5255458
21
116.9348211
0
LINE
8
DEFAULT_255_1_234
10
23.9102175
20
116.9404433
11
23.9102175
21
115.7654
0
LINE
8
DEFAULT_255_1_234
10
23.9102175
20
115.7654
11
23.7608272
21
115.7654
0
LINE
8
DEFAULT_255_1_234
10
23.7608272
20
115.7654
11
23.7608272
21
116.7557133
0
LINE
8
DEFAULT_255_1_234
10
23.7608272
20
116.7557133
11
23.4612434
21
116.6456785
0
LINE
8
DEFAULT_255_1_234
10
23.4612434
20
116.6456785
11
23.4612434
21
116.7806117
0
LINE
8
DEFAULT_255_1_234
10
23.4612434
20
116.7806117
11
23.8869255
21
116.9404433
0
LINE
8
DEFAULT_255_1_234
10
23.8869255
20
116.9404433
11
23.9102175
21
116.9404433
0
LINE
8
DEFAULT_255_1_234
10
22.5167458
20
124.8723211
11
22.8203456
21
124.285201
0
LINE
8
DEFAULT_255_1_234
10
22.8203456
20
124.285201
11
23.1255516
21
124.8723211
0
LINE
8
DEFAULT_255_1_234
10
23.1255516
20
124.8723211
11
23.3006435
21
124.8723211
0
LINE
8
DEFAULT_255_1_234
10
23.3006435
20
124.8723211
11
22.8974502
21
124.1390234
0
LINE
8
DEFAULT_255_1_234
10
22.8974502
20
124.1390234
11
22.8974502
21
123.7029
0
LINE
8
DEFAULT_255_1_234
10
22.8974502
20
123.7029
11
22.7432409
21
123.7029
0
LINE
8
DEFAULT_255_1_234
10
22.7432409
20
123.7029
11
22.7432409
21
124.1390234
0
LINE
8
DEFAULT_255_1_234
10
22.7432409
20
124.1390234
11
22.3400476
21
124.8723211
0
LINE
8
DEFAULT_255_1_234
10
22.3400476
20
124.8723211
11
22.5167458
21
124.8723211
0
LINE
8
DEFAULT_255_1_234
10
24.1463855
20
124.3944327
11
24.1463855
21
124.2016709
0
LINE
8
DEFAULT_255_1_234
10
23.4082688
20
124.1815916
11
23.4082688
21
124.3799755
0
LINE
8
DEFAULT_255_1_234
10
23.9977984
20
124.1615123
11
23.9977984
21
124.4048739
0
LINE
8
DEFAULT_255_1_234
10
23.556856
20
124.4161184
11
23.556856
21
124.1783789
0
ARC
8
DEFAULT_255_1_234
10
22.9216745
20
124.1967805
40
1.2247208
50
353.8441951
51
0.2287902
0
ARC
8
DEFAULT_255_1_234
10
23.3856249
20
124.1449806
40
0.7578929
50
344.4934747
51
353.9765454
0
ARC
8
DEFAULT_255_1_234
10
23.6848839
20
124.0598981
40
0.4467846
50
329.2803592
51
344.7472793
0
ARC
8
DEFAULT_255_1_234
10
23.7841664
20
124.0054018
40
0.3336173
50
324.9352394
51
328.6160465
0
ARC
8
DEFAULT_255_1_234
10
23.8218773
20
123.9790427
40
0.2876076
50
280.580143
51
324.9173126
0
ARC
8
DEFAULT_255_1_234
10
23.7817565
20
124.1461099
40
0.4592847
50
269.5977311
51
281.6734359
0
ARC
8
DEFAULT_255_1_234
10
23.7745471
20
124.1341173
40
0.4472986
50
256.6228859
51
270.51044
0
ARC
8
DEFAULT_255_1_234
10
23.7343449
20
123.9792877
40
0.2873874
50
215.8618325
51
257.2788573
0
ARC
8
DEFAULT_255_1_234
10
23.836448
20
124.0477977
40
0.4102928
50
197.9693508
51
215.2623606
0
ARC
8
DEFAULT_255_1_234
10
24.0849596
20
124.1316709
40
0.6725652
50
187.8816417
51
198.2346507
0
ARC
8
DEFAULT_255_1_234
10
24.4807804
20
124.1888079
40
1.0724845
50
180.8976217
51
188.0055519
0
ARC
8
DEFAULT_255_1_234
10
24.7607992
20
124.1991777
40
1.3526448
50
180.7449369
51
181.1510016
0
ARC
8
DEFAULT_255_1_234
10
24.6030721
20
124.3848042
40
1.1948131
50
173.7675579
51
180.231553
0
ARC
8
DEFAULT_255_1_234
10
24.1512868
20
124.4358666
40
0.7401564
50
164.3058563
51
173.9002247
0
ARC
8
DEFAULT_255_1_234
10
23.8600937
20
124.5197656
40
0.4371288
50
148.7922025
51
164.568378
0
ARC
8
DEFAULT_255_1_234
10
23.7649389
20
124.5728929
40
0.3282386
50
144.5883898
51
148.1176286
0
ARC
8
DEFAULT_255_1_234
10
23.7306287
20
124.5968315
40
0.2864044
50
101.6440918
51
144.514236
0
ARC
8
DEFAULT_255_1_234
10
23.7731354
20
124.4279069
40
0.4604934
50
89.5284041
51
102.5819763
0
ARC
8
DEFAULT_255_1_234
10
23.7810441
20
124.4240018
40
0.464401
50
77.0437873
51
90.5081339
0
ARC
8
DEFAULT_255_1_234
10
23.8212443
20
124.5882615
40
0.2953195
50
48.2778575
51
77.4994676
0
ARC
8
DEFAULT_255_1_234
10
23.8285074
20
124.6011746
40
0.2808655
50
36.3142134
51
47.6305865
0
ARC
8
DEFAULT_255_1_234
10
23.7416381
20
124.5426515
40
0.3855453
50
18.2931786
51
35.6769206
0
ARC
8
DEFAULT_255_1_234
10
23.487314
20
124.4553593
40
0.654423
50
8.024666
51
18.5605216
0
ARC
8
DEFAULT_255_1_234
10
23.071006
20
124.3938792
40
1.0752407
50
1.1274072
51
8.1718305
0
ARC
8
DEFAULT_255_1_234
10
22.7474251
20
124.3811885
40
1.3990231
50
0.5424119
51
1.3863029
0
ARC
8
DEFAULT_255_1_234
10
22.9295629
20
124.4084342
40
1.0682415
50
359.8090433
51
4.9407866
0
ARC
8
DEFAULT_255_1_234
10
23.3505643
20
124.4460113
40
0.6455691
50
4.8362157
51
12.2904523
0
ARC
8
DEFAULT_255_1_234
10
23.6260757
20
124.5073965
40
0.3633074
50
12.0805627
51
23.8173984
0
ARC
8
DEFAULT_255_1_234
10
23.7434463
20
124.5570919
40
0.2358723
50
24.2871213
51
31.3935614
0
ARC
8
DEFAULT_255_1_234
10
23.795916
20
124.5914233
40
0.1732111
50
30.7407893
51
82.4657128
0
ARC
8
DEFAULT_255_1_234
10
23.7779294
20
124.5030691
40
0.263235
50
81.1060089
51
90.2184952
0
ARC
8
DEFAULT_255_1_234
10
23.7743593
20
124.5288924
40
0.2374236
50
89.3806855
51
105.6762551
0
ARC
8
DEFAULT_255_1_234
10
23.7560224
20
124.5955567
40
0.1682847
50
105.7981136
51
149.7388061
0
ARC
8
DEFAULT_255_1_234
10
23.8624302
20
124.531595
40
0.2924306
50
149.4208916
51
163.6286378
0
ARC
8
DEFAULT_255_1_234
10
24.071519
20
124.467825
40
0.5110213
50
163.3763315
51
172.1410975
0
ARC
8
DEFAULT_255_1_234
10
24.4015909
20
124.4205518
40
0.8444586
50
172.0259487
51
178.0703232
0
ARC
8
DEFAULT_255_1_234
10
24.7045999
20
124.4061906
40
1.1477868
50
177.8631668
51
179.5044149
0
ARC
8
DEFAULT_255_1_234
10
24.5973403
20
124.1747389
40
1.0404907
50
179.7995573
51
185.2460446
0
ARC
8
DEFAULT_255_1_234
10
24.1930442
20
124.1364513
40
0.6343885
50
185.1411642
51
193.0079639
0
ARC
8
DEFAULT_255_1_234
10
23.9286915
20
124.0739641
40
0.3627568
50
192.7897626
51
205.2507664
0
ARC
8
DEFAULT_255_1_234
10
23.8240462
20
124.0272415
40
0.2481908
50
205.8005384
51
211.2537509
0
ARC
8
DEFAULT_255_1_234
10
23.7716902
20
123.992158
40
0.1852521
50
210.3789793
51
238.4008143
0
ARC
8
DEFAULT_255_1_234
10
23.7697424
20
123.9968376
40
0.1882621
50
239.6520629
51
265.9793761
0
ARC
8
DEFAULT_255_1_234
10
23.7782624
20
124.0640427
40
0.2559272
50
265.1315437
51
270.060332
0
ARC
8
DEFAULT_255_1_234
10
23.7811403
20
124.0316534
40
0.2235528
50
269.3314664
51
287.2178029
0
ARC
8
DEFAULT_255_1_234
10
23.7949255
20
123.9813279
40
0.1714108
50
287.7958004
51
329.080874
0
ARC
8
DEFAULT_255_1_234
10
23.6991712
20
124.041093
40
0.2842745
50
328.6634704
51
343.3325132
0
ARC
8
DEFAULT_255_1_234
10
23.4818732
20
124.1087863
40
0.5118644
50
343.0499468
51
351.9393422
0
ARC
8
DEFAULT_255_1_234
10
23.1352032
20
124.1598949
40
0.8622784
50
351.8069023
51
357.7959224
0
ARC
8
DEFAULT_255_1_234
10
22.8116588
20
124.1766721
40
1.1862365
50
357.5871873
51
359.2677531
0
LINE
8
DEFAULT_255_1_234
10
22.9083137
20
132.8154433
11
22.9083137
21
131.6404
0
LINE
8
DEFAULT_255_1_234
10
22.9083137
20
131.6404
11
22.7589234
21
131.6404
0
LINE
8
DEFAULT_255_1_234
10
22.7589234
20
131.6404
11
22.7589234
21
132.6307133
0
LINE
8
DEFAULT_255_1_234
10
22.7589234
20
132.6307133
11
22.4593396
21
132.5206785
0
LINE
8
DEFAULT_255_1_234
10
22.4593396
20
132.5206785
11
22.4593396
21
132.6556117
0
LINE
8
DEFAULT_255_1_234
10
22.4593396
20
132.6556117
11
22.8850217
21
132.8154433
0
LINE
8
DEFAULT_255_1_234
10
22.8850217
20
132.8154433
11
22.9083137
21
132.8154433
0
LINE
8
DEFAULT_255_1_234
10
24.0873729
20
132.0114663
11
24.2423854
21
132.0114663
0
LINE
8
DEFAULT_255_1_234
10
23.3420276
20
132.1704947
11
23.3420276
21
132.2829391
0
LINE
8
DEFAULT_255_1_234
10
24.2423854
20
132.4339357
11
24.0873729
21
132.4339357
0
LINE
8
DEFAULT_255_1_234
10
23.4970401
20
132.2789232
11
23.4970401
21
132.1656757
0
ARC
8
DEFAULT_255_1_234
10
23.6943241
20
132.0711846
40
0.5513052
50
340.1774281
51
353.7814284
0
ARC
8
DEFAULT_255_1_234
10
23.8514594
20
132.0126582
40
0.3836379
50
311.4558989
51
340.4421614
0
ARC
8
DEFAULT_255_1_234
10
23.8481262
20
132.0237528
40
0.3941894
50
282.4333181
51
310.7513653
0
ARC
8
DEFAULT_255_1_234
10
23.8042001
20
132.2052679
40
0.5809175
50
269.9358511
51
282.809604
0
ARC
8
DEFAULT_255_1_234
10
23.7990067
20
132.3510212
40
0.7266847
50
270.0021091
51
270.3581957
0
ARC
8
DEFAULT_255_1_234
10
23.7937484
20
132.0909585
40
0.4666519
50
250.7884749
51
270.6489167
0
ARC
8
DEFAULT_255_1_234
10
23.7769319
20
132.0272319
40
0.4009729
50
219.3627325
51
250.0611886
0
ARC
8
DEFAULT_255_1_234
10
23.859853
20
132.0977042
40
0.5097822
50
193.5479632
51
219.5756669
0
ARC
8
DEFAULT_255_1_234
10
24.0970151
20
132.1592919
40
0.7547848
50
181.1218675
51
193.87563
0
ARC
8
DEFAULT_255_1_234
10
24.3040332
20
132.170358
40
0.9620055
50
179.9918545
51
181.5394234
0
ARC
8
DEFAULT_255_1_234
10
24.1189434
20
132.2866788
40
0.7769248
50
169.5837241
51
180.2757934
0
ARC
8
DEFAULT_255_1_234
10
23.9352372
20
132.3206229
40
0.590109
50
155.0365899
51
169.6003176
0
ARC
8
DEFAULT_255_1_234
10
23.8216836
20
132.3753677
40
0.4640625
50
136.783148
51
155.2472683
0
ARC
8
DEFAULT_255_1_234
10
23.7827313
20
132.4084562
40
0.4130255
50
121.7633186
51
136.428115
0
ARC
8
DEFAULT_255_1_234
10
23.7962275
20
132.3835227
40
0.4413323
50
95.6459699
51
121.5490577
0
ARC
8
DEFAULT_255_1_234
10
23.8119557
20
132.2726949
40
0.55319
50
89.924208
51
96.1377933
0
ARC
8
DEFAULT_255_1_234
10
23.816999
20
132.2845542
40
0.5413475
50
76.6779277
51
90.4563316
0
ARC
8
DEFAULT_255_1_234
10
23.8563613
20
132.4436114
40
0.3775041
50
47.485847
51
76.9287264
0
ARC
8
DEFAULT_255_1_234
10
23.8416586
20
132.4336159
40
0.3948286
50
16.5424086
51
46.8933463
0
ARC
8
DEFAULT_255_1_234
10
23.6808743
20
132.3807861
40
0.564021
50
5.4072051
51
17.0365086
0
ARC
8
DEFAULT_255_1_234
10
23.536976
20
132.3576679
40
0.5556559
50
7.8891745
51
15.9239216
0
ARC
8
DEFAULT_255_1_234
10
23.7356773
20
132.4153631
40
0.3487515
50
15.7653144
51
27.9410532
0
ARC
8
DEFAULT_255_1_234
10
23.8460991
20
132.474479
40
0.2235026
50
27.8166557
51
46.4008329
0
ARC
8
DEFAULT_255_1_234
10
23.8510634
20
132.4739082
40
0.2205286
50
47.4371857
51
75.0698205
0
ARC
8
DEFAULT_255_1_234
10
23.8202029
20
132.3664765
40
0.3322915
50
74.7008593
51
87.8124495
0
ARC
8
DEFAULT_255_1_234
10
23.8128716
20
132.2608844
40
0.4380987
50
87.3814673
51
90.0240855
0
ARC
8
DEFAULT_255_1_234
10
23.8090259
20
132.3786291
40
0.3203749
50
89.3451631
51
108.5745436
0
ARC
8
DEFAULT_255_1_234
10
23.7953365
20
132.4299908
40
0.2673494
50
109.2998449
51
143.3037509
0
ARC
8
DEFAULT_255_1_234
10
23.8715437
20
132.3713881
40
0.3634757
50
143.0753173
51
163.1916937
0
ARC
8
DEFAULT_255_1_234
10
24.0667165
20
132.3097967
40
0.5681262
50
162.9373603
51
174.6208611
0
ARC
8
DEFAULT_255_1_234
10
24.3293207
20
132.281001
40
0.8322832
50
174.3419979
51
180.1430411
0
ARC
8
DEFAULT_255_1_234
10
24.2362363
20
132.1615698
40
0.7392076
50
179.6817502
51
189.150529
0
ARC
8
DEFAULT_255_1_234
10
23.9861611
20
132.119919
40
0.4856932
50
188.9910863
51
203.5773039
0
ARC
8
DEFAULT_255_1_234
10
23.8781944
20
132.0751211
40
0.3688271
50
203.9077269
51
215.1312379
0
ARC
8
DEFAULT_255_1_234
10
23.7859038
20
132.0035941
40
0.2522457
50
213.9071664
51
263.8849284
0
ARC
8
DEFAULT_255_1_234
10
23.7984367
20
132.0820518
40
0.3316174
50
263.1758525
51
270.1031083
0
ARC
8
DEFAULT_255_1_234
10
23.8016459
20
132.2067365
40
0.4563091
50
269.6719807
51
279.0609165
0
ARC
8
DEFAULT_255_1_234
10
23.8283227
20
132.0454907
40
0.2928759
50
278.8750225
51
293.6346586
0
ARC
8
DEFAULT_255_1_234
10
23.8603435
20
131.97029
40
0.2111472
50
293.8553404
51
310.0518804
0
ARC
8
DEFAULT_255_1_234
10
23.8608289
20
131.9640516
40
0.2060917
50
311.0646779
51
332.0108348
0
ARC
8
DEFAULT_255_1_234
10
23.7416016
20
132.0297978
40
0.3422352
50
331.6588543
51
343.2878891
0
ARC
8
DEFAULT_255_1_234
10
23.5353531
20
132.0931798
40
0.5580003
50
343.1446044
51
351.010618
0
ARC
8
DEFAULT_255_1_234
10
23.3812177
20
132.1212871
40
0.7146438
50
350.7157277
51
351.1602153
0
LINE
8
DEFAULT_255_1_234
10
22.9342522
20
140.7473211
11
23.2667662
21
139.7827093
0
LINE
8
DEFAULT_255_1_234
10
23.2667662
20
139.7827093
11
23.6008865
21
140.7473211
0
LINE
8
DEFAULT_255_1_234
10
23.6008865
20
140.7473211
11
23.769553
21
140.7473211
0
LINE
8
DEFAULT_255_1_234
10
23.769553
20
140.7473211
11
23.3358391
21
139.5779
0
LINE
8
DEFAULT_255_1_234
10
23.3358391
20
139.5779
11
23.1992996
21
139.5779
0
LINE
8
DEFAULT_255_1_234
10
23.1992996
20
139.5779
11
22.7663889
21
140.7473211
0
LINE
8
DEFAULT_255_1_234
10
22.7663889
20
140.7473211
11
22.9342522
21
140.7473211
0
LINE
8
DEFAULT_255_1_234
10
24.1823843
20
140.1353026
11
24.1823843
21
140.0140234
0
LINE
8
DEFAULT_255_1_234
10
24.1823843
20
140.0140234
11
23.7904355
21
140.0140234
0
LINE
8
DEFAULT_255_1_234
10
23.7904355
20
140.0140234
11
23.7904355
21
140.1353026
0
LINE
8
DEFAULT_255_1_234
10
23.7904355
20
140.1353026
11
24.1823843
21
140.1353026
0
ENDSEC
0
EOF