0
SECTION
2
HEADER
9
$MEASUREMENT
70
1
0
ENDSEC
0
SECTION
2
TABLES
0
TABLE
2
LTYPE
0
LTYPE
72
65
70
64
2
CONTINUOUS
3
______
73
0
40
0
0
ENDTAB
0
TABLE
2
LAYER
0
LAYER
2
DEFAULT_255_2_778
70
0
62
255
6
CONTINUOUS
0
ENDTAB
0
ENDSEC
0
SECTION
2
ENTITIES
0
LINE
8
DEFAULT_255_2_778
10
7.2597852
20
40.9409997
11
64.9899852
21
40.9409997
0
LINE
8
DEFAULT_255_2_778
10
64.9899852
20
40.9409997
11
64.9899852
21
59.7877997
0
LINE
8
DEFAULT_255_2_778
10
64.9899852
20
59.7877997
11
7.2597852
21
59.7877997
0
LINE
8
DEFAULT_255_2_778
10
7.2597852
20
59.7877997
11
7.2597852
21
40.9409997
0
ARC
8
DEFAULT_255_2_778
10
104.2584777
20
33.7253564
40
2.2338673
50
177.001478
51
177.8183296
0
ARC
8
DEFAULT_255_2_778
10
104.2554328
20
33.7254834
40
2.2308199
50
177.8186138
51
179.9998164
0
ARC
8
DEFAULT_255_2_778
10
104.2530483
20
33.7254202
40
2.2284352
50
179.9981914
51
195.3849398
0
ARC
8
DEFAULT_255_2_778
10
102.1022545
20
33.3029679
40
0.168772
50
270.7517407
51
341.3548333
0
ARC
8
DEFAULT_255_2_778
10
101.9172695
20
34.1555572
40
0.2774183
50
359.3294103
51
359.996145
0
ARC
8
DEFAULT_255_2_778
10
101.9207775
20
34.1555453
40
0.2739101
50
359.9985991
51
66.962275
0
ARC
8
DEFAULT_255_2_778
10
99.5926803
20
33.7319482
40
2.1360403
50
343.6909904
51
359.9984321
0
ARC
8
DEFAULT_255_2_778
10
99.5929949
20
33.7318808
40
2.1357256
50
0.0002401
51
2.3759226
0
ARC
8
DEFAULT_255_2_778
10
99.5945884
20
33.731942
40
2.1341309
50
2.3760545
51
2.9617348
0
ARC
8
DEFAULT_255_2_778
10
101.8153098
20
34.1671329
40
0.2565718
50
110.401728
51
179.9812814
0
ARC
8
DEFAULT_255_2_778
10
101.8170856
20
34.1672203
40
0.2583475
50
180.0007769
51
183.308517
0
ARC
8
DEFAULT_255_2_778
10
102.0623003
20
32.7195463
40
1.1234252
50
83.2179543
51
88.0903854
0
ARC
8
DEFAULT_255_2_778
10
102.0614594
20
32.7002
40
1.1427889
50
88.0805712
51
90.0012732
0
ARC
8
DEFAULT_255_2_778
10
102.0614507
20
32.6919941
40
1.1509947
50
90.0008319
51
91.652007
0
ARC
8
DEFAULT_255_2_778
10
101.6931911
20
32.7043397
40
1.1386397
50
88.3554532
51
90.0001123
0
ARC
8
DEFAULT_255_2_778
10
101.6933533
20
32.6949697
40
1.1480097
50
90.008203
51
96.7123308
0
ARC
8
DEFAULT_255_2_778
10
101.651742
20
33.3031862
40
0.1689925
50
198.6980808
51
269.1953496
0
LINE
8
DEFAULT_255_2_778
10
102.2621688
20
33.2490104
11
102.2666688
21
33.3064104
0
LINE
8
DEFAULT_255_2_778
10
102.2666688
20
33.3064104
11
102.1946688
21
34.1523104
0
LINE
8
DEFAULT_255_2_778
10
102.0282688
20
33.8425104
11
102.0282688
21
34.4079104
0
LINE
8
DEFAULT_255_2_778
10
102.0282688
20
34.4079104
11
101.7258688
21
34.4079104
0
LINE
8
DEFAULT_255_2_778
10
101.7258688
20
34.4079104
11
101.7258688
21
33.8425104
0
LINE
8
DEFAULT_255_2_778
10
101.5591688
20
33.8351104
11
101.5591688
21
34.1523104
0
LINE
8
DEFAULT_255_2_778
10
101.5591688
20
34.1523104
11
101.4871688
21
33.3064104
0
LINE
8
DEFAULT_255_2_778
10
101.4871688
20
33.3064104
11
101.4916688
21
33.2490104
0
ARC
8
DEFAULT_255_2_778
10
105.6072777
20
33.7253564
40
2.2338673
50
177.001478
51
177.8183296
0
ARC
8
DEFAULT_255_2_778
10
105.6042328
20
33.7254834
40
2.2308199
50
177.8186138
51
179.9998164
0
ARC
8
DEFAULT_255_2_778
10
105.6018483
20
33.7254202
40
2.2284352
50
179.9981914
51
195.3849398
0
ARC
8
DEFAULT_255_2_778
10
103.4510545
20
33.3029679
40
0.168772
50
270.7517407
51
341.3548333
0
ARC
8
DEFAULT_255_2_778
10
103.2660695
20
34.1555572
40
0.2774183
50
359.3294103
51
359.996145
0
ARC
8
DEFAULT_255_2_778
10
103.2695775
20
34.1555453
40
0.2739101
50
359.9985991
51
66.962275
0
ARC
8
DEFAULT_255_2_778
10
100.9414803
20
33.7319482
40
2.1360403
50
343.6909904
51
359.9984321
0
ARC
8
DEFAULT_255_2_778
10
100.9417949
20
33.7318808
40
2.1357256
50
0.0002401
51
2.3759226
0
ARC
8
DEFAULT_255_2_778
10
100.9433884
20
33.731942
40
2.1341309
50
2.3760545
51
2.9617348
0
ARC
8
DEFAULT_255_2_778
10
103.1641098
20
34.1671329
40
0.2565718
50
110.401728
51
179.9812814
0
ARC
8
DEFAULT_255_2_778
10
103.1658856
20
34.1672203
40
0.2583475
50
180.0007769
51
183.308517
0
ARC
8
DEFAULT_255_2_778
10
103.4112298
20
32.7216036
40
1.121367
50
83.2121108
51
88.3357716
0
ARC
8
DEFAULT_255_2_778
10
103.4102621
20
32.6980273
40
1.1449615
50
88.3216315
51
90.00093
0
ARC
8
DEFAULT_255_2_778
10
103.4102559
20
32.6916363
40
1.1513525
50
90.0006155
51
91.6517509
0
ARC
8
DEFAULT_255_2_778
10
103.0419911
20
32.7043397
40
1.1386397
50
88.3554532
51
90.0001123
0
ARC
8
DEFAULT_255_2_778
10
103.0421533
20
32.6949697
40
1.1480097
50
90.008203
51
96.7123308
0
ARC
8
DEFAULT_255_2_778
10
103.000542
20
33.3031862
40
0.1689925
50
198.6980808
51
269.1953496
0
LINE
8
DEFAULT_255_2_778
10
103.6109688
20
33.2490104
11
103.6154688
21
33.3064104
0
LINE
8
DEFAULT_255_2_778
10
103.6154688
20
33.3064104
11
103.5434688
21
34.1523104
0
LINE
8
DEFAULT_255_2_778
10
103.3770688
20
33.8425104
11
103.3770688
21
34.4079104
0
LINE
8
DEFAULT_255_2_778
10
103.3770688
20
34.4079104
11
103.0746688
21
34.4079104
0
LINE
8
DEFAULT_255_2_778
10
103.0746688
20
34.4079104
11
103.0746688
21
33.8425104
0
LINE
8
DEFAULT_255_2_778
10
102.9079688
20
33.8351104
11
102.9079688
21
34.1523104
0
LINE
8
DEFAULT_255_2_778
10
102.9079688
20
34.1523104
11
102.8359688
21
33.3064104
0
LINE
8
DEFAULT_255_2_778
10
102.8359688
20
33.3064104
11
102.8404688
21
33.2490104
0
ARC
8
DEFAULT_255_2_778
10
106.9561777
20
33.7253564
40
2.2338673
50
177.001478
51
177.8183296
0
ARC
8
DEFAULT_255_2_778
10
106.9531328
20
33.7254834
40
2.2308199
50
177.8186138
51
179.9998164
0
ARC
8
DEFAULT_255_2_778
10
106.9507483
20
33.7254202
40
2.2284352
50
179.9981914
51
195.3849398
0
ARC
8
DEFAULT_255_2_778
10
104.7999545
20
33.3029679
40
0.168772
50
270.7517407
51
341.3548333
0
ARC
8
DEFAULT_255_2_778
10
104.6149695
20
34.1555572
40
0.2774183
50
359.3294103
51
359.996145
0
ARC
8
DEFAULT_255_2_778
10
104.6184775
20
34.1555453
40
0.2739101
50
359.9985991
51
66.962275
0
ARC
8
DEFAULT_255_2_778
10
102.2903803
20
33.7319482
40
2.1360403
50
343.6909904
51
359.9984321
0
ARC
8
DEFAULT_255_2_778
10
102.2906949
20
33.7318808
40
2.1357256
50
0.0002401
51
2.3759226
0
ARC
8
DEFAULT_255_2_778
10
102.2922884
20
33.731942
40
2.1341309
50
2.3760545
51
2.9617348
0
ARC
8
DEFAULT_255_2_778
10
104.5130098
20
34.1671329
40
0.2565718
50
110.401728
51
179.9812814
0
ARC
8
DEFAULT_255_2_778
10
104.5147856
20
34.1672203
40
0.2583475
50
180.0007769
51
183.308517
0
ARC
8
DEFAULT_255_2_778
10
104.7601298
20
32.7216036
40
1.121367
50
83.2121108
51
88.3357716
0
ARC
8
DEFAULT_255_2_778
10
104.7591621
20
32.6980273
40
1.1449615
50
88.3216315
51
90.00093
0
ARC
8
DEFAULT_255_2_778
10
104.7591559
20
32.6916363
40
1.1513525
50
90.0006155
51
91.6517509
0
ARC
8
DEFAULT_255_2_778
10
104.3908911
20
32.7043397
40
1.1386397
50
88.3554532
51
90.0001123
0
ARC
8
DEFAULT_255_2_778
10
104.3910533
20
32.6949697
40
1.1480097
50
90.008203
51
96.7123308
0
ARC
8
DEFAULT_255_2_778
10
104.349442
20
33.3031862
40
0.1689925
50
198.6980808
51
269.1953496
0
LINE
8
DEFAULT_255_2_778
10
104.9598688
20
33.2490104
11
104.9643688
21
33.3064104
0
LINE
8
DEFAULT_255_2_778
10
104.9643688
20
33.3064104
11
104.8923688
21
34.1523104
0
LINE
8
DEFAULT_255_2_778
10
104.7259688
20
33.8425104
11
104.7259688
21
34.4079104
0
LINE
8
DEFAULT_255_2_778
10
104.7259688
20
34.4079104
11
104.4235688
21
34.4079104
0
LINE
8
DEFAULT_255_2_778
10
104.4235688
20
34.4079104
11
104.4235688
21
33.8425104
0
LINE
8
DEFAULT_255_2_778
10
104.2568688
20
33.8351104
11
104.2568688
21
34.1523104
0
LINE
8
DEFAULT_255_2_778
10
104.2568688
20
34.1523104
11
104.1848688
21
33.3064104
0
LINE
8
DEFAULT_255_2_778
10
104.1848688
20
33.3064104
11
104.1893688
21
33.2490104
0
ARC
8
DEFAULT_255_2_778
10
70.9261033
20
55.8222356
40
7.1010582
50
269.9599347
51
272.3767469
0
ARC
8
DEFAULT_255_2_778
10
70.9806286
20
54.5175764
40
5.7952601
50
272.3730493
51
275.0511035
0
ARC
8
DEFAULT_255_2_778
10
71.0787193
20
53.4173407
40
4.6906608
50
275.0408388
51
278.197253
0
ARC
8
DEFAULT_255_2_778
10
71.2114328
20
52.4994223
40
3.7631982
50
278.1899543
51
281.781344
0
ARC
8
DEFAULT_255_2_778
10
71.3707191
20
51.7406572
40
2.9878948
50
281.7620119
51
286.164542
0
ARC
8
DEFAULT_255_2_778
10
71.552503
20
51.1170196
40
2.3383041
50
286.1405631
51
291.5668645
0
ARC
8
DEFAULT_255_2_778
10
71.7422367
20
50.6386377
40
1.8236706
50
291.5479054
51
298.0483322
0
ARC
8
DEFAULT_255_2_778
10
71.9218574
20
50.3021609
40
1.4422519
50
298.0361117
51
305.7171768
0
ARC
8
DEFAULT_255_2_778
10
72.0766879
20
50.0870584
40
1.1772208
50
305.7106211
51
314.947515
0
ARC
8
DEFAULT_255_2_778
10
72.1527255
20
50.0076661
40
1.0673155
50
315.0694541
51
317.6547142
0
ARC
8
DEFAULT_255_2_778
10
72.1938088
20
49.9712087
40
1.0123936
50
317.613513
51
326.277848
0
ARC
8
DEFAULT_255_2_778
10
72.194325
20
49.9696476
40
1.0110981
50
326.3351876
51
334.1011731
0
ARC
8
DEFAULT_255_2_778
10
72.0510848
20
50.0375704
40
1.1696208
50
334.1728826
51
340.0986412
0
ARC
8
DEFAULT_255_2_778
10
71.1463903
20
50.3610086
40
2.1303895
50
340.2018388
51
342.7666031
0
ARC
8
DEFAULT_255_2_778
10
74.5172339
20
49.3236706
40
1.3964719
50
160.1571871
51
163.0905186
0
ARC
8
DEFAULT_255_2_778
10
73.6020684
20
49.6471463
40
0.4258891
50
159.038864
51
159.2995865
0
ARC
8
DEFAULT_255_2_778
10
73.5004546
20
49.6867142
40
0.3168456
50
156.4974571
51
159.1471054
0
ARC
8
DEFAULT_255_2_778
10
73.4122192
20
49.7247116
40
0.2207771
50
154.809977
51
156.408661
0
ARC
8
DEFAULT_255_2_778
10
75.2921058
20
49.4232821
40
1.0412624
50
78.9638184
51
90.6420549
0
ARC
8
DEFAULT_255_2_778
10
75.4018635
20
49.9555205
40
0.4978904
50
56.0282217
51
79.6361268
0
ARC
8
DEFAULT_255_2_778
10
75.4675659
20
50.0764858
40
0.3610967
50
4.7636431
51
53.9482658
0
ARC
8
DEFAULT_255_2_778
10
75.1837082
20
50.0238141
40
0.6489927
50
359.8070741
51
7.3173756
0
ARC
8
DEFAULT_255_2_778
10
74.9853158
20
50.022747
40
0.8473821
50
355.7905284
51
359.9243904
0
ARC
8
DEFAULT_255_2_778
10
74.8540803
20
50.031287
40
0.9788909
50
354.6066925
51
355.855857
0
ARC
8
DEFAULT_255_2_778
10
74.1938383
20
50.0483797
40
1.6384359
50
354.2435507
51
356.1819493
0
ARC
8
DEFAULT_255_2_778
10
72.1457682
20
50.2402442
40
3.6954506
50
354.4103418
51
354.468745
0
ARC
8
DEFAULT_255_2_778
10
71.4142316
20
50.3118041
40
4.4304789
50
354.3619769
51
354.4107871
0
ARC
8
DEFAULT_255_2_778
10
71.6320793
20
50.2905505
40
4.211597
50
354.3071464
51
354.3585586
0
ARC
8
DEFAULT_255_2_778
10
70.7177899
20
50.3813084
40
5.1303799
50
354.2691961
51
354.3114268
0
ARC
8
DEFAULT_255_2_778
10
71.052506
20
50.3476169
40
4.7939724
50
354.2251986
51
354.2703919
0
ARC
8
DEFAULT_255_2_778
10
69.8652016
20
50.4679533
40
5.9873593
50
354.186542
51
354.2227054
0
ARC
8
DEFAULT_255_2_778
10
67.5729905
20
50.7018286
40
8.2914708
50
354.1570413
51
354.1831247
0
ARC
8
DEFAULT_255_2_778
10
68.5067857
20
50.6071306
40
7.3528866
50
354.1210049
51
354.1503678
0
ARC
8
DEFAULT_255_2_778
10
69.0184594
20
50.5545443
40
6.8385179
50
354.0886661
51
354.1201681
0
ARC
8
DEFAULT_255_2_778
10
66.4782764
20
50.817215
40
9.3922459
50
354.0678515
51
354.0907266
0
ARC
8
DEFAULT_255_2_778
10
66.9075058
20
50.7728298
40
8.9607277
50
354.0425838
51
354.0664854
0
ARC
8
DEFAULT_255_2_778
10
68.0966256
20
50.648984
40
7.765176
50
354.0133226
51
354.0408058
0
ARC
8
DEFAULT_255_2_778
10
63.8332254
20
51.0956922
40
12.0519148
50
353.9975338
51
354.015171
0
ARC
8
DEFAULT_255_2_778
10
65.3371513
20
50.9378415
40
10.5397277
50
353.9759203
51
353.9959999
0
ARC
8
DEFAULT_255_2_778
10
55.2413364
20
52.0048098
40
20.6917668
50
353.9614304
51
353.9716098
0
ARC
8
DEFAULT_255_2_778
10
59.3768428
20
51.5693862
40
16.5334016
50
353.9416895
51
353.9543641
0
ARC
8
DEFAULT_255_2_778
10
60.9383858
20
51.4038601
40
14.9631102
50
353.9269778
51
353.9409063
0
ARC
8
DEFAULT_255_2_778
10
64.2880154
20
51.047555
40
11.5945836
50
353.9087532
51
353.9266246
0
ARC
8
DEFAULT_255_2_778
10
64.3552099
20
51.0391556
40
11.5268773
50
353.8969593
51
353.9148264
0
ARC
8
DEFAULT_255_2_778
10
49.9016109
20
52.583321
40
26.0627286
50
353.8918499
51
353.8997016
0
ARC
8
DEFAULT_255_2_778
10
53.8441108
20
52.1615115
40
22.0977281
50
353.8824205
51
353.8916194
0
ARC
8
DEFAULT_255_2_778
10
59.0159627
20
51.6069998
40
16.8962344
50
353.8711311
51
353.8830784
0
ARC
8
DEFAULT_255_2_778
10
60.8683769
20
51.4078693
40
15.0331477
50
353.8586353
51
353.8719666
0
ARC
8
DEFAULT_255_2_778
10
10.9052001
20
56.7856735
40
65.2849121
50
353.8540219
51
353.8570688
0
ARC
8
DEFAULT_255_2_778
10
31.551613
20
54.5655176
40
44.5194734
50
353.8456625
51
353.8500962
0
ARC
8
DEFAULT_255_2_778
10
49.2430387
20
52.6561507
40
26.725311
50
353.8420177
51
353.8493449
0
ARC
8
DEFAULT_255_2_778
10
152.9292064
20
41.4126834
40
77.568687
50
173.800544
51
173.8893515
0
ARC
8
DEFAULT_255_2_778
10
93.3230101
20
47.79768
40
17.6214872
50
173.9014014
51
174.3608076
0
ARC
8
DEFAULT_255_2_778
10
88.0769542
20
48.3172109
40
12.3497692
50
174.3678595
51
174.9898718
0
ARC
8
DEFAULT_255_2_778
10
84.7874702
20
48.599481
40
9.0482042
50
174.9513392
51
176.678863
0
ARC
8
DEFAULT_255_2_778
10
82.4200593
20
48.7402175
40
6.6766169
50
176.7076158
51
178.1694083
0
ARC
8
DEFAULT_255_2_778
10
80.9365419
20
48.7870377
40
5.1923611
50
178.1628563
51
179.9588471
0
ARC
8
DEFAULT_255_2_778
10
80.0119988
20
48.7900457
40
4.2678167
50
179.990315
51
180.9245802
0
ARC
8
DEFAULT_255_2_778
10
78.8903451
20
50.0478632
40
0.101016
50
28.3082247
51
30.6623784
0
ARC
8
DEFAULT_255_2_778
10
78.816845
20
50.0079182
40
0.1846688
50
27.4013278
51
28.405362
0
ARC
8
DEFAULT_255_2_778
10
78.7370018
20
49.9664793
40
0.2746251
50
26.6612368
51
27.4105611
0
ARC
8
DEFAULT_255_2_778
10
78.6253333
20
49.9103618
40
0.3996011
50
26.1048088
51
26.6674795
0
ARC
8
DEFAULT_255_2_778
10
78.4669964
20
49.8327849
40
0.5759213
50
25.682773
51
26.1040914
0
ARC
8
DEFAULT_255_2_778
10
78.2954935
20
49.7503437
40
0.7662101
50
25.3640435
51
25.6804763
0
ARC
8
DEFAULT_255_2_778
10
78.0842702
20
49.6501817
40
0.9999784
50
25.1270148
51
25.3655017
0
ARC
8
DEFAULT_255_2_778
10
77.8430995
20
49.5369869
40
1.2663924
50
24.962177
51
25.1304325
0
ARC
8
DEFAULT_255_2_778
10
77.5783122
20
49.4136742
40
1.5584853
50
24.8222791
51
24.9639474
0
ARC
8
DEFAULT_255_2_778
10
77.1708195
20
49.2253639
40
2.0073851
50
24.7042575
51
24.8178732
0
ARC
8
DEFAULT_255_2_778
10
76.8251727
20
49.066181
40
2.3879256
50
24.6096199
51
24.708007
0
ARC
8
DEFAULT_255_2_778
10
76.2660717
20
48.8100579
40
3.0028994
50
24.5298008
51
24.610195
0
ARC
8
DEFAULT_255_2_778
10
75.5944775
20
48.5038336
40
3.7410132
50
24.4823224
51
24.5261677
0
ARC
8
DEFAULT_255_2_778
10
75.5173476
20
48.4683266
40
3.825923
50
24.4440294
51
24.4875781
0
ARC
8
DEFAULT_255_2_778
10
73.7263438
20
47.6545101
40
5.7931524
50
24.4123283
51
24.4415173
0
ARC
8
DEFAULT_255_2_778
10
74.6335504
20
48.0660626
40
4.7969602
50
24.3788665
51
24.4146133
0
ARC
8
DEFAULT_255_2_778
10
543.2057544
20
259.8042953
40
509.3946309
50
204.316661
51
204.3229354
0
ARC
8
DEFAULT_255_2_778
10
85.7534856
20
53.037789
40
7.3837085
50
204.3342643
51
205.0696424
0
ARC
8
DEFAULT_255_2_778
10
83.9706605
20
52.2048034
40
5.415885
50
205.0792164
51
206.4136285
0
ARC
8
DEFAULT_255_2_778
10
83.2769031
20
51.8597974
40
4.6410765
50
206.409027
51
208.4486537
0
ARC
8
DEFAULT_255_2_778
10
82.6296214
20
51.5068425
40
3.9038207
50
208.419485
51
211.8163062
0
ARC
8
DEFAULT_255_2_778
10
82.1756723
20
51.2289122
40
3.3715581
50
211.8698659
51
213.2520679
0
ARC
8
DEFAULT_255_2_778
10
81.1400456
20
50.4958264
40
2.1040156
50
212.0211947
51
231.1409898
0
ARC
8
DEFAULT_255_2_778
10
80.3917333
20
49.5626802
40
0.9078905
50
230.967019
51
266.3917961
0
ARC
8
DEFAULT_255_2_778
10
80.3626495
20
49.4121537
40
0.7560848
50
267.8736796
51
270.0007852
0
ARC
8
DEFAULT_255_2_778
10
80.3622397
20
49.4281938
40
0.772125
50
270.0311813
51
278.6286547
0
ARC
8
DEFAULT_255_2_778
10
80.3532081
20
49.4869393
40
0.8315606
50
278.6366344
51
285.6336959
0
ARC
8
DEFAULT_255_2_778
10
80.3286567
20
49.5748361
40
0.9228218
50
285.6309692
51
291.4650857
0
ARC
8
DEFAULT_255_2_778
10
80.3058885
20
49.6353639
40
0.9874835
50
291.4093756
51
292.2148969
0
ARC
8
DEFAULT_255_2_778
10
79.3321022
20
52.0903005
40
0.1691139
50
209.2845882
51
210.7321367
0
ARC
8
DEFAULT_255_2_778
10
79.4509852
20
52.1573809
40
0.3056161
50
208.7302904
51
209.3513713
0
ARC
8
DEFAULT_255_2_778
10
79.5998166
20
52.2390573
40
0.4753861
50
208.2982884
51
208.7399379
0
ARC
8
DEFAULT_255_2_778
10
79.7919434
20
52.3425561
40
0.6936169
50
207.9725652
51
208.3024006
0
ARC
8
DEFAULT_255_2_778
10
80.0784424
20
52.4946359
40
1.0179775
50
207.7266667
51
207.968664
0
ARC
8
DEFAULT_255_2_778
10
80.3614584
20
52.6435931
40
1.3377999
50
207.5443198
51
207.7343388
0
ARC
8
DEFAULT_255_2_778
10
80.9041801
20
52.9269644
40
1.9500467
50
207.428538
51
207.5525137
0
ARC
8
DEFAULT_255_2_778
10
81.4966711
20
53.2344247
40
2.6175625
50
207.3313706
51
207.4279087
0
ARC
8
DEFAULT_255_2_778
10
82.2738278
20
53.6364934
40
3.4925664
50
207.2730423
51
207.3373347
0
ARC
8
DEFAULT_255_2_778
10
83.3934092
20
54.2140074
40
4.7523222
50
207.2277504
51
207.2764917
0
ARC
8
DEFAULT_255_2_778
10
38.328442
20
31.0940951
40
45.8972781
50
27.1523427
51
27.2178213
0
ARC
8
DEFAULT_255_2_778
10
73.0230799
20
48.9335114
40
6.8849397
50
27.2537101
51
27.7495267
0
ARC
8
DEFAULT_255_2_778
10
74.2769867
20
49.5930679
40
5.4681486
50
27.7508482
51
28.7494537
0
ARC
8
DEFAULT_255_2_778
10
74.7493402
20
49.8521404
40
4.9294127
50
28.7501023
51
30.1686659
0
ARC
8
DEFAULT_255_2_778
10
75.1583761
20
50.0910261
40
4.4557295
50
30.1562091
51
32.5213091
0
ARC
8
DEFAULT_255_2_778
10
75.721702
20
50.4530494
40
3.7861102
50
32.4849362
51
36.354769
0
ARC
8
DEFAULT_255_2_778
10
76.0541817
20
50.6924627
40
3.3764262
50
36.4272958
51
36.5731
0
ARC
8
DEFAULT_255_2_778
10
76.961237
20
51.424826
40
2.2121096
50
35.337736
51
54.754362
0
ARC
8
DEFAULT_255_2_778
10
77.6742086
20
52.4342199
40
0.9763085
50
54.7408323
51
88.6063991
0
ARC
8
DEFAULT_255_2_778
10
77.6980906
20
52.5946593
40
0.8155802
50
90.0096707
51
97.9100706
0
ARC
8
DEFAULT_255_2_778
10
77.7031572
20
52.5594093
40
0.8511919
50
97.9213388
51
104.4312451
0
ARC
8
DEFAULT_255_2_778
10
77.7082952
20
52.5371773
40
0.8740032
50
104.3942239
51
104.826927
0
ARC
8
DEFAULT_255_2_778
10
89.3081726
20
48.9227654
40
12.4092893
50
177.7193906
51
178.4996471
0
ARC
8
DEFAULT_255_2_778
10
90.4688482
20
48.8769266
40
13.5708696
50
177.2117656
51
177.721016
0
ARC
8
DEFAULT_255_2_778
10
92.5082391
20
48.7763207
40
15.6127401
50
176.6550559
51
177.2070635
0
ARC
8
DEFAULT_255_2_778
10
97.2816272
20
48.496789
40
20.3943061
50
176.2697027
51
176.6535332
0
ARC
8
DEFAULT_255_2_778
10
104.6345626
20
48.0223392
40
27.7625313
50
176.1896768
51
176.2798923
0
ARC
8
DEFAULT_255_2_778
10
108.9418437
20
47.7358223
40
32.0793313
50
176.1862633
51
176.1903039
0
ARC
8
DEFAULT_255_2_778
10
108.6383058
20
47.7553052
40
31.7751697
50
176.1808491
51
176.1849119
0
ARC
8
DEFAULT_255_2_778
10
109.0085134
20
47.7314833
40
32.146142
50
176.1777686
51
176.1824346
0
ARC
8
DEFAULT_255_2_778
10
62.3021605
20
50.853887
40
14.6644638
50
356.1700958
51
356.1810028
0
ARC
8
DEFAULT_255_2_778
10
108.3042899
20
47.7780601
40
31.4403801
50
176.1670983
51
176.1718228
0
ARC
8
DEFAULT_255_2_778
10
108.0023627
20
47.8005029
40
31.1376281
50
176.1664164
51
176.1711644
0
ARC
8
DEFAULT_255_2_778
10
107.6409987
20
47.8224458
40
30.7756056
50
176.1574154
51
176.1621968
0
ARC
8
DEFAULT_255_2_778
10
107.3533533
20
47.8442564
40
30.4871454
50
176.1572812
51
176.1620852
0
ARC
8
DEFAULT_255_2_778
10
106.9975637
20
47.8658927
40
30.1307056
50
176.148152
51
176.1529902
0
ARC
8
DEFAULT_255_2_778
10
106.7238619
20
47.8870828
40
29.8561989
50
176.1485808
51
176.1534406
0
ARC
8
DEFAULT_255_2_778
10
106.3735028
20
47.9084184
40
29.505198
50
176.1393246
51
176.1442193
0
ARC
8
DEFAULT_255_2_778
10
106.1041149
20
47.9293126
40
29.2350149
50
176.1397165
51
176.1446334
0
ARC
8
DEFAULT_255_2_778
10
67.1617146
20
50.5586186
40
9.7960471
50
356.1303915
51
356.1449967
0
ARC
8
DEFAULT_255_2_778
10
115.0195344
20
47.3273142
40
38.1707357
50
176.1316168
51
176.1353475
0
ARC
8
DEFAULT_255_2_778
10
114.668504
20
47.3537689
40
37.8187204
50
176.1319779
51
176.1357259
0
ARC
8
DEFAULT_255_2_778
10
104.9114743
20
48.011401
40
28.0395535
50
176.122737
51
176.1277685
0
ARC
8
DEFAULT_255_2_778
10
102.3631099
20
48.1850002
40
25.4852831
50
176.1188189
51
176.1247223
0
ARC
8
DEFAULT_255_2_778
10
63.6138431
20
50.8151212
40
13.3531412
50
356.11348
51
356.1254376
0
ARC
8
DEFAULT_255_2_778
10
63.7499354
20
50.8096478
40
13.2169907
50
356.1092454
51
356.121262
0
ARC
8
DEFAULT_255_2_778
10
107.6804335
20
47.8285145
40
30.8145414
50
176.1115764
51
176.116383
0
ARC
8
DEFAULT_255_2_778
10
64.010929
20
50.7988314
40
12.9558644
50
356.102342
51
356.1144751
0
ARC
8
DEFAULT_255_2_778
10
62.8221633
20
50.8834421
40
14.1476316
50
356.0988362
51
356.1098883
0
ARC
8
DEFAULT_255_2_778
10
106.6124961
20
47.9007326
40
29.7441651
50
176.0954216
51
176.100324
0
LINE
8
DEFAULT_255_2_778
10
76.9373718
20
49.9261619
11
76.9487158
21
50.0910802
0
ARC
8
DEFAULT_255_2_778
10
57.0468151
20
51.4562073
40
19.9486647
50
356.0760684
51
356.4033379
0
ARC
8
DEFAULT_255_2_778
10
68.5272738
20
50.7371464
40
8.44571
50
356.386026
51
357.1864426
0
ARC
8
DEFAULT_255_2_778
10
72.749342
20
50.5323642
40
4.2186802
50
357.149644
51
358.8072532
0
ARC
8
DEFAULT_255_2_778
10
74.3041153
20
50.4966523
40
2.6635025
50
358.8791061
51
359.9740247
0
ARC
8
DEFAULT_255_2_778
10
75.4279464
20
50.5040859
40
1.5396953
50
359.6784416
51
4.8355875
0
ARC
8
DEFAULT_255_2_778
10
76.2799497
20
50.579533
40
0.6843729
50
4.5545
51
14.7517142
0
ARC
8
DEFAULT_255_2_778
10
76.6534252
20
50.682001
40
0.2971431
50
13.9819201
51
37.4740004
0
ARC
8
DEFAULT_255_2_778
10
76.7196758
20
50.7225994
40
0.2200132
50
39.5804751
51
80.1306481
0
ARC
8
DEFAULT_255_2_778
10
76.6724518
20
50.5150862
40
0.4326885
50
78.6795891
51
90.5783622
0
ARC
8
DEFAULT_255_2_778
10
76.6687583
20
50.2886781
40
0.659075
50
90.0586064
51
93.146115
0
ARC
8
DEFAULT_255_2_778
10
76.6774329
20
50.1284309
40
0.8195567
50
93.1367974
51
95.7042708
0
ARC
8
DEFAULT_255_2_778
10
76.6896463
20
49.9995896
40
0.9489741
50
95.6648385
51
96.4381215
0
ARC
8
DEFAULT_255_2_778
10
75.5931006
20
53.0580312
40
2.3357031
50
295.0819393
51
301.1219549
0
ARC
8
DEFAULT_255_2_778
10
75.7697894
20
52.7663049
40
1.9946416
50
301.1082885
51
308.1198224
0
ARC
8
DEFAULT_255_2_778
10
75.9496314
20
52.5377126
40
1.7037852
50
308.1072558
51
316.2077078
0
ARC
8
DEFAULT_255_2_778
10
76.1257422
20
52.3695731
40
1.4602989
50
316.1879033
51
325.9369468
0
ARC
8
DEFAULT_255_2_778
10
76.290889
20
52.2585326
40
1.2612935
50
325.9137285
51
338.0486235
0
ARC
8
DEFAULT_255_2_778
10
76.4142117
20
52.2077685
40
1.1279353
50
338.0985707
51
349.5537361
0
ARC
8
DEFAULT_255_2_778
10
76.477726
20
52.1950847
40
1.0631745
50
349.6053401
51
357.6938029
0
ARC
8
DEFAULT_255_2_778
10
76.4983739
20
52.1938541
40
1.042494
50
357.7157179
51
359.9982971
0
ARC
8
DEFAULT_255_2_778
10
76.4957112
20
52.1911718
40
1.04516
50
0.145346
51
38.5546802
0
ARC
8
DEFAULT_255_2_778
10
76.3542134
20
52.0848026
40
1.2221193
50
38.3198971
51
54.6557627
0
ARC
8
DEFAULT_255_2_778
10
76.2220192
20
51.9001368
40
1.4492227
50
54.6161182
51
67.2403536
0
ARC
8
DEFAULT_255_2_778
10
76.1080605
20
51.6308145
40
1.7416616
50
67.2109531
51
77.5421628
0
ARC
8
DEFAULT_255_2_778
10
76.0299611
20
51.2829921
40
2.0981424
50
77.5086313
51
85.8875072
0
ARC
8
DEFAULT_255_2_778
10
76.0037197
20
50.9776986
40
2.4045357
50
85.7855288
51
89.3490467
0
ARC
8
DEFAULT_255_2_778
10
72.5278532
20
50.4033848
40
0.7929754
50
2.3918949
51
61.1158111
0
ARC
8
DEFAULT_255_2_778
10
72.4876145
20
50.3293852
40
0.8772064
50
61.1492484
51
78.664164
0
ARC
8
DEFAULT_255_2_778
10
72.062496
20
52.8757195
40
1.7889838
50
289.5124578
51
297.4831238
0
ARC
8
DEFAULT_255_2_778
10
72.1993795
20
52.6138985
40
1.49354
50
297.4597744
51
307.0265618
0
ARC
8
DEFAULT_255_2_778
10
72.3456377
20
52.4211202
40
1.25156
50
306.9955245
51
318.8822178
0
ARC
8
DEFAULT_255_2_778
10
72.4882488
20
52.2975229
40
1.0628441
50
318.8461437
51
334.3736431
0
ARC
8
DEFAULT_255_2_778
10
72.6045053
20
52.2424382
40
0.9341993
50
334.3359382
51
358.8095645
0
ARC
8
DEFAULT_255_2_778
10
72.6287421
20
52.2396935
40
0.9099133
50
358.9506517
51
359.999254
0
ARC
8
DEFAULT_255_2_778
10
72.5981338
20
52.2360048
40
0.9405289
50
0.2239901
51
30.3634952
0
ARC
8
DEFAULT_255_2_778
10
72.4546906
20
52.1548666
40
1.1053135
50
30.2339377
51
47.0521631
0
ARC
8
DEFAULT_255_2_778
10
72.3003514
20
51.9908773
40
1.3305064
50
46.9987151
51
59.695813
0
ARC
8
DEFAULT_255_2_778
10
72.1538748
20
51.7422596
40
1.6190636
50
59.6600118
51
69.9200245
0
ARC
8
DEFAULT_255_2_778
10
72.0303362
20
51.4072724
40
1.9761033
50
69.8905225
51
78.3784815
0
ARC
8
DEFAULT_255_2_778
10
71.9468817
20
51.0111293
40
2.3809378
50
78.331741
51
84.7500886
0
ARC
8
DEFAULT_255_2_778
10
71.7619516
20
50.214024
40
0.4441655
50
48.8310307
51
76.6177604
0
ARC
8
DEFAULT_255_2_778
10
71.6294202
20
49.72271
40
0.9529348
50
75.7026052
51
88.4956031
0
ARC
8
DEFAULT_255_2_778
10
71.5986731
20
49.2130999
40
1.4632793
50
87.8159461
51
90.0287937
0
ARC
8
DEFAULT_255_2_778
10
71.3133574
20
51.8771268
40
2.2291829
50
269.6782089
51
276.4280491
0
ARC
8
DEFAULT_255_2_778
10
71.4394746
20
50.8014653
40
1.1461747
50
276.1831946
51
287.1812187
0
ARC
8
DEFAULT_255_2_778
10
71.6035634
20
50.2697124
40
0.5896803
50
287.2114067
51
301.4165322
0
ARC
8
DEFAULT_255_2_778
10
71.638145
20
50.1862807
40
0.5006488
50
303.0163452
51
343.0063873
0
ARC
8
DEFAULT_255_2_778
10
71.3291826
20
50.305443
40
0.8312849
50
341.375388
51
350.4047808
0
ARC
8
DEFAULT_255_2_778
10
71.4722022
20
50.2879979
40
0.6873903
50
349.8514445
51
358.4904612
0
ARC
8
DEFAULT_255_2_778
10
71.6075063
20
50.2817957
40
0.551976
50
358.7640483
51
0.3995314
0
ARC
8
DEFAULT_255_2_778
10
71.7846426
20
50.2936706
40
0.3749122
50
358.7733489
51
29.8455913
0
ARC
8
DEFAULT_255_2_778
10
71.8439197
20
50.3193148
40
0.3108195
50
31.1834663
51
47.3920641
0
ARC
8
DEFAULT_255_2_778
10
72.0222323
20
52.0370251
40
0.3916424
50
49.0843059
51
78.3377642
0
ARC
8
DEFAULT_255_2_778
10
71.9057194
20
51.5509967
40
0.8913306
50
77.3181459
51
90.627184
0
ARC
8
DEFAULT_255_2_778
10
71.8921699
20
51.110672
40
1.3316072
50
89.8368056
51
89.9970846
0
ARC
8
DEFAULT_255_2_778
10
71.701513
20
52.7207827
40
1.1612717
50
269.3795386
51
281.8677472
0
ARC
8
DEFAULT_255_2_778
10
71.8174296
20
52.1889277
40
0.6169598
50
281.4905947
51
303.0983458
0
ARC
8
DEFAULT_255_2_778
10
71.8788599
20
52.0695836
40
0.4836299
50
304.7226534
51
350.2543412
0
ARC
8
DEFAULT_255_2_778
10
71.6558984
20
52.1350957
40
0.7149669
50
348.1041513
51
350.1087046
0
ARC
8
DEFAULT_255_2_778
10
71.8116116
20
52.1108243
40
0.5574063
50
349.8170148
51
359.3276575
0
ARC
8
DEFAULT_255_2_778
10
71.9054733
20
52.1071073
40
0.4635148
50
359.650942
51
359.9955325
0
ARC
8
DEFAULT_255_2_778
10
72.0635359
20
52.1185385
40
0.3056674
50
357.850012
51
36.4564953
0
ARC
8
DEFAULT_255_2_778
10
72.0938722
20
52.1326224
40
0.2729811
50
37.8625588
51
47.3740014
0
ARC
8
DEFAULT_255_2_778
10
75.5431918
20
52.8146103
40
1.4293829
50
269.5128063
51
280.0470619
0
ARC
8
DEFAULT_255_2_778
10
75.6637305
20
52.1667249
40
0.7704249
50
279.6259796
51
298.5700569
0
ARC
8
DEFAULT_255_2_778
10
75.7605919
20
51.9701039
40
0.5514964
50
299.5013494
51
304.9518831
0
ARC
8
DEFAULT_255_2_778
10
75.7503437
20
51.9700826
40
0.5574134
50
305.8165727
51
342.9147983
0
ARC
8
DEFAULT_255_2_778
10
75.4285804
20
52.0925653
40
0.9012437
50
341.4813443
51
350.375055
0
ARC
8
DEFAULT_255_2_778
10
75.624434
20
52.0648429
40
0.7035328
50
349.9341198
51
358.0117262
0
ARC
8
DEFAULT_255_2_778
10
75.7624701
20
52.0575976
40
0.5653339
50
358.2602118
51
359.9896846
0
ARC
8
DEFAULT_255_2_778
10
75.9488753
20
52.0680369
40
0.3790752
50
358.4065419
51
27.693423
0
ARC
8
DEFAULT_255_2_778
10
76.0225587
20
52.0986053
40
0.2997119
50
29.065578
51
48.529658
0
ARC
8
DEFAULT_255_2_778
10
75.9348971
20
51.9823545
40
0.4450144
50
49.9847316
51
76.1437975
0
ARC
8
DEFAULT_255_2_778
10
75.791055
20
51.4611743
40
0.985588
50
75.2810053
51
87.7141008
0
ARC
8
DEFAULT_255_2_778
10
75.7485138
20
50.8533402
40
1.5947397
50
87.0579203
51
90.0566248
0
LINE
8
DEFAULT_255_2_778
10
72.1647377
20
53.3817791
11
69.9348377
21
53.3817791
0
LINE
8
DEFAULT_255_2_778
10
69.9348377
20
53.3817791
11
69.1246377
21
48.7211791
0
LINE
8
DEFAULT_255_2_778
10
69.1246377
20
48.7211791
11
70.9211377
21
48.7211791
0
LINE
8
DEFAULT_255_2_778
10
73.2124377
20
49.8186791
11
73.0216377
21
48.7211791
0
LINE
8
DEFAULT_255_2_778
10
73.0216377
20
48.7211791
11
74.1914377
21
48.7211791
0
LINE
8
DEFAULT_255_2_778
10
74.1914377
20
48.7211791
11
74.4943377
21
50.4644791
0
LINE
8
DEFAULT_255_2_778
10
74.4943377
20
50.4644791
11
75.2804377
21
50.4644791
0
LINE
8
DEFAULT_255_2_778
10
75.7447377
20
48.7211791
11
76.4652377
21
48.7211791
0
LINE
8
DEFAULT_255_2_778
10
76.4652377
20
48.7211791
11
76.1477377
21
48.3395791
0
LINE
8
DEFAULT_255_2_778
10
76.1477377
20
48.3395791
11
77.5045377
21
48.3395791
0
LINE
8
DEFAULT_255_2_778
10
77.5045377
20
48.3395791
11
78.9772377
21
50.0993791
0
LINE
8
DEFAULT_255_2_778
10
80.6792377
20
48.7211791
11
80.3652377
21
49.4209791
0
LINE
8
DEFAULT_255_2_778
10
80.3652377
20
49.4209791
11
80.1723377
21
49.3407791
0
LINE
8
DEFAULT_255_2_778
10
80.1723377
20
49.3407791
11
80.2890377
21
49.5905791
0
LINE
8
DEFAULT_255_2_778
10
80.2890377
20
49.5905791
11
79.6778377
21
50.9520791
0
LINE
8
DEFAULT_255_2_778
10
79.6778377
20
50.9520791
11
80.5681377
21
52.0223791
0
LINE
8
DEFAULT_255_2_778
10
80.5681377
20
52.0223791
11
80.4305377
21
52.5205791
0
LINE
8
DEFAULT_255_2_778
10
80.4305377
20
52.5205791
11
80.7919377
21
52.2916791
0
LINE
8
DEFAULT_255_2_778
10
80.7919377
20
52.2916791
11
82.0162377
21
53.7635791
0
LINE
8
DEFAULT_255_2_778
10
82.0162377
20
53.7635791
11
80.6594377
21
53.7635791
0
LINE
8
DEFAULT_255_2_778
10
80.6594377
20
53.7635791
11
79.1867377
21
52.0038791
0
LINE
8
DEFAULT_255_2_778
10
77.4846377
20
53.3820791
11
78.4864377
21
51.1510791
0
LINE
8
DEFAULT_255_2_778
10
78.4864377
20
51.1510791
11
76.9031377
21
49.2476791
0
LINE
8
DEFAULT_255_2_778
10
76.0310377
20
53.3820791
11
73.8321377
21
53.3820791
0
LINE
8
DEFAULT_255_2_778
10
73.8321377
20
53.3820791
11
73.3201377
21
50.4364791
0
LINE
8
DEFAULT_255_2_778
10
72.1647377
20
53.3820791
11
72.1647377
21
53.3817791
0
LINE
8
DEFAULT_255_2_778
10
71.5979377
20
50.6763791
11
70.5907377
21
50.6763791
0
LINE
8
DEFAULT_255_2_778
10
70.5907377
20
50.6763791
11
70.4118377
21
49.6479791
0
LINE
8
DEFAULT_255_2_778
10
70.4118377
20
49.6479791
11
71.3008377
21
49.6479791
0
LINE
8
DEFAULT_255_2_778
10
72.0543377
20
50.5480791
11
72.0543377
21
50.5483791
0
LINE
8
DEFAULT_255_2_778
10
71.8922377
20
52.4422791
11
70.8973377
21
52.4422791
0
LINE
8
DEFAULT_255_2_778
10
70.8973377
20
52.4422791
11
70.7438377
21
51.5595791
0
LINE
8
DEFAULT_255_2_778
10
70.7438377
20
51.5595791
11
71.6889377
21
51.5595791
0
LINE
8
DEFAULT_255_2_778
10
72.2787377
20
52.3334791
11
72.2787377
21
52.3329791
0
LINE
8
DEFAULT_255_2_778
10
75.7469377
20
52.4480791
11
74.8393377
21
52.4480791
0
LINE
8
DEFAULT_255_2_778
10
74.8393377
20
52.4480791
11
74.6547377
21
51.3849791
0
LINE
8
DEFAULT_255_2_778
10
74.6547377
20
51.3849791
11
75.5310377
21
51.3852791
0
LINE
8
DEFAULT_255_2_778
10
80.1720377
20
49.3405791
11
83.3581377
21
50.6650791
0
LINE
8
DEFAULT_255_2_778
10
83.3581377
20
50.6650791
11
80.4300377
21
52.5202791
0
LINE
8
DEFAULT_255_2_778
10
80.4300377
20
52.5202791
11
80.8856377
21
50.8695791
0
LINE
8
DEFAULT_255_2_778
10
80.8856377
20
50.8695791
11
80.1720377
21
49.3405791
0
LINE
8
DEFAULT_255_2_778
10
19.4477739
20
92.6694749
11
14.9979739
21
92.6694749
0
LINE
8
DEFAULT_255_2_778
10
14.9979739
20
92.6694749
11
14.9194739
21
92.4797749
0
LINE
8
DEFAULT_255_2_778
10
20.6468739
20
92.9192749
11
20.6468739
21
92.6694749
0
LINE
8
DEFAULT_255_2_778
10
20.6468739
20
92.6694749
11
23.6443739
21
92.6694749
0
LINE
8
DEFAULT_255_2_778
10
24.8431739
20
92.9192749
11
24.8431739
21
92.6694749
0
LINE
8
DEFAULT_255_2_778
10
24.8431739
20
92.6694749
11
29.2929739
21
92.6694749
0
LINE
8
DEFAULT_255_2_778
10
37.6857739
20
92.6694749
11
31.5836739
21
92.6694749
0
LINE
8
DEFAULT_255_2_778
10
31.5836739
20
92.6694749
11
31.5050739
21
92.4797749
0
LINE
8
DEFAULT_255_2_778
10
44.4262739
20
92.6694749
11
39.9765739
21
92.6694749
0
LINE
8
DEFAULT_255_2_778
10
39.9765739
20
92.6694749
11
39.8979739
21
92.4797749
0
LINE
8
DEFAULT_255_2_778
10
45.6253739
20
92.9192749
11
45.6253739
21
92.6694749
0
LINE
8
DEFAULT_255_2_778
10
45.6253739
20
92.6694749
11
48.6228739
21
92.6694749
0
LINE
8
DEFAULT_255_2_778
10
49.8216739
20
92.9192749
11
49.8216739
21
92.6694749
0
LINE
8
DEFAULT_255_2_778
10
49.8216739
20
92.6694749
11
54.2714739
21
92.6694749
0
LINE
8
DEFAULT_255_2_778
10
62.6642739
20
92.6694749
11
56.5621739
21
92.6694749
0
LINE
8
DEFAULT_255_2_778
10
56.5621739
20
92.6694749
11
56.4836739
21
92.4797749
0
LINE
8
DEFAULT_255_2_778
10
69.4045739
20
92.6694749
11
64.9547739
21
92.6694749
0
LINE
8
DEFAULT_255_2_778
10
64.9547739
20
92.6694749
11
64.8761739
21
92.4797749
0
LINE
8
DEFAULT_255_2_778
10
70.6036739
20
92.9192749
11
70.6036739
21
92.6694749
0
LINE
8
DEFAULT_255_2_778
10
70.6036739
20
92.6694749
11
73.6010739
21
92.6694749
0
LINE
8
DEFAULT_255_2_778
10
74.7999739
20
92.9192749
11
74.7999739
21
92.6694749
0
LINE
8
DEFAULT_255_2_778
10
74.7999739
20
92.6694749
11
79.2496739
21
92.6694749
0
LINE
8
DEFAULT_255_2_778
10
12.4373739
20
87.8837749
11
9.1578739
21
87.8837749
0
LINE
8
DEFAULT_255_2_778
10
17.4652739
20
87.8837749
11
14.1857739
21
87.8837749
0
LINE
8
DEFAULT_255_2_778
10
22.4931739
20
87.8837749
11
19.2136739
21
87.8837749
0
LINE
8
DEFAULT_255_2_778
10
27.5209739
20
87.8837749
11
24.2414739
21
87.8837749
0
LINE
8
DEFAULT_255_2_778
10
32.5488739
20
87.8837749
11
29.2693739
21
87.8837749
0
LINE
8
DEFAULT_255_2_778
10
37.5767739
20
87.8837749
11
34.2972739
21
87.8837749
0
LINE
8
DEFAULT_255_2_778
10
42.6046739
20
87.8837749
11
39.3251739
21
87.8837749
0
LINE
8
DEFAULT_255_2_778
10
47.6324739
20
87.8837749
11
44.3529739
21
87.8837749
0
LINE
8
DEFAULT_255_2_778
10
62.7163739
20
87.8837749
11
59.4368739
21
87.8837749
0
LINE
8
DEFAULT_255_2_778
10
67.7442739
20
87.8837749
11
64.4647739
21
87.8837749
0
LINE
8
DEFAULT_255_2_778
10
72.7721739
20
87.8837749
11
69.4926739
21
87.8837749
0
LINE
8
DEFAULT_255_2_778
10
82.8279739
20
87.8837749
11
79.5483739
21
87.8837749
0
ARC
8
DEFAULT_255_2_778
10
6.9041046
20
90.9603376
40
0.5052686
50
1.5466804
51
89.3667173
0
ARC
8
DEFAULT_255_2_778
10
8.4935135
20
54.9410649
40
37.0270072
50
88.1987161
51
89.8526395
0
ARC
8
DEFAULT_255_2_778
10
8.4936298
20
55.0128319
40
36.95524
50
89.8525336
51
90.0004802
0
ARC
8
DEFAULT_255_2_778
10
8.4935314
20
54.9480587
40
37.0200132
50
90.0003272
51
92.452057
0
ARC
8
DEFAULT_255_2_778
10
6.9091982
20
91.4341844
40
0.4999913
50
0.0791933
51
89.9437387
0
ARC
8
DEFAULT_255_2_778
10
8.3362753
20
84.3283632
40
7.1667291
50
90.0130513
51
97.4325953
0
ARC
8
DEFAULT_255_2_778
10
8.3360364
20
83.7276847
40
7.7674075
50
89.9691627
51
90.0102791
0
ARC
8
DEFAULT_255_2_778
10
8.3362801
20
84.3273199
40
7.1677724
50
83.6038197
51
89.9685313
0
ARC
8
DEFAULT_255_2_778
10
8.4734657
20
70.3376734
40
19.5939488
50
87.9991089
51
89.6818136
0
ARC
8
DEFAULT_255_2_778
10
8.4731481
20
70.3178952
40
19.6137283
50
89.6812069
51
90.0002079
0
ARC
8
DEFAULT_255_2_778
10
8.4736716
20
70.2230982
40
19.7085253
50
90.0017288
51
93.0297464
0
ARC
8
DEFAULT_255_2_778
10
9.6578802
20
91.4341841
40
0.4999916
50
90.0562653
51
179.9207773
0
ARC
8
DEFAULT_255_2_778
10
10.0421808
20
81.7230305
40
0.8744779
50
3.1278687
51
20.3668969
0
ARC
8
DEFAULT_255_2_778
10
10.0416456
20
81.7230408
40
0.8750118
50
0.0000673
51
3.1252842
0
ARC
8
DEFAULT_255_2_778
10
10.0411136
20
81.72293
40
0.8755438
50
319.0393457
51
0.0073203
0
ARC
8
DEFAULT_255_2_778
10
10.0406492
20
81.7234439
40
0.8762314
50
270.0102792
51
319.0338781
0
ARC
8
DEFAULT_255_2_778
10
10.0408104
20
81.7215169
40
0.8743043
50
263.6767229
51
269.9997368
0
ARC
8
DEFAULT_255_2_778
10
10.0411311
20
81.7242028
40
0.877009
50
257.7459772
51
263.6752267
0
ARC
8
DEFAULT_255_2_778
10
10.0418559
20
81.7214777
40
0.8745007
50
196.249421
51
257.6616726
0
ARC
8
DEFAULT_255_2_778
10
13.5214135
20
54.9410649
40
37.0270072
50
88.1987161
51
89.8526395
0
ARC
8
DEFAULT_255_2_778
10
13.5215298
20
55.0128319
40
36.95524
50
89.8525336
51
90.0004802
0
ARC
8
DEFAULT_255_2_778
10
13.5214314
20
54.9480587
40
37.0200132
50
90.0003272
51
92.452057
0
ARC
8
DEFAULT_255_2_778
10
11.937034
20
91.4341201
40
0.5000557
50
0.0865539
51
89.936392
0
ARC
8
DEFAULT_255_2_778
10
13.3641385
20
84.3213052
40
7.1737878
50
83.6064595
51
89.6388403
0
ARC
8
DEFAULT_255_2_778
10
13.3642442
20
84.3279406
40
7.1671518
50
89.6393509
51
90.0129915
0
ARC
8
DEFAULT_255_2_778
10
13.3641212
20
84.3338092
40
7.161283
50
90.0120187
51
97.4354226
0
ARC
8
DEFAULT_255_2_778
10
13.5015657
20
70.3376734
40
19.5939488
50
87.9991089
51
89.6818136
0
ARC
8
DEFAULT_255_2_778
10
13.5012481
20
70.3178952
40
19.6137283
50
89.6812069
51
90.0002079
0
ARC
8
DEFAULT_255_2_778
10
13.5017716
20
70.2230982
40
19.7085253
50
90.0017288
51
93.0297464
0
ARC
8
DEFAULT_255_2_778
10
14.6861085
20
91.4340558
40
0.5001201
50
90.0709507
51
179.9060954
0
ARC
8
DEFAULT_255_2_778
10
15.0699856
20
81.7231608
40
0.8748031
50
3.1181634
51
20.3498918
0
ARC
8
DEFAULT_255_2_778
10
15.0696014
20
81.7231754
40
0.8751859
50
359.9995614
51
3.1158405
0
ARC
8
DEFAULT_255_2_778
10
15.0690559
20
81.723035
40
0.8757316
50
319.0409214
51
0.0087473
0
ARC
8
DEFAULT_255_2_778
10
15.0688986
20
81.7231163
40
0.8759039
50
270.0070022
51
319.0436499
0
ARC
8
DEFAULT_255_2_778
10
15.0690104
20
81.7214898
40
0.8742772
50
263.6718776
51
269.9996854
0
ARC
8
DEFAULT_255_2_778
10
15.069337
20
81.7242388
40
0.8770455
50
257.746098
51
263.6704663
0
ARC
8
DEFAULT_255_2_778
10
15.0698068
20
81.7212109
40
0.8741869
50
196.2372064
51
257.6738872
0
ARC
8
DEFAULT_255_2_778
10
14.841722
20
92.5302895
40
0.0929007
50
285.7285377
51
327.0612826
0
ARC
8
DEFAULT_255_2_778
10
14.6496803
20
93.0126803
40
0.6116837
50
279.2053374
51
290.8012079
0
ARC
8
DEFAULT_255_2_778
10
14.4672624
20
94.031748
40
1.6468975
50
272.7388314
51
279.798352
0
ARC
8
DEFAULT_255_2_778
10
14.4230894
20
94.7030193
40
2.319544
50
269.9728234
51
273.0364073
0
ARC
8
DEFAULT_255_2_778
10
13.2766453
20
94.4966052
40
2.1131418
50
263.473494
51
270.1936997
0
ARC
8
DEFAULT_255_2_778
10
13.1481991
20
93.4233609
40
1.0322687
50
255.1579601
51
263.7857554
0
ARC
8
DEFAULT_255_2_778
10
12.9406782
20
92.6695215
40
0.2505353
50
236.3148873
51
256.8727944
0
ARC
8
DEFAULT_255_2_778
10
12.8293045
20
92.4999718
40
0.0477017
50
205.0487132
51
234.6773618
0
ARC
8
DEFAULT_255_2_778
10
18.5493135
20
54.9410649
40
37.0270072
50
88.1987161
51
89.8526395
0
ARC
8
DEFAULT_255_2_778
10
18.5494298
20
55.0128319
40
36.95524
50
89.8525336
51
90.0004802
0
ARC
8
DEFAULT_255_2_778
10
18.5493314
20
54.9480587
40
37.0200132
50
90.0003272
51
92.452057
0
ARC
8
DEFAULT_255_2_778
10
16.964934
20
91.4341201
40
0.5000557
50
0.0865539
51
89.936392
0
ARC
8
DEFAULT_255_2_778
10
18.3920153
20
84.3208726
40
7.1742203
50
83.6066608
51
89.6058023
0
ARC
8
DEFAULT_255_2_778
10
18.392092
20
84.3171418
40
7.1779505
50
89.6066192
51
90.0128318
0
ARC
8
DEFAULT_255_2_778
10
18.3919348
20
84.3351399
40
7.1599523
50
90.0116059
51
97.4361147
0
ARC
8
DEFAULT_255_2_778
10
18.5294657
20
70.3376734
40
19.5939488
50
87.9991089
51
89.6818136
0
ARC
8
DEFAULT_255_2_778
10
18.5291481
20
70.3178952
40
19.6137283
50
89.6812069
51
90.0002079
0
ARC
8
DEFAULT_255_2_778
10
18.5296716
20
70.2230982
40
19.7085253
50
90.0017288
51
93.0297464
0
ARC
8
DEFAULT_255_2_778
10
19.7138802
20
91.4341841
40
0.4999916
50
90.0562653
51
179.9207773
0
ARC
8
DEFAULT_255_2_778
10
20.0978856
20
81.7231608
40
0.8748031
50
3.1181634
51
20.3498918
0
ARC
8
DEFAULT_255_2_778
10
20.0975014
20
81.7231754
40
0.8751859
50
359.9995614
51
3.1158405
0
ARC
8
DEFAULT_255_2_778
10
20.0969559
20
81.723035
40
0.8757316
50
319.0409214
51
0.0087473
0
ARC
8
DEFAULT_255_2_778
10
20.0966614
20
81.7234172
40
0.8762047
50
270.0128594
51
319.0346726
0
ARC
8
DEFAULT_255_2_778
10
20.0968635
20
81.7210806
40
0.873868
50
263.7191032
51
269.9996397
0
ARC
8
DEFAULT_255_2_778
10
20.0971674
20
81.7236407
40
0.8764462
50
257.742243
51
263.7176653
0
ARC
8
DEFAULT_255_2_778
10
20.0978304
20
81.7214811
40
0.8744772
50
196.2501031
51
257.6697517
0
ARC
8
DEFAULT_255_2_778
10
23.5771996
20
54.9464109
40
37.0216612
50
88.1985892
51
90.0003672
0
ARC
8
DEFAULT_255_2_778
10
23.5764754
20
58.7834496
40
33.1846223
50
89.9991594
51
90.0226964
0
ARC
8
DEFAULT_255_2_778
10
23.5771626
20
54.9463613
40
37.0217106
50
90.0214076
51
92.4519928
0
ARC
8
DEFAULT_255_2_778
10
21.9927486
20
91.4340345
40
0.5001413
50
0.0963399
51
89.9380754
0
ARC
8
DEFAULT_255_2_778
10
23.4199351
20
84.3229685
40
7.1721241
50
83.6057471
51
89.713128
0
ARC
8
DEFAULT_255_2_778
10
23.4200036
20
84.3256549
40
7.1694373
50
89.7135683
51
90.0131429
0
ARC
8
DEFAULT_255_2_778
10
23.4198528
20
84.3333231
40
7.1617692
50
90.0119503
51
97.4351697
0
ARC
8
DEFAULT_255_2_778
10
23.5573657
20
70.3376734
40
19.5939488
50
87.9991089
51
89.6818136
0
ARC
8
DEFAULT_255_2_778
10
23.5570481
20
70.3178952
40
19.6137283
50
89.6812069
51
90.0002079
0
ARC
8
DEFAULT_255_2_778
10
23.5575716
20
70.2230982
40
19.7085253
50
90.0017288
51
93.0297464
0
ARC
8
DEFAULT_255_2_778
10
24.7417802
20
91.4341841
40
0.4999916
50
90.0562653
51
179.9207773
0
ARC
8
DEFAULT_255_2_778
10
25.1253111
20
81.7230183
40
0.8752038
50
3.1260763
51
20.3501131
0
ARC
8
DEFAULT_255_2_778
10
25.1250358
20
81.7230427
40
0.8754774
50
0.0000652
51
3.1234966
0
ARC
8
DEFAULT_255_2_778
10
25.125013
20
81.7228625
40
0.8755
50
319.0427057
51
0.011856
0
ARC
8
DEFAULT_255_2_778
10
25.1245492
20
81.7234439
40
0.8762314
50
270.0102792
51
319.0338781
0
ARC
8
DEFAULT_255_2_778
10
25.1247104
20
81.7215169
40
0.8743043
50
263.6767229
51
269.9997368
0
ARC
8
DEFAULT_255_2_778
10
25.1250311
20
81.7242028
40
0.877009
50
257.7459772
51
263.6752267
0
ARC
8
DEFAULT_255_2_778
10
25.1257559
20
81.7214777
40
0.8745007
50
196.249421
51
257.6616726
0
ARC
8
DEFAULT_255_2_778
10
28.6050135
20
54.9410649
40
37.0270072
50
88.1987161
51
89.8526395
0
ARC
8
DEFAULT_255_2_778
10
28.6051298
20
55.0128319
40
36.95524
50
89.8525336
51
90.0004802
0
ARC
8
DEFAULT_255_2_778
10
28.6050314
20
54.9480587
40
37.0200132
50
90.0003272
51
92.452057
0
ARC
8
DEFAULT_255_2_778
10
27.0206982
20
91.4341843
40
0.4999914
50
0.0792031
51
89.9437346
0
ARC
8
DEFAULT_255_2_778
10
28.4477385
20
84.3213052
40
7.1737878
50
83.6064595
51
89.6388403
0
ARC
8
DEFAULT_255_2_778
10
28.4478442
20
84.3279406
40
7.1671518
50
89.6393509
51
90.0129915
0
ARC
8
DEFAULT_255_2_778
10
28.4477212
20
84.3338092
40
7.161283
50
90.0120187
51
97.4354226
0
ARC
8
DEFAULT_255_2_778
10
28.5852548
20
70.3369307
40
19.5946915
50
87.9991531
51
89.6818591
0
ARC
8
DEFAULT_255_2_778
10
28.5849198
20
70.3157307
40
19.6158928
50
89.6812242
51
90.0002082
0
ARC
8
DEFAULT_255_2_778
10
28.5853832
20
70.226442
40
19.7051816
50
90.0015549
51
93.0300036
0
ARC
8
DEFAULT_255_2_778
10
29.7697297
20
91.4340345
40
0.5001413
50
90.0619246
51
179.9036601
0
ARC
8
DEFAULT_255_2_778
10
30.1535856
20
81.7231608
40
0.8748031
50
3.1181634
51
20.3498918
0
ARC
8
DEFAULT_255_2_778
10
30.1532014
20
81.7231754
40
0.8751859
50
359.9995614
51
3.1158405
0
ARC
8
DEFAULT_255_2_778
10
30.1526559
20
81.723035
40
0.8757316
50
319.0409214
51
0.0087473
0
ARC
8
DEFAULT_255_2_778
10
30.1524986
20
81.7231163
40
0.8759039
50
270.0070022
51
319.0436499
0
ARC
8
DEFAULT_255_2_778
10
30.1526104
20
81.7214898
40
0.8742772
50
263.6718776
51
269.9996854
0
ARC
8
DEFAULT_255_2_778
10
30.152937
20
81.7242388
40
0.8770455
50
257.746098
51
263.6704663
0
ARC
8
DEFAULT_255_2_778
10
30.1536559
20
81.7214777
40
0.8745007
50
196.249421
51
257.6616726
0
ARC
8
DEFAULT_255_2_778
10
31.4274152
20
92.5303086
40
0.0929169
50
285.7206215
51
327.053679
0
ARC
8
DEFAULT_255_2_778
10
31.2352939
20
93.0130219
40
0.6120285
50
279.2045816
51
290.7961194
0
ARC
8
DEFAULT_255_2_778
10
31.0528813
20
94.0321129
40
1.6472642
50
272.7398517
51
279.797628
0
ARC
8
DEFAULT_255_2_778
10
31.0087828
20
94.7019764
40
2.3185011
50
269.9729734
51
273.0370877
0
ARC
8
DEFAULT_255_2_778
10
29.8622423
20
94.4964789
40
2.1130155
50
263.4732959
51
270.1937936
0
ARC
8
DEFAULT_255_2_778
10
29.7337426
20
93.4228437
40
1.031748
50
255.1549493
51
263.7859877
0
ARC
8
DEFAULT_255_2_778
10
29.5262069
20
92.6691284
40
0.2501306
50
236.2915829
51
256.8737081
0
ARC
8
DEFAULT_255_2_778
10
29.4149147
20
92.4998504
40
0.047569
50
204.9619886
51
234.6500575
0
ARC
8
DEFAULT_255_2_778
10
33.6332208
20
54.9477601
40
37.020312
50
88.1985564
51
90.0003521
0
ARC
8
DEFAULT_255_2_778
10
33.6331222
20
55.0543129
40
36.913759
50
90.0002002
51
90.0890662
0
ARC
8
DEFAULT_255_2_778
10
33.6332609
20
54.9418747
40
37.0261973
50
90.0890103
51
92.4518478
0
ARC
8
DEFAULT_255_2_778
10
32.0488127
20
91.4340986
40
0.5000771
50
0.0890138
51
89.9454072
0
ARC
8
DEFAULT_255_2_778
10
33.4759123
20
84.3208191
40
7.1742738
50
83.6066839
51
89.6526791
0
ARC
8
DEFAULT_255_2_778
10
33.4760007
20
84.3156363
40
7.1794559
50
89.6536354
51
90.0129777
0
ARC
8
DEFAULT_255_2_778
10
33.4758566
20
84.3332664
40
7.1618259
50
90.011857
51
97.4351411
0
ARC
8
DEFAULT_255_2_778
10
33.6133657
20
70.3376734
40
19.5939488
50
87.9991089
51
89.6818136
0
ARC
8
DEFAULT_255_2_778
10
33.6130481
20
70.3178952
40
19.6137283
50
89.6812069
51
90.0002079
0
ARC
8
DEFAULT_255_2_778
10
33.6135716
20
70.2230982
40
19.7085253
50
90.0017288
51
93.0297464
0
ARC
8
DEFAULT_255_2_778
10
34.7977803
20
91.4341841
40
0.4999916
50
90.0562751
51
179.9207733
0
ARC
8
DEFAULT_255_2_778
10
35.1817856
20
81.7231608
40
0.8748031
50
3.1181634
51
20.3498918
0
ARC
8
DEFAULT_255_2_778
10
35.1814014
20
81.7231754
40
0.8751859
50
359.9995614
51
3.1158405
0
ARC
8
DEFAULT_255_2_778
10
35.1808559
20
81.723035
40
0.8757316
50
319.0409214
51
0.0087473
0
ARC
8
DEFAULT_255_2_778
10
35.1805614
20
81.7234172
40
0.8762047
50
270.0128594
51
319.0346726
0
ARC
8
DEFAULT_255_2_778
10
35.1807635
20
81.7210806
40
0.873868
50
263.7191032
51
269.9996397
0
ARC
8
DEFAULT_255_2_778
10
35.1810674
20
81.7236407
40
0.8764462
50
257.742243
51
263.7176653
0
ARC
8
DEFAULT_255_2_778
10
35.1817302
20
81.7214808
40
0.8744768
50
196.250089
51
257.6697655
0
ARC
8
DEFAULT_255_2_778
10
38.6610135
20
54.9410649
40
37.0270072
50
88.1987161
51
89.8526395
0
ARC
8
DEFAULT_255_2_778
10
38.6611298
20
55.0128319
40
36.95524
50
89.8525336
51
90.0004802
0
ARC
8
DEFAULT_255_2_778
10
38.6610314
20
54.9480587
40
37.0200132
50
90.0003272
51
92.452057
0
ARC
8
DEFAULT_255_2_778
10
37.0766486
20
91.4340345
40
0.5001413
50
0.0963399
51
89.9380754
0
ARC
8
DEFAULT_255_2_778
10
38.5038351
20
84.3229685
40
7.1721241
50
83.6057471
51
89.713128
0
ARC
8
DEFAULT_255_2_778
10
38.5039036
20
84.3256549
40
7.1694373
50
89.7135683
51
90.0131429
0
ARC
8
DEFAULT_255_2_778
10
38.5037528
20
84.3333231
40
7.1617692
50
90.0119503
51
97.4351697
0
ARC
8
DEFAULT_255_2_778
10
38.6412657
20
70.3376734
40
19.5939488
50
87.9991089
51
89.6818136
0
ARC
8
DEFAULT_255_2_778
10
38.6409481
20
70.3178952
40
19.6137283
50
89.6812069
51
90.0002079
0
ARC
8
DEFAULT_255_2_778
10
38.6414716
20
70.2230982
40
19.7085253
50
90.0017288
51
93.0297464
0
ARC
8
DEFAULT_255_2_778
10
39.8256802
20
91.4341841
40
0.4999916
50
90.0562653
51
179.9207773
0
ARC
8
DEFAULT_255_2_778
10
40.2092111
20
81.7230183
40
0.8752038
50
3.1260763
51
20.3501131
0
ARC
8
DEFAULT_255_2_778
10
40.2089358
20
81.7230427
40
0.8754774
50
0.0000652
51
3.1234966
0
ARC
8
DEFAULT_255_2_778
10
40.208913
20
81.7228625
40
0.8755
50
319.0427057
51
0.011856
0
ARC
8
DEFAULT_255_2_778
10
40.2084492
20
81.7234439
40
0.8762314
50
270.0102792
51
319.0338781
0
ARC
8
DEFAULT_255_2_778
10
40.2086104
20
81.7215169
40
0.8743043
50
263.6767229
51
269.9997368
0
ARC
8
DEFAULT_255_2_778
10
40.2089311
20
81.7242028
40
0.877009
50
257.7459772
51
263.6752267
0
ARC
8
DEFAULT_255_2_778
10
40.2096559
20
81.7214777
40
0.8745007
50
196.249421
51
257.6616726
0
ARC
8
DEFAULT_255_2_778
10
39.8203368
20
92.530404
40
0.0927579
50
285.7070569
51
327.067043
0
ARC
8
DEFAULT_255_2_778
10
39.6329465
20
92.997611
40
0.5956933
50
279.6119417
51
290.8995117
0
ARC
8
DEFAULT_255_2_778
10
39.4518886
20
93.9781245
40
1.5927423
50
273.1118369
51
280.1441884
0
ARC
8
DEFAULT_255_2_778
10
39.4019118
20
94.680726
40
2.297051
50
269.9645145
51
273.4052276
0
ARC
8
DEFAULT_255_2_778
10
38.2551894
20
94.4940474
40
2.1103839
50
263.4637222
51
270.1927553
0
ARC
8
DEFAULT_255_2_778
10
38.1269568
20
93.4242462
40
1.0329547
50
255.1532529
51
263.7755181
0
ARC
8
DEFAULT_255_2_778
10
37.9192959
20
92.6701338
40
0.2509207
50
236.341242
51
256.8657276
0
ARC
8
DEFAULT_255_2_778
10
37.8077644
20
92.5001958
40
0.0476756
50
205.0952216
51
234.714134
0
ARC
8
DEFAULT_255_2_778
10
43.6889135
20
54.9410649
40
37.0270072
50
88.1987161
51
89.8526395
0
ARC
8
DEFAULT_255_2_778
10
43.6890298
20
55.0128319
40
36.95524
50
89.8525336
51
90.0004802
0
ARC
8
DEFAULT_255_2_778
10
43.6889314
20
54.9480587
40
37.0200132
50
90.0003272
51
92.452057
0
ARC
8
DEFAULT_255_2_778
10
42.1045982
20
91.4341844
40
0.4999913
50
0.0791933
51
89.9437387
0
ARC
8
DEFAULT_255_2_778
10
43.5316385
20
84.3213052
40
7.1737878
50
83.6064595
51
89.6388403
0
ARC
8
DEFAULT_255_2_778
10
43.5317442
20
84.3279406
40
7.1671518
50
89.6393509
51
90.0129915
0
ARC
8
DEFAULT_255_2_778
10
43.5316212
20
84.3338092
40
7.161283
50
90.0120187
51
97.4354226
0
ARC
8
DEFAULT_255_2_778
10
43.6691548
20
70.3369307
40
19.5946915
50
87.9991531
51
89.6818591
0
ARC
8
DEFAULT_255_2_778
10
43.6688198
20
70.3157307
40
19.6158928
50
89.6812242
51
90.0002082
0
ARC
8
DEFAULT_255_2_778
10
43.6692832
20
70.226442
40
19.7051816
50
90.0015549
51
93.0300036
0
ARC
8
DEFAULT_255_2_778
10
44.8536297
20
91.4340345
40
0.5001413
50
90.0619246
51
179.9036601
0
ARC
8
DEFAULT_255_2_778
10
45.2374856
20
81.7231608
40
0.8748031
50
3.1181634
51
20.3498918
0
ARC
8
DEFAULT_255_2_778
10
45.2371014
20
81.7231754
40
0.8751859
50
359.9995614
51
3.1158405
0
ARC
8
DEFAULT_255_2_778
10
45.2365559
20
81.723035
40
0.8757316
50
319.0409214
51
0.0087473
0
ARC
8
DEFAULT_255_2_778
10
45.2363986
20
81.7231163
40
0.8759039
50
270.0070022
51
319.0436499
0
ARC
8
DEFAULT_255_2_778
10
45.2365104
20
81.7214898
40
0.8742772
50
263.6718776
51
269.9996854
0
ARC
8
DEFAULT_255_2_778
10
45.236837
20
81.7242388
40
0.8770455
50
257.746098
51
263.6704663
0
ARC
8
DEFAULT_255_2_778
10
45.2375559
20
81.7214777
40
0.8745007
50
196.249421
51
257.6616726
0
ARC
8
DEFAULT_255_2_778
10
52.1602698
20
91.4340557
40
0.5001201
50
0.0939161
51
89.9290412
0
ARC
8
DEFAULT_255_2_778
10
48.7168135
20
54.9410649
40
37.0270072
50
88.1987161
51
89.8526395
0
ARC
8
DEFAULT_255_2_778
10
48.7169298
20
55.0128319
40
36.95524
50
89.8525336
51
90.0004802
0
ARC
8
DEFAULT_255_2_778
10
48.7168314
20
54.9480587
40
37.0200132
50
90.0003272
51
92.452057
0
ARC
8
DEFAULT_255_2_778
10
47.132434
20
91.4341201
40
0.5000557
50
0.0865539
51
89.936392
0
ARC
8
DEFAULT_255_2_778
10
48.5595385
20
84.3213052
40
7.1737878
50
83.6064595
51
89.6388403
0
ARC
8
DEFAULT_255_2_778
10
48.5596442
20
84.3279406
40
7.1671518
50
89.6393509
51
90.0129915
0
ARC
8
DEFAULT_255_2_778
10
48.5595212
20
84.3338092
40
7.161283
50
90.0120187
51
97.4354226
0
ARC
8
DEFAULT_255_2_778
10
48.6969657
20
70.3376734
40
19.5939488
50
87.9991089
51
89.6818136
0
ARC
8
DEFAULT_255_2_778
10
48.6966481
20
70.3178952
40
19.6137283
50
89.6812069
51
90.0002079
0
ARC
8
DEFAULT_255_2_778
10
48.6971716
20
70.2230982
40
19.7085253
50
90.0017288
51
93.0297464
0
ARC
8
DEFAULT_255_2_778
10
49.8815085
20
91.4340558
40
0.5001201
50
90.0709507
51
179.9060954
0
ARC
8
DEFAULT_255_2_778
10
50.2653856
20
81.7231608
40
0.8748031
50
3.1181634
51
20.3498918
0
ARC
8
DEFAULT_255_2_778
10
50.2650014
20
81.7231754
40
0.8751859
50
359.9995614
51
3.1158405
0
ARC
8
DEFAULT_255_2_778
10
50.2644559
20
81.723035
40
0.8757316
50
319.0409214
51
0.0087473
0
ARC
8
DEFAULT_255_2_778
10
50.2642986
20
81.7231163
40
0.8759039
50
270.0070022
51
319.0436499
0
ARC
8
DEFAULT_255_2_778
10
50.2644104
20
81.7214898
40
0.8742772
50
263.6718776
51
269.9996854
0
ARC
8
DEFAULT_255_2_778
10
50.264737
20
81.7242388
40
0.8770455
50
257.746098
51
263.6704663
0
ARC
8
DEFAULT_255_2_778
10
50.2653314
20
81.7213445
40
0.874344
50
196.2433273
51
257.6677767
0
LINE
8
DEFAULT_255_2_778
10
9.1578892
20
91.4348755
11
9.1578892
21
87.5299755
0
LINE
8
DEFAULT_255_2_778
10
9.1578892
20
87.5299755
11
9.2721892
21
86.8221755
0
LINE
8
DEFAULT_255_2_778
10
9.2721892
20
86.8221755
11
10.8619892
21
82.0273755
0
LINE
8
DEFAULT_255_2_778
10
9.2022892
20
81.4767755
11
7.6123892
21
86.2715755
0
LINE
8
DEFAULT_255_2_778
10
7.6123892
20
86.2715755
11
7.4091892
21
87.5296755
0
LINE
8
DEFAULT_255_2_778
10
7.4091892
20
87.5296755
11
7.4091892
21
87.8463755
0
LINE
8
DEFAULT_255_2_778
10
12.4370892
20
91.4348755
11
12.4457892
21
87.8463755
0
LINE
8
DEFAULT_255_2_778
10
14.1859892
20
91.4348755
11
14.1859892
21
87.5299755
0
LINE
8
DEFAULT_255_2_778
10
14.1859892
20
87.5299755
11
14.3002892
21
86.8221755
0
LINE
8
DEFAULT_255_2_778
10
14.3002892
20
86.8221755
11
15.8901892
21
82.0273755
0
LINE
8
DEFAULT_255_2_778
10
14.2304892
20
81.4767755
11
12.6405892
21
86.2715755
0
LINE
8
DEFAULT_255_2_778
10
12.6405892
20
86.2715755
11
12.4373892
21
87.5296755
0
LINE
8
DEFAULT_255_2_778
10
12.4373892
20
87.5296755
11
12.4373892
21
87.8463755
0
LINE
8
DEFAULT_255_2_778
10
14.9344892
20
92.5157755
11
12.7712892
21
92.5157755
0
LINE
8
DEFAULT_255_2_778
10
14.4219892
20
92.3834755
11
13.2837892
21
92.3834755
0
LINE
8
DEFAULT_255_2_778
10
13.2837892
20
92.3834755
11
13.2837892
21
92.3834755
0
LINE
8
DEFAULT_255_2_778
10
17.4649892
20
91.4348755
11
17.4736892
21
87.8463755
0
LINE
8
DEFAULT_255_2_778
10
19.2138892
20
91.4348755
11
19.2138892
21
87.5299755
0
LINE
8
DEFAULT_255_2_778
10
19.2138892
20
87.5299755
11
19.3281892
21
86.8221755
0
LINE
8
DEFAULT_255_2_778
10
19.3281892
20
86.8221755
11
20.9180892
21
82.0273755
0
LINE
8
DEFAULT_255_2_778
10
19.2582892
20
81.4767755
11
17.6681892
21
86.2718755
0
LINE
8
DEFAULT_255_2_778
10
17.6681892
20
86.2718755
11
17.4649892
21
87.5299755
0
LINE
8
DEFAULT_255_2_778
10
17.4649892
20
87.5299755
11
17.4649892
21
87.8463755
0
LINE
8
DEFAULT_255_2_778
10
19.3098892
20
93.0271755
11
19.4284892
21
92.6694755
0
LINE
8
DEFAULT_255_2_778
10
19.4477892
20
92.6694755
11
19.4477892
21
92.9192755
0
LINE
8
DEFAULT_255_2_778
10
19.4477892
20
92.9192755
11
20.6468892
21
92.9192755
0
LINE
8
DEFAULT_255_2_778
10
22.4928892
20
91.4348755
11
22.5015892
21
87.8463755
0
LINE
8
DEFAULT_255_2_778
10
24.2417892
20
91.4348755
11
24.2417892
21
87.5299755
0
LINE
8
DEFAULT_255_2_778
10
24.2417892
20
87.5299755
11
24.3560892
21
86.8221755
0
LINE
8
DEFAULT_255_2_778
10
24.3560892
20
86.8221755
11
25.9458892
21
82.0273755
0
LINE
8
DEFAULT_255_2_778
10
24.2861892
20
81.4767755
11
22.6962892
21
86.2715755
0
LINE
8
DEFAULT_255_2_778
10
22.6962892
20
86.2715755
11
22.4930892
21
87.5296755
0
LINE
8
DEFAULT_255_2_778
10
22.4930892
20
87.5296755
11
22.4930892
21
87.8463755
0
LINE
8
DEFAULT_255_2_778
10
23.6442892
20
92.6694755
11
23.6442892
21
92.9192755
0
LINE
8
DEFAULT_255_2_778
10
23.6442892
20
92.9192755
11
24.8433892
21
92.9192755
0
LINE
8
DEFAULT_255_2_778
10
27.5206892
20
91.4348755
11
27.5294892
21
87.8463755
0
LINE
8
DEFAULT_255_2_778
10
29.2695892
20
91.4348755
11
29.2695892
21
87.5299755
0
LINE
8
DEFAULT_255_2_778
10
29.2695892
20
87.5299755
11
29.3838892
21
86.8221755
0
LINE
8
DEFAULT_255_2_778
10
29.3838892
20
86.8221755
11
30.9737892
21
82.0273755
0
LINE
8
DEFAULT_255_2_778
10
29.3140892
20
81.4767755
11
27.7241892
21
86.2715755
0
LINE
8
DEFAULT_255_2_778
10
27.7241892
20
86.2715755
11
27.5209892
21
87.5296755
0
LINE
8
DEFAULT_255_2_778
10
27.5209892
20
87.5296755
11
27.5209892
21
87.8463755
0
LINE
8
DEFAULT_255_2_778
10
31.5201892
20
92.5157755
11
29.3568892
21
92.5157755
0
LINE
8
DEFAULT_255_2_778
10
31.0076892
20
92.3834755
11
29.8693892
21
92.3834755
0
LINE
8
DEFAULT_255_2_778
10
29.8693892
20
92.3834755
11
29.8693892
21
92.3834755
0
LINE
8
DEFAULT_255_2_778
10
29.3717892
20
92.4797755
11
29.2931892
21
92.6694755
0
LINE
8
DEFAULT_255_2_778
10
32.5488892
20
91.4348755
11
32.5575892
21
87.8463755
0
LINE
8
DEFAULT_255_2_778
10
34.2977892
20
91.4348755
11
34.2977892
21
87.5299755
0
LINE
8
DEFAULT_255_2_778
10
34.2977892
20
87.5299755
11
34.4120892
21
86.8221755
0
LINE
8
DEFAULT_255_2_778
10
34.4120892
20
86.8221755
11
36.0019892
21
82.0273755
0
LINE
8
DEFAULT_255_2_778
10
34.3421892
20
81.4767755
11
32.7522892
21
86.2715755
0
LINE
8
DEFAULT_255_2_778
10
32.7522892
20
86.2715755
11
32.5490892
21
87.5296755
0
LINE
8
DEFAULT_255_2_778
10
32.5490892
20
87.5296755
11
32.5490892
21
87.8463755
0
LINE
8
DEFAULT_255_2_778
10
37.5767892
20
91.4348755
11
37.5854892
21
87.8463755
0
LINE
8
DEFAULT_255_2_778
10
39.3256892
20
91.4348755
11
39.3256892
21
87.5299755
0
LINE
8
DEFAULT_255_2_778
10
39.3256892
20
87.5299755
11
39.4399892
21
86.8221755
0
LINE
8
DEFAULT_255_2_778
10
39.4399892
20
86.8221755
11
41.0297892
21
82.0273755
0
LINE
8
DEFAULT_255_2_778
10
39.3700892
20
81.4767755
11
37.7801892
21
86.2715755
0
LINE
8
DEFAULT_255_2_778
10
37.7801892
20
86.2715755
11
37.5769892
21
87.5296755
0
LINE
8
DEFAULT_255_2_778
10
37.5769892
20
87.5296755
11
37.5769892
21
87.8463755
0
LINE
8
DEFAULT_255_2_778
10
38.0714892
20
92.5157755
11
37.7497892
21
92.5157755
0
LINE
8
DEFAULT_255_2_778
10
39.9129892
20
92.5157755
11
38.0714892
21
92.5157755
0
LINE
8
DEFAULT_255_2_778
10
38.0714892
20
92.5157755
11
38.0714892
21
92.3916755
0
LINE
8
DEFAULT_255_2_778
10
39.4004892
20
92.3836755
11
38.2622892
21
92.3836755
0
LINE
8
DEFAULT_255_2_778
10
38.2622892
20
92.3836755
11
38.2622892
21
92.3836755
0
LINE
8
DEFAULT_255_2_778
10
37.7645892
20
92.4799755
11
37.6859892
21
92.6696755
0
LINE
8
DEFAULT_255_2_778
10
42.6045892
20
91.4348755
11
42.6133892
21
87.8463755
0
LINE
8
DEFAULT_255_2_778
10
44.3534892
20
91.4348755
11
44.3534892
21
87.5299755
0
LINE
8
DEFAULT_255_2_778
10
44.3534892
20
87.5299755
11
44.4677892
21
86.8221755
0
LINE
8
DEFAULT_255_2_778
10
44.4677892
20
86.8221755
11
46.0576892
21
82.0273755
0
LINE
8
DEFAULT_255_2_778
10
44.3979892
20
81.4767755
11
42.8080892
21
86.2715755
0
LINE
8
DEFAULT_255_2_778
10
42.8080892
20
86.2715755
11
42.6048892
21
87.5296755
0
LINE
8
DEFAULT_255_2_778
10
42.6048892
20
87.5296755
11
42.6048892
21
87.8463755
0
LINE
8
DEFAULT_255_2_778
10
44.4265892
20
92.6694755
11
44.4265892
21
92.9192755
0
LINE
8
DEFAULT_255_2_778
10
44.4265892
20
92.9192755
11
45.6253892
21
92.9192755
0
LINE
8
DEFAULT_255_2_778
10
52.6690892
20
87.8463755
11
52.6603892
21
91.4348755
0
LINE
8
DEFAULT_255_2_778
10
52.6603892
20
87.5299755
11
52.6603892
21
87.8463755
0
LINE
8
DEFAULT_255_2_778
10
52.6603892
20
87.8839755
11
49.3810892
21
87.8839755
0
LINE
8
DEFAULT_255_2_778
10
47.6324892
20
91.4348755
11
47.6411892
21
87.8463755
0
LINE
8
DEFAULT_255_2_778
10
49.3813892
20
91.4348755
11
49.3813892
21
87.5299755
0
LINE
8
DEFAULT_255_2_778
10
49.3813892
20
87.5299755
11
49.4956892
21
86.8221755
0
LINE
8
DEFAULT_255_2_778
10
49.4956892
20
86.8221755
11
51.0855892
21
82.0273755
0
LINE
8
DEFAULT_255_2_778
10
49.4258892
20
81.4767755
11
47.8359892
21
86.2715755
0
LINE
8
DEFAULT_255_2_778
10
47.8359892
20
86.2715755
11
47.6327892
21
87.5296755
0
LINE
8
DEFAULT_255_2_778
10
47.6327892
20
87.5296755
11
47.6327892
21
87.8463755
0
LINE
8
DEFAULT_255_2_778
10
48.6227892
20
92.6694755
11
48.6227892
21
92.9192755
0
LINE
8
DEFAULT_255_2_778
10
48.6227892
20
92.9192755
11
49.8218892
21
92.9192755
0
ARC
8
DEFAULT_255_2_778
10
57.1882417
20
91.4341358
40
0.500056
50
0.0980419
51
89.9478383
0
ARC
8
DEFAULT_255_2_778
10
53.7444212
20
54.9410809
40
37.0270072
50
88.1987161
51
89.8526395
0
ARC
8
DEFAULT_255_2_778
10
53.7444781
20
54.9699321
40
36.9981558
50
89.8526127
51
89.9985406
0
ARC
8
DEFAULT_255_2_778
10
53.7444359
20
54.9482418
40
37.0198461
50
89.9984761
51
92.452063
0
ARC
8
DEFAULT_255_2_778
10
53.5874503
20
84.3267287
40
7.1686448
50
83.6067114
51
89.7170441
0
ARC
8
DEFAULT_255_2_778
10
53.587324
20
84.3069624
40
7.1884113
50
89.7168162
51
89.9996751
0
ARC
8
DEFAULT_255_2_778
10
53.587389
20
84.3214129
40
7.1739608
50
90.0001931
51
97.4267186
0
ARC
8
DEFAULT_255_2_778
10
53.7247722
20
70.350963
40
19.5809692
50
87.9989494
51
89.6827695
0
ARC
8
DEFAULT_255_2_778
10
53.7245564
20
70.32986
40
19.6020732
50
89.6824803
51
90.0001039
0
ARC
8
DEFAULT_255_2_778
10
53.7249152
20
70.277532
40
19.6544013
50
90.0011496
51
93.0390777
0
ARC
8
DEFAULT_255_2_778
10
54.908788
20
91.4345001
40
0.4999916
50
90.0562653
51
179.9207773
0
ARC
8
DEFAULT_255_2_778
10
55.2929615
20
81.7225724
40
0.8748667
50
3.1239638
51
20.4115287
0
ARC
8
DEFAULT_255_2_778
10
55.2925427
20
81.7225955
40
0.8752834
50
0.0000508
51
3.1209591
0
ARC
8
DEFAULT_255_2_778
10
55.2919267
20
81.7225033
40
0.8758995
50
319.0718912
51
0.0060805
0
ARC
8
DEFAULT_255_2_778
10
55.2929851
20
81.7221904
40
0.8748949
50
269.9915679
51
319.0419681
0
ARC
8
DEFAULT_255_2_778
10
55.2928643
20
81.7222671
40
0.8749717
50
263.7217573
51
269.9994783
0
ARC
8
DEFAULT_255_2_778
10
55.2931971
20
81.7250743
40
0.8777984
50
257.6797918
51
263.7202028
0
ARC
8
DEFAULT_255_2_778
10
55.292763
20
81.721793
40
0.8744999
50
196.2493924
51
257.6617088
0
ARC
8
DEFAULT_255_2_778
10
56.4054229
20
92.5303246
40
0.0929169
50
285.7206215
51
327.053679
0
ARC
8
DEFAULT_255_2_778
10
56.2133017
20
93.0130378
40
0.6120285
50
279.2045816
51
290.7961194
0
ARC
8
DEFAULT_255_2_778
10
56.030889
20
94.0321289
40
1.6472642
50
272.7398517
51
279.797628
0
ARC
8
DEFAULT_255_2_778
10
55.9867906
20
94.7019923
40
2.3185011
50
269.9729734
51
273.0370877
0
ARC
8
DEFAULT_255_2_778
10
54.8402941
20
94.4937372
40
2.1102577
50
263.4635238
51
270.1928493
0
ARC
8
DEFAULT_255_2_778
10
54.712008
20
93.4235443
40
1.0324334
50
255.1502408
51
263.7757497
0
ARC
8
DEFAULT_255_2_778
10
54.5043321
20
92.6695556
40
0.2505151
50
236.3179481
51
256.8666379
0
ARC
8
DEFAULT_255_2_778
10
54.3928823
20
92.4998902
40
0.0475427
50
205.0084254
51
234.6868716
0
LINE
8
DEFAULT_255_2_778
10
57.696997
20
87.8463915
11
57.688297
21
91.4349915
0
LINE
8
DEFAULT_255_2_778
10
57.688297
20
87.5299915
11
57.688297
21
87.8463915
0
LINE
8
DEFAULT_255_2_778
10
57.688297
20
87.8839915
11
54.408797
21
87.8839915
0
LINE
8
DEFAULT_255_2_778
10
54.408797
20
91.4351915
11
54.408797
21
87.5301915
0
LINE
8
DEFAULT_255_2_778
10
54.408797
20
87.5301915
11
54.523097
21
86.8224915
0
LINE
8
DEFAULT_255_2_778
10
54.523097
20
86.8224915
11
56.112897
21
82.0276915
0
LINE
8
DEFAULT_255_2_778
10
54.453197
20
81.4770915
11
52.863297
21
86.2718915
0
LINE
8
DEFAULT_255_2_778
10
52.863297
20
86.2718915
11
52.660097
21
87.5299915
0
LINE
8
DEFAULT_255_2_778
10
56.498197
20
92.5157915
11
54.334897
21
92.5157915
0
LINE
8
DEFAULT_255_2_778
10
55.985697
20
92.3834915
11
54.847397
21
92.3834915
0
LINE
8
DEFAULT_255_2_778
10
54.847397
20
92.3834915
11
54.847397
21
92.3834915
0
LINE
8
DEFAULT_255_2_778
10
54.349797
20
92.4797915
11
54.271197
21
92.6694915
0
ARC
8
DEFAULT_255_2_778
10
58.7732285
20
54.8323353
40
37.1356885
50
88.2049644
51
89.8540452
0
ARC
8
DEFAULT_255_2_778
10
58.7731694
20
54.8196875
40
37.1483364
50
89.8540037
51
89.9998787
0
ARC
8
DEFAULT_255_2_778
10
58.773229
20
54.8389843
40
37.1290394
50
89.9999706
51
92.4458008
0
ARC
8
DEFAULT_255_2_778
10
58.615626
20
84.3267377
40
7.1686448
50
83.6067114
51
89.7170441
0
ARC
8
DEFAULT_255_2_778
10
58.6154998
20
84.3069715
40
7.1884113
50
89.7168162
51
89.9996751
0
ARC
8
DEFAULT_255_2_778
10
58.6155647
20
84.321422
40
7.1739608
50
90.0001931
51
97.4267186
0
ARC
8
DEFAULT_255_2_778
10
58.7525491
20
70.3378984
40
19.5939488
50
87.9991089
51
89.6818136
0
ARC
8
DEFAULT_255_2_778
10
58.7522316
20
70.3181202
40
19.6137283
50
89.6812069
51
90.0002079
0
ARC
8
DEFAULT_255_2_778
10
58.7527551
20
70.2233232
40
19.7085253
50
90.0017288
51
93.0297464
0
ARC
8
DEFAULT_255_2_778
10
59.936992
20
91.4342806
40
0.5001202
50
90.0594984
51
179.8946099
0
ARC
8
DEFAULT_255_2_778
10
60.3213332
20
81.7232767
40
0.874406
50
3.1267395
51
20.367169
0
ARC
8
DEFAULT_255_2_778
10
60.3210496
20
81.7233003
40
0.8746878
50
359.9998247
51
3.1241813
0
ARC
8
DEFAULT_255_2_778
10
60.320406
20
81.7231869
40
0.8753314
50
319.0245135
51
0.0072461
0
ARC
8
DEFAULT_255_2_778
10
60.319782
20
81.7233413
40
0.8759039
50
270.0070022
51
319.0436499
0
ARC
8
DEFAULT_255_2_778
10
60.3198939
20
81.7217148
40
0.8742772
50
263.6718776
51
269.9996854
0
ARC
8
DEFAULT_255_2_778
10
60.3202205
20
81.7244638
40
0.8770455
50
257.746098
51
263.6704663
0
ARC
8
DEFAULT_255_2_778
10
60.3209394
20
81.7217027
40
0.8745007
50
196.249421
51
257.6616726
0
ARC
8
DEFAULT_255_2_778
10
63.8011351
20
54.8387793
40
37.1292443
50
88.2048173
51
89.9904629
0
LINE
8
DEFAULT_255_2_778
10
63.8073154
20
91.9680232
11
63.8011289
21
91.9680237
0
ARC
8
DEFAULT_255_2_778
10
63.8011242
20
54.8392086
40
37.1288151
50
89.9999928
51
92.4458082
0
ARC
8
DEFAULT_255_2_778
10
62.2161175
20
91.4341451
40
0.5000557
50
0.0865539
51
89.936392
0
ARC
8
DEFAULT_255_2_778
10
63.6437367
20
84.3248611
40
7.1702215
50
83.6074051
51
89.6427738
0
ARC
8
DEFAULT_255_2_778
10
63.6437321
20
84.3253978
40
7.1696849
50
89.6427107
51
90.0002533
0
ARC
8
DEFAULT_255_2_778
10
63.6437331
20
84.3216089
40
7.1734739
50
90.0002606
51
97.4269706
0
ARC
8
DEFAULT_255_2_778
10
63.7806491
20
70.3375984
40
19.5939488
50
87.9991089
51
89.6818136
0
ARC
8
DEFAULT_255_2_778
10
63.7803316
20
70.3178202
40
19.6137283
50
89.6812069
51
90.0002079
0
ARC
8
DEFAULT_255_2_778
10
63.7808551
20
70.2230232
40
19.7085253
50
90.0017288
51
93.0297464
0
ARC
8
DEFAULT_255_2_778
10
64.9651278
20
91.4341451
40
0.5000557
50
90.063608
51
179.9134461
0
ARC
8
DEFAULT_255_2_778
10
65.3490612
20
81.7231848
40
0.8748109
50
3.1051563
51
20.3497708
0
ARC
8
DEFAULT_255_2_778
10
65.3485671
20
81.7231936
40
0.8753038
50
359.9997708
51
3.1028302
0
ARC
8
DEFAULT_255_2_778
10
65.347776
20
81.7230957
40
0.876095
50
319.0498
51
0.0061727
0
ARC
8
DEFAULT_255_2_778
10
65.3480032
20
81.7232564
40
0.8760289
50
270.0083087
51
319.0321216
0
ARC
8
DEFAULT_255_2_778
10
65.3481345
20
81.7214673
40
0.8742399
50
263.7160134
51
269.999715
0
ARC
8
DEFAULT_255_2_778
10
65.3484492
20
81.7241019
40
0.8768931
50
257.7420212
51
263.714422
0
ARC
8
DEFAULT_255_2_778
10
65.3487465
20
81.7212198
40
0.8741405
50
196.2369947
51
257.6828678
0
ARC
8
DEFAULT_255_2_778
10
64.7986195
20
92.5301291
40
0.0927586
50
285.708533
51
327.0672529
0
ARC
8
DEFAULT_255_2_778
10
64.6063194
20
93.0131992
40
0.6122661
50
279.2149428
51
290.7994005
0
ARC
8
DEFAULT_255_2_778
10
64.4239142
20
94.0311713
40
1.646399
50
272.7465219
51
279.8077643
0
ARC
8
DEFAULT_255_2_778
10
64.3799618
20
94.6972317
40
2.3138315
50
269.9730308
51
273.0433239
0
ARC
8
DEFAULT_255_2_778
10
63.2334729
20
94.4937724
40
2.1103839
50
263.4637222
51
270.1927553
0
ARC
8
DEFAULT_255_2_778
10
63.1052403
20
93.4239712
40
1.0329547
50
255.1532529
51
263.7755181
0
ARC
8
DEFAULT_255_2_778
10
62.8975794
20
92.6698588
40
0.2509207
50
236.341242
51
256.8657276
0
ARC
8
DEFAULT_255_2_778
10
62.7860479
20
92.4999208
40
0.0476756
50
205.0952216
51
234.714134
0
ARC
8
DEFAULT_255_2_778
10
68.829003
20
54.8306097
40
37.137414
50
88.2050084
51
89.8204035
0
ARC
8
DEFAULT_255_2_778
10
68.8290169
20
54.8303936
40
37.1376301
50
89.8204261
51
89.9999998
0
ARC
8
DEFAULT_255_2_778
10
68.8289414
20
54.843087
40
37.1249368
50
89.9998832
51
92.445936
0
ARC
8
DEFAULT_255_2_778
10
67.2439533
20
91.4340808
40
0.5001201
50
0.0939087
51
89.9290395
0
ARC
8
DEFAULT_255_2_778
10
68.6716148
20
84.3244676
40
7.1706151
50
83.6075813
51
89.6097266
0
ARC
8
DEFAULT_255_2_778
10
68.6715948
20
84.3294919
40
7.1655908
50
89.6092937
51
90.000231
0
ARC
8
DEFAULT_255_2_778
10
68.6715469
20
84.3229373
40
7.1721455
50
89.9998479
51
97.4276599
0
ARC
8
DEFAULT_255_2_778
10
68.8085491
20
70.3375984
40
19.5939488
50
87.9991089
51
89.6818136
0
ARC
8
DEFAULT_255_2_778
10
68.8082316
20
70.3178202
40
19.6137283
50
89.6812069
51
90.0002079
0
ARC
8
DEFAULT_255_2_778
10
68.8087551
20
70.2230232
40
19.7085253
50
90.0017288
51
93.0297464
0
ARC
8
DEFAULT_255_2_778
10
69.9929637
20
91.4342091
40
0.4999916
50
90.0562653
51
179.9207773
0
ARC
8
DEFAULT_255_2_778
10
70.3765042
20
81.723046
40
0.8751939
50
3.1128929
51
20.3501598
0
ARC
8
DEFAULT_255_2_778
10
70.3764009
20
81.7230721
40
0.8752956
50
359.9995428
51
3.110823
0
ARC
8
DEFAULT_255_2_778
10
70.375833
20
81.7229232
40
0.8758635
50
319.051586
51
0.0092808
0
ARC
8
DEFAULT_255_2_778
10
70.3759032
20
81.7232564
40
0.8760289
50
270.0083087
51
319.0321216
0
ARC
8
DEFAULT_255_2_778
10
70.3760345
20
81.7214673
40
0.8742399
50
263.7160134
51
269.999715
0
ARC
8
DEFAULT_255_2_778
10
70.3763492
20
81.7241019
40
0.8768931
50
257.7420212
51
263.714422
0
ARC
8
DEFAULT_255_2_778
10
70.3766465
20
81.7212198
40
0.8741405
50
196.2369947
51
257.6828678
0
ARC
8
DEFAULT_255_2_778
10
77.2999962
20
91.4341236
40
0.5000771
50
0.0890138
51
89.9454072
0
ARC
8
DEFAULT_255_2_778
10
73.8568285
20
54.8323353
40
37.1356885
50
88.2049644
51
89.8540452
0
ARC
8
DEFAULT_255_2_778
10
73.8567694
20
54.8196875
40
37.1483364
50
89.8540037
51
89.9998787
0
ARC
8
DEFAULT_255_2_778
10
73.856829
20
54.8389843
40
37.1290394
50
89.9999706
51
92.4458008
0
ARC
8
DEFAULT_255_2_778
10
72.2718321
20
91.4340595
40
0.5001413
50
0.0963399
51
89.9380754
0
ARC
8
DEFAULT_255_2_778
10
73.699526
20
84.3264377
40
7.1686448
50
83.6067114
51
89.7170441
0
ARC
8
DEFAULT_255_2_778
10
73.6993998
20
84.3066715
40
7.1884113
50
89.7168162
51
89.9996751
0
ARC
8
DEFAULT_255_2_778
10
73.6994647
20
84.321122
40
7.1739608
50
90.0001931
51
97.4267186
0
ARC
8
DEFAULT_255_2_778
10
73.8364491
20
70.3375984
40
19.5939488
50
87.9991089
51
89.6818136
0
ARC
8
DEFAULT_255_2_778
10
73.8361316
20
70.3178202
40
19.6137283
50
89.6812069
51
90.0002079
0
ARC
8
DEFAULT_255_2_778
10
73.8366551
20
70.2230232
40
19.7085253
50
90.0017288
51
93.0297464
0
ARC
8
DEFAULT_255_2_778
10
75.0208637
20
91.4342091
40
0.4999916
50
90.0562653
51
179.9207773
0
ARC
8
DEFAULT_255_2_778
10
75.4044042
20
81.723046
40
0.8751939
50
3.1128929
51
20.3501598
0
ARC
8
DEFAULT_255_2_778
10
75.4043009
20
81.7230721
40
0.8752956
50
359.9995428
51
3.110823
0
ARC
8
DEFAULT_255_2_778
10
75.403733
20
81.7229232
40
0.8758635
50
319.051586
51
0.0092808
0
ARC
8
DEFAULT_255_2_778
10
75.4037908
20
81.7232833
40
0.8760558
50
270.0057382
51
319.0313238
0
ARC
8
DEFAULT_255_2_778
10
75.4038849
20
81.7219083
40
0.8746809
50
263.6734568
51
269.9995824
0
ARC
8
DEFAULT_255_2_778
10
75.4042242
20
81.7247433
40
0.877536
50
257.7461246
51
263.6718373
0
ARC
8
DEFAULT_255_2_778
10
75.4045719
20
81.7212164
40
0.8741638
50
196.2363118
51
257.6747895
0
ARC
8
DEFAULT_255_2_778
10
78.8850268
20
54.8384208
40
37.1296029
50
88.2048218
51
90.0000086
0
ARC
8
DEFAULT_255_2_778
10
78.8851498
20
54.6298162
40
37.3382075
50
90.0001973
51
90.089349
0
ARC
8
DEFAULT_255_2_778
10
78.8850491
20
54.8334562
40
37.1345675
50
90.0896836
51
92.4456221
0
ARC
8
DEFAULT_255_2_778
10
78.7273367
20
84.3251611
40
7.1702215
50
83.6074051
51
89.6427738
0
ARC
8
DEFAULT_255_2_778
10
78.7273321
20
84.3256978
40
7.1696849
50
89.6427107
51
90.0002533
0
ARC
8
DEFAULT_255_2_778
10
78.7273331
20
84.3219089
40
7.1734739
50
90.0002606
51
97.4269706
0
ARC
8
DEFAULT_255_2_778
10
78.8643002
20
70.3353082
40
19.5965391
50
87.9992301
51
89.7807527
0
ARC
8
DEFAULT_255_2_778
10
78.8638733
20
70.2659159
40
19.6659327
50
89.7802826
51
89.9998471
0
ARC
8
DEFAULT_255_2_778
10
78.8644988
20
70.2216732
40
19.7101754
50
90.0016658
51
93.0296196
0
ARC
8
DEFAULT_255_2_778
10
80.0487709
20
91.4343017
40
0.5000991
50
90.0685377
51
179.8970319
0
ARC
8
DEFAULT_255_2_778
10
80.4326691
20
81.7233858
40
0.8748031
50
3.1181634
51
20.3498918
0
ARC
8
DEFAULT_255_2_778
10
80.4322849
20
81.7234004
40
0.8751859
50
359.9995614
51
3.1158405
0
ARC
8
DEFAULT_255_2_778
10
80.4317394
20
81.72326
40
0.8757316
50
319.0409214
51
0.0087473
0
ARC
8
DEFAULT_255_2_778
10
80.431582
20
81.7233413
40
0.8759039
50
270.0070022
51
319.0436499
0
ARC
8
DEFAULT_255_2_778
10
80.4316939
20
81.7217148
40
0.8742772
50
263.6718776
51
269.9996854
0
ARC
8
DEFAULT_255_2_778
10
80.4320205
20
81.7244638
40
0.8770455
50
257.746098
51
263.6704663
0
ARC
8
DEFAULT_255_2_778
10
80.4327394
20
81.7217027
40
0.8745007
50
196.249421
51
257.6616726
0
ARC
8
DEFAULT_255_2_778
10
81.3841952
20
92.5303264
40
0.0929703
50
285.7230598
51
327.006833
0
ARC
8
DEFAULT_255_2_778
10
81.1919279
20
93.0133924
40
0.6124635
50
279.2158818
51
290.7971103
0
ARC
8
DEFAULT_255_2_778
10
81.0095747
20
94.0311282
40
1.6463548
50
272.7457
51
279.8076606
0
ARC
8
DEFAULT_255_2_778
10
80.965568
20
94.6983034
40
2.3149032
50
269.9728902
51
273.0426217
0
ARC
8
DEFAULT_255_2_778
10
79.8191729
20
94.4937724
40
2.1103839
50
263.4637222
51
270.1927553
0
ARC
8
DEFAULT_255_2_778
10
79.6909403
20
93.4239712
40
1.0329547
50
255.1532529
51
263.7755181
0
ARC
8
DEFAULT_255_2_778
10
79.4832794
20
92.6698588
40
0.2509207
50
236.341242
51
256.8657276
0
ARC
8
DEFAULT_255_2_778
10
79.3717479
20
92.4999208
40
0.0476756
50
205.0952216
51
234.714134
0
ARC
8
DEFAULT_255_2_778
10
83.9129056
20
54.8370677
40
37.130956
50
88.2048545
51
90.0000237
0
ARC
8
DEFAULT_255_2_778
10
83.9134073
20
54.5436342
40
37.4243895
50
90.0007916
51
90.022955
0
ARC
8
DEFAULT_255_2_778
10
83.9128672
20
54.8372063
40
37.1308174
50
90.0223031
51
92.4457427
0
ARC
8
DEFAULT_255_2_778
10
82.3278321
20
91.4340595
40
0.5001413
50
0.0963399
51
89.9380754
0
ARC
8
DEFAULT_255_2_778
10
83.7555145
20
84.3244305
40
7.170652
50
83.6076123
51
89.6566488
0
ARC
8
DEFAULT_255_2_778
10
83.755489
20
84.3296568
40
7.165426
50
89.6561946
51
90.0002637
0
ARC
8
DEFAULT_255_2_778
10
83.7554686
20
84.3210609
40
7.1740219
50
90.0001003
51
97.4266866
0
ARC
8
DEFAULT_255_2_778
10
83.8924491
20
70.3375984
40
19.5939488
50
87.9991089
51
89.6818136
0
ARC
8
DEFAULT_255_2_778
10
83.8921316
20
70.3178202
40
19.6137283
50
89.6812069
51
90.0002079
0
ARC
8
DEFAULT_255_2_778
10
83.8926551
20
70.2230232
40
19.7085253
50
90.0017288
51
93.0297464
0
ARC
8
DEFAULT_255_2_778
10
85.0768638
20
91.4342091
40
0.4999916
50
90.0562751
51
179.9207733
0
ARC
8
DEFAULT_255_2_778
10
85.4601003
20
81.7231752
40
0.8755277
50
3.1032366
51
20.3330404
0
ARC
8
DEFAULT_255_2_778
10
85.4598517
20
81.7231956
40
0.8757749
50
359.9997687
51
3.1010295
0
ARC
8
DEFAULT_255_2_778
10
85.4595745
20
81.7230284
40
0.8760521
50
319.0531859
51
0.0106981
0
ARC
8
DEFAULT_255_2_778
10
85.4598032
20
81.7232564
40
0.8760289
50
270.0083087
51
319.0321216
0
ARC
8
DEFAULT_255_2_778
10
85.4599345
20
81.7214673
40
0.8742399
50
263.7160134
51
269.999715
0
ARC
8
DEFAULT_255_2_778
10
85.4602492
20
81.7241019
40
0.8768931
50
257.7420212
51
263.714422
0
ARC
8
DEFAULT_255_2_778
10
85.4605462
20
81.7212195
40
0.8741401
50
196.2369807
51
257.6828815
0
LINE
8
DEFAULT_255_2_778
10
59.4368727
20
91.4352005
11
59.4368727
21
87.5302005
0
LINE
8
DEFAULT_255_2_778
10
59.4368727
20
87.5302005
11
59.5512727
21
86.8224005
0
LINE
8
DEFAULT_255_2_778
10
59.5512727
20
86.8224005
11
61.1410727
21
82.0276005
0
LINE
8
DEFAULT_255_2_778
10
59.4813727
20
81.4770005
11
57.8914727
21
86.2718005
0
LINE
8
DEFAULT_255_2_778
10
57.8914727
20
86.2718005
11
57.6882727
21
87.5299005
0
LINE
8
DEFAULT_255_2_778
10
62.7161727
20
91.4349005
11
62.7248727
21
87.8463005
0
LINE
8
DEFAULT_255_2_778
10
64.4650727
20
91.4349005
11
64.4650727
21
87.5299005
0
LINE
8
DEFAULT_255_2_778
10
64.4650727
20
87.5299005
11
64.5793727
21
86.8221005
0
LINE
8
DEFAULT_255_2_778
10
64.5793727
20
86.8221005
11
66.1692727
21
82.0274005
0
LINE
8
DEFAULT_255_2_778
10
64.5094727
20
81.4768005
11
62.9196727
21
86.2715005
0
LINE
8
DEFAULT_255_2_778
10
62.9196727
20
86.2715005
11
62.7164727
21
87.5296005
0
LINE
8
DEFAULT_255_2_778
10
62.7164727
20
87.5296005
11
62.7164727
21
87.8463005
0
LINE
8
DEFAULT_255_2_778
10
64.8912727
20
92.5157005
11
62.7280727
21
92.5157005
0
LINE
8
DEFAULT_255_2_778
10
64.3788727
20
92.3834005
11
63.2405727
21
92.3834005
0
LINE
8
DEFAULT_255_2_778
10
63.2405727
20
92.3834005
11
63.2405727
21
92.3834005
0
LINE
8
DEFAULT_255_2_778
10
62.7428727
20
92.4797005
11
62.6642727
21
92.6694005
0
LINE
8
DEFAULT_255_2_778
10
67.7440727
20
91.4349005
11
67.7527727
21
87.8463005
0
LINE
8
DEFAULT_255_2_778
10
69.4929727
20
91.4349005
11
69.4929727
21
87.5299005
0
LINE
8
DEFAULT_255_2_778
10
69.4929727
20
87.5299005
11
69.6072727
21
86.8221005
0
LINE
8
DEFAULT_255_2_778
10
69.6072727
20
86.8221005
11
71.1970727
21
82.0274005
0
LINE
8
DEFAULT_255_2_778
10
69.5373727
20
81.4768005
11
67.9475727
21
86.2715005
0
LINE
8
DEFAULT_255_2_778
10
67.9475727
20
86.2715005
11
67.7443727
21
87.5296005
0
LINE
8
DEFAULT_255_2_778
10
67.7443727
20
87.5296005
11
67.7443727
21
87.8463005
0
LINE
8
DEFAULT_255_2_778
10
69.4048727
20
92.6694005
11
69.4048727
21
92.9192005
0
LINE
8
DEFAULT_255_2_778
10
69.4048727
20
92.9192005
11
70.6039727
21
92.9192005
0
LINE
8
DEFAULT_255_2_778
10
77.8087727
20
87.8463005
11
77.8000727
21
91.4349005
0
LINE
8
DEFAULT_255_2_778
10
77.8000727
20
87.5299005
11
77.8000727
21
87.8463005
0
LINE
8
DEFAULT_255_2_778
10
77.8000727
20
87.8839005
11
74.5205727
21
87.8839005
0
LINE
8
DEFAULT_255_2_778
10
72.7719727
20
91.4349005
11
72.7806727
21
87.8463005
0
LINE
8
DEFAULT_255_2_778
10
74.5208727
20
91.4349005
11
74.5208727
21
87.5299005
0
LINE
8
DEFAULT_255_2_778
10
74.5208727
20
87.5299005
11
74.6351727
21
86.8221005
0
LINE
8
DEFAULT_255_2_778
10
74.6351727
20
86.8221005
11
76.2249727
21
82.0274005
0
LINE
8
DEFAULT_255_2_778
10
74.5652727
20
81.4768005
11
72.9753727
21
86.2715005
0
LINE
8
DEFAULT_255_2_778
10
72.9753727
20
86.2715005
11
72.7721727
21
87.5296005
0
LINE
8
DEFAULT_255_2_778
10
72.7721727
20
87.5296005
11
72.7721727
21
87.8463005
0
LINE
8
DEFAULT_255_2_778
10
73.6011727
20
92.6694005
11
73.6011727
21
92.9192005
0
LINE
8
DEFAULT_255_2_778
10
73.6011727
20
92.9192005
11
74.8002727
21
92.9192005
0
LINE
8
DEFAULT_255_2_778
10
79.5486727
20
91.4352005
11
79.5486727
21
87.5302005
0
LINE
8
DEFAULT_255_2_778
10
79.5486727
20
87.5302005
11
79.6629727
21
86.8224005
0
LINE
8
DEFAULT_255_2_778
10
79.6629727
20
86.8224005
11
81.2528727
21
82.0276005
0
LINE
8
DEFAULT_255_2_778
10
79.5931727
20
81.4770005
11
78.0032727
21
86.2718005
0
LINE
8
DEFAULT_255_2_778
10
78.0032727
20
86.2718005
11
77.8000727
21
87.5299005
0
LINE
8
DEFAULT_255_2_778
10
81.4769727
20
92.5157005
11
80.9866727
21
92.5157005
0
LINE
8
DEFAULT_255_2_778
10
80.9644727
20
92.3834005
11
79.8262727
21
92.3834005
0
LINE
8
DEFAULT_255_2_778
10
79.8262727
20
92.3834005
11
79.8262727
21
92.3834005
0
LINE
8
DEFAULT_255_2_778
10
79.3285727
20
92.4797005
11
79.2499727
21
92.6694005
0
LINE
8
DEFAULT_255_2_778
10
85.3599727
20
87.8839005
11
84.5765727
21
87.8839005
0
LINE
8
DEFAULT_255_2_778
10
82.8279727
20
91.4349005
11
82.8366727
21
87.8463005
0
LINE
8
DEFAULT_255_2_778
10
84.5768727
20
91.4349005
11
84.5768727
21
87.5299005
0
LINE
8
DEFAULT_255_2_778
10
84.5768727
20
87.5299005
11
84.6911727
21
86.8221005
0
LINE
8
DEFAULT_255_2_778
10
84.6911727
20
86.8221005
11
86.2810727
21
82.0274005
0
LINE
8
DEFAULT_255_2_778
10
84.6212727
20
81.4768005
11
83.0313727
21
86.2715005
0
LINE
8
DEFAULT_255_2_778
10
83.0313727
20
86.2715005
11
82.8281727
21
87.5296005
0
LINE
8
DEFAULT_255_2_778
10
82.8281727
20
87.5296005
11
82.8281727
21
87.8463005
0
LINE
8
DEFAULT_255_2_778
10
79.3283124
20
8.7756365
11
79.2749124
21
8.7489365
0
LINE
8
DEFAULT_255_2_778
10
79.2749124
20
8.7489365
11
74.9211124
21
8.7489365
0
LINE
8
DEFAULT_255_2_778
10
72.7341124
20
8.7756365
11
72.6806124
21
8.7489365
0
LINE
8
DEFAULT_255_2_778
10
72.6806124
20
8.7489365
11
66.5285124
21
8.7489365
0
LINE
8
DEFAULT_255_2_778
10
64.3412124
20
8.7756365
11
64.2878124
21
8.7489365
0
LINE
8
DEFAULT_255_2_778
10
64.2878124
20
8.7489365
11
44.9470124
21
8.7489365
0
LINE
8
DEFAULT_255_2_778
10
42.7600124
20
8.7756365
11
42.7065124
21
8.7489365
0
LINE
8
DEFAULT_255_2_778
10
42.7065124
20
8.7489365
11
36.5544124
21
8.7489365
0
LINE
8
DEFAULT_255_2_778
10
34.3671124
20
8.7756365
11
34.3137124
21
8.7489365
0
LINE
8
DEFAULT_255_2_778
10
34.3137124
20
8.7489365
11
14.9729124
21
8.7489365
0
LINE
8
DEFAULT_255_2_778
10
86.1805124
20
8.6663365
11
81.5497124
21
8.6663365
0
LINE
8
DEFAULT_255_2_778
10
81.5497124
20
8.6663365
11
81.5156124
21
8.7489365
0
LINE
8
DEFAULT_255_2_778
10
34.313625
20
8.7489468
11
34.279525
21
8.6663468
0
LINE
8
DEFAULT_255_2_778
10
34.279525
20
8.6663468
11
27.341125
21
8.6663468
0
LINE
8
DEFAULT_255_2_778
10
27.341125
20
8.6663468
11
27.341125
21
8.4388468
0
LINE
8
DEFAULT_255_2_778
10
27.341125
20
8.4388468
11
26.142025
21
8.4388468
0
LINE
8
DEFAULT_255_2_778
10
26.142025
20
8.4388468
11
26.142025
21
8.6663468
0
LINE
8
DEFAULT_255_2_778
10
26.142025
20
8.6663468
11
23.144825
21
8.6663468
0
LINE
8
DEFAULT_255_2_778
10
23.144825
20
8.6663468
11
23.144825
21
8.4388468
0
LINE
8
DEFAULT_255_2_778
10
23.144825
20
8.4388468
11
21.946025
21
8.4388468
0
LINE
8
DEFAULT_255_2_778
10
21.946025
20
8.4388468
11
21.946025
21
8.6663468
0
LINE
8
DEFAULT_255_2_778
10
21.946025
20
8.6663468
11
15.007325
21
8.6663468
0
LINE
8
DEFAULT_255_2_778
10
72.680325
20
8.7489468
11
72.646225
21
8.6663468
0
LINE
8
DEFAULT_255_2_778
10
72.646225
20
8.6663468
11
66.562625
21
8.6663468
0
LINE
8
DEFAULT_255_2_778
10
66.562625
20
8.6663468
11
66.528525
21
8.7489468
0
LINE
8
DEFAULT_255_2_778
10
66.528525
20
8.7489468
11
66.475125
21
8.7756468
0
LINE
8
DEFAULT_255_2_778
10
64.287825
20
8.7489468
11
64.253625
21
8.6663468
0
LINE
8
DEFAULT_255_2_778
10
64.253625
20
8.6663468
11
57.315225
21
8.6663468
0
LINE
8
DEFAULT_255_2_778
10
57.315225
20
8.6663468
11
57.315225
21
8.4388468
0
LINE
8
DEFAULT_255_2_778
10
57.315225
20
8.4388468
11
56.116125
21
8.4388468
0
LINE
8
DEFAULT_255_2_778
10
56.116125
20
8.4388468
11
56.116125
21
8.6663468
0
LINE
8
DEFAULT_255_2_778
10
56.116125
20
8.6663468
11
53.118625
21
8.6663468
0
LINE
8
DEFAULT_255_2_778
10
53.118625
20
8.6663468
11
53.118625
21
8.4388468
0
LINE
8
DEFAULT_255_2_778
10
53.118625
20
8.4388468
11
51.919825
21
8.4388468
0
LINE
8
DEFAULT_255_2_778
10
51.919825
20
8.4388468
11
51.919825
21
8.6663468
0
LINE
8
DEFAULT_255_2_778
10
51.919825
20
8.6663468
11
44.981425
21
8.6663468
0
LINE
8
DEFAULT_255_2_778
10
42.706225
20
8.7489468
11
42.672125
21
8.6663468
0
LINE
8
DEFAULT_255_2_778
10
42.672125
20
8.6663468
11
36.588525
21
8.6663468
0
LINE
8
DEFAULT_255_2_778
10
36.588525
20
8.6663468
11
36.554425
21
8.7489468
0
LINE
8
DEFAULT_255_2_778
10
36.554425
20
8.7489468
11
36.500925
21
8.7756468
0
LINE
8
DEFAULT_255_2_778
10
79.274825
20
8.7489468
11
79.240725
21
8.6663468
0
LINE
8
DEFAULT_255_2_778
10
79.240725
20
8.6663468
11
74.955525
21
8.6663468
0
LINE
8
DEFAULT_255_2_778
10
74.955525
20
8.6663468
11
74.921425
21
8.7489468
0
LINE
8
DEFAULT_255_2_778
10
74.921425
20
8.7489468
11
74.867925
21
8.7756468
0
LINE
8
DEFAULT_255_2_778
10
8.067525
20
8.1615468
11
85.298025
21
8.1615468
0
LINE
8
DEFAULT_255_2_778
10
10.537625
20
13.0052468
11
13.817225
21
13.0052468
0
LINE
8
DEFAULT_255_2_778
10
15.565525
20
13.0052468
11
18.845025
21
13.0052468
0
LINE
8
DEFAULT_255_2_778
10
20.593425
20
13.0052468
11
23.872925
21
13.0052468
0
LINE
8
DEFAULT_255_2_778
10
25.621325
20
13.0052468
11
28.900825
21
13.0052468
0
LINE
8
DEFAULT_255_2_778
10
30.649225
20
13.0052468
11
33.928725
21
13.0052468
0
LINE
8
DEFAULT_255_2_778
10
35.677025
20
13.0052468
11
38.956525
21
13.0052468
0
LINE
8
DEFAULT_255_2_778
10
40.613925
20
13.2804468
11
43.893425
21
13.2804468
0
LINE
8
DEFAULT_255_2_778
10
45.733125
20
13.0052468
11
49.012625
21
13.0052468
0
LINE
8
DEFAULT_255_2_778
10
50.760925
20
13.0052468
11
54.040425
21
13.0052468
0
LINE
8
DEFAULT_255_2_778
10
55.788825
20
13.0052468
11
59.068325
21
13.0052468
0
LINE
8
DEFAULT_255_2_778
10
60.816725
20
13.0052468
11
64.096225
21
13.0052468
0
LINE
8
DEFAULT_255_2_778
10
65.844625
20
13.0052468
11
69.124125
21
13.0052468
0
LINE
8
DEFAULT_255_2_778
10
70.872425
20
13.0052468
11
74.151925
21
13.0052468
0
LINE
8
DEFAULT_255_2_778
10
75.900325
20
13.0052468
11
79.179825
21
13.0052468
0
ARC
8
DEFAULT_255_2_778
10
9.6637976
20
15.799635
40
6.4054783
50
262.1565876
51
270.0001668
0
ARC
8
DEFAULT_255_2_778
10
9.6638349
20
15.799635
40
6.4054783
50
269.9998332
51
277.8434124
0
ARC
8
DEFAULT_255_2_778
10
11.0375214
20
9.4548371
40
0.5000557
50
180.0865539
51
269.936392
0
ARC
8
DEFAULT_255_2_778
10
7.9175731
20
19.1392661
40
0.8706095
50
18.2550061
51
56.8596976
0
ARC
8
DEFAULT_255_2_778
10
7.9136694
20
19.1355166
40
0.875884
50
56.779966
51
89.9402292
0
ARC
8
DEFAULT_255_2_778
10
7.9146258
20
19.1431179
40
0.8682823
50
90.0028147
51
99.4466089
0
ARC
8
DEFAULT_255_2_778
10
7.9167879
20
19.1310244
40
0.8805668
50
99.4562301
51
108.3569123
0
ARC
8
DEFAULT_255_2_778
10
7.9120507
20
19.1402621
40
0.8703085
50
108.2524485
51
146.8673274
0
ARC
8
DEFAULT_255_2_778
10
7.9161488
20
19.1361145
40
0.8760082
50
146.7866611
51
179.9404222
0
ARC
8
DEFAULT_255_2_778
10
7.908458
20
19.1370651
40
0.868317
50
180.0026223
51
189.4082272
0
ARC
8
DEFAULT_255_2_778
10
7.9204044
20
19.1391968
40
0.8804513
50
189.4179985
51
198.3795323
0
ARC
8
DEFAULT_255_2_778
10
8.2890111
20
9.4548371
40
0.5000557
50
270.063608
51
359.9134461
0
ARC
8
DEFAULT_255_2_778
10
9.6635078
20
24.6557415
40
15.7609598
50
264.9989659
51
270.0000762
0
ARC
8
DEFAULT_255_2_778
10
9.6632769
20
25.3914701
40
16.4966883
50
270.0008749
51
270.0463671
0
ARC
8
DEFAULT_255_2_778
10
9.6635137
20
24.6582716
40
15.7634899
50
270.0476629
51
275.0006344
0
ARC
8
DEFAULT_255_2_778
10
14.6916851
20
15.8009106
40
6.4067539
50
262.15737
51
269.9998321
0
ARC
8
DEFAULT_255_2_778
10
14.6916475
20
15.8009106
40
6.4067539
50
270.0001679
51
277.84263
0
ARC
8
DEFAULT_255_2_778
10
13.3168468
20
9.4549015
40
0.5001201
50
270.0709686
51
359.9060798
0
ARC
8
DEFAULT_255_2_778
10
14.6914049
20
24.6556763
40
15.7608946
50
264.9989559
51
270.0000415
0
ARC
8
DEFAULT_255_2_778
10
14.6914277
20
24.6556763
40
15.7608946
50
269.9999585
51
275.0010441
0
ARC
8
DEFAULT_255_2_778
10
16.0653353
20
9.4547511
40
0.4999693
50
180.0767063
51
270.0035468
0
ARC
8
DEFAULT_255_2_778
10
12.9454922
20
19.1392485
40
0.8705968
50
18.2564978
51
56.8631016
0
ARC
8
DEFAULT_255_2_778
10
12.9415136
20
19.1354343
40
0.8759664
50
56.7815682
51
89.9390886
0
ARC
8
DEFAULT_255_2_778
10
12.9424847
20
19.1433273
40
0.8680728
50
90.0026316
51
99.4059271
0
ARC
8
DEFAULT_255_2_778
10
12.9446059
20
19.1314623
40
0.8801249
50
99.4159268
51
108.3608264
0
ARC
8
DEFAULT_255_2_778
10
12.9399507
20
19.1402621
40
0.8703085
50
108.2524485
51
146.8673274
0
ARC
8
DEFAULT_255_2_778
10
12.9440488
20
19.1361145
40
0.8760082
50
146.7866611
51
179.9404222
0
ARC
8
DEFAULT_255_2_778
10
12.936358
20
19.1370651
40
0.868317
50
180.0026223
51
189.4082272
0
ARC
8
DEFAULT_255_2_778
10
12.9483044
20
19.1391968
40
0.8804513
50
189.4179985
51
198.3795323
0
ARC
8
DEFAULT_255_2_778
10
12.833199
20
8.6187535
40
0.163969
50
92.4880191
51
106.8512939
0
ARC
8
DEFAULT_255_2_778
10
13.0030568
20
6.8143415
40
1.9761669
50
92.2587972
51
95.1380105
0
ARC
8
DEFAULT_255_2_778
10
13.1953149
20
2.4871232
40
6.3076373
50
90.9979666
51
92.4546297
0
ARC
8
DEFAULT_255_2_778
10
13.2794841
20
-1.7882315
40
10.5838138
50
89.9795251
51
91.0504398
0
LINE
8
DEFAULT_255_2_778
10
80.9285663
20
13.0052817
11
84.2080663
21
13.0052817
0
LINE
8
DEFAULT_255_2_778
10
10.5374663
20
9.4540817
11
10.5374663
21
13.3590817
0
LINE
8
DEFAULT_255_2_778
10
10.5374663
20
13.3590817
11
10.3342663
21
14.6171817
0
LINE
8
DEFAULT_255_2_778
10
10.3342663
20
14.6171817
11
8.7443663
21
19.4119817
0
LINE
8
DEFAULT_255_2_778
10
7.0848663
20
18.8615817
11
8.6747663
21
14.0667817
0
LINE
8
DEFAULT_255_2_778
10
8.6747663
20
14.0667817
11
8.7890663
21
13.3590817
0
LINE
8
DEFAULT_255_2_778
10
8.7890663
20
13.3590817
11
8.7890663
21
9.4540817
0
LINE
8
DEFAULT_255_2_778
10
8.2895663
20
9.3847817
11
8.2895663
21
9.4233817
0
LINE
8
DEFAULT_255_2_778
10
13.7026663
20
14.0667817
11
12.1127663
21
18.8615817
0
LINE
8
DEFAULT_255_2_778
10
12.1127663
20
18.8615817
11
13.7026663
21
14.0667817
0
LINE
8
DEFAULT_255_2_778
10
13.7026663
20
14.0667817
11
13.8169663
21
13.3590817
0
LINE
8
DEFAULT_255_2_778
10
13.8169663
20
13.3590817
11
13.8169663
21
13.0425817
0
LINE
8
DEFAULT_255_2_778
10
13.8169663
20
13.0425817
11
13.8169663
21
9.4540817
0
LINE
8
DEFAULT_255_2_778
10
15.5653663
20
9.4540817
11
15.5653663
21
13.3590817
0
LINE
8
DEFAULT_255_2_778
10
15.5653663
20
13.3590817
11
15.3621663
21
14.6171817
0
LINE
8
DEFAULT_255_2_778
10
15.3621663
20
14.6171817
11
13.7722663
21
19.4119817
0
LINE
8
DEFAULT_255_2_778
10
13.2832663
20
8.7955817
11
14.4215663
21
8.7955817
0
LINE
8
DEFAULT_255_2_778
10
14.4215663
20
8.7955817
11
14.9192663
21
8.7756817
0
LINE
8
DEFAULT_255_2_778
10
14.9192663
20
8.7756817
11
14.9726663
21
8.7489817
0
LINE
8
DEFAULT_255_2_778
10
14.9726663
20
8.7489817
11
15.0067663
21
8.6663817
0
ARC
8
DEFAULT_255_2_778
10
19.7195011
20
15.7988156
40
6.4046629
50
262.1560881
51
270.0006674
0
ARC
8
DEFAULT_255_2_778
10
19.7196503
20
15.7988156
40
6.4046629
50
269.9993326
51
277.8439119
0
ARC
8
DEFAULT_255_2_778
10
18.3448346
20
9.454769
40
0.4999916
50
270.0562751
51
359.9207733
0
ARC
8
DEFAULT_255_2_778
10
19.7192672
20
24.6557374
40
15.7609598
50
264.9989659
51
270.0000762
0
ARC
8
DEFAULT_255_2_778
10
19.7190363
20
25.391466
40
16.4966883
50
270.0008749
51
270.0463671
0
ARC
8
DEFAULT_255_2_778
10
19.7192731
20
24.6582675
40
15.7634899
50
270.0476629
51
275.0006344
0
ARC
8
DEFAULT_255_2_778
10
21.09328
20
9.4548324
40
0.5000548
50
180.0864816
51
270.0052329
0
ARC
8
DEFAULT_255_2_778
10
17.9733325
20
19.139262
40
0.8706095
50
18.2550061
51
56.8596976
0
ARC
8
DEFAULT_255_2_778
10
17.9694288
20
19.1355126
40
0.875884
50
56.779966
51
89.9402292
0
ARC
8
DEFAULT_255_2_778
10
17.9703852
20
19.1431138
40
0.8682823
50
90.0028147
51
99.4466089
0
ARC
8
DEFAULT_255_2_778
10
17.9725473
20
19.1310203
40
0.8805668
50
99.4562301
51
108.3569123
0
ARC
8
DEFAULT_255_2_778
10
17.9678101
20
19.140258
40
0.8703085
50
108.2524485
51
146.8673274
0
ARC
8
DEFAULT_255_2_778
10
17.9719082
20
19.1361104
40
0.8760082
50
146.7866611
51
179.9404222
0
ARC
8
DEFAULT_255_2_778
10
17.9642174
20
19.137061
40
0.868317
50
180.0026223
51
189.4082272
0
ARC
8
DEFAULT_255_2_778
10
17.9761638
20
19.1391927
40
0.8804513
50
189.4179985
51
198.3795323
0
LINE
8
DEFAULT_255_2_778
10
18.7305257
20
14.0667776
11
17.1406257
21
18.8615776
0
LINE
8
DEFAULT_255_2_778
10
17.1406257
20
18.8615776
11
18.7305257
21
14.0667776
0
LINE
8
DEFAULT_255_2_778
10
18.7305257
20
14.0667776
11
18.8448257
21
13.3590776
0
LINE
8
DEFAULT_255_2_778
10
18.8448257
20
13.3590776
11
18.8448257
21
13.0425776
0
LINE
8
DEFAULT_255_2_778
10
18.8448257
20
13.0425776
11
18.8448257
21
9.4540776
0
LINE
8
DEFAULT_255_2_778
10
20.5932257
20
9.4540776
11
20.5932257
21
13.3590776
0
LINE
8
DEFAULT_255_2_778
10
20.5932257
20
13.3590776
11
20.3900257
21
14.6171776
0
LINE
8
DEFAULT_255_2_778
10
20.3900257
20
14.6171776
11
18.8001257
21
19.4119776
0
ARC
8
DEFAULT_255_2_778
10
24.7473884
20
15.8000903
40
6.4059377
50
262.1568703
51
270.0003333
0
ARC
8
DEFAULT_255_2_778
10
24.7474631
20
15.800086
40
6.4059334
50
269.9996654
51
277.8431337
0
ARC
8
DEFAULT_255_2_778
10
23.3728705
20
9.454833
40
0.5000557
50
270.063608
51
359.9134461
0
ARC
8
DEFAULT_255_2_778
10
24.7473672
20
24.6557374
40
15.7609598
50
264.9989659
51
270.0000762
0
ARC
8
DEFAULT_255_2_778
10
24.7471363
20
25.391466
40
16.4966883
50
270.0008749
51
270.0463671
0
ARC
8
DEFAULT_255_2_778
10
24.7473731
20
24.6582675
40
15.7634899
50
270.0476629
51
275.0006344
0
ARC
8
DEFAULT_255_2_778
10
26.12138
20
9.4548324
40
0.5000548
50
180.0864816
51
270.0052329
0
ARC
8
DEFAULT_255_2_778
10
23.0014325
20
19.139262
40
0.8706095
50
18.2550061
51
56.8596976
0
ARC
8
DEFAULT_255_2_778
10
22.9975288
20
19.1355126
40
0.875884
50
56.779966
51
89.9402292
0
ARC
8
DEFAULT_255_2_778
10
22.9984852
20
19.1431138
40
0.8682823
50
90.0028147
51
99.4466089
0
ARC
8
DEFAULT_255_2_778
10
23.0006473
20
19.1310203
40
0.8805668
50
99.4562301
51
108.3569123
0
ARC
8
DEFAULT_255_2_778
10
22.9959101
20
19.140258
40
0.8703085
50
108.2524485
51
146.8673274
0
ARC
8
DEFAULT_255_2_778
10
23.0000082
20
19.1361104
40
0.8760082
50
146.7866611
51
179.9404222
0
ARC
8
DEFAULT_255_2_778
10
22.9923174
20
19.137061
40
0.868317
50
180.0026223
51
189.4082272
0
ARC
8
DEFAULT_255_2_778
10
23.0042638
20
19.1391927
40
0.8804513
50
189.4179985
51
198.3795323
0
LINE
8
DEFAULT_255_2_778
10
23.7584257
20
14.0667776
11
22.1687257
21
18.8615776
0
LINE
8
DEFAULT_255_2_778
10
22.1687257
20
18.8615776
11
23.7586257
21
14.0667776
0
LINE
8
DEFAULT_255_2_778
10
23.7586257
20
14.0667776
11
23.8729257
21
13.3590776
0
LINE
8
DEFAULT_255_2_778
10
23.8729257
20
13.3590776
11
23.8729257
21
13.0425776
0
LINE
8
DEFAULT_255_2_778
10
23.8729257
20
13.0425776
11
23.8729257
21
9.4540776
0
LINE
8
DEFAULT_255_2_778
10
25.6213257
20
9.4540776
11
25.6213257
21
13.3590776
0
LINE
8
DEFAULT_255_2_778
10
25.6213257
20
13.3590776
11
25.4181257
21
14.6171776
0
LINE
8
DEFAULT_255_2_778
10
25.4181257
20
14.6171776
11
23.8282257
21
19.4119776
0
ARC
8
DEFAULT_255_2_778
10
29.7752011
20
15.7988156
40
6.4046629
50
262.1560881
51
270.0006674
0
ARC
8
DEFAULT_255_2_778
10
29.7753503
20
15.7988156
40
6.4046629
50
269.9993326
51
277.8439119
0
ARC
8
DEFAULT_255_2_778
10
28.4005346
20
9.454769
40
0.4999916
50
270.0562751
51
359.9207733
0
ARC
8
DEFAULT_255_2_778
10
29.7749672
20
24.6557374
40
15.7609598
50
264.9989659
51
270.0000762
0
ARC
8
DEFAULT_255_2_778
10
29.7747363
20
25.391466
40
16.4966883
50
270.0008749
51
270.0463671
0
ARC
8
DEFAULT_255_2_778
10
29.7749731
20
24.6582675
40
15.7634899
50
270.0476629
51
275.0006344
0
ARC
8
DEFAULT_255_2_778
10
31.14898
20
9.4548324
40
0.5000548
50
180.0864816
51
270.0052329
0
ARC
8
DEFAULT_255_2_778
10
28.0290325
20
19.139262
40
0.8706095
50
18.2550061
51
56.8596976
0
ARC
8
DEFAULT_255_2_778
10
28.0251288
20
19.1355126
40
0.875884
50
56.779966
51
89.9402292
0
ARC
8
DEFAULT_255_2_778
10
28.0260852
20
19.1431138
40
0.8682823
50
90.0028147
51
99.4466089
0
ARC
8
DEFAULT_255_2_778
10
28.0282473
20
19.1310203
40
0.8805668
50
99.4562301
51
108.3569123
0
ARC
8
DEFAULT_255_2_778
10
28.0235101
20
19.140258
40
0.8703085
50
108.2524485
51
146.8673274
0
ARC
8
DEFAULT_255_2_778
10
28.0276082
20
19.1361104
40
0.8760082
50
146.7866611
51
179.9404222
0
ARC
8
DEFAULT_255_2_778
10
28.0199174
20
19.137061
40
0.868317
50
180.0026223
51
189.4082272
0
ARC
8
DEFAULT_255_2_778
10
28.0318638
20
19.1391927
40
0.8804513
50
189.4179985
51
198.3795323
0
LINE
8
DEFAULT_255_2_778
10
28.7862257
20
14.0667776
11
27.1963257
21
18.8615776
0
LINE
8
DEFAULT_255_2_778
10
27.1963257
20
18.8615776
11
28.7862257
21
14.0667776
0
LINE
8
DEFAULT_255_2_778
10
28.7862257
20
14.0667776
11
28.9005257
21
13.3590776
0
LINE
8
DEFAULT_255_2_778
10
28.9005257
20
13.3590776
11
28.9005257
21
13.0425776
0
LINE
8
DEFAULT_255_2_778
10
28.9005257
20
13.0425776
11
28.9005257
21
9.4540776
0
LINE
8
DEFAULT_255_2_778
10
30.6489257
20
9.4540776
11
30.6489257
21
13.3590776
0
LINE
8
DEFAULT_255_2_778
10
30.6489257
20
13.3590776
11
30.4457257
21
14.6171776
0
LINE
8
DEFAULT_255_2_778
10
30.4457257
20
14.6171776
11
28.8558257
21
19.4119776
0
ARC
8
DEFAULT_255_2_778
10
34.8034011
20
15.7988156
40
6.4046629
50
262.1560881
51
270.0006674
0
ARC
8
DEFAULT_255_2_778
10
34.8035503
20
15.7988156
40
6.4046629
50
269.9993326
51
277.8439119
0
ARC
8
DEFAULT_255_2_778
10
33.4287346
20
9.454769
40
0.4999916
50
270.0562751
51
359.9207733
0
ARC
8
DEFAULT_255_2_778
10
34.8031672
20
24.6557374
40
15.7609598
50
264.9989659
51
270.0000762
0
ARC
8
DEFAULT_255_2_778
10
34.8029363
20
25.391466
40
16.4966883
50
270.0008749
51
270.0463671
0
ARC
8
DEFAULT_255_2_778
10
34.8031731
20
24.6582675
40
15.7634899
50
270.0476629
51
275.0006344
0
ARC
8
DEFAULT_255_2_778
10
36.17718
20
9.4548324
40
0.5000548
50
180.0864816
51
270.0052329
0
ARC
8
DEFAULT_255_2_778
10
33.0572325
20
19.139262
40
0.8706095
50
18.2550061
51
56.8596976
0
ARC
8
DEFAULT_255_2_778
10
33.0533288
20
19.1355126
40
0.875884
50
56.779966
51
89.9402292
0
ARC
8
DEFAULT_255_2_778
10
33.0542852
20
19.1431138
40
0.8682823
50
90.0028147
51
99.4466089
0
ARC
8
DEFAULT_255_2_778
10
33.0564473
20
19.1310203
40
0.8805668
50
99.4562301
51
108.3569123
0
ARC
8
DEFAULT_255_2_778
10
33.0517101
20
19.140258
40
0.8703085
50
108.2524485
51
146.8673274
0
ARC
8
DEFAULT_255_2_778
10
33.0558082
20
19.1361104
40
0.8760082
50
146.7866611
51
179.9404222
0
ARC
8
DEFAULT_255_2_778
10
33.0481174
20
19.137061
40
0.868317
50
180.0026223
51
189.4082272
0
ARC
8
DEFAULT_255_2_778
10
33.0600638
20
19.1391927
40
0.8804513
50
189.4179985
51
198.3795323
0
LINE
8
DEFAULT_255_2_778
10
33.8144257
20
14.0667776
11
32.2245257
21
18.8615776
0
LINE
8
DEFAULT_255_2_778
10
32.2245257
20
18.8615776
11
33.8144257
21
14.0667776
0
LINE
8
DEFAULT_255_2_778
10
33.8144257
20
14.0667776
11
33.9287257
21
13.3590776
0
LINE
8
DEFAULT_255_2_778
10
33.9287257
20
13.3590776
11
33.9287257
21
13.0425776
0
LINE
8
DEFAULT_255_2_778
10
33.9287257
20
13.0425776
11
33.9287257
21
9.4540776
0
LINE
8
DEFAULT_255_2_778
10
35.6771257
20
9.4540776
11
35.6771257
21
13.3590776
0
LINE
8
DEFAULT_255_2_778
10
35.6771257
20
13.3590776
11
35.4739257
21
14.6171776
0
LINE
8
DEFAULT_255_2_778
10
35.4739257
20
14.6171776
11
33.8840257
21
19.4119776
0
ARC
8
DEFAULT_255_2_778
10
39.7400779
20
16.0747183
40
6.4054783
50
262.1565876
51
270.0001668
0
ARC
8
DEFAULT_255_2_778
10
39.7401152
20
16.0747183
40
6.4054783
50
269.9998332
51
277.8434124
0
ARC
8
DEFAULT_255_2_778
10
41.1138017
20
9.7299205
40
0.5000557
50
180.0865539
51
269.936392
0
ARC
8
DEFAULT_255_2_778
10
37.9938534
20
19.4143494
40
0.8706095
50
18.2550061
51
56.8596976
0
ARC
8
DEFAULT_255_2_778
10
37.9899497
20
19.4106
40
0.875884
50
56.779966
51
89.9402292
0
ARC
8
DEFAULT_255_2_778
10
37.9909061
20
19.4182012
40
0.8682823
50
90.0028147
51
99.4466089
0
ARC
8
DEFAULT_255_2_778
10
37.9930682
20
19.4061077
40
0.8805668
50
99.4562301
51
108.3569123
0
ARC
8
DEFAULT_255_2_778
10
37.988331
20
19.4153454
40
0.8703085
50
108.2524485
51
146.8673274
0
ARC
8
DEFAULT_255_2_778
10
37.9924291
20
19.4111978
40
0.8760082
50
146.7866611
51
179.9404222
0
ARC
8
DEFAULT_255_2_778
10
37.9847383
20
19.4121485
40
0.868317
50
180.0026223
51
189.4082272
0
ARC
8
DEFAULT_255_2_778
10
37.9966848
20
19.4142801
40
0.8804513
50
189.4179985
51
198.3795323
0
ARC
8
DEFAULT_255_2_778
10
38.3652914
20
9.7299205
40
0.5000557
50
270.063608
51
359.9134461
0
ARC
8
DEFAULT_255_2_778
10
39.7397881
20
24.9308248
40
15.7609598
50
264.9989659
51
270.0000762
0
ARC
8
DEFAULT_255_2_778
10
39.7395572
20
25.6665534
40
16.4966883
50
270.0008749
51
270.0463671
0
ARC
8
DEFAULT_255_2_778
10
39.739794
20
24.9333549
40
15.7634899
50
270.0476629
51
275.0006344
0
ARC
8
DEFAULT_255_2_778
10
44.8592654
20
15.800794
40
6.4067539
50
262.15737
51
269.9998321
0
ARC
8
DEFAULT_255_2_778
10
44.8592278
20
15.800794
40
6.4067539
50
270.0001679
51
277.84263
0
ARC
8
DEFAULT_255_2_778
10
43.4844275
20
9.4548848
40
0.5001199
50
270.059469
51
359.8946336
0
ARC
8
DEFAULT_255_2_778
10
44.8589991
20
24.6582549
40
15.7634899
50
264.9993656
51
269.9523371
0
ARC
8
DEFAULT_255_2_778
10
44.859236
20
25.3914534
40
16.4966883
50
269.9536329
51
269.9991251
0
ARC
8
DEFAULT_255_2_778
10
44.8590051
20
24.6557248
40
15.7609598
50
269.9999238
51
275.0010341
0
ARC
8
DEFAULT_255_2_778
10
46.2329437
20
9.4548629
40
0.5000979
50
180.1028685
51
270.0003362
0
ARC
8
DEFAULT_255_2_778
10
43.1131297
20
19.1392432
40
0.8705076
50
18.2507171
51
56.8619548
0
ARC
8
DEFAULT_255_2_778
10
43.1091628
20
19.1353919
40
0.8759017
50
56.7823875
51
89.9401331
0
ARC
8
DEFAULT_255_2_778
10
43.1101186
20
19.1430972
40
0.8681958
50
90.0026768
51
99.4081629
0
ARC
8
DEFAULT_255_2_778
10
43.1122491
20
19.1311545
40
0.8803263
50
99.4179045
51
108.3607942
0
ARC
8
DEFAULT_255_2_778
10
43.107302
20
19.1403755
40
0.8700183
50
108.2428655
51
146.86902
0
ARC
8
DEFAULT_255_2_778
10
43.1116252
20
19.1360489
40
0.8760043
50
146.7865882
51
179.9397805
0
ARC
8
DEFAULT_255_2_778
10
43.1037107
20
19.1370061
40
0.8680894
50
180.0024097
51
189.3701393
0
ARC
8
DEFAULT_255_2_778
10
43.1154437
20
19.1390973
40
0.8800063
50
189.3801046
51
198.3834704
0
LINE
8
DEFAULT_255_2_778
10
40.6137466
20
9.729165
11
40.6137466
21
13.634165
0
LINE
8
DEFAULT_255_2_778
10
40.6137466
20
13.634165
11
40.4105466
21
14.892265
0
LINE
8
DEFAULT_255_2_778
10
40.4105466
20
14.892265
11
38.8206466
21
19.687065
0
LINE
8
DEFAULT_255_2_778
10
37.1611466
20
19.136665
11
38.7510466
21
14.341865
0
LINE
8
DEFAULT_255_2_778
10
38.7510466
20
14.341865
11
38.8653466
21
13.634165
0
LINE
8
DEFAULT_255_2_778
10
38.8653466
20
13.634165
11
38.8653466
21
9.729165
0
LINE
8
DEFAULT_255_2_778
10
41.1138466
20
9.229865
11
41.1132466
21
9.229865
0
LINE
8
DEFAULT_255_2_778
10
37.2527466
20
18.861565
11
38.8426466
21
14.066765
0
LINE
8
DEFAULT_255_2_778
10
43.8702466
20
14.066765
11
42.2803466
21
18.861565
0
LINE
8
DEFAULT_255_2_778
10
42.2803466
20
18.861565
11
43.8702466
21
14.066765
0
LINE
8
DEFAULT_255_2_778
10
43.8702466
20
14.066765
11
43.9845466
21
13.358965
0
LINE
8
DEFAULT_255_2_778
10
43.9845466
20
13.358965
11
43.9845466
21
13.042565
0
LINE
8
DEFAULT_255_2_778
10
43.9845466
20
13.042565
11
43.9845466
21
9.453965
0
LINE
8
DEFAULT_255_2_778
10
45.7328466
20
9.453965
11
45.7328466
21
13.358965
0
LINE
8
DEFAULT_255_2_778
10
45.7328466
20
13.358965
11
45.5296466
21
14.617065
0
LINE
8
DEFAULT_255_2_778
10
45.5296466
20
14.617065
11
43.9398466
21
19.411865
0
LINE
8
DEFAULT_255_2_778
10
44.8933466
20
8.775565
11
44.9468466
21
8.748865
0
LINE
8
DEFAULT_255_2_778
10
44.9468466
20
8.748865
11
44.9809466
21
8.666365
0
ARC
8
DEFAULT_255_2_778
10
49.8870011
20
15.7988156
40
6.4046629
50
262.1560881
51
270.0006674
0
ARC
8
DEFAULT_255_2_778
10
49.8871503
20
15.7988156
40
6.4046629
50
269.9993326
51
277.8439119
0
ARC
8
DEFAULT_255_2_778
10
48.5123346
20
9.454769
40
0.4999916
50
270.0562751
51
359.9207733
0
ARC
8
DEFAULT_255_2_778
10
49.8867672
20
24.6557374
40
15.7609598
50
264.9989659
51
270.0000762
0
ARC
8
DEFAULT_255_2_778
10
49.8865363
20
25.391466
40
16.4966883
50
270.0008749
51
270.0463671
0
ARC
8
DEFAULT_255_2_778
10
49.8867731
20
24.6582675
40
15.7634899
50
270.0476629
51
275.0006344
0
ARC
8
DEFAULT_255_2_778
10
51.26078
20
9.4548324
40
0.5000548
50
180.0864816
51
270.0052329
0
ARC
8
DEFAULT_255_2_778
10
48.1408325
20
19.139262
40
0.8706095
50
18.2550061
51
56.8596976
0
ARC
8
DEFAULT_255_2_778
10
48.1369288
20
19.1355126
40
0.875884
50
56.779966
51
89.9402292
0
ARC
8
DEFAULT_255_2_778
10
48.1378852
20
19.1431138
40
0.8682823
50
90.0028147
51
99.4466089
0
ARC
8
DEFAULT_255_2_778
10
48.1400473
20
19.1310203
40
0.8805668
50
99.4562301
51
108.3569123
0
ARC
8
DEFAULT_255_2_778
10
48.1353101
20
19.140258
40
0.8703085
50
108.2524485
51
146.8673274
0
ARC
8
DEFAULT_255_2_778
10
48.1394082
20
19.1361104
40
0.8760082
50
146.7866611
51
179.9404222
0
ARC
8
DEFAULT_255_2_778
10
48.1317174
20
19.137061
40
0.868317
50
180.0026223
51
189.4082272
0
ARC
8
DEFAULT_255_2_778
10
48.1436638
20
19.1391927
40
0.8804513
50
189.4179985
51
198.3795323
0
LINE
8
DEFAULT_255_2_778
10
48.8980257
20
14.0667776
11
47.3081257
21
18.8615776
0
LINE
8
DEFAULT_255_2_778
10
47.3081257
20
18.8615776
11
48.8980257
21
14.0667776
0
LINE
8
DEFAULT_255_2_778
10
48.8980257
20
14.0667776
11
49.0123257
21
13.3590776
0
LINE
8
DEFAULT_255_2_778
10
49.0123257
20
13.3590776
11
49.0123257
21
13.0425776
0
LINE
8
DEFAULT_255_2_778
10
49.0123257
20
13.0425776
11
49.0123257
21
9.4540776
0
LINE
8
DEFAULT_255_2_778
10
50.7607257
20
9.4540776
11
50.7607257
21
13.3590776
0
LINE
8
DEFAULT_255_2_778
10
50.7607257
20
13.3590776
11
50.5575257
21
14.6171776
0
LINE
8
DEFAULT_255_2_778
10
50.5575257
20
14.6171776
11
48.9676257
21
19.4119776
0
ARC
8
DEFAULT_255_2_778
10
54.9149011
20
15.7988156
40
6.4046629
50
262.1560881
51
270.0006674
0
ARC
8
DEFAULT_255_2_778
10
54.9150503
20
15.7988156
40
6.4046629
50
269.9993326
51
277.8439119
0
ARC
8
DEFAULT_255_2_778
10
53.5401705
20
9.454833
40
0.5000557
50
270.063608
51
359.9134461
0
ARC
8
DEFAULT_255_2_778
10
54.9146672
20
24.6557374
40
15.7609598
50
264.9989659
51
270.0000762
0
ARC
8
DEFAULT_255_2_778
10
54.9144363
20
25.391466
40
16.4966883
50
270.0008749
51
270.0463671
0
ARC
8
DEFAULT_255_2_778
10
54.9146731
20
24.6582675
40
15.7634899
50
270.0476629
51
275.0006344
0
ARC
8
DEFAULT_255_2_778
10
56.28868
20
9.4548324
40
0.5000548
50
180.0864816
51
270.0052329
0
ARC
8
DEFAULT_255_2_778
10
53.1687325
20
19.139262
40
0.8706095
50
18.2550061
51
56.8596976
0
ARC
8
DEFAULT_255_2_778
10
53.1648288
20
19.1355126
40
0.875884
50
56.779966
51
89.9402292
0
ARC
8
DEFAULT_255_2_778
10
53.1657852
20
19.1431138
40
0.8682823
50
90.0028147
51
99.4466089
0
ARC
8
DEFAULT_255_2_778
10
53.1679473
20
19.1310203
40
0.8805668
50
99.4562301
51
108.3569123
0
ARC
8
DEFAULT_255_2_778
10
53.1632101
20
19.140258
40
0.8703085
50
108.2524485
51
146.8673274
0
ARC
8
DEFAULT_255_2_778
10
53.1673082
20
19.1361104
40
0.8760082
50
146.7866611
51
179.9404222
0
ARC
8
DEFAULT_255_2_778
10
53.1596174
20
19.137061
40
0.868317
50
180.0026223
51
189.4082272
0
ARC
8
DEFAULT_255_2_778
10
53.1715638
20
19.1391927
40
0.8804513
50
189.4179985
51
198.3795323
0
LINE
8
DEFAULT_255_2_778
10
53.9259257
20
14.0667776
11
52.3360257
21
18.8615776
0
LINE
8
DEFAULT_255_2_778
10
52.3360257
20
18.8615776
11
53.9259257
21
14.0667776
0
LINE
8
DEFAULT_255_2_778
10
53.9259257
20
14.0667776
11
54.0402257
21
13.3590776
0
LINE
8
DEFAULT_255_2_778
10
54.0402257
20
13.3590776
11
54.0402257
21
13.0425776
0
LINE
8
DEFAULT_255_2_778
10
54.0402257
20
13.0425776
11
54.0402257
21
9.4540776
0
LINE
8
DEFAULT_255_2_778
10
55.7886257
20
9.4540776
11
55.7886257
21
13.3590776
0
LINE
8
DEFAULT_255_2_778
10
55.7886257
20
13.3590776
11
55.5854257
21
14.6171776
0
LINE
8
DEFAULT_255_2_778
10
55.5854257
20
14.6171776
11
53.9955257
21
19.4119776
0
ARC
8
DEFAULT_255_2_778
10
59.9428011
20
15.7987858
40
6.4046629
50
262.1560881
51
270.0006674
0
ARC
8
DEFAULT_255_2_778
10
59.9429503
20
15.7987858
40
6.4046629
50
269.9993326
51
277.8439119
0
ARC
8
DEFAULT_255_2_778
10
59.9427282
20
24.67454
40
15.7797171
50
265.005068
51
269.9999909
0
ARC
8
DEFAULT_255_2_778
10
59.9427232
20
24.6745399
40
15.7797171
50
270.0000091
51
274.994932
0
ARC
8
DEFAULT_255_2_778
10
61.31658
20
9.4548026
40
0.5000548
50
180.0864816
51
270.0052329
0
ARC
8
DEFAULT_255_2_778
10
58.1966325
20
19.1392323
40
0.8706095
50
18.2550061
51
56.8596976
0
ARC
8
DEFAULT_255_2_778
10
58.1927288
20
19.1354828
40
0.875884
50
56.779966
51
89.9402292
0
ARC
8
DEFAULT_255_2_778
10
58.1936852
20
19.143084
40
0.8682823
50
90.0028147
51
99.4466089
0
ARC
8
DEFAULT_255_2_778
10
58.1958473
20
19.1309905
40
0.8805668
50
99.4562301
51
108.3569123
0
ARC
8
DEFAULT_255_2_778
10
58.1911101
20
19.1402283
40
0.8703085
50
108.2524485
51
146.8673274
0
ARC
8
DEFAULT_255_2_778
10
58.1952082
20
19.1360806
40
0.8760082
50
146.7866611
51
179.9404222
0
ARC
8
DEFAULT_255_2_778
10
58.1875174
20
19.1370313
40
0.868317
50
180.0026223
51
189.4082272
0
ARC
8
DEFAULT_255_2_778
10
58.1994638
20
19.139163
40
0.8804513
50
189.4179985
51
198.3795323
0
ARC
8
DEFAULT_255_2_778
10
58.5677851
20
9.4551888
40
0.5001413
50
270.0619246
51
359.9036601
0
LINE
8
DEFAULT_255_2_778
10
60.8165257
20
9.4540479
11
60.8165257
21
13.3590479
0
LINE
8
DEFAULT_255_2_778
10
60.8165257
20
13.3590479
11
60.6133257
21
14.6171479
0
LINE
8
DEFAULT_255_2_778
10
60.6133257
20
14.6171479
11
59.0234257
21
19.4119479
0
LINE
8
DEFAULT_255_2_778
10
59.0679257
20
9.4543479
11
59.0679257
21
13.0428479
0
LINE
8
DEFAULT_255_2_778
10
59.0679257
20
13.0428479
11
59.0679257
21
13.3593479
0
LINE
8
DEFAULT_255_2_778
10
59.0679257
20
13.3593479
11
58.9536257
21
14.0670479
0
LINE
8
DEFAULT_255_2_778
10
58.9536257
20
14.0670479
11
57.3637257
21
18.8618479
0
LINE
8
DEFAULT_255_2_778
10
57.3637257
20
18.8618479
11
58.9536257
21
14.0670479
0
ARC
8
DEFAULT_255_2_778
10
64.9706459
20
15.7987509
40
6.4046629
50
262.1560881
51
270.0006674
0
ARC
8
DEFAULT_255_2_778
10
64.9707951
20
15.7987509
40
6.4046629
50
269.9993326
51
277.8439119
0
ARC
8
DEFAULT_255_2_778
10
64.9705574
20
24.6718533
40
15.7770654
50
265.0046477
51
270.0000929
0
ARC
8
DEFAULT_255_2_778
10
64.9703311
20
25.3876622
40
16.4928742
50
270.000875
51
270.0463728
0
ARC
8
DEFAULT_255_2_778
10
64.9705653
20
24.6745543
40
15.7797664
50
270.047618
51
274.994926
0
ARC
8
DEFAULT_255_2_778
10
66.3444248
20
9.4547677
40
0.5000548
50
180.0864816
51
270.0052329
0
ARC
8
DEFAULT_255_2_778
10
63.2244773
20
19.1391974
40
0.8706095
50
18.2550061
51
56.8596976
0
ARC
8
DEFAULT_255_2_778
10
63.2205736
20
19.1354479
40
0.875884
50
56.779966
51
89.9402292
0
ARC
8
DEFAULT_255_2_778
10
63.22153
20
19.1430491
40
0.8682823
50
90.0028147
51
99.4466089
0
ARC
8
DEFAULT_255_2_778
10
63.2236921
20
19.1309556
40
0.8805668
50
99.4562301
51
108.3569123
0
ARC
8
DEFAULT_255_2_778
10
63.2189549
20
19.1401934
40
0.8703085
50
108.2524485
51
146.8673274
0
ARC
8
DEFAULT_255_2_778
10
63.223053
20
19.1360457
40
0.8760082
50
146.7866611
51
179.9404222
0
ARC
8
DEFAULT_255_2_778
10
63.2153622
20
19.1369964
40
0.868317
50
180.0026223
51
189.4082272
0
ARC
8
DEFAULT_255_2_778
10
63.2273086
20
19.1391281
40
0.8804513
50
189.4179985
51
198.3795323
0
ARC
8
DEFAULT_255_2_778
10
63.5956299
20
9.4551539
40
0.5001413
50
270.0619246
51
359.9036601
0
ARC
8
DEFAULT_255_2_778
10
64.3882312
20
8.619113
40
0.1638253
50
92.4649723
51
106.8401782
0
ARC
8
DEFAULT_255_2_778
10
64.5576751
20
6.8121379
40
1.9785363
50
92.2420098
51
95.1177144
0
ARC
8
DEFAULT_255_2_778
10
64.7498455
20
2.4567516
40
6.3381433
50
90.9879776
51
92.437619
0
ARC
8
DEFAULT_255_2_778
10
64.8345373
20
-1.8881656
40
10.6838793
50
89.9794433
51
91.0403267
0
ARC
8
DEFAULT_255_2_778
10
65.983957
20
-1.3831339
40
10.1788495
50
88.6486947
51
90.0410149
0
ARC
8
DEFAULT_255_2_778
10
66.1058724
20
3.660527
40
5.133717
50
87.1569455
51
88.6814977
0
ARC
8
DEFAULT_255_2_778
10
66.3012335
20
7.4359546
40
1.3532693
50
83.7702903
51
87.4896578
0
ARC
8
DEFAULT_255_2_778
10
66.440709
20
8.6771811
40
0.1043125
50
71.1737661
51
85.9461316
0
LINE
8
DEFAULT_255_2_778
10
65.8443705
20
9.454013
11
65.8443705
21
13.359013
0
LINE
8
DEFAULT_255_2_778
10
65.8443705
20
13.359013
11
65.6411705
21
14.617113
0
LINE
8
DEFAULT_255_2_778
10
65.6411705
20
14.617113
11
64.0512705
21
19.411913
0
LINE
8
DEFAULT_255_2_778
10
64.0957705
20
9.454313
11
64.0957705
21
13.042813
0
LINE
8
DEFAULT_255_2_778
10
64.0957705
20
13.042813
11
64.0957705
21
13.359313
0
LINE
8
DEFAULT_255_2_778
10
64.0957705
20
13.359313
11
63.9814705
21
14.067013
0
LINE
8
DEFAULT_255_2_778
10
63.9814705
20
14.067013
11
62.3915705
21
18.861813
0
LINE
8
DEFAULT_255_2_778
10
62.3915705
20
18.861813
11
63.9814705
21
14.067013
0
LINE
8
DEFAULT_255_2_778
10
64.8383705
20
8.795713
11
65.9766705
21
8.795713
0
ARC
8
DEFAULT_255_2_778
10
69.9985011
20
15.7987858
40
6.4046629
50
262.1560881
51
270.0006674
0
ARC
8
DEFAULT_255_2_778
10
69.9986503
20
15.7987858
40
6.4046629
50
269.9993326
51
277.8439119
0
ARC
8
DEFAULT_255_2_778
10
69.9984126
20
24.6718882
40
15.7770654
50
265.0046477
51
270.0000929
0
ARC
8
DEFAULT_255_2_778
10
69.9981863
20
25.3876971
40
16.4928742
50
270.000875
51
270.0463728
0
ARC
8
DEFAULT_255_2_778
10
69.9984205
20
24.6745892
40
15.7797664
50
270.047618
51
274.994926
0
ARC
8
DEFAULT_255_2_778
10
71.37228
20
9.4548026
40
0.5000548
50
180.0864816
51
270.0052329
0
ARC
8
DEFAULT_255_2_778
10
68.2523325
20
19.1392323
40
0.8706095
50
18.2550061
51
56.8596976
0
ARC
8
DEFAULT_255_2_778
10
68.2484288
20
19.1354828
40
0.875884
50
56.779966
51
89.9402292
0
ARC
8
DEFAULT_255_2_778
10
68.2493852
20
19.143084
40
0.8682823
50
90.0028147
51
99.4466089
0
ARC
8
DEFAULT_255_2_778
10
68.2515473
20
19.1309905
40
0.8805668
50
99.4562301
51
108.3569123
0
ARC
8
DEFAULT_255_2_778
10
68.2468101
20
19.1402283
40
0.8703085
50
108.2524485
51
146.8673274
0
ARC
8
DEFAULT_255_2_778
10
68.2509082
20
19.1360806
40
0.8760082
50
146.7866611
51
179.9404222
0
ARC
8
DEFAULT_255_2_778
10
68.2432174
20
19.1370313
40
0.868317
50
180.0026223
51
189.4082272
0
ARC
8
DEFAULT_255_2_778
10
68.2551638
20
19.139163
40
0.8804513
50
189.4179985
51
198.3795323
0
ARC
8
DEFAULT_255_2_778
10
68.6234851
20
9.4551888
40
0.5001413
50
270.0619246
51
359.9036601
0
LINE
8
DEFAULT_255_2_778
10
70.8722257
20
9.4540479
11
70.8722257
21
13.3590479
0
LINE
8
DEFAULT_255_2_778
10
70.8722257
20
13.3590479
11
70.6690257
21
14.6171479
0
LINE
8
DEFAULT_255_2_778
10
70.6690257
20
14.6171479
11
69.0791257
21
19.4119479
0
LINE
8
DEFAULT_255_2_778
10
69.1236257
20
9.4543479
11
69.1236257
21
13.0428479
0
LINE
8
DEFAULT_255_2_778
10
69.1236257
20
13.0428479
11
69.1236257
21
13.3593479
0
LINE
8
DEFAULT_255_2_778
10
69.1236257
20
13.3593479
11
69.0093257
21
14.0670479
0
LINE
8
DEFAULT_255_2_778
10
69.0093257
20
14.0670479
11
67.4194257
21
18.8618479
0
LINE
8
DEFAULT_255_2_778
10
67.4194257
20
18.8618479
11
69.0093257
21
14.0670479
0
ARC
8
DEFAULT_255_2_778
10
75.0266653
20
15.7991915
40
6.4050713
50
262.1563381
51
270.000081
0
ARC
8
DEFAULT_255_2_778
10
75.0264056
20
16.6181375
40
7.2240173
50
270.0021317
51
270.0447657
0
ARC
8
DEFAULT_255_2_778
10
75.0266438
20
15.8008568
40
6.4067366
50
270.0483464
51
277.8426454
0
ARC
8
DEFAULT_255_2_778
10
73.6519067
20
9.4548007
40
0.5000557
50
270.063608
51
359.9134461
0
ARC
8
DEFAULT_255_2_778
10
75.0264034
20
24.655705
40
15.7609598
50
264.9989659
51
270.0000762
0
ARC
8
DEFAULT_255_2_778
10
75.0261725
20
25.3914336
40
16.4966883
50
270.0008749
51
270.0463671
0
ARC
8
DEFAULT_255_2_778
10
75.0264093
20
24.6582351
40
15.7634899
50
270.0476629
51
275.0006344
0
ARC
8
DEFAULT_255_2_778
10
76.4004162
20
9.4548
40
0.5000548
50
180.0864816
51
270.0052329
0
ARC
8
DEFAULT_255_2_778
10
73.2804687
20
19.1392296
40
0.8706095
50
18.2550061
51
56.8596976
0
ARC
8
DEFAULT_255_2_778
10
73.276565
20
19.1354802
40
0.875884
50
56.779966
51
89.9402292
0
ARC
8
DEFAULT_255_2_778
10
73.2775214
20
19.1430814
40
0.8682823
50
90.0028147
51
99.4466089
0
ARC
8
DEFAULT_255_2_778
10
73.2796835
20
19.1309879
40
0.8805668
50
99.4562301
51
108.3569123
0
ARC
8
DEFAULT_255_2_778
10
73.2749463
20
19.1402257
40
0.8703085
50
108.2524485
51
146.8673274
0
ARC
8
DEFAULT_255_2_778
10
73.2790444
20
19.136078
40
0.8760082
50
146.7866611
51
179.9404222
0
ARC
8
DEFAULT_255_2_778
10
73.2713536
20
19.1370287
40
0.868317
50
180.0026223
51
189.4082272
0
ARC
8
DEFAULT_255_2_778
10
73.2833
20
19.1391603
40
0.8804513
50
189.4179985
51
198.3795323
0
ARC
8
DEFAULT_255_2_778
10
72.7813946
20
8.618717
40
0.163969
50
92.4880191
51
106.8512939
0
ARC
8
DEFAULT_255_2_778
10
72.9512524
20
6.8143051
40
1.9761669
50
92.2587972
51
95.1380105
0
ARC
8
DEFAULT_255_2_778
10
73.1435104
20
2.4870867
40
6.3076373
50
90.9979666
51
92.4546297
0
ARC
8
DEFAULT_255_2_778
10
73.2276797
20
-1.7882679
40
10.5838138
50
89.9795251
51
91.0504398
0
ARC
8
DEFAULT_255_2_778
10
80.0545806
20
15.8008742
40
6.4067539
50
262.15737
51
269.9998321
0
ARC
8
DEFAULT_255_2_778
10
80.0545431
20
15.8008742
40
6.4067539
50
270.0001679
51
277.84263
0
ARC
8
DEFAULT_255_2_778
10
78.6797424
20
9.4548651
40
0.5001201
50
270.0709686
51
359.9060798
0
ARC
8
DEFAULT_255_2_778
10
80.0544221
20
24.6584236
40
15.7636784
50
264.9993974
51
270.0000082
0
ARC
8
DEFAULT_255_2_778
10
80.0544244
20
24.8152991
40
15.9205538
50
270
51
270.0480568
0
ARC
8
DEFAULT_255_2_778
10
80.0543895
20
24.6609713
40
15.7662261
50
270.048654
51
275.0002015
0
ARC
8
DEFAULT_255_2_778
10
81.42858
20
9.4548642
40
0.5001189
50
180.0938182
51
269.9979182
0
ARC
8
DEFAULT_255_2_778
10
78.3088223
20
19.1394687
40
0.8702937
50
18.245289
51
56.8627544
0
ARC
8
DEFAULT_255_2_778
10
78.3046784
20
19.1353837
40
0.8759805
50
56.7818482
51
89.9404867
0
ARC
8
DEFAULT_255_2_778
10
78.3056275
20
19.1430238
40
0.8683399
50
90.0025888
51
99.4288349
0
ARC
8
DEFAULT_255_2_778
10
78.3077708
20
19.1310319
40
0.8805208
50
99.4385836
51
108.357032
0
ARC
8
DEFAULT_255_2_778
10
78.3031354
20
19.1402132
40
0.8703483
50
108.2577627
51
146.8657091
0
ARC
8
DEFAULT_255_2_778
10
78.3070913
20
19.1361287
40
0.8758944
50
146.7834155
51
179.9392452
0
ARC
8
DEFAULT_255_2_778
10
78.2992222
20
19.1370975
40
0.8680248
50
180.0026457
51
189.4160318
0
ARC
8
DEFAULT_255_2_778
10
78.3111513
20
19.1392288
40
0.8801419
50
189.4258553
51
198.3909183
0
ARC
8
DEFAULT_255_2_778
10
79.3761996
20
8.6180577
40
0.1646305
50
92.5002576
51
106.8197298
0
ARC
8
DEFAULT_255_2_778
10
79.5460582
20
6.813193
40
1.9772802
50
92.2591437
51
95.1369923
0
ARC
8
DEFAULT_255_2_778
10
79.7382465
20
2.4874358
40
6.3072879
50
90.9978498
51
92.4546388
0
ARC
8
DEFAULT_255_2_778
10
79.8224654
20
-1.7916051
40
10.5871509
50
89.979454
51
91.0502749
0
ARC
8
DEFAULT_255_2_778
10
85.0824806
20
15.8008742
40
6.4067539
50
262.15737
51
269.9998321
0
ARC
8
DEFAULT_255_2_778
10
85.0824431
20
15.8008742
40
6.4067539
50
270.0001679
51
277.84263
0
ARC
8
DEFAULT_255_2_778
10
83.7076213
20
9.4548862
40
0.5001413
50
270.0619246
51
359.9036601
0
ARC
8
DEFAULT_255_2_778
10
85.0822144
20
24.6582351
40
15.7634899
50
264.9993656
51
269.9523371
0
ARC
8
DEFAULT_255_2_778
10
85.0824513
20
25.3914336
40
16.4966883
50
269.9536329
51
269.9991251
0
ARC
8
DEFAULT_255_2_778
10
85.0822203
20
24.655705
40
15.7609598
50
269.9999238
51
275.0010341
0
ARC
8
DEFAULT_255_2_778
10
86.45618
20
9.4548642
40
0.5001189
50
180.0938182
51
269.9979182
0
ARC
8
DEFAULT_255_2_778
10
83.3364687
20
19.1392296
40
0.8706095
50
18.2550061
51
56.8596976
0
ARC
8
DEFAULT_255_2_778
10
83.332565
20
19.1354802
40
0.875884
50
56.779966
51
89.9402292
0
ARC
8
DEFAULT_255_2_778
10
83.3335214
20
19.1430814
40
0.8682823
50
90.0028147
51
99.4466089
0
ARC
8
DEFAULT_255_2_778
10
83.3356835
20
19.1309879
40
0.8805668
50
99.4562301
51
108.3569123
0
ARC
8
DEFAULT_255_2_778
10
83.3310354
20
19.1402132
40
0.8703483
50
108.2577627
51
146.8657091
0
ARC
8
DEFAULT_255_2_778
10
83.3349913
20
19.1361287
40
0.8758944
50
146.7834155
51
179.9392452
0
ARC
8
DEFAULT_255_2_778
10
83.3271222
20
19.1370975
40
0.8680248
50
180.0026457
51
189.4160318
0
ARC
8
DEFAULT_255_2_778
10
83.3390513
20
19.1392288
40
0.8801419
50
189.4258553
51
198.3909183
0
LINE
8
DEFAULT_255_2_778
10
74.0376619
20
14.0667453
11
72.4477619
21
18.8615453
0
LINE
8
DEFAULT_255_2_778
10
72.4477619
20
18.8615453
11
74.0376619
21
14.0667453
0
LINE
8
DEFAULT_255_2_778
10
74.0376619
20
14.0667453
11
74.1519619
21
13.3590453
0
LINE
8
DEFAULT_255_2_778
10
74.1519619
20
13.3590453
11
74.1519619
21
13.0425453
0
LINE
8
DEFAULT_255_2_778
10
74.1519619
20
13.0425453
11
74.1519619
21
9.4540453
0
LINE
8
DEFAULT_255_2_778
10
75.9003619
20
9.4540453
11
75.9003619
21
13.3590453
0
LINE
8
DEFAULT_255_2_778
10
75.9003619
20
13.3590453
11
75.6971619
21
14.6171453
0
LINE
8
DEFAULT_255_2_778
10
75.6971619
20
14.6171453
11
74.1072619
21
19.4119453
0
LINE
8
DEFAULT_255_2_778
10
73.2314619
20
8.7955453
11
74.3697619
21
8.7955453
0
LINE
8
DEFAULT_255_2_778
10
74.3697619
20
8.7955453
11
74.8674619
21
8.7756453
0
LINE
8
DEFAULT_255_2_778
10
79.0655619
20
14.0667453
11
77.4756619
21
18.8615453
0
LINE
8
DEFAULT_255_2_778
10
77.4756619
20
18.8615453
11
79.0655619
21
14.0667453
0
LINE
8
DEFAULT_255_2_778
10
79.0655619
20
14.0667453
11
79.1798619
21
13.3590453
0
LINE
8
DEFAULT_255_2_778
10
79.1798619
20
13.3590453
11
79.1798619
21
13.0425453
0
LINE
8
DEFAULT_255_2_778
10
79.1798619
20
13.0425453
11
79.1798619
21
9.4540453
0
LINE
8
DEFAULT_255_2_778
10
80.9284619
20
9.4540453
11
80.9284619
21
13.3590453
0
LINE
8
DEFAULT_255_2_778
10
80.9284619
20
13.3590453
11
80.7252619
21
14.6171453
0
LINE
8
DEFAULT_255_2_778
10
80.7252619
20
14.6171453
11
79.1353619
21
19.4119453
0
LINE
8
DEFAULT_255_2_778
10
79.8262619
20
8.7955453
11
80.9644619
21
8.7955453
0
LINE
8
DEFAULT_255_2_778
10
80.9644619
20
8.7955453
11
81.4621619
21
8.7756453
0
LINE
8
DEFAULT_255_2_778
10
84.0934619
20
14.0667453
11
82.5035619
21
18.8615453
0
LINE
8
DEFAULT_255_2_778
10
82.5035619
20
18.8615453
11
84.0934619
21
14.0667453
0
LINE
8
DEFAULT_255_2_778
10
84.0934619
20
14.0667453
11
84.2077619
21
13.3590453
0
LINE
8
DEFAULT_255_2_778
10
84.2077619
20
13.3590453
11
84.2077619
21
13.0425453
0
LINE
8
DEFAULT_255_2_778
10
84.2077619
20
13.0425453
11
84.2077619
21
9.4540453
0
LINE
8
DEFAULT_255_2_778
10
85.9560619
20
9.4540453
11
85.9560619
21
13.0052453
0
LINE
8
DEFAULT_255_2_778
10
85.9560619
20
13.3590453
11
85.7528619
21
14.6171453
0
LINE
8
DEFAULT_255_2_778
10
85.7528619
20
14.6171453
11
84.1632619
21
19.4119453
0
ARC
8
DEFAULT_255_2_778
10
67.9086711
20
41.7301295
40
0.8185722
50
75.9079615
51
90.8702453
0
ARC
8
DEFAULT_255_2_778
10
68.0089242
20
42.1233282
40
0.4127996
50
51.705322
51
76.1161517
0
ARC
8
DEFAULT_255_2_778
10
68.0402485
20
42.1835345
40
0.3463695
50
1.998488
51
49.599765
0
ARC
8
DEFAULT_255_2_778
10
67.8059899
20
42.1482211
40
0.5823491
50
359.9297731
51
4.6679819
0
ARC
8
DEFAULT_255_2_778
10
68.0831441
20
42.1429231
40
0.3052289
50
323.4161768
51
0.8605427
0
ARC
8
DEFAULT_255_2_778
10
68.0175134
20
42.1956372
40
0.3893602
50
292.2650247
51
322.9433848
0
ARC
8
DEFAULT_255_2_778
10
68.0772992
20
41.496355
40
0.350124
50
36.7223192
51
75.4872663
0
ARC
8
DEFAULT_255_2_778
10
68.0570332
20
41.4872839
40
0.3718236
50
358.5549625
51
35.9754167
0
ARC
8
DEFAULT_255_2_778
10
68.002311
20
41.4630882
40
0.426685
50
325.7342826
51
1.9903222
0
ARC
8
DEFAULT_255_2_778
10
68.049603
20
41.4423032
40
0.3760174
50
311.2520442
51
324.2942632
0
ARC
8
DEFAULT_255_2_778
10
67.9961206
20
41.5172167
40
0.4676936
50
277.3742662
51
310.126502
0
ARC
8
DEFAULT_255_2_778
10
67.9306965
20
41.8602787
40
0.8165815
50
269.7152703
51
278.8374376
0
ARC
8
DEFAULT_255_2_778
10
67.9437589
20
41.5432094
40
0.3373691
50
267.7202148
51
301.4100481
0
ARC
8
DEFAULT_255_2_778
10
67.9820053
20
41.4642011
40
0.250152
50
303.3651241
51
311.8303911
0
ARC
8
DEFAULT_255_2_778
10
67.9774231
20
41.4624817
40
0.2519681
50
312.8675861
51
3.0315471
0
ARC
8
DEFAULT_255_2_778
10
67.9298372
20
41.4888324
40
0.2994848
50
357.5073245
51
30.3250153
0
ARC
8
DEFAULT_255_2_778
10
67.9930659
20
41.5049019
40
0.2374811
50
34.684921
51
84.2883901
0
ARC
8
DEFAULT_255_2_778
10
67.936605
20
41.2362131
40
0.5113033
50
80.9875435
51
90.3436252
0
ARC
8
DEFAULT_255_2_778
10
67.9161707
20
42.2341925
40
0.3276689
50
267.6156097
51
302.6710842
0
ARC
8
DEFAULT_255_2_778
10
67.9522114
20
42.1620524
40
0.2476369
50
304.6621707
51
309.8037155
0
ARC
8
DEFAULT_255_2_778
10
67.9709874
20
42.1391913
40
0.2180546
50
309.8589666
51
2.4749034
0
ARC
8
DEFAULT_255_2_778
10
67.9472305
20
42.1617264
40
0.241964
50
356.8919425
51
34.3711127
0
ARC
8
DEFAULT_255_2_778
10
68.0146125
20
42.1979063
40
0.1661228
50
37.1927573
51
52.1090634
0
ARC
8
DEFAULT_255_2_778
10
67.9507961
20
42.0951117
40
0.2867243
50
54.661646
51
85.328725
0
ARC
8
DEFAULT_255_2_778
10
67.8992155
20
41.7633728
40
0.6220406
50
83.0813393
51
90.255784
0
LINE
8
DEFAULT_255_2_778
10
67.9263386
20
41.0440073
11
67.4043386
21
41.0440073
0
LINE
8
DEFAULT_255_2_778
10
67.4043386
20
41.0440073
11
67.4043386
21
42.5486073
0
LINE
8
DEFAULT_255_2_778
10
67.4043386
20
42.5486073
11
67.8962386
21
42.5486073
0
LINE
8
DEFAULT_255_2_778
10
67.9266386
20
41.0437073
11
67.9263386
21
41.0440073
0
LINE
8
DEFAULT_255_2_778
10
67.9335386
20
41.7477073
11
67.6027386
21
41.7477073
0
LINE
8
DEFAULT_255_2_778
10
67.6027386
20
41.7477073
11
67.6027386
21
41.2061073
0
LINE
8
DEFAULT_255_2_778
10
67.6027386
20
41.2061073
11
67.9303386
21
41.2061073
0
LINE
8
DEFAULT_255_2_778
10
67.9335386
20
41.7475073
11
67.9335386
21
41.7477073
0
LINE
8
DEFAULT_255_2_778
10
67.6027386
20
42.3854073
11
67.6027386
21
41.9068073
0
LINE
8
DEFAULT_255_2_778
10
67.6027386
20
41.9068073
11
67.9025386
21
41.9068073
0
LINE
8
DEFAULT_255_2_778
10
67.8964386
20
42.3854073
11
67.6030386
21
42.3854073
0
LINE
8
DEFAULT_255_2_778
10
67.6030386
20
42.3854073
11
67.6027386
21
42.3854073
0
LINE
8
DEFAULT_255_2_778
10
68.8502386
20
42.5489073
11
69.2130386
21
41.9721073
0
LINE
8
DEFAULT_255_2_778
10
69.2130386
20
41.9721073
11
69.5736386
21
42.5489073
0
LINE
8
DEFAULT_255_2_778
10
69.5736386
20
42.5489073
11
69.8072386
21
42.5489073
0
LINE
8
DEFAULT_255_2_778
10
69.8072386
20
42.5489073
11
69.3318386
21
41.8028073
0
LINE
8
DEFAULT_255_2_778
10
69.3318386
20
41.8028073
11
69.8186386
21
41.0442073
0
LINE
8
DEFAULT_255_2_778
10
69.8186386
20
41.0442073
11
69.5829386
21
41.0442073
0
LINE
8
DEFAULT_255_2_778
10
69.5829386
20
41.0442073
11
69.2130386
21
41.6313073
0
LINE
8
DEFAULT_255_2_778
10
69.2130386
20
41.6313073
11
68.8410386
21
41.0442073
0
LINE
8
DEFAULT_255_2_778
10
68.8410386
20
41.0442073
11
68.6063386
21
41.0442073
0
LINE
8
DEFAULT_255_2_778
10
68.6063386
20
41.0442073
11
69.0942386
21
41.8028073
0
LINE
8
DEFAULT_255_2_778
10
69.0942386
20
41.8028073
11
68.6177386
21
42.5489073
0
LINE
8
DEFAULT_255_2_778
10
68.6177386
20
42.5489073
11
68.8502386
21
42.5489073
0
LINE
8
DEFAULT_255_2_778
10
68.8502386
20
42.5489073
11
68.8502386
21
42.5489073
0
LINE
8
DEFAULT_255_2_778
10
70.3695521
20
41.7612521
11
70.3695521
21
41.6051521
0
LINE
8
DEFAULT_255_2_778
10
70.3695521
20
41.6051521
11
69.8652521
21
41.6051521
0
LINE
8
DEFAULT_255_2_778
10
69.8652521
20
41.6051521
11
69.8652521
21
41.7612521
0
LINE
8
DEFAULT_255_2_778
10
69.8652521
20
41.7612521
11
70.3695521
21
41.7612521
0
LINE
8
DEFAULT_255_2_778
10
70.3695521
20
41.7612521
11
70.3695521
21
41.7612521
0
ARC
8
DEFAULT_255_2_778
10
71.0235365
20
41.863914
40
0.6848931
50
60.8176109
51
91.1254253
0
ARC
8
DEFAULT_255_2_778
10
71.0645962
20
41.9520844
40
0.587937
50
26.5385939
51
60.1214904
0
ARC
8
DEFAULT_255_2_778
10
70.8781364
20
41.8612899
40
0.79532
50
359.887052
51
26.3885684
0
ARC
8
DEFAULT_255_2_778
10
70.626654
20
41.8427855
40
1.0469379
50
0.2183326
51
0.926927
0
ARC
8
DEFAULT_255_2_778
10
70.8368495
20
41.7368761
40
0.8368487
50
338.4115849
51
0.944798
0
ARC
8
DEFAULT_255_2_778
10
70.9910608
20
41.6862413
40
0.6748937
50
332.7929524
51
337.5916986
0
ARC
8
DEFAULT_255_2_778
10
71.0728208
20
41.6370426
40
0.5797207
50
299.3179603
51
333.4229417
0
ARC
8
DEFAULT_255_2_778
10
71.0118938
20
41.7663922
40
0.7224081
50
270.1832328
51
298.507876
0
ARC
8
DEFAULT_255_2_778
10
70.9915991
20
42.0102252
40
0.9665017
50
270.5919534
51
271.340177
0
ARC
8
DEFAULT_255_2_778
10
71.0063105
20
41.7210494
40
0.5150573
50
268.4729001
51
296.9382406
0
ARC
8
DEFAULT_255_2_778
10
71.0487734
20
41.6170454
40
0.4032078
50
298.2544041
51
318.2915706
0
ARC
8
DEFAULT_255_2_778
10
70.9702716
20
41.6737278
40
0.4996241
50
319.4286427
51
351.3425247
0
ARC
8
DEFAULT_255_2_778
10
70.6007596
20
41.7494899
40
0.8765421
50
350.0823526
51
0.3585395
0
ARC
8
DEFAULT_255_2_778
10
70.700472
20
41.8555429
40
0.7769173
50
359.0583544
51
16.7830781
0
ARC
8
DEFAULT_255_2_778
10
70.9980272
20
41.9425504
40
0.4669205
50
17.1042586
51
39.7751168
0
ARC
8
DEFAULT_255_2_778
10
71.0436422
20
41.9689396
40
0.415075
50
41.0039742
51
88.3090458
0
ARC
8
DEFAULT_255_2_778
10
71.0092058
20
41.7319265
40
0.6535768
50
85.9039059
51
89.4671146
0
LINE
8
DEFAULT_255_2_778
10
71.0018844
20
41.043975
11
70.5853844
21
41.043975
0
LINE
8
DEFAULT_255_2_778
10
70.5853844
20
41.043975
11
70.5853844
21
42.548675
0
LINE
8
DEFAULT_255_2_778
10
70.5853844
20
42.548675
11
71.0100844
21
42.548675
0
LINE
8
DEFAULT_255_2_778
10
71.6735844
20
41.846775
11
71.6735844
21
41.750675
0
LINE
8
DEFAULT_255_2_778
10
71.0015844
20
41.043775
11
71.0018844
21
41.043975
0
LINE
8
DEFAULT_255_2_778
10
71.0152844
20
42.385475
11
70.7837844
21
42.385475
0
LINE
8
DEFAULT_255_2_778
10
70.7837844
20
42.385475
11
70.7837844
21
41.206175
0
LINE
8
DEFAULT_255_2_778
10
70.7837844
20
41.206175
11
70.9925844
21
41.206175
0
LINE
8
DEFAULT_255_2_778
10
71.4772844
20
41.754975
11
71.4772844
21
41.842775
0
LINE
8
DEFAULT_255_2_778
10
71.0152844
20
42.385475
11
71.0152844
21
42.385475
0
LINE
8
DEFAULT_255_2_778
10
71.9737209
20
42.5489469
11
72.2301209
21
42.5489469
0
LINE
8
DEFAULT_255_2_778
10
72.2301209
20
42.5489469
11
72.7219209
21
41.3209469
0
LINE
8
DEFAULT_255_2_778
10
72.7219209
20
41.3209469
11
73.2138209
21
42.5489469
0
LINE
8
DEFAULT_255_2_778
10
73.2138209
20
42.5489469
11
73.4712209
21
42.5489469
0
LINE
8
DEFAULT_255_2_778
10
73.4712209
20
42.5489469
11
73.4712209
21
41.0439469
0
LINE
8
DEFAULT_255_2_778
10
73.4712209
20
41.0439469
11
73.2728209
21
41.0439469
0
LINE
8
DEFAULT_255_2_778
10
73.2728209
20
41.0439469
11
73.2728209
21
41.6300469
0
LINE
8
DEFAULT_255_2_778
10
73.2728209
20
41.6300469
11
73.2913209
21
42.2626469
0
LINE
8
DEFAULT_255_2_778
10
73.2913209
20
42.2626469
11
72.7973209
21
41.0442469
0
LINE
8
DEFAULT_255_2_778
10
72.7973209
20
41.0442469
11
72.6455209
21
41.0442469
0
LINE
8
DEFAULT_255_2_778
10
72.6455209
20
41.0442469
11
72.1526209
21
42.2597469
0
LINE
8
DEFAULT_255_2_778
10
72.1526209
20
42.2597469
11
72.1721209
21
41.6302469
0
LINE
8
DEFAULT_255_2_778
10
72.1721209
20
41.6302469
11
72.1721209
21
41.0442469
0
LINE
8
DEFAULT_255_2_778
10
72.1721209
20
41.0442469
11
71.9737209
21
41.0442469
0
LINE
8
DEFAULT_255_2_778
10
71.9737209
20
41.0442469
11
71.9737209
21
42.5489469
0
LINE
8
DEFAULT_255_2_778
10
71.9737209
20
42.5489469
11
71.9737209
21
42.5489469
0
LINE
8
DEFAULT_255_2_778
10
74.4005209
20
42.5560469
11
74.4005209
21
41.0439469
0
LINE
8
DEFAULT_255_2_778
10
74.4005209
20
41.0439469
11
74.2081209
21
41.0439469
0
LINE
8
DEFAULT_255_2_778
10
74.2081209
20
41.0439469
11
74.2081209
21
42.3181469
0
LINE
8
DEFAULT_255_2_778
10
74.2081209
20
42.3181469
11
73.8226209
21
42.1766469
0
LINE
8
DEFAULT_255_2_778
10
73.8226209
20
42.1766469
11
73.8226209
21
42.3502469
0
LINE
8
DEFAULT_255_2_778
10
73.8226209
20
42.3502469
11
74.3703209
21
42.5557469
0
LINE
8
DEFAULT_255_2_778
10
74.3703209
20
42.5557469
11
74.4002209
21
42.5557469
0
LINE
8
DEFAULT_255_2_778
10
74.4002209
20
42.5557469
11
74.4005209
21
42.5560469
0
LINE
8
DEFAULT_255_2_778
10
75.3778521
20
41.7612521
11
75.3778521
21
41.6051521
0
LINE
8
DEFAULT_255_2_778
10
75.3778521
20
41.6051521
11
74.8735521
21
41.6051521
0
LINE
8
DEFAULT_255_2_778
10
74.8735521
20
41.6051521
11
74.8735521
21
41.7612521
0
LINE
8
DEFAULT_255_2_778
10
74.8735521
20
41.7612521
11
75.3778521
21
41.7612521
0
LINE
8
DEFAULT_255_2_778
10
75.3778521
20
41.7612521
11
75.3778521
21
41.7612521
0
ARC
8
DEFAULT_255_2_778
10
77.2961494
20
42.1505257
40
0.349449
50
326.0585599
51
0.8996558
0
ARC
8
DEFAULT_255_2_778
10
77.2495702
20
42.1856192
40
0.4076976
50
295.5571137
51
325.6219672
0
ARC
8
DEFAULT_255_2_778
10
77.2618152
20
41.4199274
40
0.4302216
50
35.525217
51
67.6438749
0
ARC
8
DEFAULT_255_2_778
10
77.3093649
20
41.4545243
40
0.3714202
50
359.2731298
51
35.4438127
0
ARC
8
DEFAULT_255_2_778
10
77.2876422
20
41.4328889
40
0.3934772
50
311.614266
51
2.4650687
0
ARC
8
DEFAULT_255_2_778
10
77.2373432
20
41.5063694
40
0.4819478
50
272.4351009
51
310.2833436
0
ARC
8
DEFAULT_255_2_778
10
77.2028518
20
41.7627606
40
0.7399483
50
269.9460652
51
274.260237
0
ARC
8
DEFAULT_255_2_778
10
77.1886826
20
41.59437
40
0.5717163
50
245.8204455
51
271.3503183
0
ARC
8
DEFAULT_255_2_778
10
77.1355141
20
41.4555705
40
0.4233987
50
228.408431
51
244.6906786
0
ARC
8
DEFAULT_255_2_778
10
77.1184182
20
41.4327868
40
0.3950171
50
177.5732812
51
228.0692845
0
ARC
8
DEFAULT_255_2_778
10
77.1067445
20
41.4537045
40
0.3830122
50
145.6690953
51
180.6271066
0
ARC
8
DEFAULT_255_2_778
10
77.1324224
20
41.434331
40
0.4151457
50
112.3056038
51
145.459745
0
ARC
8
DEFAULT_255_2_778
10
77.144313
20
42.1729816
40
0.3929824
50
213.5118182
51
244.455663
0
ARC
8
DEFAULT_255_2_778
10
77.1123782
20
42.1501681
40
0.3537633
50
179.134393
51
213.2867361
0
ARC
8
DEFAULT_255_2_778
10
77.1561204
20
42.1716917
40
0.3977943
50
139.8502785
51
182.3309987
0
ARC
8
DEFAULT_255_2_778
10
77.1338779
20
42.1801351
40
0.3754316
50
132.4140799
51
138.6464019
0
ARC
8
DEFAULT_255_2_778
10
77.1736377
20
42.1253307
40
0.442776
50
91.0621277
51
131.4292298
0
ARC
8
DEFAULT_255_2_778
10
77.2018254
20
41.893996
40
0.6750167
50
89.971999
51
93.0907439
0
ARC
8
DEFAULT_255_2_778
10
77.2162309
20
42.0776244
40
0.4915896
50
60.6658717
51
91.6407679
0
ARC
8
DEFAULT_255_2_778
10
77.252764
20
42.1612965
40
0.4008528
50
47.6008932
51
59.3589984
0
ARC
8
DEFAULT_255_2_778
10
77.2580139
20
42.173994
40
0.3879643
50
357.3244736
51
46.908989
0
LINE
8
DEFAULT_255_2_778
10
77.6455552
20
42.1558839
11
77.6455553
21
42.1555125
0
ARC
8
DEFAULT_255_2_778
10
77.2129654
20
41.464902
40
0.2766926
50
357.806644
51
44.8126634
0
ARC
8
DEFAULT_255_2_778
10
77.2118113
20
41.4557204
40
0.2840397
50
45.9625753
51
92.3922705
0
ARC
8
DEFAULT_255_2_778
10
77.1871475
20
41.4608648
40
0.2789419
50
87.3683105
51
134.1495086
0
ARC
8
DEFAULT_255_2_778
10
77.1949494
20
41.466548
40
0.2804611
50
136.1022157
51
182.5004143
0
ARC
8
DEFAULT_255_2_778
10
77.1819319
20
41.4399084
40
0.2675646
50
176.9140492
51
224.397244
0
ARC
8
DEFAULT_255_2_778
10
77.1806957
20
41.4631101
40
0.283451
50
227.9252604
51
270.9611897
0
ARC
8
DEFAULT_255_2_778
10
77.2020419
20
41.6601079
40
0.4806955
50
268.022032
51
270.0135148
0
ARC
8
DEFAULT_255_2_778
10
77.2160967
20
41.4829537
40
0.3038612
50
267.3703005
51
305.6102694
0
ARC
8
DEFAULT_255_2_778
10
77.2468404
20
41.4254407
40
0.2393531
50
307.6438479
51
313.9820901
0
ARC
8
DEFAULT_255_2_778
10
77.2232725
20
41.4403755
40
0.2665474
50
315.3981937
51
2.9971871
0
ARC
8
DEFAULT_255_2_778
10
77.1917435
20
42.1668963
40
0.2457368
50
87.5716665
51
134.3853676
0
ARC
8
DEFAULT_255_2_778
10
77.2057224
20
42.1662966
40
0.2561223
50
136.5268342
51
183.0178484
0
ARC
8
DEFAULT_255_2_778
10
77.2043869
20
42.1416699
40
0.2546755
50
177.4923908
51
223.2061848
0
ARC
8
DEFAULT_255_2_778
10
77.1909118
20
42.1399827
40
0.2438296
50
225.085354
51
272.6429687
0
ARC
8
DEFAULT_255_2_778
10
77.2135939
20
42.1392355
40
0.2430923
50
267.302977
51
314.9897243
0
ARC
8
DEFAULT_255_2_778
10
77.199388
20
42.1418315
40
0.2551037
50
316.8343508
51
2.4670736
0
ARC
8
DEFAULT_255_2_778
10
77.1995475
20
42.162786
40
0.254903
50
357.7576304
51
44.0174897
0
ARC
8
DEFAULT_255_2_778
10
77.2094566
20
42.1681916
40
0.2440392
50
44.7214483
51
91.7849299
0
ARC
8
DEFAULT_255_2_778
10
79.6839017
20
41.7619406
40
0.7867752
50
73.945582
51
90.9282779
0
ARC
8
DEFAULT_255_2_778
10
79.7753811
20
42.0852651
40
0.4507645
50
50.4253911
51
73.7544355
0
ARC
8
DEFAULT_255_2_778
10
79.8027908
20
42.1355083
40
0.3947251
50
2.5049409
51
48.8456669
0
ARC
8
DEFAULT_255_2_778
10
79.5500934
20
42.0967788
40
0.6494624
50
359.9235753
51
4.9448143
0
ARC
8
DEFAULT_255_2_778
10
79.7938875
20
42.0873299
40
0.4057585
50
324.3624616
51
1.212003
0
ARC
8
DEFAULT_255_2_778
10
79.7609096
20
42.1209691
40
0.4522334
50
289.5520303
51
323.3330756
0
ARC
8
DEFAULT_255_2_778
10
79.6910247
20
42.1827548
40
0.3680963
50
267.8718036
51
300.7438315
0
ARC
8
DEFAULT_255_2_778
10
79.730287
20
42.099664
40
0.2767498
50
302.5518621
51
311.1934388
0
ARC
8
DEFAULT_255_2_778
10
79.7417517
20
42.0852116
40
0.2583253
50
311.3911257
51
2.3741
0
ARC
8
DEFAULT_255_2_778
10
79.7129005
20
42.1100381
40
0.2873023
50
357.1818285
51
37.5449845
0
ARC
8
DEFAULT_255_2_778
10
79.7610415
20
42.1363257
40
0.2332678
50
39.6316598
51
48.1231114
0
ARC
8
DEFAULT_255_2_778
10
79.7157162
20
42.0682911
40
0.3143978
50
50.2497823
51
86.0590973
0
ARC
8
DEFAULT_255_2_778
10
79.6738982
20
41.8045385
40
0.5808799
50
83.7314304
51
89.7379158
0
LINE
8
DEFAULT_255_2_778
10
76.1728553
20
42.5560125
11
76.1728553
21
41.0439125
0
LINE
8
DEFAULT_255_2_778
10
76.1728553
20
41.0439125
11
75.9805553
21
41.0439125
0
LINE
8
DEFAULT_255_2_778
10
75.9805553
20
41.0439125
11
75.9805553
21
42.3182125
0
LINE
8
DEFAULT_255_2_778
10
75.9805553
20
42.3182125
11
75.5950553
21
42.1766125
0
LINE
8
DEFAULT_255_2_778
10
75.5950553
20
42.1766125
11
75.5950553
21
42.3502125
0
LINE
8
DEFAULT_255_2_778
10
75.5950553
20
42.3502125
11
76.1427553
21
42.5558125
0
LINE
8
DEFAULT_255_2_778
10
76.1427553
20
42.5558125
11
76.1728553
21
42.5558125
0
LINE
8
DEFAULT_255_2_778
10
76.1728553
20
42.5558125
11
76.1728553
21
42.5560125
0
LINE
8
DEFAULT_255_2_778
10
77.6455553
20
42.1555125
11
77.6455553
21
42.1560125
0
LINE
8
DEFAULT_255_2_778
10
77.4894553
20
41.4543125
11
77.4894553
21
41.4543125
0
LINE
8
DEFAULT_255_2_778
10
77.2018553
20
42.4121125
11
77.2021553
21
42.4124125
0
LINE
8
DEFAULT_255_2_778
10
78.8218553
20
41.9020125
11
78.8218553
21
41.7398125
0
LINE
8
DEFAULT_255_2_778
10
78.8218553
20
41.7398125
11
78.1697553
21
41.7398125
0
LINE
8
DEFAULT_255_2_778
10
78.1697553
20
41.7398125
11
78.1697553
21
41.2064125
0
LINE
8
DEFAULT_255_2_778
10
78.1697553
20
41.2064125
11
78.9272553
21
41.2064125
0
LINE
8
DEFAULT_255_2_778
10
78.9272553
20
41.2064125
11
78.9272553
21
41.0442125
0
LINE
8
DEFAULT_255_2_778
10
78.9272553
20
41.0442125
11
77.9712553
21
41.0442125
0
LINE
8
DEFAULT_255_2_778
10
77.9712553
20
41.0442125
11
77.9712553
21
42.5489125
0
LINE
8
DEFAULT_255_2_778
10
77.9712553
20
42.5489125
11
78.9168553
21
42.5489125
0
LINE
8
DEFAULT_255_2_778
10
78.9168553
20
42.5489125
11
78.9168553
21
42.3856125
0
LINE
8
DEFAULT_255_2_778
10
78.9168553
20
42.3856125
11
78.1697553
21
42.3856125
0
LINE
8
DEFAULT_255_2_778
10
78.1697553
20
42.3856125
11
78.1697553
21
41.9020125
0
LINE
8
DEFAULT_255_2_778
10
78.1697553
20
41.9020125
11
78.8218553
21
41.9020125
0
LINE
8
DEFAULT_255_2_778
10
78.8218553
20
41.9020125
11
78.8218553
21
41.9020125
0
LINE
8
DEFAULT_255_2_778
10
80.0524553
20
41.0439125
11
79.7259553
21
41.6527125
0
LINE
8
DEFAULT_255_2_778
10
79.7259553
20
41.6527125
11
79.3725553
21
41.6527125
0
LINE
8
DEFAULT_255_2_778
10
79.3725553
20
41.6527125
11
79.3725553
21
41.0439125
0
LINE
8
DEFAULT_255_2_778
10
79.3725553
20
41.0439125
11
79.1729553
21
41.0439125
0
LINE
8
DEFAULT_255_2_778
10
79.1729553
20
41.0439125
11
79.1729553
21
42.5486125
0
LINE
8
DEFAULT_255_2_778
10
79.1729553
20
42.5486125
11
79.6711553
21
42.5486125
0
LINE
8
DEFAULT_255_2_778
10
79.9122553
20
41.6948125
11
80.2657553
21
41.0561125
0
LINE
8
DEFAULT_255_2_778
10
80.2657553
20
41.0561125
11
80.2657553
21
41.0437125
0
LINE
8
DEFAULT_255_2_778
10
80.2657553
20
41.0437125
11
80.0527553
21
41.0437125
0
LINE
8
DEFAULT_255_2_778
10
80.0527553
20
41.0437125
11
80.0524553
21
41.0439125
0
LINE
8
DEFAULT_255_2_778
10
79.3725553
20
42.3854125
11
79.3725553
21
41.8149125
0
LINE
8
DEFAULT_255_2_778
10
79.3725553
20
41.8149125
11
79.6773553
21
41.8149125
0
LINE
8
DEFAULT_255_2_778
10
79.6765553
20
42.3854125
11
79.3727553
21
42.3854125
0
LINE
8
DEFAULT_255_2_778
10
79.3727553
20
42.3854125
11
79.3725553
21
42.3854125
0
LINE
8
DEFAULT_255_2_778
10
80.8454521
20
41.7612521
11
80.8454521
21
41.6051521
0
LINE
8
DEFAULT_255_2_778
10
80.8454521
20
41.6051521
11
80.3411521
21
41.6051521
0
LINE
8
DEFAULT_255_2_778
10
80.3411521
20
41.6051521
11
80.3411521
21
41.7612521
0
LINE
8
DEFAULT_255_2_778
10
80.3411521
20
41.7612521
11
80.8454521
21
41.7612521
0
LINE
8
DEFAULT_255_2_778
10
80.8454521
20
41.7612521
11
80.8454521
21
41.7612521
0
ARC
8
DEFAULT_255_2_778
10
81.4994365
20
41.863914
40
0.6848931
50
60.8176109
51
91.1254253
0
ARC
8
DEFAULT_255_2_778
10
81.5404962
20
41.9520844
40
0.587937
50
26.5385939
51
60.1214904
0
ARC
8
DEFAULT_255_2_778
10
81.3540364
20
41.8612899
40
0.79532
50
359.887052
51
26.3885684
0
ARC
8
DEFAULT_255_2_778
10
81.102554
20
41.8427855
40
1.0469379
50
0.2183326
51
0.926927
0
ARC
8
DEFAULT_255_2_778
10
81.3127495
20
41.7368761
40
0.8368487
50
338.4115849
51
0.944798
0
ARC
8
DEFAULT_255_2_778
10
81.4669608
20
41.6862413
40
0.6748937
50
332.7929524
51
337.5916986
0
ARC
8
DEFAULT_255_2_778
10
81.5487208
20
41.6370426
40
0.5797207
50
299.3179603
51
333.4229417
0
ARC
8
DEFAULT_255_2_778
10
81.4877938
20
41.7663922
40
0.7224081
50
270.1832328
51
298.507876
0
ARC
8
DEFAULT_255_2_778
10
81.4674991
20
42.0102252
40
0.9665017
50
270.5919534
51
271.340177
0
ARC
8
DEFAULT_255_2_778
10
81.4822105
20
41.7210494
40
0.5150573
50
268.4729001
51
296.9382406
0
ARC
8
DEFAULT_255_2_778
10
81.5246734
20
41.6170454
40
0.4032078
50
298.2544041
51
318.2915706
0
ARC
8
DEFAULT_255_2_778
10
81.4461716
20
41.6737278
40
0.4996241
50
319.4286427
51
351.3425247
0
ARC
8
DEFAULT_255_2_778
10
81.0766596
20
41.7494899
40
0.8765421
50
350.0823526
51
0.3585395
0
ARC
8
DEFAULT_255_2_778
10
81.176372
20
41.8555429
40
0.7769173
50
359.0583544
51
16.7830781
0
ARC
8
DEFAULT_255_2_778
10
81.4739272
20
41.9425504
40
0.4669205
50
17.1042586
51
39.7751168
0
ARC
8
DEFAULT_255_2_778
10
81.5188109
20
41.967804
40
0.4163721
50
41.0558685
51
88.6722678
0
ARC
8
DEFAULT_255_2_778
10
81.4850051
20
41.729012
40
0.6564921
50
86.2047868
51
89.4606942
0
LINE
8
DEFAULT_255_2_778
10
81.4777844
20
41.043975
11
81.0612844
21
41.043975
0
LINE
8
DEFAULT_255_2_778
10
81.0612844
20
41.043975
11
81.0612844
21
42.548675
0
LINE
8
DEFAULT_255_2_778
10
81.0612844
20
42.548675
11
81.4859844
21
42.548675
0
LINE
8
DEFAULT_255_2_778
10
82.1494844
20
41.846775
11
82.1494844
21
41.750675
0
LINE
8
DEFAULT_255_2_778
10
81.4774844
20
41.043775
11
81.4777844
21
41.043975
0
LINE
8
DEFAULT_255_2_778
10
81.4911844
20
42.385475
11
81.2596844
21
42.385475
0
LINE
8
DEFAULT_255_2_778
10
81.2596844
20
42.385475
11
81.2596844
21
41.206175
0
LINE
8
DEFAULT_255_2_778
10
81.2596844
20
41.206175
11
81.4684844
21
41.206175
0
LINE
8
DEFAULT_255_2_778
10
81.9531844
20
41.754975
11
81.9531844
21
41.842775
0
LINE
8
DEFAULT_255_2_778
10
81.4911844
20
42.385475
11
81.4911844
21
42.385475
0
ARC
8
DEFAULT_255_2_778
10
105.6400082
20
5.6396192
40
0.4009572
50
288.2684781
51
314.8120594
0
ARC
8
DEFAULT_255_2_778
10
107.2216945
20
7.0464476
40
0.1856647
50
355.1565111
51
359.999182
0
ARC
8
DEFAULT_255_2_778
10
107.2221851
20
7.0465068
40
0.185174
50
359.9808598
51
44.9678904
0
ARC
8
DEFAULT_255_2_778
10
107.2228391
20
7.0474151
40
0.1840694
50
44.9117076
51
89.9776011
0
ARC
8
DEFAULT_255_2_778
10
107.222915
20
7.0467641
40
0.1847205
50
90.0012488
51
95.0371722
0
ARC
8
DEFAULT_255_2_778
10
106.3663513
20
7.0220115
40
0.2089516
50
92.4563036
51
177.5150139
0
ARC
8
DEFAULT_255_2_778
10
100.6723677
20
5.6423446
40
0.4016712
50
225.2120158
51
251.7075485
0
ARC
8
DEFAULT_255_2_778
10
98.5586897
20
5.4821769
40
0.2514116
50
270.3889072
51
359.6340455
0
ARC
8
DEFAULT_255_2_778
10
100.0043554
20
7.0325683
40
0.2001464
50
359.5714048
51
359.9998923
0
ARC
8
DEFAULT_255_2_778
10
100.0057543
20
7.0325419
40
0.1987475
50
0.0074999
51
44.9158858
0
ARC
8
DEFAULT_255_2_778
10
100.006949
20
7.0336996
40
0.1970841
50
44.9227707
51
90.0068493
0
ARC
8
DEFAULT_255_2_778
10
100.0069442
20
7.0302504
40
0.2005333
50
90.0053689
51
90.6423016
0
ARC
8
DEFAULT_255_2_778
10
99.1485589
20
7.0379803
40
0.1929121
50
87.9688736
51
90.0014492
0
ARC
8
DEFAULT_255_2_778
10
99.1486477
20
7.0376826
40
0.1932098
50
90.0277604
51
134.971258
0
ARC
8
DEFAULT_255_2_778
10
99.1488827
20
7.037654
40
0.1933963
50
135.0145238
51
180.0167999
0
ARC
8
DEFAULT_255_2_778
10
99.1494496
20
7.0375966
40
0.1939632
50
179.9998075
51
181.9279562
0
ARC
8
DEFAULT_255_2_778
10
102.2860874
20
4.7545014
40
2.1394659
50
357.038637
51
357.7946517
0
ARC
8
DEFAULT_255_2_778
10
102.2858171
20
4.7545212
40
2.1397368
50
357.7944004
51
359.9996659
0
ARC
8
DEFAULT_255_2_778
10
102.2938992
20
4.7548416
40
2.1316547
50
359.9910525
51
16.3264667
0
ARC
8
DEFAULT_255_2_778
10
104.617705
20
4.3306363
40
0.2739102
50
293.037725
51
0.0014009
0
ARC
8
DEFAULT_255_2_778
10
104.6141969
20
4.3306243
40
0.2774182
50
0.003855
51
0.6705897
0
ARC
8
DEFAULT_255_2_778
10
104.513713
20
4.3189613
40
0.2583474
50
176.691483
51
179.9992231
0
ARC
8
DEFAULT_255_2_778
10
104.5119372
20
4.3190486
40
0.2565718
50
180.0187186
51
249.598272
0
ARC
8
DEFAULT_255_2_778
10
104.3479105
20
5.1832137
40
0.168772
50
90.7517407
51
161.3548333
0
ARC
8
DEFAULT_255_2_778
10
104.3884588
20
5.7694133
40
1.1259206
50
263.2179799
51
270.0247301
0
ARC
8
DEFAULT_255_2_778
10
104.3889121
20
5.8015775
40
1.1580848
50
270.0016171
51
271.6469437
0
ARC
8
DEFAULT_255_2_778
10
104.7580463
20
5.8068373
40
1.1633471
50
268.352327
51
270.000599
0
ARC
8
DEFAULT_255_2_778
10
104.7580743
20
5.8096638
40
1.1661735
50
269.999223
51
270.698258
0
ARC
8
DEFAULT_255_2_778
10
104.7578154
20
5.822112
40
1.1786238
50
270.7034687
51
276.5027797
0
ARC
8
DEFAULT_255_2_778
10
104.7993036
20
5.1837928
40
0.1681878
50
18.5041414
51
89.3893141
0
ARC
8
DEFAULT_255_2_778
10
106.9539432
20
4.76021
40
2.232696
50
164.630474
51
179.9935606
0
ARC
8
DEFAULT_255_2_778
10
106.9482417
20
4.7604626
40
2.2269944
50
180.0000423
51
182.179071
0
ARC
8
DEFAULT_255_2_778
10
106.9472743
20
4.760443
40
2.226027
50
182.1795133
51
182.9992412
0
ARC
8
DEFAULT_255_2_778
10
100.9410651
20
4.7542797
40
2.1348829
50
357.0382313
51
357.7958685
0
ARC
8
DEFAULT_255_2_778
10
100.9406928
20
4.7542894
40
2.135255
50
357.7959921
51
0.0002255
0
ARC
8
DEFAULT_255_2_778
10
100.9404941
20
4.7543175
40
2.1354538
50
359.9994724
51
16.3112622
0
ARC
8
DEFAULT_255_2_778
10
103.2681638
20
4.3305313
40
0.2737514
50
293.015727
51
0.0223849
0
ARC
8
DEFAULT_255_2_778
10
103.2636754
20
4.3306195
40
0.2782397
50
0.0038491
51
0.6695948
0
ARC
8
DEFAULT_255_2_778
10
103.1638304
20
4.3189735
40
0.2581644
50
176.6918394
51
179.997687
0
ARC
8
DEFAULT_255_2_778
10
103.162384
20
4.3191498
40
0.256718
50
180.0370291
51
249.5754406
0
ARC
8
DEFAULT_255_2_778
10
102.9982401
20
5.1833104
40
0.1686744
50
90.7282587
51
161.3783179
0
ARC
8
DEFAULT_255_2_778
10
103.0387015
20
5.7677087
40
1.1242094
50
263.2156851
51
269.2969118
0
ARC
8
DEFAULT_255_2_778
10
103.0393837
20
5.792629
40
1.1491362
50
269.2781445
51
269.99997
0
ARC
8
DEFAULT_255_2_778
10
103.0393605
20
5.7982122
40
1.1547195
50
270.0011213
51
271.6493426
0
ARC
8
DEFAULT_255_2_778
10
103.4083976
20
5.8034461
40
1.1599559
50
268.3499191
51
270.0011111
0
ARC
8
DEFAULT_255_2_778
10
103.4084115
20
5.813342
40
1.1698516
50
270.0004175
51
271.6317744
0
ARC
8
DEFAULT_255_2_778
10
103.4080851
20
5.8239132
40
1.1804279
50
271.6330016
51
276.4991632
0
ARC
8
DEFAULT_255_2_778
10
103.4496738
20
5.1838893
40
0.1680907
50
18.4805505
51
89.4128728
0
ARC
8
DEFAULT_255_2_778
10
105.6033098
20
4.7606869
40
2.2316696
50
164.6359275
51
179.9992561
0
ARC
8
DEFAULT_255_2_778
10
105.6032134
20
4.7607178
40
2.2315733
50
180.0000487
51
182.1811543
0
ARC
8
DEFAULT_255_2_778
10
105.6055051
20
4.7608252
40
2.2338674
50
182.1816704
51
182.998522
0
ARC
8
DEFAULT_255_2_778
10
99.5958543
20
4.7549075
40
2.1304322
50
357.0151303
51
357.7743641
0
ARC
8
DEFAULT_255_2_778
10
99.5949186
20
4.7549434
40
2.1313688
50
357.7743784
51
359.9997841
0
ARC
8
DEFAULT_255_2_778
10
99.5930965
20
4.7548496
40
2.1331909
50
0.0023038
51
16.3141596
0
ARC
8
DEFAULT_255_2_778
10
101.918405
20
4.3306363
40
0.2739102
50
293.037725
51
0.0014009
0
ARC
8
DEFAULT_255_2_778
10
101.9148969
20
4.3306243
40
0.2774182
50
0.003855
51
0.6705897
0
ARC
8
DEFAULT_255_2_778
10
101.814413
20
4.3189613
40
0.2583474
50
176.691483
51
179.9992231
0
ARC
8
DEFAULT_255_2_778
10
101.8126372
20
4.3190486
40
0.2565718
50
180.0187186
51
249.598272
0
ARC
8
DEFAULT_255_2_778
10
101.6485697
20
5.1834071
40
0.1685768
50
90.7047596
51
161.4018431
0
ARC
8
DEFAULT_255_2_778
10
101.6891588
20
5.7694133
40
1.1259206
50
263.2179799
51
270.0247301
0
ARC
8
DEFAULT_255_2_778
10
101.6896121
20
5.8015775
40
1.1580848
50
270.0016171
51
271.6469437
0
ARC
8
DEFAULT_255_2_778
10
102.0587463
20
5.8068373
40
1.1633471
50
268.352327
51
270.000599
0
ARC
8
DEFAULT_255_2_778
10
102.0587743
20
5.8096638
40
1.1661735
50
269.999223
51
270.698258
0
ARC
8
DEFAULT_255_2_778
10
102.0585154
20
5.822112
40
1.1786238
50
270.7034687
51
276.5027797
0
ARC
8
DEFAULT_255_2_778
10
102.1000038
20
5.1837933
40
0.1681874
50
18.5040111
51
89.3893898
0
ARC
8
DEFAULT_255_2_778
10
104.2537098
20
4.7606869
40
2.2316696
50
164.6359275
51
179.9992561
0
ARC
8
DEFAULT_255_2_778
10
104.2536134
20
4.7607178
40
2.2315733
50
180.0000487
51
182.1811543
0
ARC
8
DEFAULT_255_2_778
10
104.2559051
20
4.7608252
40
2.2338674
50
182.1816704
51
182.998522
0
ARC
8
DEFAULT_255_2_778
10
103.2228234
20
6.3108257
40
3.9952884
50
236.8744492
51
250.4380885
0
ARC
8
DEFAULT_255_2_778
10
103.2222047
20
6.3121566
40
3.9963354
50
250.452835
51
270.0070462
0
ARC
8
DEFAULT_255_2_778
10
103.2233447
20
6.310878
40
3.995057
50
269.9906995
51
292.0797554
0
ARC
8
DEFAULT_255_2_778
10
103.2211795
20
6.3133539
40
3.9981651
50
292.0951717
51
303.1224287
0
ARC
8
DEFAULT_255_2_778
10
105.7398271
20
33.0172548
40
0.2143814
50
32.6678881
51
89.9810098
0
ARC
8
DEFAULT_255_2_778
10
105.7399048
20
33.0169263
40
0.2147097
50
90.0017696
51
94.838054
0
ARC
8
DEFAULT_255_2_778
10
100.5689877
20
33.0169263
40
0.2147098
50
85.161946
51
89.9982304
0
ARC
8
DEFAULT_255_2_778
10
100.5690653
20
33.0172548
40
0.2143813
50
90.0189902
51
147.3321119
0
ARC
8
DEFAULT_255_2_778
10
106.3504701
20
31.4515326
40
0.1950613
50
178.2847802
51
180.0007716
0
ARC
8
DEFAULT_255_2_778
10
106.3495856
20
31.4513893
40
0.1941769
50
179.9584853
51
224.9225434
0
ARC
8
DEFAULT_255_2_778
10
106.3489882
20
31.4508383
40
0.1933649
50
224.9319362
51
270.0134325
0
ARC
8
DEFAULT_255_2_778
10
106.349035
20
31.4515887
40
0.1941155
50
269.9995583
51
271.8188627
0
ARC
8
DEFAULT_255_2_778
10
103.2221424
20
32.1768459
40
3.9964339
50
55.7197972
51
68.7589238
0
ARC
8
DEFAULT_255_2_778
10
103.2237383
20
32.1774953
40
3.9952507
50
68.7768806
51
90.0092079
0
ARC
8
DEFAULT_255_2_778
10
103.222385
20
32.1780401
40
3.9947061
50
89.9897993
51
112.2318737
0
ARC
8
DEFAULT_255_2_778
10
103.2247196
20
32.1756776
40
3.9977766
50
112.2500349
51
124.2787021
0
ARC
8
DEFAULT_255_2_778
10
116.1138635
20
19.9138818
40
0.2497674
50
110.0102206
51
180.0024526
0
ARC
8
DEFAULT_255_2_778
10
116.1284697
20
18.5601854
40
0.2645707
50
182.2125701
51
247.7747753
0
ARC
8
DEFAULT_255_2_778
10
98.4644328
20
33.0864897
40
0.3556633
50
14.9881553
51
74.7144624
0
ARC
8
DEFAULT_255_2_778
10
94.7708124
20
33.1704549
40
0.2592837
50
92.0591173
51
177.9408827
0
ARC
8
DEFAULT_255_2_778
10
107.2107574
20
31.4515887
40
0.1941154
50
268.1811373
51
270.0004417
0
ARC
8
DEFAULT_255_2_778
10
107.2108042
20
31.4508383
40
0.193365
50
269.9865675
51
315.0680638
0
ARC
8
DEFAULT_255_2_778
10
107.2112326
20
31.4510112
40
0.1931843
50
314.9420293
51
359.8813826
0
ARC
8
DEFAULT_255_2_778
10
107.2142712
20
31.4506113
40
0.1901452
50
359.9999872
51
2.0373476
0
ARC
8
DEFAULT_255_2_778
10
92.2737572
20
6.2728799
40
2.5282272
50
257.4593152
51
269.781057
0
ARC
8
DEFAULT_255_2_778
10
92.2656104
20
6.2564648
40
2.5104385
50
236.7825639
51
257.5594676
0
ARC
8
DEFAULT_255_2_778
10
92.2874631
20
6.2779676
40
2.5404072
50
201.3191347
51
236.6359132
0
ARC
8
DEFAULT_255_2_778
10
92.2718625
20
6.2623579
40
2.2725
50
257.4481583
51
269.8041917
0
ARC
8
DEFAULT_255_2_778
10
92.2629804
20
6.2443167
40
2.2529648
50
235.0542317
51
257.5689327
0
ARC
8
DEFAULT_255_2_778
10
92.2898973
20
6.2733411
40
2.2921804
50
203.6354063
51
234.9182905
0
ARC
8
DEFAULT_255_2_778
10
99.1484701
20
31.4515326
40
0.1950613
50
178.2847802
51
180.0007716
0
ARC
8
DEFAULT_255_2_778
10
99.1475856
20
31.4513893
40
0.1941769
50
179.9584853
51
224.9225434
0
ARC
8
DEFAULT_255_2_778
10
99.1471536
20
31.4512371
40
0.1937637
50
224.9808729
51
269.9940628
0
ARC
8
DEFAULT_255_2_778
10
99.147135
20
31.4515889
40
0.1941157
50
269.999558
51
271.8188624
0
ARC
8
DEFAULT_255_2_778
10
100.0087574
20
31.4515887
40
0.1941154
50
268.1811373
51
270.0004417
0
ARC
8
DEFAULT_255_2_778
10
100.0088042
20
31.4508383
40
0.193365
50
269.9865675
51
315.0680638
0
ARC
8
DEFAULT_255_2_778
10
100.009302
20
31.451107
40
0.1932031
50
314.9073716
51
359.9424505
0
ARC
8
DEFAULT_255_2_778
10
100.0104872
20
31.4509081
40
0.1920178
50
0.0014663
51
1.9288654
0
ARC
8
DEFAULT_255_2_778
10
107.8601568
20
5.731577
40
0.2491609
50
179.9093561
51
225.0724015
0
ARC
8
DEFAULT_255_2_778
10
107.8613366
20
5.7325634
40
0.2506925
50
225.0407119
51
269.9222118
0
ARC
8
DEFAULT_255_2_778
10
94.7532048
20
5.4710468
40
0.2412652
50
177.3572557
51
180.000333
0
ARC
8
DEFAULT_255_2_778
10
94.7524658
20
5.4709546
40
0.2405261
50
179.9783589
51
224.8002107
0
ARC
8
DEFAULT_255_2_778
10
94.7516031
20
5.4702994
40
0.2394522
50
224.8344185
51
270.0673527
0
ARC
8
DEFAULT_255_2_778
10
94.7518821
20
5.4734759
40
0.2426284
50
270.0005841
51
272.4600076
0
LINE
8
DEFAULT_255_2_778
10
105.7656962
20
5.2588711
11
105.6900962
21
5.2588711
0
LINE
8
DEFAULT_255_2_778
10
107.4066962
20
5.4818711
11
107.4066962
21
7.0307711
0
LINE
8
DEFAULT_255_2_778
10
107.2066962
20
7.2307711
11
106.3573962
21
7.2307711
0
LINE
8
DEFAULT_255_2_778
10
106.1575962
20
7.0310711
11
106.1575962
21
5.4821711
0
LINE
8
DEFAULT_255_2_778
10
105.9239962
20
5.3572711
11
106.1575962
21
5.3572711
0
LINE
8
DEFAULT_255_2_778
10
106.1575962
20
5.3572711
11
106.1575962
21
5.4821711
0
LINE
8
DEFAULT_255_2_778
10
106.1575962
20
5.4821711
11
107.4063962
21
5.4821711
0
LINE
8
DEFAULT_255_2_778
10
107.4063962
20
5.4821711
11
107.4063962
21
5.3551711
0
LINE
8
DEFAULT_255_2_778
10
100.5462962
20
5.2609711
11
100.7603962
21
5.2572711
0
LINE
8
DEFAULT_255_2_778
10
98.9555962
20
5.4818711
11
100.1967962
21
5.4818711
0
LINE
8
DEFAULT_255_2_778
10
100.1967962
20
5.4818711
11
100.2044962
21
5.6202711
0
LINE
8
DEFAULT_255_2_778
10
100.2044962
20
5.6202711
11
100.2044962
21
7.0310711
0
LINE
8
DEFAULT_255_2_778
10
100.0046962
20
7.2307711
11
99.1553962
21
7.2307711
0
LINE
8
DEFAULT_255_2_778
10
98.9555962
20
7.0310711
11
98.9555962
21
5.3551711
0
LINE
8
DEFAULT_255_2_778
10
104.1879962
20
5.2371711
11
104.1834962
21
5.1797711
0
LINE
8
DEFAULT_255_2_778
10
104.1834962
20
5.1797711
11
104.2554962
21
4.3338711
0
LINE
8
DEFAULT_255_2_778
10
104.2554962
20
4.3338711
11
104.2554962
21
4.6513711
0
LINE
8
DEFAULT_255_2_778
10
104.4221962
20
4.6439711
11
104.4221962
21
4.0785711
0
LINE
8
DEFAULT_255_2_778
10
104.4221962
20
4.0785711
11
104.7245962
21
4.0785711
0
LINE
8
DEFAULT_255_2_778
10
104.7245962
20
4.0785711
11
104.7245962
21
4.6439711
0
LINE
8
DEFAULT_255_2_778
10
104.8912962
20
4.6510711
11
104.8912962
21
4.3338711
0
LINE
8
DEFAULT_255_2_778
10
104.8912962
20
4.3338711
11
104.9632962
21
5.1797711
0
LINE
8
DEFAULT_255_2_778
10
104.9632962
20
5.1797711
11
104.9587962
21
5.2371711
0
LINE
8
DEFAULT_255_2_778
10
102.8383962
20
5.2371711
11
102.8338962
21
5.1797711
0
LINE
8
DEFAULT_255_2_778
10
102.8338962
20
5.1797711
11
102.9058962
21
4.3338711
0
LINE
8
DEFAULT_255_2_778
10
102.9058962
20
4.3338711
11
102.9058962
21
4.6513711
0
LINE
8
DEFAULT_255_2_778
10
103.0725962
20
4.6439711
11
103.0725962
21
4.0785711
0
LINE
8
DEFAULT_255_2_778
10
103.0725962
20
4.0785711
11
103.3749962
21
4.0785711
0
LINE
8
DEFAULT_255_2_778
10
103.3749962
20
4.0785711
11
103.3749962
21
4.6439711
0
LINE
8
DEFAULT_255_2_778
10
103.5416962
20
4.6510711
11
103.5416962
21
4.3338711
0
LINE
8
DEFAULT_255_2_778
10
103.5416962
20
4.3338711
11
103.6135962
21
5.1797711
0
LINE
8
DEFAULT_255_2_778
10
103.6135962
20
5.1797711
11
103.6090962
21
5.2371711
0
LINE
8
DEFAULT_255_2_778
10
101.4887962
20
5.2371711
11
101.4842962
21
5.1797711
0
LINE
8
DEFAULT_255_2_778
10
101.4842962
20
5.1797711
11
101.5561962
21
4.3338711
0
LINE
8
DEFAULT_255_2_778
10
101.5561962
20
4.3338711
11
101.5561962
21
4.6513711
0
LINE
8
DEFAULT_255_2_778
10
101.7228962
20
4.6439711
11
101.7228962
21
4.0785711
0
LINE
8
DEFAULT_255_2_778
10
101.7228962
20
4.0785711
11
102.0252962
21
4.0785711
0
LINE
8
DEFAULT_255_2_778
10
102.0252962
20
4.0785711
11
102.0252962
21
4.6439711
0
LINE
8
DEFAULT_255_2_778
10
102.1919962
20
4.6510711
11
102.1919962
21
4.3338711
0
LINE
8
DEFAULT_255_2_778
10
102.1919962
20
4.3338711
11
102.2639962
21
5.1797711
0
LINE
8
DEFAULT_255_2_778
10
102.2639962
20
5.1797711
11
102.2594962
21
5.2371711
0
LINE
8
DEFAULT_255_2_778
10
105.6992962
20
5.3540711
11
100.7462962
21
5.3540711
0
LINE
8
DEFAULT_255_2_778
10
106.0022962
20
7.8218711
11
105.9051962
21
7.0296711
0
LINE
8
DEFAULT_255_2_778
10
105.9051962
20
7.0296711
11
100.5407962
21
7.0296711
0
LINE
8
DEFAULT_255_2_778
10
100.5407962
20
7.0296711
11
100.4433962
21
7.8218711
0
LINE
8
DEFAULT_255_2_778
10
100.4248962
20
7.9731711
11
100.4433962
21
7.8218711
0
LINE
8
DEFAULT_255_2_778
10
100.4433962
20
7.8218711
11
106.0022962
21
7.8218711
0
LINE
8
DEFAULT_255_2_778
10
106.0022962
20
7.8218711
11
106.0207962
21
7.9731711
0
LINE
8
DEFAULT_255_2_778
10
100.5404962
20
7.0296711
11
100.9182962
21
3.9515711
0
LINE
8
DEFAULT_255_2_778
10
105.5270962
20
3.9515711
11
105.9048962
21
7.0296711
0
LINE
8
DEFAULT_255_2_778
10
105.4058962
20
2.9648711
11
105.5270962
21
3.9515711
0
LINE
8
DEFAULT_255_2_778
10
105.5270962
20
3.9515711
11
100.9182962
21
3.9515711
0
LINE
8
DEFAULT_255_2_778
10
100.9182962
20
3.9515711
11
101.0394962
21
2.9648711
0
LINE
8
DEFAULT_255_2_778
10
105.6992962
20
33.1321711
11
100.7462962
21
33.1321711
0
LINE
8
DEFAULT_255_2_778
10
105.7217962
20
33.2308711
11
105.6873962
21
33.2308711
0
LINE
8
DEFAULT_255_2_778
10
100.7581962
20
33.2308711
11
100.5870962
21
33.2308711
0
LINE
8
DEFAULT_255_2_778
10
106.0022962
20
30.6662711
11
100.4433962
21
30.6662711
0
LINE
8
DEFAULT_255_2_778
10
100.5407962
20
31.4584711
11
105.9051962
21
31.4584711
0
LINE
8
DEFAULT_255_2_778
10
100.5573962
20
31.7401711
11
100.5751962
21
31.7401711
0
LINE
8
DEFAULT_255_2_778
10
106.1554962
20
33.1311711
11
106.1554962
21
31.4573711
0
LINE
8
DEFAULT_255_2_778
10
100.4248962
20
30.5151711
11
100.5407962
21
31.4586711
0
LINE
8
DEFAULT_255_2_778
10
100.5407962
20
31.4586711
11
100.9185962
21
34.5368711
0
LINE
8
DEFAULT_255_2_778
10
105.5273962
20
34.5368711
11
105.9051962
21
31.4586711
0
LINE
8
DEFAULT_255_2_778
10
105.9051962
20
31.4586711
11
106.0210962
21
30.5151711
0
LINE
8
DEFAULT_255_2_778
10
100.9730962
20
35.4790711
11
100.9730962
21
34.9794711
0
LINE
8
DEFAULT_255_2_778
10
100.9730962
20
34.9794711
11
100.9187962
21
34.5370711
0
LINE
8
DEFAULT_255_2_778
10
100.9187962
20
34.5370711
11
105.5275962
21
34.5370711
0
LINE
8
DEFAULT_255_2_778
10
105.5275962
20
34.5370711
11
105.4733962
21
34.9794711
0
LINE
8
DEFAULT_255_2_778
10
105.4733962
20
34.9794711
11
105.4730962
21
35.4790711
0
LINE
8
DEFAULT_255_2_778
10
89.4163962
20
13.0055711
11
89.3255962
21
10.6986711
0
LINE
8
DEFAULT_255_2_778
10
89.5581962
20
5.4654711
11
89.6107962
21
5.4821711
0
LINE
8
DEFAULT_255_2_778
10
115.8640962
20
19.9138711
11
115.8640962
21
18.5499711
0
LINE
8
DEFAULT_255_2_778
10
98.5581962
20
33.4295711
11
94.7614962
21
33.4295711
0
LINE
8
DEFAULT_255_2_778
10
106.3551962
20
31.2575711
11
107.2045962
21
31.2575711
0
LINE
8
DEFAULT_255_2_778
10
107.4042962
20
31.4573711
11
107.4042962
21
33.0062711
0
LINE
8
DEFAULT_255_2_778
10
100.9436962
20
3.7456711
11
92.2640962
21
3.7456711
0
LINE
8
DEFAULT_255_2_778
10
92.2640962
20
3.7456711
11
92.2640962
21
3.9906711
0
LINE
8
DEFAULT_255_2_778
10
92.2640962
20
3.9906711
11
100.9135962
21
3.9906711
0
LINE
8
DEFAULT_255_2_778
10
105.5019962
20
3.7456711
11
114.6530962
21
3.7456711
0
LINE
8
DEFAULT_255_2_778
10
114.6530962
20
3.7456711
11
114.6530962
21
3.9906711
0
LINE
8
DEFAULT_255_2_778
10
114.6530962
20
3.9906711
11
105.5320962
21
3.9906711
0
LINE
8
DEFAULT_255_2_778
10
94.3034962
20
5.3551711
11
94.3034962
21
5.4821711
0
LINE
8
DEFAULT_255_2_778
10
98.9534962
20
33.0062711
11
98.9534962
21
31.4573711
0
LINE
8
DEFAULT_255_2_778
10
99.1532962
20
31.2575711
11
100.0025962
21
31.2575711
0
LINE
8
DEFAULT_255_2_778
10
100.2023962
20
31.4573711
11
100.2023962
21
33.1311711
0
LINE
8
DEFAULT_255_2_778
10
100.2023962
20
33.1311711
11
100.2023962
21
33.0062711
0
LINE
8
DEFAULT_255_2_778
10
100.2023962
20
33.0062711
11
98.9534962
21
33.0062711
0
LINE
8
DEFAULT_255_2_778
10
98.9534962
20
33.0062711
11
98.9534962
21
33.1332711
0
LINE
8
DEFAULT_255_2_778
10
107.4045962
20
33.1332711
11
107.4045962
21
33.0062711
0
LINE
8
DEFAULT_255_2_778
10
107.4045962
20
33.0062711
11
106.1556962
21
33.0062711
0
LINE
8
DEFAULT_255_2_778
10
89.4647962
20
33.1311711
11
89.4623962
21
33.1311711
0
LINE
8
DEFAULT_255_2_778
10
100.3893962
20
33.1332711
11
98.9540962
21
33.1332711
0
LINE
8
DEFAULT_255_2_778
10
98.9540962
20
33.1332711
11
98.9540962
21
33.5793711
0
LINE
8
DEFAULT_255_2_778
10
98.9540962
20
33.5793711
11
94.3039962
21
33.5793711
0
LINE
8
DEFAULT_255_2_778
10
94.3039962
20
33.5793711
11
94.3039962
21
33.1332711
0
LINE
8
DEFAULT_255_2_778
10
94.3039962
20
33.1332711
11
89.7443962
21
33.1332711
0
LINE
8
DEFAULT_255_2_778
10
89.5607962
20
5.3551711
11
94.3039962
21
5.3551711
0
LINE
8
DEFAULT_255_2_778
10
94.3039962
20
5.3551711
11
94.3039962
21
4.9090711
0
LINE
8
DEFAULT_255_2_778
10
94.3039962
20
4.9090711
11
98.9540962
21
4.9090711
0
LINE
8
DEFAULT_255_2_778
10
98.9540962
20
4.9090711
11
98.9540962
21
5.3551711
0
LINE
8
DEFAULT_255_2_778
10
98.9540962
20
5.3551711
11
100.3893962
21
5.3551711
0
LINE
8
DEFAULT_255_2_778
10
98.8084962
20
33.1792711
11
98.8084962
21
33.1792711
0
LINE
8
DEFAULT_255_2_778
10
98.8084962
20
5.4675711
11
98.8084962
21
7.9731711
0
LINE
8
DEFAULT_255_2_778
10
98.8084962
20
7.9731711
11
107.6109962
21
7.9731711
0
LINE
8
DEFAULT_255_2_778
10
107.6109962
20
7.9731711
11
107.6109962
21
5.7319711
0
LINE
8
DEFAULT_255_2_778
10
107.8609962
20
5.4818711
11
113.9029962
21
5.4818711
0
LINE
8
DEFAULT_255_2_778
10
113.9029962
20
5.4818711
11
113.9238962
21
5.4818711
0
LINE
8
DEFAULT_255_2_778
10
94.5124962
20
33.1792711
11
94.5124962
21
33.1781711
0
LINE
8
DEFAULT_255_2_778
10
94.5124962
20
33.1781711
11
94.5124962
21
33.0062711
0
LINE
8
DEFAULT_255_2_778
10
94.5124962
20
33.0062711
11
89.6049962
21
33.0062711
0
LINE
8
DEFAULT_255_2_778
10
89.6049962
20
33.0062711
11
89.6049962
21
5.4821711
0
LINE
8
DEFAULT_255_2_778
10
89.6049962
20
5.4821711
11
89.6112962
21
5.4821711
0
LINE
8
DEFAULT_255_2_778
10
89.6112962
20
5.4821711
11
94.5121962
21
5.4821711
0
LINE
8
DEFAULT_255_2_778
10
94.7622962
20
5.2310711
11
98.5589962
21
5.2310711
0
LINE
8
DEFAULT_255_2_778
10
108.5522962
20
8.9145711
11
97.9036962
21
8.9145711
0
LINE
8
DEFAULT_255_2_778
10
97.9036962
20
8.9145711
11
97.9036962
21
6.9577711
0
LINE
8
DEFAULT_255_2_778
10
97.9036962
20
6.9577711
11
91.2292962
21
6.9577711
0
LINE
8
DEFAULT_255_2_778
10
91.2292962
20
6.9577711
11
91.2292962
21
31.5309711
0
LINE
8
DEFAULT_255_2_778
10
91.2292962
20
31.5309711
11
97.9036962
21
31.5309711
0
LINE
8
DEFAULT_255_2_778
10
97.9036962
20
31.5309711
11
97.9036962
21
29.5740711
0
LINE
8
DEFAULT_255_2_778
10
97.9036962
20
29.5740711
11
108.5522962
21
29.5740711
0
LINE
8
DEFAULT_255_2_778
10
108.5522962
20
29.5740711
11
108.5522962
21
31.5309711
0
LINE
8
DEFAULT_255_2_778
10
108.5522962
20
31.5309711
11
115.7338962
21
31.5309711
0
LINE
8
DEFAULT_255_2_778
10
115.7338962
20
31.5309711
11
115.7338962
21
6.9577711
0
LINE
8
DEFAULT_255_2_778
10
115.7338962
20
6.9577711
11
108.5522962
21
6.9577711
0
LINE
8
DEFAULT_255_2_778
10
108.5522962
20
6.9577711
11
108.5522962
21
8.9145711
0
LINE
8
DEFAULT_255_2_778
10
95.8489133
20
77.3398134
11
95.8489133
21
79.8380134
0
LINE
8
DEFAULT_255_2_778
10
95.8489133
20
79.8380134
11
94.3503133
21
79.8380134
0
LINE
8
DEFAULT_255_2_778
10
94.3503133
20
79.8380134
11
94.3503133
21
77.3398134
0
LINE
8
DEFAULT_255_2_778
10
94.3503133
20
77.3398134
11
95.8489133
21
77.3398134
0
LINE
8
DEFAULT_255_2_778
10
95.8489133
20
71.6288134
11
95.8489133
21
74.1270134
0
LINE
8
DEFAULT_255_2_778
10
95.8489133
20
74.1270134
11
94.3503133
21
74.1270134
0
LINE
8
DEFAULT_255_2_778
10
94.3503133
20
74.1270134
11
94.3503133
21
71.6288134
0
LINE
8
DEFAULT_255_2_778
10
94.3503133
20
71.6288134
11
95.8489133
21
71.6288134
0
LINE
8
DEFAULT_255_2_778
10
95.8489133
20
85.5489979
11
94.3503133
21
85.5489979
0
LINE
8
DEFAULT_255_2_778
10
94.3503133
20
85.5489979
11
94.3503133
21
83.0507979
0
LINE
8
DEFAULT_255_2_778
10
94.3503133
20
83.0507979
11
95.8489133
21
83.0507979
0
LINE
8
DEFAULT_255_2_778
10
95.8489133
20
83.0507979
11
95.8489133
21
85.5489979
0
LINE
8
DEFAULT_255_2_778
10
94.3502472
20
91.2600393
11
94.3502472
21
88.7618393
0
LINE
8
DEFAULT_255_2_778
10
94.3502472
20
88.7618393
11
95.8488472
21
88.7618393
0
LINE
8
DEFAULT_255_2_778
10
95.8488472
20
88.7618393
11
95.8488472
21
91.2600393
0
LINE
8
DEFAULT_255_2_778
10
95.8488472
20
91.2600393
11
94.3502472
21
91.2600393
0
LINE
8
DEFAULT_255_2_778
10
117.1932472
20
93.6976393
11
117.1967472
21
93.6973393
0
LINE
8
DEFAULT_255_2_778
10
117.1967472
20
93.6973393
11
117.1967472
21
76.3076393
0
LINE
8
DEFAULT_255_2_778
10
117.1932472
20
74.9455393
11
117.1967472
21
74.9455393
0
LINE
8
DEFAULT_255_2_778
10
117.1967472
20
74.9455393
11
117.1967472
21
76.3076393
0
LINE
8
DEFAULT_255_2_778
10
117.196867
20
74.4957667
11
117.196867
21
74.9455667
0
LINE
8
DEFAULT_255_2_778
10
117.196867
20
74.4460667
11
117.193367
21
74.4460667
0
LINE
8
DEFAULT_255_2_778
10
95.8489133
20
49.4169979
11
94.3503133
21
49.4169979
0
LINE
8
DEFAULT_255_2_778
10
94.3503133
20
49.4169979
11
94.3503133
21
46.9187979
0
LINE
8
DEFAULT_255_2_778
10
94.3503133
20
46.9187979
11
95.8489133
21
46.9187979
0
LINE
8
DEFAULT_255_2_778
10
95.8489133
20
46.9187979
11
95.8489133
21
49.4169979
0
LINE
8
DEFAULT_255_2_778
10
95.8489133
20
43.7058979
11
94.3503133
21
43.7058979
0
LINE
8
DEFAULT_255_2_778
10
94.3503133
20
43.7058979
11
94.3503133
21
41.2076979
0
LINE
8
DEFAULT_255_2_778
10
94.3503133
20
41.2076979
11
95.8489133
21
41.2076979
0
LINE
8
DEFAULT_255_2_778
10
95.8489133
20
41.2076979
11
95.8489133
21
43.7058979
0
ARC
8
DEFAULT_255_2_778
10
100.4110226
20
88.4084715
40
2.1847585
50
54.6347011
51
73.068719
0
ARC
8
DEFAULT_255_2_778
10
100.410247
20
88.4039827
40
2.1892787
50
73.0835129
51
89.979589
0
LINE
8
DEFAULT_255_2_778
10
100.4110269
20
90.5932612
11
100.4100146
21
90.5932615
0
ARC
8
DEFAULT_255_2_778
10
100.4093465
20
88.4072841
40
2.1859774
50
89.9824892
51
117.0519604
0
ARC
8
DEFAULT_255_2_778
10
100.4127798
20
88.4021568
40
2.1921054
50
117.0709301
51
125.5669516
0
ARC
8
DEFAULT_255_2_778
10
100.4088728
20
88.3994208
40
2.1848607
50
234.4231543
51
252.9821091
0
ARC
8
DEFAULT_255_2_778
10
100.4097252
20
88.4041197
40
2.1896034
50
252.9967664
51
270.0059661
0
LINE
8
DEFAULT_255_2_778
10
100.4099532
20
86.2145163
11
100.4110269
21
86.2145165
0
ARC
8
DEFAULT_255_2_778
10
100.4106283
20
88.4005291
40
2.1860126
50
270.010446
51
296.8944171
0
ARC
8
DEFAULT_255_2_778
10
100.4072235
20
88.405657
40
2.1921261
50
296.9131562
51
305.3503869
0
ARC
8
DEFAULT_255_2_778
10
100.4115075
20
90.7613105
40
1.2640264
50
359.9403757
51
33.8924687
0
ARC
8
DEFAULT_255_2_778
10
100.4059914
20
90.7598114
40
1.2694425
50
33.809798
51
83.9967619
0
ARC
8
DEFAULT_255_2_778
10
100.4057466
20
90.7443363
40
1.2848591
50
84.058081
51
89.9604646
0
ARC
8
DEFAULT_255_2_778
10
100.4056793
20
90.7650084
40
1.2641871
50
89.9567667
51
123.9050298
0
ARC
8
DEFAULT_255_2_778
10
100.4070198
20
90.7596937
40
1.2693472
50
123.8214303
51
174.0117087
0
ARC
8
DEFAULT_255_2_778
10
100.4224378
20
90.7594755
40
1.2847047
50
174.0737662
51
179.9768279
0
ARC
8
DEFAULT_255_2_778
10
100.4018738
20
86.2152886
40
1.2641413
50
179.9407856
51
213.8908838
0
ARC
8
DEFAULT_255_2_778
10
100.4071553
20
86.2165754
40
1.2692444
50
213.8061596
51
264.0012564
0
ARC
8
DEFAULT_255_2_778
10
100.4073347
20
86.2318201
40
1.2844252
50
264.0643683
51
269.9687086
0
ARC
8
DEFAULT_255_2_778
10
100.4077599
20
86.21123
40
1.2638354
50
269.9489213
51
303.9063119
0
ARC
8
DEFAULT_255_2_778
10
100.4061673
20
86.2168943
40
1.2694262
50
303.8233536
51
354.0121263
0
ARC
8
DEFAULT_255_2_778
10
100.3907921
20
86.2171152
40
1.2847412
50
354.0738568
51
359.9768014
0
ARC
8
DEFAULT_255_2_778
10
100.4077309
20
88.4070522
40
1.2669011
50
147.7625728
51
180.1337383
0
ARC
8
DEFAULT_255_2_778
10
100.4066316
20
88.4079071
40
1.2655153
50
96.6109027
51
147.7687637
0
ARC
8
DEFAULT_255_2_778
10
100.4097281
20
88.3802307
40
1.2933643
50
89.9864819
51
96.6060123
0
ARC
8
DEFAULT_255_2_778
10
100.413006
20
88.4073937
40
1.2662049
50
57.748179
51
90.1345167
0
ARC
8
DEFAULT_255_2_778
10
100.4131999
20
88.407701
40
1.2658415
50
6.7181632
51
57.7481798
0
ARC
8
DEFAULT_255_2_778
10
100.3850641
20
88.4044094
40
1.2941691
50
359.9860834
51
6.7171681
0
ARC
8
DEFAULT_255_2_778
10
100.4124505
20
88.4011392
40
1.2667861
50
327.7631403
51
0.1336923
0
ARC
8
DEFAULT_255_2_778
10
100.4135131
20
88.4003302
40
1.2654559
50
276.7257613
51
327.7684622
0
ARC
8
DEFAULT_255_2_778
10
100.4103483
20
88.4281092
40
1.2934143
50
269.9860447
51
276.7208721
0
ARC
8
DEFAULT_255_2_778
10
100.4070913
20
88.4008756
40
1.2661839
50
237.7482989
51
270.1331242
0
ARC
8
DEFAULT_255_2_778
10
100.4068531
20
88.4006187
40
1.2658394
50
186.7231512
51
237.7512133
0
ARC
8
DEFAULT_255_2_778
10
100.4344352
20
88.4037814
40
1.2936021
50
179.9861066
51
186.7192481
0
LINE
8
DEFAULT_255_2_778
10
97.1861332
20
36.5629951
11
111.5336332
21
36.5629951
0
LINE
8
DEFAULT_255_2_778
10
111.5336332
20
36.5629951
11
111.5336332
21
53.3214951
0
LINE
8
DEFAULT_255_2_778
10
111.5336332
20
53.3214951
11
97.1861332
21
53.3214951
0
LINE
8
DEFAULT_255_2_778
10
97.1861332
20
53.3214951
11
97.1861332
21
36.5629951
0
LINE
8
DEFAULT_255_2_778
10
101.6755332
20
88.5006951
11
101.6755332
21
90.7599951
0
LINE
8
DEFAULT_255_2_778
10
99.1377332
20
90.7599951
11
99.1377332
21
86.2165951
0
LINE
8
DEFAULT_255_2_778
10
101.6755332
20
86.2165951
11
101.6755332
21
88.3072951
0
LINE
8
DEFAULT_255_2_778
10
99.1408332
20
88.4040951
11
99.1408332
21
88.4040951
0
ARC
8
DEFAULT_255_2_778
10
98.6296168
20
73.7478516
40
0.1783101
50
179.8482933
51
179.9695536
0
ARC
8
DEFAULT_255_2_778
10
98.5761376
20
73.7479307
40
0.1248309
50
179.9928139
51
224.8950608
0
ARC
8
DEFAULT_255_2_778
10
98.5756393
20
73.7478307
40
0.1244076
50
225.0243988
51
270.0864791
0
LINE
8
DEFAULT_255_2_778
10
98.5758271
20
73.6234232
11
98.5762073
21
73.6234238
0
LINE
8
DEFAULT_255_2_778
10
99.3255073
20
73.6234238
11
99.3258864
21
73.6234232
0
ARC
8
DEFAULT_255_2_778
10
99.3260714
20
73.7475988
40
0.1241757
50
269.9146504
51
315.0198674
0
ARC
8
DEFAULT_255_2_778
10
99.3259008
20
73.7478969
40
0.1245071
50
314.9783175
51
0.0227767
0
ARC
8
DEFAULT_255_2_778
10
99.2724803
20
73.747852
40
0.1779276
50
0.0303821
51
0.1518998
0
ARC
8
DEFAULT_255_2_778
10
99.2724783
20
82.6373955
40
0.1779296
50
359.8481003
51
359.9696181
0
ARC
8
DEFAULT_255_2_778
10
99.3260749
20
82.6374227
40
0.1243331
50
359.9439609
51
45.0549296
0
ARC
8
DEFAULT_255_2_778
10
99.3262389
20
82.6380583
40
0.1237678
50
44.9008185
51
89.9928363
0
ARC
8
DEFAULT_255_2_778
10
99.3262919
20
82.6222347
40
0.1395913
50
90.0154217
51
90.322043
0
ARC
8
DEFAULT_255_2_778
10
98.5754206
20
82.6214895
40
0.1403364
50
89.6787905
51
89.9846915
0
ARC
8
DEFAULT_255_2_778
10
98.5754719
20
82.6378267
40
0.1239994
50
90.0063895
51
135.0547166
0
ARC
8
DEFAULT_255_2_778
10
98.5759627
20
82.6373891
40
0.124656
50
135.0717333
51
180.0404073
0
ARC
8
DEFAULT_255_2_778
10
98.6296188
20
82.6373959
40
0.1783121
50
180.0304462
51
180.1517066
0
LINE
8
DEFAULT_255_2_778
10
99.3255073
20
72.7349238
11
99.3258836
21
72.7349232
0
ARC
8
DEFAULT_255_2_778
10
99.3258966
20
72.8595212
40
0.1245981
50
269.994002
51
314.939268
0
ARC
8
DEFAULT_255_2_778
10
99.3259008
20
72.8593969
40
0.1245071
50
314.9783175
51
0.0227767
0
ARC
8
DEFAULT_255_2_778
10
99.2724803
20
72.859352
40
0.1779276
50
0.0303821
51
0.1518998
0
ARC
8
DEFAULT_255_2_778
10
97.8017156
20
69.7387419
40
0.1497819
50
90.003151
51
159.0799467
0
ARC
8
DEFAULT_255_2_778
10
97.8021862
20
69.7380627
40
0.3003658
50
109.5434671
51
169.6505527
0
ARC
8
DEFAULT_255_2_778
10
99.1007872
20
70.188144
40
0.1498202
50
270.00768
51
0.0687462
0
ARC
8
DEFAULT_255_2_778
10
99.1006394
20
70.1882917
40
0.299768
50
269.9938751
51
0.0061249
0
ARC
8
DEFAULT_255_2_778
10
99.3262919
20
83.5133347
40
0.1395913
50
90.0154217
51
90.322043
0
ARC
8
DEFAULT_255_2_778
10
99.3262389
20
83.5291583
40
0.1237677
50
44.9008185
51
89.9928363
0
ARC
8
DEFAULT_255_2_778
10
99.3261327
20
83.5285468
40
0.1242752
50
359.9784287
51
45.0659607
0
ARC
8
DEFAULT_255_2_778
10
99.2733885
20
83.5285941
40
0.1770194
50
359.8477777
51
359.9695537
0
LINE
8
DEFAULT_255_2_778
10
98.5762073
20
83.6892238
11
98.5758299
21
83.6892243
0
ARC
8
DEFAULT_255_2_778
10
98.5758143
20
83.5643935
40
0.1248309
50
89.9928139
51
134.8950608
0
ARC
8
DEFAULT_255_2_778
10
98.5761376
20
83.5647168
40
0.1248309
50
135.1049392
51
180.0071861
0
ARC
8
DEFAULT_255_2_778
10
98.6296168
20
83.5647959
40
0.17831
50
180.0304464
51
180.1517067
0
ARC
8
DEFAULT_255_2_778
10
98.6283308
20
72.8201534
40
0.1770241
50
179.8477777
51
179.9695537
0
ARC
8
DEFAULT_255_2_778
10
98.5759048
20
72.8202345
40
0.1245981
50
179.994002
51
224.939268
0
ARC
8
DEFAULT_255_2_778
10
98.5754719
20
72.8198209
40
0.1239995
50
224.9452834
51
269.9936105
0
ARC
8
DEFAULT_255_2_778
10
98.5754206
20
72.836158
40
0.1403365
50
270.0153085
51
270.3212095
0
LINE
8
DEFAULT_255_2_778
10
98.5762073
20
73.6234238
11
98.5762073
21
72.6958238
0
LINE
8
DEFAULT_255_2_778
10
98.5762073
20
72.6958238
11
99.0376073
21
72.6958238
0
LINE
8
DEFAULT_255_2_778
10
99.0376073
20
72.6958238
11
99.3255073
21
72.7349238
0
LINE
8
DEFAULT_255_2_778
10
99.3255073
20
72.7349238
11
99.3255073
21
73.6234238
0
LINE
8
DEFAULT_255_2_778
10
99.3255073
20
82.7618238
11
99.3255073
21
83.6532238
0
LINE
8
DEFAULT_255_2_778
10
99.3255073
20
83.6532238
11
99.0376073
21
83.6895238
0
LINE
8
DEFAULT_255_2_778
10
99.0376073
20
83.6895238
11
98.5762073
21
83.6895238
0
LINE
8
DEFAULT_255_2_778
10
98.5762073
20
83.6895238
11
98.5762073
21
82.7621238
0
LINE
8
DEFAULT_255_2_778
10
98.5762073
20
82.7621238
11
99.3255073
21
82.7621238
0
LINE
8
DEFAULT_255_2_778
10
99.3255073
20
82.7621238
11
99.3255073
21
73.6236238
0
LINE
8
DEFAULT_255_2_778
10
99.3255073
20
73.6236238
11
98.5762073
21
73.6236238
0
LINE
8
DEFAULT_255_2_778
10
98.5762073
20
73.6236238
11
98.5762073
21
82.7618238
0
LINE
8
DEFAULT_255_2_778
10
98.3513073
20
72.9662238
11
97.5520073
21
72.9662238
0
LINE
8
DEFAULT_255_2_778
10
99.4554073
20
78.6108238
11
99.4504073
21
78.6108238
0
LINE
8
DEFAULT_255_2_778
10
97.5020073
20
83.9503238
11
97.5020073
21
69.7922238
0
LINE
8
DEFAULT_255_2_778
10
97.5520073
20
69.9044238
11
97.5520073
21
70.0684238
0
LINE
8
DEFAULT_255_2_778
10
98.3513073
20
72.6264238
11
99.2106073
21
72.6264238
0
LINE
8
DEFAULT_255_2_778
10
99.2106073
20
72.6264238
11
99.2106073
21
72.7172238
0
LINE
8
DEFAULT_255_2_778
10
98.6010073
20
69.8885238
11
98.6010073
21
69.8187238
0
LINE
8
DEFAULT_255_2_778
10
98.6010073
20
69.8187238
11
97.6750073
21
69.8187238
0
LINE
8
DEFAULT_255_2_778
10
98.1698073
20
83.9506238
11
98.3513073
21
83.7691238
0
LINE
8
DEFAULT_255_2_778
10
98.3513073
20
83.7691238
11
99.2506073
21
83.7691238
0
LINE
8
DEFAULT_255_2_778
10
99.2506073
20
83.6630238
11
99.2506073
21
83.9506238
0
LINE
8
DEFAULT_255_2_778
10
99.4004073
20
83.6286238
11
99.4004073
21
83.9506238
0
LINE
8
DEFAULT_255_2_778
10
97.5520073
20
83.9506238
11
97.5520073
21
77.2233238
0
LINE
8
DEFAULT_255_2_778
10
97.5520073
20
77.2233238
11
98.3513073
21
77.2233238
0
LINE
8
DEFAULT_255_2_778
10
98.1515073
20
83.9503238
11
98.1515073
21
73.2839238
0
LINE
8
DEFAULT_255_2_778
10
98.1515073
20
73.2839238
11
97.5520073
21
73.2839238
0
LINE
8
DEFAULT_255_2_778
10
99.4004073
20
70.8328238
11
99.4004073
21
71.6422238
0
LINE
8
DEFAULT_255_2_778
10
99.2506073
20
71.6422238
11
99.4004073
21
71.6422238
0
LINE
8
DEFAULT_255_2_778
10
99.4004073
20
71.6422238
11
99.4004073
21
71.9353238
0
LINE
8
DEFAULT_255_2_778
10
98.3513073
20
72.6166238
11
98.3513073
21
83.7688238
0
LINE
8
DEFAULT_255_2_778
10
99.4004073
20
70.5399238
11
99.4004073
21
70.8328238
0
LINE
8
DEFAULT_255_2_778
10
99.4004073
20
70.8328238
11
99.2506073
21
70.8328238
0
LINE
8
DEFAULT_255_2_778
10
97.9018073
20
70.0383238
11
99.1008073
21
70.0383238
0
LINE
8
DEFAULT_255_2_778
10
99.2506073
20
70.1883238
11
99.2506073
21
70.2682238
0
LINE
8
DEFAULT_255_2_778
10
99.2506073
20
70.5399238
11
99.4004073
21
70.5399238
0
LINE
8
DEFAULT_255_2_778
10
99.4004073
20
70.5399238
11
99.4004073
21
70.1883238
0
LINE
8
DEFAULT_255_2_778
10
99.1006073
20
69.8885238
11
97.7017073
21
69.8885238
0
LINE
8
DEFAULT_255_2_778
10
97.7017073
20
69.8885238
11
97.7017073
21
70.0385238
0
LINE
8
DEFAULT_255_2_778
10
97.7017073
20
70.0385238
11
97.9015073
21
70.0385238
0
LINE
8
DEFAULT_255_2_778
10
97.9015073
20
70.0385238
11
97.9015073
21
69.8885238
0
LINE
8
DEFAULT_255_2_778
10
98.1513073
20
72.4169238
11
98.1513073
21
73.2842238
0
LINE
8
DEFAULT_255_2_778
10
98.1513073
20
73.2842238
11
98.3510073
21
73.2207238
0
LINE
8
DEFAULT_255_2_778
10
97.5522073
20
77.2233238
11
97.5522073
21
70.0682238
0
LINE
8
DEFAULT_255_2_778
10
97.5522073
20
70.0682238
11
99.0508073
21
70.0682238
0
LINE
8
DEFAULT_255_2_778
10
99.0508073
20
70.0682238
11
99.2506073
21
70.2679238
0
LINE
8
DEFAULT_255_2_778
10
99.2506073
20
70.2679238
11
99.2506073
21
71.9348238
0
LINE
8
DEFAULT_255_2_778
10
99.2506073
20
71.9348238
11
99.4004073
21
71.9348238
0
LINE
8
DEFAULT_255_2_778
10
99.4004073
20
71.9348238
11
99.4004073
21
72.7598238
0
LINE
8
DEFAULT_255_2_778
10
99.2506073
20
72.7233238
11
99.2506073
21
72.4166238
0
LINE
8
DEFAULT_255_2_778
10
99.2506073
20
72.4166238
11
98.1515073
21
72.4166238
0
LINE
8
DEFAULT_255_2_778
10
98.1515073
20
72.4166238
11
98.3513073
21
72.6164238
0
LINE
8
DEFAULT_255_2_778
10
98.3513073
20
72.6164238
11
99.2506073
21
72.6164238
0
LINE
8
DEFAULT_255_2_778
10
99.4504073
20
83.5281238
11
99.4504073
21
73.6530238
0
LINE
8
DEFAULT_255_2_778
10
99.4504073
20
73.6530238
11
99.4504073
21
72.8466238
0
LINE
8
DEFAULT_255_2_778
10
98.4513073
20
83.5643238
11
98.4513073
21
72.8206238
0
LINE
8
DEFAULT_255_2_778
10
99.4554073
20
78.6200238
11
99.4504073
21
78.6192238
0
LINE
8
DEFAULT_255_2_778
10
99.4554073
20
73.0971238
11
99.4504073
21
73.0971238
0
LINE
8
DEFAULT_255_2_778
10
97.3030073
20
69.7922238
11
99.4551073
21
69.7922238
0
LINE
8
DEFAULT_255_2_778
10
99.4551073
20
69.7922238
11
99.4551073
21
83.9503238
0
LINE
8
DEFAULT_255_2_778
10
99.4551073
20
83.9503238
11
97.3030073
21
83.9503238
0
LINE
8
DEFAULT_255_2_778
10
97.3030073
20
83.9503238
11
97.3030073
21
69.7922238
0
LINE
8
DEFAULT_255_2_778
10
110.2941066
20
77.9840573
11
109.3400066
21
77.9840573
0
LINE
8
DEFAULT_255_2_778
10
109.3400066
20
77.9840573
11
109.6014066
21
79.5527573
0
LINE
8
DEFAULT_255_2_778
10
109.6014066
20
79.5527573
11
110.5050066
21
79.5527573
0
LINE
8
DEFAULT_255_2_778
10
110.5050066
20
79.5527573
11
110.4735066
21
79.3693573
0
LINE
8
DEFAULT_255_2_778
10
110.4735066
20
79.3693573
11
109.7335066
21
79.3693573
0
LINE
8
DEFAULT_255_2_778
10
109.7335066
20
79.3693573
11
109.6557066
21
78.9008573
0
LINE
8
DEFAULT_255_2_778
10
109.6557066
20
78.9008573
11
110.3642066
21
78.9008573
0
LINE
8
DEFAULT_255_2_778
10
110.3642066
20
78.9008573
11
110.3354066
21
78.7174573
0
LINE
8
DEFAULT_255_2_778
10
110.3354066
20
78.7174573
11
109.6250066
21
78.7174573
0
LINE
8
DEFAULT_255_2_778
10
109.6250066
20
78.7174573
11
109.5334066
21
78.1673573
0
LINE
8
DEFAULT_255_2_778
10
109.5334066
20
78.1673573
11
110.3242066
21
78.1673573
0
LINE
8
DEFAULT_255_2_778
10
110.3242066
20
78.1673573
11
110.2941066
21
77.9840573
0
LINE
8
DEFAULT_255_2_778
10
107.8159555
20
77.9840573
11
107.6529555
21
77.9840573
0
LINE
8
DEFAULT_255_2_778
10
107.6529555
20
77.9840573
11
107.9143555
21
79.5527573
0
LINE
8
DEFAULT_255_2_778
10
107.9143555
20
79.5527573
11
108.0768555
21
79.5527573
0
LINE
8
DEFAULT_255_2_778
10
108.0768555
20
79.5527573
11
107.8156555
21
77.9840573
0
LINE
8
DEFAULT_255_2_778
10
108.6672
20
78.2081573
11
108.7981
21
78.5266573
0
LINE
8
DEFAULT_255_2_778
10
108.7981
20
78.5266573
11
109.2466
21
79.5527573
0
LINE
8
DEFAULT_255_2_778
10
109.2466
20
79.5527573
11
109.4199
21
79.5527573
0
LINE
8
DEFAULT_255_2_778
10
109.4199
20
79.5527573
11
108.7442
21
77.9840573
0
LINE
8
DEFAULT_255_2_778
10
108.7442
20
77.9840573
11
108.5388
21
77.9840573
0
LINE
8
DEFAULT_255_2_778
10
108.5388
20
77.9840573
11
108.3023
21
79.5527573
0
LINE
8
DEFAULT_255_2_778
10
108.3023
20
79.5527573
11
108.4645
21
79.5527573
0
LINE
8
DEFAULT_255_2_778
10
108.4645
20
79.5527573
11
108.6328
21
78.4973573
0
LINE
8
DEFAULT_255_2_778
10
108.6328
20
78.4973573
11
108.6478
21
78.3883573
0
LINE
8
DEFAULT_255_2_778
10
108.6478
20
78.3883573
11
108.6595
21
78.2917573
0
LINE
8
DEFAULT_255_2_778
10
108.6595
20
78.2917573
11
108.664
21
78.2480573
0
LINE
8
DEFAULT_255_2_778
10
108.664
20
78.2480573
11
108.6674
21
78.2076573
0
LINE
8
DEFAULT_255_2_778
10
110.9028862
20
79.3130573
11
110.8954862
21
79.2326573
0
LINE
8
DEFAULT_255_2_778
10
110.8954862
20
79.2326573
11
110.8848862
21
79.1437573
0
LINE
8
DEFAULT_255_2_778
10
110.8848862
20
79.1437573
11
110.8708862
21
79.0466573
0
LINE
8
DEFAULT_255_2_778
10
110.8708862
20
79.0466573
11
110.8533862
21
78.9412573
0
LINE
8
DEFAULT_255_2_778
10
110.8533862
20
78.9412573
11
110.6880862
21
77.9840573
0
LINE
8
DEFAULT_255_2_778
10
110.6880862
20
77.9840573
11
110.5255862
21
77.9840573
0
LINE
8
DEFAULT_255_2_778
10
110.5255862
20
77.9840573
11
110.7898862
21
79.5527573
0
LINE
8
DEFAULT_255_2_778
10
110.7898862
20
79.5527573
11
110.9592862
21
79.5527573
0
LINE
8
DEFAULT_255_2_778
10
110.9592862
20
79.5527573
11
111.2896862
21
78.6211573
0
LINE
8
DEFAULT_255_2_778
10
111.2896862
20
78.6211573
11
111.3386862
21
78.4639573
0
LINE
8
DEFAULT_255_2_778
10
111.3386862
20
78.4639573
11
111.3796862
21
78.3105573
0
LINE
8
DEFAULT_255_2_778
10
111.3796862
20
78.3105573
11
111.4015862
21
78.2213573
0
LINE
8
DEFAULT_255_2_778
10
111.4015862
20
78.2213573
11
111.4283862
21
78.4264573
0
LINE
8
DEFAULT_255_2_778
10
111.4283862
20
78.4264573
11
111.4597862
21
78.6333573
0
LINE
8
DEFAULT_255_2_778
10
111.4597862
20
78.6333573
11
111.6169862
21
79.5527573
0
LINE
8
DEFAULT_255_2_778
10
111.6169862
20
79.5527573
11
111.7801862
21
79.5527573
0
LINE
8
DEFAULT_255_2_778
10
111.7801862
20
79.5527573
11
111.5185862
21
77.9840573
0
LINE
8
DEFAULT_255_2_778
10
111.5185862
20
77.9840573
11
111.3491862
21
77.9840573
0
LINE
8
DEFAULT_255_2_778
10
111.3491862
20
77.9840573
11
111.0274862
21
78.8860573
0
LINE
8
DEFAULT_255_2_778
10
111.0274862
20
78.8860573
11
110.9901862
21
79.0045573
0
LINE
8
DEFAULT_255_2_778
10
110.9901862
20
79.0045573
11
110.9568862
21
79.1153573
0
LINE
8
DEFAULT_255_2_778
10
110.9568862
20
79.1153573
11
110.9279862
21
79.2183573
0
LINE
8
DEFAULT_255_2_778
10
110.9279862
20
79.2183573
11
110.9033862
21
79.3135573
0
ARC
8
DEFAULT_255_2_778
10
105.4408251
20
78.9612901
40
0.8214581
50
5.5991004
51
26.8539404
0
ARC
8
DEFAULT_255_2_778
10
102.4922515
20
78.4910116
40
3.8061227
50
7.5933422
51
8.3150385
0
ARC
8
DEFAULT_255_2_778
10
104.7596333
20
78.92815
40
1.5084609
50
351.5424785
51
357.2036227
0
ARC
8
DEFAULT_255_2_778
10
99.4427961
20
79.6430549
40
6.8730313
50
352.0576062
51
352.1664591
0
ARC
8
DEFAULT_255_2_778
10
104.9934721
20
78.9439727
40
1.2845755
50
331.333957
51
339.6405237
0
LINE
8
DEFAULT_255_2_778
10
105.2756979
20
78.1673573
11
105.5519979
21
78.1692573
0
LINE
8
DEFAULT_255_2_778
10
105.5519979
20
78.1692573
11
105.6746979
21
78.1843573
0
LINE
8
DEFAULT_255_2_778
10
105.6746979
20
78.1843573
11
105.7281979
21
78.1978573
0
LINE
8
DEFAULT_255_2_778
10
105.7281979
20
78.1978573
11
105.7773979
21
78.2166573
0
LINE
8
DEFAULT_255_2_778
10
105.7773979
20
78.2166573
11
105.8239979
21
78.2422573
0
LINE
8
DEFAULT_255_2_778
10
105.8239979
20
78.2422573
11
105.8678979
21
78.2753573
0
LINE
8
DEFAULT_255_2_778
10
105.8678979
20
78.2753573
11
105.9093979
21
78.3155573
0
LINE
8
DEFAULT_255_2_778
10
105.9093979
20
78.3155573
11
105.9480979
21
78.3637573
0
LINE
8
DEFAULT_255_2_778
10
105.9480979
20
78.3637573
11
105.9839979
21
78.4205573
0
LINE
8
DEFAULT_255_2_778
10
105.9839979
20
78.4205573
11
106.0173979
21
78.4864573
0
LINE
8
DEFAULT_255_2_778
10
106.0173979
20
78.4864573
11
106.0480979
21
78.5610573
0
LINE
8
DEFAULT_255_2_778
10
106.0480979
20
78.5610573
11
106.0736979
21
78.6428573
0
LINE
8
DEFAULT_255_2_778
10
106.0736979
20
78.6428573
11
106.0921979
21
78.7301573
0
LINE
8
DEFAULT_255_2_778
10
106.0921979
20
78.7301573
11
106.1033979
21
78.8227573
0
LINE
8
DEFAULT_255_2_778
10
106.1033979
20
78.8227573
11
106.1069979
21
78.9209573
0
LINE
8
DEFAULT_255_2_778
10
106.1069979
20
78.9209573
11
106.1059979
21
78.9643573
0
LINE
8
DEFAULT_255_2_778
10
106.1059979
20
78.9643573
11
106.1038979
21
79.0050573
0
LINE
8
DEFAULT_255_2_778
10
106.1038979
20
79.0050573
11
106.0998979
21
79.0439573
0
LINE
8
DEFAULT_255_2_778
10
106.0998979
20
79.0439573
11
106.0943979
21
79.0802573
0
LINE
8
DEFAULT_255_2_778
10
106.0943979
20
79.0802573
11
106.0869979
21
79.1143573
0
LINE
8
DEFAULT_255_2_778
10
106.0869979
20
79.1143573
11
106.0781979
21
79.1460573
0
LINE
8
DEFAULT_255_2_778
10
106.0781979
20
79.1460573
11
106.0675979
21
79.1754573
0
LINE
8
DEFAULT_255_2_778
10
106.0675979
20
79.1754573
11
106.0419979
21
79.2281573
0
LINE
8
DEFAULT_255_2_778
10
106.0419979
20
79.2281573
11
106.0109979
21
79.2717573
0
LINE
8
DEFAULT_255_2_778
10
106.0109979
20
79.2717573
11
105.9755979
21
79.3066573
0
LINE
8
DEFAULT_255_2_778
10
105.9755979
20
79.3066573
11
105.9353979
21
79.3334573
0
LINE
8
DEFAULT_255_2_778
10
105.9353979
20
79.3334573
11
105.8546979
21
79.3598573
0
LINE
8
DEFAULT_255_2_778
10
105.8546979
20
79.3598573
11
105.7106979
21
79.3701573
0
LINE
8
DEFAULT_255_2_778
10
105.7106979
20
79.3701573
11
105.4767979
21
79.3701573
0
LINE
8
DEFAULT_255_2_778
10
105.4767979
20
79.3701573
11
105.2756979
21
78.1673573
0
LINE
8
DEFAULT_255_2_778
10
105.5402979
20
77.9840573
11
105.0825979
21
77.9840573
0
LINE
8
DEFAULT_255_2_778
10
105.0825979
20
77.9840573
11
105.3439979
21
79.5527573
0
LINE
8
DEFAULT_255_2_778
10
105.3439979
20
79.5527573
11
105.7903979
21
79.5514573
0
LINE
8
DEFAULT_255_2_778
10
105.7903979
20
79.5514573
11
105.8892979
21
79.5411573
0
LINE
8
DEFAULT_255_2_778
10
105.8892979
20
79.5411573
11
105.9755979
21
79.5146573
0
LINE
8
DEFAULT_255_2_778
10
105.9755979
20
79.5146573
11
106.0212979
21
79.4908573
0
LINE
8
DEFAULT_255_2_778
10
106.0212979
20
79.4908573
11
106.0641979
21
79.4606573
0
LINE
8
DEFAULT_255_2_778
10
106.0641979
20
79.4606573
11
106.1043979
21
79.4241573
0
LINE
8
DEFAULT_255_2_778
10
106.1043979
20
79.4241573
11
106.1411979
21
79.3815573
0
LINE
8
DEFAULT_255_2_778
10
106.1411979
20
79.3815573
11
106.1736979
21
79.3323573
0
LINE
8
DEFAULT_255_2_778
10
106.2649979
20
78.9939573
11
106.2673979
21
78.9108573
0
LINE
8
DEFAULT_255_2_778
10
106.2673979
20
78.9108573
11
106.2662979
21
78.8545573
0
LINE
8
DEFAULT_255_2_778
10
106.2498979
20
78.6933573
11
106.2401979
21
78.6423573
0
LINE
8
DEFAULT_255_2_778
10
106.2401979
20
78.6423573
11
106.2281979
21
78.5925573
0
LINE
8
DEFAULT_255_2_778
10
106.2281979
20
78.5925573
11
106.2141979
21
78.5441573
0
LINE
8
DEFAULT_255_2_778
10
106.2141979
20
78.5441573
11
106.1977979
21
78.4970573
0
LINE
8
DEFAULT_255_2_778
10
106.1205979
20
78.3277573
11
106.0755979
21
78.2552573
0
LINE
8
DEFAULT_255_2_778
10
106.0755979
20
78.2552573
11
106.0265979
21
78.1906573
0
LINE
8
DEFAULT_255_2_778
10
106.0265979
20
78.1906573
11
105.9736979
21
78.1345573
0
LINE
8
DEFAULT_255_2_778
10
105.9736979
20
78.1345573
11
105.9162979
21
78.0877573
0
LINE
8
DEFAULT_255_2_778
10
105.9162979
20
78.0877573
11
105.8543979
21
78.0501573
0
LINE
8
DEFAULT_255_2_778
10
105.8543979
20
78.0501573
11
105.7881979
21
78.0216573
0
LINE
8
DEFAULT_255_2_778
10
105.7881979
20
78.0216573
11
105.7339979
21
78.0049573
0
LINE
8
DEFAULT_255_2_778
10
105.7339979
20
78.0049573
11
105.6095979
21
77.9861573
0
LINE
8
DEFAULT_255_2_778
10
105.6095979
20
77.9861573
11
105.5402979
21
77.9840573
0
ARC
8
DEFAULT_255_2_778
10
107.1404129
20
79.2090646
40
0.4284183
50
11.7566687
51
19.6254251
0
ARC
8
DEFAULT_255_2_778
10
107.0706682
20
79.1890094
40
0.5008157
50
5.2985343
51
12.3771654
0
ARC
8
DEFAULT_255_2_778
10
107.1072472
20
79.1624398
40
0.3044601
50
347.8110523
51
354.5753624
0
ARC
8
DEFAULT_255_2_778
10
107.1260844
20
79.1738661
40
0.2861565
50
6.0563091
51
9.1574344
0
ARC
8
DEFAULT_255_2_778
10
107.1487737
20
79.1774329
40
0.2631888
50
9.1769399
51
12.580262
0
LINE
8
DEFAULT_255_2_778
10
106.5306438
20
77.9840573
11
106.3676438
21
77.9840573
0
LINE
8
DEFAULT_255_2_778
10
106.3676438
20
77.9840573
11
106.6290438
21
79.5527573
0
LINE
8
DEFAULT_255_2_778
10
106.6290438
20
79.5527573
11
107.2407438
21
79.5506573
0
LINE
8
DEFAULT_255_2_778
10
107.2407438
20
79.5506573
11
107.3651438
21
79.5318573
0
LINE
8
DEFAULT_255_2_778
10
107.3651438
20
79.5318573
11
107.4093438
21
79.5151573
0
LINE
8
DEFAULT_255_2_778
10
107.4093438
20
79.5151573
11
107.4450438
21
79.4942573
0
LINE
8
DEFAULT_255_2_778
10
107.4450438
20
79.4942573
11
107.4757438
21
79.4688573
0
LINE
8
DEFAULT_255_2_778
10
107.4757438
20
79.4688573
11
107.5013438
21
79.4389573
0
LINE
8
DEFAULT_255_2_778
10
107.5013438
20
79.4389573
11
107.5220438
21
79.4045573
0
LINE
8
DEFAULT_255_2_778
10
107.5220438
20
79.4045573
11
107.5439438
21
79.3529573
0
LINE
8
DEFAULT_255_2_778
10
107.5693438
20
79.2352573
11
107.5725438
21
79.1693573
0
LINE
8
DEFAULT_255_2_778
10
107.5725438
20
79.1693573
11
107.5709438
21
79.1193573
0
LINE
8
DEFAULT_255_2_778
10
107.5709438
20
79.1193573
11
107.5659438
21
79.0720573
0
LINE
8
DEFAULT_255_2_778
10
107.5659438
20
79.0720573
11
107.5574438
21
79.0275573
0
LINE
8
DEFAULT_255_2_778
10
107.5574438
20
79.0275573
11
107.5458438
21
78.9852573
0
LINE
8
DEFAULT_255_2_778
10
107.5458438
20
78.9852573
11
107.5310438
21
78.9457573
0
LINE
8
DEFAULT_255_2_778
10
107.5310438
20
78.9457573
11
107.5125438
21
78.9092573
0
LINE
8
DEFAULT_255_2_778
10
107.5125438
20
78.9092573
11
107.4908438
21
78.8748573
0
LINE
8
DEFAULT_255_2_778
10
107.4908438
20
78.8748573
11
107.4659438
21
78.8434573
0
LINE
8
DEFAULT_255_2_778
10
107.4659438
20
78.8434573
11
107.4376438
21
78.8145573
0
LINE
8
DEFAULT_255_2_778
10
107.4376438
20
78.8145573
11
107.3712438
21
78.7648573
0
LINE
8
DEFAULT_255_2_778
10
107.3712438
20
78.7648573
11
107.2915438
21
78.7253573
0
LINE
8
DEFAULT_255_2_778
10
107.2915438
20
78.7253573
11
107.1984438
21
78.6968573
0
LINE
8
DEFAULT_255_2_778
10
107.1984438
20
78.6968573
11
107.1468438
21
78.6862573
0
LINE
8
DEFAULT_255_2_778
10
107.1468438
20
78.6862573
11
107.2055438
21
78.6214573
0
LINE
8
DEFAULT_255_2_778
10
107.2055438
20
78.6214573
11
107.2291438
21
78.5875573
0
LINE
8
DEFAULT_255_2_778
10
107.2291438
20
78.5875573
11
107.2492438
21
78.5531573
0
LINE
8
DEFAULT_255_2_778
10
107.2492438
20
78.5531573
11
107.2828438
21
78.4854573
0
LINE
8
DEFAULT_255_2_778
10
107.2828438
20
78.4854573
11
107.3130438
21
78.4174573
0
LINE
8
DEFAULT_255_2_778
10
107.3130438
20
78.4174573
11
107.3397438
21
78.3483573
0
LINE
8
DEFAULT_255_2_778
10
107.3397438
20
78.3483573
11
107.3630438
21
78.2790573
0
LINE
8
DEFAULT_255_2_778
10
107.3630438
20
78.2790573
11
107.4529438
21
77.9848573
0
LINE
8
DEFAULT_255_2_778
10
107.4529438
20
77.9848573
11
107.2857438
21
77.9848573
0
LINE
8
DEFAULT_255_2_778
10
107.2857438
20
77.9848573
11
107.1952438
21
78.2779573
0
LINE
8
DEFAULT_255_2_778
10
107.1952438
20
78.2779573
11
107.1685438
21
78.3589573
0
LINE
8
DEFAULT_255_2_778
10
107.1685438
20
78.3589573
11
107.1402438
21
78.4325573
0
LINE
8
DEFAULT_255_2_778
10
107.1402438
20
78.4325573
11
107.1100438
21
78.4986573
0
LINE
8
DEFAULT_255_2_778
10
107.1100438
20
78.4986573
11
107.0783438
21
78.5576573
0
LINE
8
DEFAULT_255_2_778
10
107.0783438
20
78.5576573
11
107.0574438
21
78.5907573
0
LINE
8
DEFAULT_255_2_778
10
107.0574438
20
78.5907573
11
107.0357438
21
78.6174573
0
LINE
8
DEFAULT_255_2_778
10
107.0357438
20
78.6174573
11
107.0137438
21
78.6383573
0
LINE
8
DEFAULT_255_2_778
10
107.0137438
20
78.6383573
11
106.9912438
21
78.6534573
0
LINE
8
DEFAULT_255_2_778
10
106.9912438
20
78.6534573
11
106.9320438
21
78.6716573
0
LINE
8
DEFAULT_255_2_778
10
106.9320438
20
78.6716573
11
106.8444438
21
78.6777573
0
LINE
8
DEFAULT_255_2_778
10
106.8444438
20
78.6777573
11
106.6454438
21
78.6777573
0
LINE
8
DEFAULT_255_2_778
10
106.6454438
20
78.6777573
11
106.5306438
21
77.9840573
0
LINE
8
DEFAULT_255_2_778
10
107.1804438
20
79.3693573
11
106.7610438
21
79.3693573
0
LINE
8
DEFAULT_255_2_778
10
106.7610438
20
79.3693573
11
106.6764438
21
78.8600573
0
LINE
8
DEFAULT_255_2_778
10
106.6764438
20
78.8600573
11
107.1756438
21
78.8738573
0
LINE
8
DEFAULT_255_2_778
10
107.1756438
20
78.8738573
11
107.2413438
21
78.8944573
0
LINE
8
DEFAULT_255_2_778
10
107.2413438
20
78.8944573
11
107.2981438
21
78.9285573
0
LINE
8
DEFAULT_255_2_778
10
107.2981438
20
78.9285573
11
107.3452438
21
78.9746573
0
LINE
8
DEFAULT_255_2_778
10
107.3452438
20
78.9746573
11
107.3648438
21
79.0018573
0
LINE
8
DEFAULT_255_2_778
10
107.3648438
20
79.0018573
11
107.3815438
21
79.0317573
0
LINE
8
DEFAULT_255_2_778
10
107.3815438
20
79.0317573
11
107.3950438
21
79.0640573
0
LINE
8
DEFAULT_255_2_778
10
107.3950438
20
79.0640573
11
107.4048438
21
79.0981573
0
LINE
8
DEFAULT_255_2_778
10
107.4103438
20
79.1336573
11
107.4122438
21
79.1709573
0
LINE
8
DEFAULT_255_2_778
10
107.4122438
20
79.1709573
11
107.4106438
21
79.2040573
0
LINE
8
DEFAULT_255_2_778
10
107.4056438
20
79.2347573
11
107.3974438
21
79.2619573
0
LINE
8
DEFAULT_255_2_778
10
107.3974438
20
79.2619573
11
107.3857438
21
79.2868573
0
LINE
8
DEFAULT_255_2_778
10
107.3857438
20
79.2868573
11
107.3720438
21
79.3085573
0
LINE
8
DEFAULT_255_2_778
10
107.3720438
20
79.3085573
11
107.3389438
21
79.3408573
0
LINE
8
DEFAULT_255_2_778
10
107.3389438
20
79.3408573
11
107.2966438
21
79.3596573
0
LINE
8
DEFAULT_255_2_778
10
107.2966438
20
79.3596573
11
107.2270438
21
79.3686573
0
LINE
8
DEFAULT_255_2_778
10
107.2270438
20
79.3686573
11
107.1804438
21
79.3693573
0
ARC
8
DEFAULT_255_2_778
10
111.7093629
20
80.5855242
40
0.3253957
50
176.1893199
51
179.9820838
0
ARC
8
DEFAULT_255_2_778
10
111.6795692
20
80.5913748
40
0.295658
50
181.1141516
51
264.0701537
0
ARC
8
DEFAULT_255_2_778
10
111.7357709
20
80.7665587
40
0.4772104
50
259.5266612
51
270.1346716
0
LINE
8
DEFAULT_255_2_778
10
111.7368926
20
80.2893497
11
111.7373867
21
80.28935
0
ARC
8
DEFAULT_255_2_778
10
111.7453382
20
80.728128
40
0.4388501
50
268.9617941
51
294.9747804
0
ARC
8
DEFAULT_255_2_778
10
111.7116556
20
80.7646203
40
0.4863869
50
296.7568141
51
320.9882986
0
ARC
8
DEFAULT_255_2_778
10
111.3947933
20
81.1962897
40
1.4419
50
311.5088438
51
329.25896
0
ARC
8
DEFAULT_255_2_778
10
111.5503779
20
81.0287202
40
1.2133158
50
301.7747228
51
311.2512089
0
ARC
8
DEFAULT_255_2_778
10
111.639719
20
80.8399054
40
1.0060283
50
275.4043769
51
303.111807
0
ARC
8
DEFAULT_255_2_778
10
111.6546139
20
80.7478273
40
0.9129774
50
270.0108395
51
275.0180154
0
LINE
8
DEFAULT_255_2_778
10
111.6547867
20
79.83485
11
111.6542396
21
79.8348498
0
ARC
8
DEFAULT_255_2_778
10
111.6467497
20
80.6571116
40
0.8222959
50
242.9990795
51
270.521883
0
ARC
8
DEFAULT_255_2_778
10
111.6186627
20
80.5861761
40
0.7463754
50
187.9587633
51
242.4479349
0
ARC
8
DEFAULT_255_2_778
10
111.7469689
20
80.6162354
40
0.87769
50
179.9346705
51
188.7424379
0
ARC
8
DEFAULT_255_2_778
10
111.82773
20
80.616389
40
0.9584509
50
172.9149552
51
179.9493576
0
ARC
8
DEFAULT_255_2_778
10
111.8938122
20
80.608913
40
1.0249509
50
169.8548724
51
172.9558628
0
ARC
8
DEFAULT_255_2_778
10
112.1312878
20
80.5291166
40
1.2732986
50
147.9900312
51
168.2023509
0
ARC
8
DEFAULT_255_2_778
10
111.0959787
20
80.837725
40
0.3690049
50
96.9095401
51
176.4381209
0
ARC
8
DEFAULT_255_2_778
10
109.0766041
20
80.9585916
40
1.1408017
50
270.2379643
51
339.8361255
0
ARC
8
DEFAULT_255_2_778
10
109.0813675
20
80.9541025
40
1.1363027
50
269.4614293
51
269.998717
0
ARC
8
DEFAULT_255_2_778
10
109.0171289
20
80.5425302
40
0.7266567
50
270.0001088
51
274.2267797
0
ARC
8
DEFAULT_255_2_778
10
109.0181676
20
80.5491287
40
0.7332558
50
227.5423258
51
269.9189434
0
ARC
8
DEFAULT_255_2_778
10
109.0321729
20
80.5641115
40
0.753764
50
181.8140852
51
227.5257013
0
ARC
8
DEFAULT_255_2_778
10
103.8082474
20
81.5434055
40
4.0528795
50
350.1337574
51
350.3802946
0
ARC
8
DEFAULT_255_2_778
10
106.7753183
20
81.0532476
40
1.0456958
50
349.6923516
51
356.6791648
0
ARC
8
DEFAULT_255_2_778
10
107.2520982
20
81.0183506
40
0.5677409
50
357.4078055
51
359.958681
0
ARC
8
DEFAULT_255_2_778
10
107.4465804
20
81.0221389
40
0.3732821
50
359.3556799
51
12.3770938
0
ARC
8
DEFAULT_255_2_778
10
107.6477154
20
81.0784805
40
0.1651759
50
8.2387695
51
81.7750541
0
ARC
8
DEFAULT_255_2_778
10
107.6027488
20
80.8997204
40
0.3490439
50
78.6660478
51
90.5190822
0
ARC
8
DEFAULT_255_2_778
10
107.5919444
20
80.9013483
40
0.3474858
50
88.7397923
51
116.7202981
0
ARC
8
DEFAULT_255_2_778
10
107.5836062
20
80.9382004
40
0.3109536
50
118.4013857
51
148.8501462
0
ARC
8
DEFAULT_255_2_778
10
107.6691216
20
80.8667588
40
0.4214337
50
146.551121
51
153.9029305
0
ARC
8
DEFAULT_255_2_778
10
107.8119866
20
80.8038361
40
0.5774477
50
154.531778
51
168.85534
0
ARC
8
DEFAULT_255_2_778
10
108.5348799
20
80.6492219
40
1.3166483
50
168.3343209
51
170.1636978
0
ARC
8
DEFAULT_255_2_778
10
105.5505794
20
81.0989095
40
1.1774843
50
348.8371217
51
350.2521912
0
ARC
8
DEFAULT_255_2_778
10
105.9755084
20
81.0294478
40
0.7469375
50
349.9847369
51
357.8651147
0
ARC
8
DEFAULT_255_2_778
10
106.1815169
20
81.01805
40
0.5406602
50
358.2588745
51
359.9851397
0
ARC
8
DEFAULT_255_2_778
10
106.2441449
20
81.0181906
40
0.4780324
50
359.9663359
51
2.7648904
0
ARC
8
DEFAULT_255_2_778
10
106.3546036
20
81.0249215
40
0.3673803
50
2.547359
51
10.9569418
0
ARC
8
DEFAULT_255_2_778
10
106.5407808
20
81.0675264
40
0.1766166
50
8.8668965
51
81.4619385
0
ARC
8
DEFAULT_255_2_778
10
106.5092397
20
80.9283632
40
0.319094
50
79.5707635
51
90.3865966
0
ARC
8
DEFAULT_255_2_778
10
106.491868
20
80.9289636
40
0.3188497
50
87.2642414
51
89.9993695
0
ARC
8
DEFAULT_255_2_778
10
106.4918834
20
80.930275
40
0.3175384
50
90.0021503
51
150.2900896
0
ARC
8
DEFAULT_255_2_778
10
106.5976871
20
80.8490934
40
0.4500313
50
147.9885432
51
155.6356968
0
ARC
8
DEFAULT_255_2_778
10
106.7777922
20
80.7753361
40
0.6445631
50
156.2678504
51
169.721042
0
ARC
8
DEFAULT_255_2_778
10
107.7221397
20
80.5889789
40
1.607077
50
169.1913835
51
170.7664212
0
ARC
8
DEFAULT_255_2_778
10
106.6389057
20
81.197258
40
0.5180035
50
124.6314623
51
144.2161058
0
ARC
8
DEFAULT_255_2_778
10
106.8386471
20
80.9440612
40
0.8401014
50
125.5763665
51
126.027099
0
ARC
8
DEFAULT_255_2_778
10
106.7330293
20
81.0969634
40
0.6542998
50
108.5297814
51
125.8437392
0
ARC
8
DEFAULT_255_2_778
10
106.7555781
20
81.0225076
40
0.7320652
50
90.6778695
51
108.3511735
0
ARC
8
DEFAULT_255_2_778
10
106.7617005
20
80.9213415
40
0.8333112
50
90.1522181
51
91.0165048
0
ARC
8
DEFAULT_255_2_778
10
106.7638254
20
81.1873854
40
0.5672812
50
74.8008006
51
90.438223
0
ARC
8
DEFAULT_255_2_778
10
106.8025446
20
81.3298079
40
0.4196893
50
46.4601814
51
74.8042172
0
ARC
8
DEFAULT_255_2_778
10
106.7902193
20
81.3193943
40
0.435732
50
37.1360519
51
46.22861
0
ARC
8
DEFAULT_255_2_778
10
106.7417046
20
81.2847218
40
0.495343
50
17.4364214
51
36.9454689
0
ARC
8
DEFAULT_255_2_778
10
108.619347
20
80.2780981
40
1.8188841
50
140.3226738
51
140.5775497
0
ARC
8
DEFAULT_255_2_778
10
107.9216467
20
80.8791521
40
0.8983103
50
127.7902614
51
141.4163747
0
ARC
8
DEFAULT_255_2_778
10
107.8396046
20
81.0150638
40
0.7408613
50
96.8973671
51
129.2171544
0
ARC
8
DEFAULT_255_2_778
10
107.8352738
20
81.0199656
40
0.7354843
50
89.9756273
51
96.6082878
0
ARC
8
DEFAULT_255_2_778
10
107.7915092
20
80.9584777
40
0.7981902
50
78.7095396
51
86.8344152
0
ARC
8
DEFAULT_255_2_778
10
107.8152911
20
81.0775399
40
0.676776
50
71.2929156
51
78.7105027
0
ARC
8
DEFAULT_255_2_778
10
107.8900661
20
81.2697783
40
0.4708001
50
40.7109268
51
72.4087208
0
ARC
8
DEFAULT_255_2_778
10
107.9355869
20
81.3189233
40
0.4043112
50
33.9211925
51
39.6392674
0
ARC
8
DEFAULT_255_2_778
10
107.686733
20
81.0775852
40
0.7480142
50
31.4501263
51
38.6288135
0
ARC
8
DEFAULT_255_2_778
10
107.9661339
20
81.2467866
40
0.4213794
50
18.1140711
51
31.645166
0
ARC
8
DEFAULT_255_2_778
10
108.0329246
20
81.2714909
40
0.3502286
50
13.5443711
51
17.6700571
0
ARC
8
DEFAULT_255_2_778
10
107.9760989
20
81.2611972
40
0.4078982
50
359.3479645
51
13.080679
0
ARC
8
DEFAULT_255_2_778
10
107.409897
20
81.2665548
40
0.974125
50
353.8867435
51
359.4118413
0
ARC
8
DEFAULT_255_2_778
10
99.1622557
20
82.107988
40
9.264566
50
353.5430054
51
354.1444924
0
ARC
8
DEFAULT_255_2_778
10
114.6547789
20
80.3820105
40
6.3238387
50
173.7896305
51
173.9289082
0
ARC
8
DEFAULT_255_2_778
10
112.5123927
20
80.6083466
40
4.1695306
50
173.9080596
51
174.5590787
0
ARC
8
DEFAULT_255_2_778
10
111.7350318
20
80.6836134
40
3.3885356
50
174.5796878
51
174.6993963
0
ARC
8
DEFAULT_255_2_778
10
109.4453973
20
80.5615272
40
1.1684512
50
91.13332
51
158.1367384
0
ARC
8
DEFAULT_255_2_778
10
109.4816468
20
81.000154
40
0.7320067
50
90.000723
51
94.6513544
0
ARC
8
DEFAULT_255_2_778
10
109.4807184
20
80.9952659
40
0.7368955
50
47.0630522
51
89.9285371
0
ARC
8
DEFAULT_255_2_778
10
109.4653288
20
80.9791338
40
0.7591894
50
0.52197
51
47.0420924
0
ARC
8
DEFAULT_255_2_778
10
111.8106238
20
80.7835943
40
1.2263749
50
141.1904128
51
144.6149117
0
ARC
8
DEFAULT_255_2_778
10
111.3750102
20
81.1297626
40
0.6699828
50
136.5892458
51
140.9109264
0
ARC
8
DEFAULT_255_2_778
10
111.2630129
20
81.2391767
40
0.513437
50
118.3456363
51
136.87004
0
ARC
8
DEFAULT_255_2_778
10
111.2720702
20
81.2132366
40
0.5405846
50
100.5577294
51
117.8851323
0
ARC
8
DEFAULT_255_2_778
10
111.3078018
20
81.0292335
40
0.7280211
50
89.7965701
51
100.6688978
0
ARC
8
DEFAULT_255_2_778
10
112.0221301
20
80.6521659
40
1.1055257
50
91.6194619
51
134.0346502
0
ARC
8
DEFAULT_255_2_778
10
112.0008213
20
80.8984382
40
0.8588692
50
67.9687244
51
90.662762
0
ARC
8
DEFAULT_255_2_778
10
112.0607755
20
81.0565901
40
0.6897862
50
36.9829636
51
67.6573617
0
ARC
8
DEFAULT_255_2_778
10
111.9864522
20
80.9984478
40
0.7841357
50
14.3016139
51
37.1096413
0
ARC
8
DEFAULT_255_2_778
10
111.9136204
20
80.9849631
40
0.8580556
50
359.7235915
51
13.9727807
0
ARC
8
DEFAULT_255_2_778
10
111.5741085
20
80.9912532
40
1.1976028
50
346.0622495
51
359.5010226
0
ARC
8
DEFAULT_255_2_778
10
111.1739322
20
81.0770064
40
1.6067063
50
344.0115669
51
346.5315822
0
ARC
8
DEFAULT_255_2_778
10
115.4254399
20
79.8138919
40
2.2495949
50
151.5073675
51
168.6439278
0
ARC
8
DEFAULT_255_2_778
10
115.2899323
20
79.867329
40
2.1050823
50
125.7295922
51
151.0261891
0
ARC
8
DEFAULT_255_2_778
10
115.6781823
20
79.3455482
40
2.7553973
50
114.4942135
51
125.9474107
0
ARC
8
DEFAULT_255_2_778
10
115.8817026
20
78.9358468
40
3.2126433
50
114.4344485
51
114.7678181
0
ARC
8
DEFAULT_255_2_778
10
114.6109318
20
80.5677403
40
1.9661638
50
121.6069485
51
160.8369787
0
ARC
8
DEFAULT_255_2_778
10
114.915233
20
80.4365228
40
2.2968022
50
160.236833
51
160.7924595
0
ARC
8
DEFAULT_255_2_778
10
103.3063431
20
80.9420462
40
0.8412233
50
295.6173343
51
348.2995266
0
ARC
8
DEFAULT_255_2_778
10
103.3472142
20
80.8597561
40
0.7493523
50
270.2018741
51
295.5198655
0
ARC
8
DEFAULT_255_2_778
10
103.3498525
20
80.8280801
40
0.7176718
50
268.8610028
51
270.0001541
0
ARC
8
DEFAULT_255_2_778
10
103.3271126
20
80.7066025
40
0.5961127
50
242.4947255
51
270.8145139
0
ARC
8
DEFAULT_255_2_778
10
103.2975873
20
80.6299556
40
0.5145763
50
185.0380333
51
241.4691973
0
ARC
8
DEFAULT_255_2_778
10
103.435483
20
80.6585153
40
0.6546513
50
179.9509951
51
186.4682571
0
ARC
8
DEFAULT_255_2_778
10
103.5111551
20
80.6579851
40
0.7303238
50
171.9542668
51
179.9144767
0
ARC
8
DEFAULT_255_2_778
10
103.5782998
20
80.6495789
40
0.7979848
50
169.4963543
51
172.0314018
0
ARC
8
DEFAULT_255_2_778
10
103.652169
20
80.6264138
40
0.8706477
50
117.6539251
51
170.4107201
0
ARC
8
DEFAULT_255_2_778
10
103.606682
20
80.7150613
40
0.7710155
50
91.3894299
51
117.7173206
0
ARC
8
DEFAULT_255_2_778
10
103.5848976
20
80.8682419
40
0.6176158
50
62.9280683
51
89.713427
0
ARC
8
DEFAULT_255_2_778
10
103.6198468
20
80.955613
40
0.5239831
50
4.540988
51
61.9829127
0
ARC
8
DEFAULT_255_2_778
10
103.4750566
20
80.9264587
40
0.670858
50
359.9559837
51
6.0442658
0
ARC
8
DEFAULT_255_2_778
10
103.3969885
20
80.9271225
40
0.7489268
50
351.8493501
51
359.9097878
0
ARC
8
DEFAULT_255_2_778
10
103.3182819
20
80.9373505
40
0.8282891
50
348.4459032
51
351.9208783
0
ARC
8
DEFAULT_255_2_778
10
101.8818001
20
81.4649609
40
0.8190925
50
33.9964817
51
83.567762
0
ARC
8
DEFAULT_255_2_778
10
101.6772445
20
80.5711583
40
1.7332561
50
80.1563777
51
87.5797318
0
ARC
8
DEFAULT_255_2_778
10
101.650005
20
80.1236552
40
2.1815262
50
87.3612798
51
88.5163965
0
ARC
8
DEFAULT_255_2_778
10
101.2902627
20
81.6094576
40
1.697911
50
269.8860741
51
284.1834646
0
ARC
8
DEFAULT_255_2_778
10
101.3933617
20
81.1930144
40
1.2689024
50
284.2775639
51
329.898702
0
ARC
8
DEFAULT_255_2_778
10
101.0270325
20
81.4498591
40
1.7150757
50
328.6130391
51
332.5988076
0
ARC
8
DEFAULT_255_2_778
10
103.2367555
20
80.5786314
40
0.6919351
50
173.2007793
51
173.3849647
0
ARC
8
DEFAULT_255_2_778
10
103.2645678
20
80.5753236
40
0.7199434
50
173.3784501
51
179.9988251
0
ARC
8
DEFAULT_255_2_778
10
103.2612145
20
80.5748695
40
0.7165902
50
179.9625115
51
223.0882069
0
ARC
8
DEFAULT_255_2_778
10
103.2447685
20
80.5590337
40
0.6937619
50
223.0609306
51
269.9470241
0
ARC
8
DEFAULT_255_2_778
10
103.2441115
20
80.5581018
40
0.6928298
50
270.0012858
51
274.2193669
0
ARC
8
DEFAULT_255_2_778
10
103.2947327
20
80.9204467
40
1.0532968
50
270.0192531
51
304.9182848
0
ARC
8
DEFAULT_255_2_778
10
103.2549903
20
80.9847417
40
1.1287736
50
304.7043138
51
349.1234746
0
ARC
8
DEFAULT_255_2_778
10
103.3958727
20
80.9498895
40
0.9838752
50
349.568545
51
357.599932
0
ARC
8
DEFAULT_255_2_778
10
103.4573659
20
80.9462939
40
0.9222859
50
357.66313
51
359.9939649
0
ARC
8
DEFAULT_255_2_778
10
103.6139091
20
80.9583
40
0.7658384
50
359.0944636
51
32.3195982
0
ARC
8
DEFAULT_255_2_778
10
103.704571
20
81.0025746
40
0.6656426
50
33.271306
51
71.6801484
0
ARC
8
DEFAULT_255_2_778
10
103.6357182
20
80.802129
40
0.8775741
50
71.5261467
51
89.9799935
0
ARC
8
DEFAULT_255_2_778
10
103.6261226
20
80.6277325
40
1.0520173
50
89.460704
51
90.0019595
0
ARC
8
DEFAULT_255_2_778
10
103.639209
20
80.5967852
40
1.0830442
50
90.6942207
51
150.7035273
0
ARC
8
DEFAULT_255_2_778
10
101.6944319
20
81.3683954
40
1.0290297
50
346.4184888
51
356.8901958
0
ARC
8
DEFAULT_255_2_778
10
101.694294
20
81.3684038
40
1.0291678
50
356.8901457
51
0.0003229
0
ARC
8
DEFAULT_255_2_778
10
101.6982838
20
81.368958
40
1.0251783
50
359.969349
51
32.7099116
0
ARC
8
DEFAULT_255_2_778
10
112.7828391
20
80.0346975
40
0.3591597
50
179.640675
51
269.5290011
0
ARC
8
DEFAULT_255_2_778
10
112.7825804
20
80.0394576
40
0.3589025
50
90.4300362
51
180.4003229
0
ARC
8
DEFAULT_255_2_778
10
112.777755
20
80.0401106
40
0.3582457
50
359.4944998
51
89.6590713
0
ARC
8
DEFAULT_255_2_778
10
112.7775615
20
80.0339799
40
0.3584374
50
270.3716713
51
0.4747736
0
ARC
8
DEFAULT_255_2_778
10
109.3873364
20
80.6917298
40
0.5710198
50
119.9719338
51
169.6061051
0
ARC
8
DEFAULT_255_2_778
10
109.3366287
20
80.7826495
40
0.4669288
50
90.630979
51
120.1553468
0
ARC
8
DEFAULT_255_2_778
10
109.3342936
20
80.8968955
40
0.3526656
50
4.830796
51
90.4560432
0
ARC
8
DEFAULT_255_2_778
10
109.2427961
20
80.8771627
40
0.4456604
50
359.9535406
51
6.3682605
0
ARC
8
DEFAULT_255_2_778
10
109.1861101
20
80.8778815
40
0.5023475
50
350.331786
51
359.8768101
0
ARC
8
DEFAULT_255_2_778
10
109.1337482
20
80.8856445
40
0.5552706
50
348.353446
51
350.4495167
0
ARC
8
DEFAULT_255_2_778
10
109.1306327
20
80.8881992
40
0.5588409
50
297.6559047
51
348.1614056
0
ARC
8
DEFAULT_255_2_778
10
109.1738487
20
80.8032695
40
0.4635565
50
271.6155036
51
297.7970973
0
ARC
8
DEFAULT_255_2_778
10
109.179195
20
80.7494338
40
0.4096092
50
270.000064
51
271.0802565
0
ARC
8
DEFAULT_255_2_778
10
109.1791788
20
80.7466375
40
0.4068128
50
268.5784723
51
270.0023518
0
ARC
8
DEFAULT_255_2_778
10
109.1682783
20
80.630337
40
0.2903882
50
269.9469021
51
270.1595021
0
ARC
8
DEFAULT_255_2_778
10
109.158923
20
80.6818531
40
0.3420252
50
185.0352717
51
271.5222911
0
ARC
8
DEFAULT_255_2_778
10
109.2584087
20
80.7053552
40
0.4434328
50
179.9445438
51
186.9323756
0
ARC
8
DEFAULT_255_2_778
10
109.3147475
20
80.7048274
40
0.4997724
50
170.8418367
51
179.8902832
0
ARC
8
DEFAULT_255_2_778
10
109.3579818
20
80.698908
40
0.5433987
50
170.2160118
51
170.9512027
0
ARC
8
DEFAULT_255_2_778
10
112.1178527
20
81.0233194
40
0.1411323
50
357.8602474
51
0.0193558
0
ARC
8
DEFAULT_255_2_778
10
112.0397199
20
81.0199456
40
0.2192917
50
0.8940042
51
16.1230544
0
ARC
8
DEFAULT_255_2_778
10
111.9724648
20
81.0029513
40
0.2886305
50
15.656368
51
28.8982845
0
ARC
8
DEFAULT_255_2_778
10
111.9687475
20
81.0014332
40
0.292619
50
28.8067653
51
57.5225912
0
ARC
8
DEFAULT_255_2_778
10
111.9417985
20
80.9543425
40
0.3468249
50
57.9441586
51
80.3688406
0
ARC
8
DEFAULT_255_2_778
10
111.9149427
20
80.8181389
40
0.4856159
50
79.93351
51
90.2543893
0
ARC
8
DEFAULT_255_2_778
10
111.9098988
20
80.797836
40
0.5059222
50
89.6729522
51
109.7823777
0
ARC
8
DEFAULT_255_2_778
10
111.9049366
20
80.8184955
40
0.4848082
50
110.0568946
51
131.030402
0
ARC
8
DEFAULT_255_2_778
10
111.9139914
20
80.8068041
40
0.4995725
50
130.9335601
51
137.8574597
0
ARC
8
DEFAULT_255_2_778
10
111.8865542
20
80.8301775
40
0.4635467
50
137.7241077
51
148.3018636
0
ARC
8
DEFAULT_255_2_778
10
111.7538184
20
80.9103948
40
0.3084653
50
148.0243407
51
158.4975233
0
ARC
8
DEFAULT_255_2_778
10
111.6391814
20
80.9579164
40
0.1844011
50
159.1795583
51
161.2303978
0
ARC
8
DEFAULT_255_2_778
10
101.082293
20
81.34533
40
1.3622668
50
331.6228687
51
350.2508177
0
ARC
8
DEFAULT_255_2_778
10
101.4145233
20
81.16102
40
0.9823695
50
279.7968418
51
331.8715003
0
ARC
8
DEFAULT_255_2_778
10
101.3486416
20
81.4551089
40
1.2834663
50
269.8055904
51
280.4611316
0
ARC
8
DEFAULT_255_2_778
10
101.7006462
20
80.9484676
40
1.1226274
50
77.6613942
51
90.5134202
0
ARC
8
DEFAULT_255_2_778
10
101.7934844
20
81.3588774
40
0.7018654
50
56.5938603
51
77.9057935
0
ARC
8
DEFAULT_255_2_778
10
101.8595879
20
81.4694125
40
0.5732253
50
35.8893819
51
56.0266298
0
ARC
8
DEFAULT_255_2_778
10
101.7613732
20
81.4188703
40
0.6826256
50
6.995693
51
34.4935039
0
ARC
8
DEFAULT_255_2_778
10
101.4468667
20
81.3637678
40
1.0016359
50
359.8423152
51
7.9331135
0
ARC
8
DEFAULT_255_2_778
10
101.1410574
20
81.3657987
40
1.3074503
50
351.4109975
51
359.7902002
0
ARC
8
DEFAULT_255_2_778
10
100.8843252
20
81.3995333
40
1.5663492
50
349.5283149
51
351.5933632
0
LINE
8
DEFAULT_255_2_778
10
105.5392867
20
80.49575
11
104.2287867
21
79.95095
0
LINE
8
DEFAULT_255_2_778
10
104.2287867
20
79.95095
11
104.6012867
21
80.74925
0
LINE
8
DEFAULT_255_2_778
10
104.6012867
20
80.74925
11
104.3634867
21
81.61095
0
LINE
8
DEFAULT_255_2_778
10
104.3634867
20
81.61095
11
105.5995867
21
80.82755
0
LINE
8
DEFAULT_255_2_778
10
112.7181867
20
80.63415
11
112.7107867
21
80.60845
0
LINE
8
DEFAULT_255_2_778
10
112.7107867
20
80.60845
11
111.3846867
21
80.60715
0
LINE
8
DEFAULT_255_2_778
10
112.0895867
20
80.45845
11
112.6340867
21
80.45925
0
LINE
8
DEFAULT_255_2_778
10
110.7276867
20
80.86065
11
110.5522867
21
79.89225
0
LINE
8
DEFAULT_255_2_778
10
110.5522867
20
79.89225
11
110.0207867
21
79.87315
0
LINE
8
DEFAULT_255_2_778
10
110.0207867
20
79.87315
11
110.1474867
21
80.56535
0
LINE
8
DEFAULT_255_2_778
10
108.2787867
20
80.54025
11
108.1572867
21
79.89035
0
LINE
8
DEFAULT_255_2_778
10
108.1572867
20
79.89035
11
107.6254867
21
79.89035
0
LINE
8
DEFAULT_255_2_778
10
107.6254867
20
79.89035
11
107.8011867
21
80.84895
0
LINE
8
DEFAULT_255_2_778
10
107.2375867
20
80.87415
11
107.0589867
21
79.88985
0
LINE
8
DEFAULT_255_2_778
10
107.0589867
20
79.88985
11
106.5271867
21
79.88885
0
LINE
8
DEFAULT_255_2_778
10
106.5271867
20
79.88885
11
106.7057867
21
80.87095
0
LINE
8
DEFAULT_255_2_778
10
106.1358867
20
80.84685
11
105.9606867
21
79.88825
0
LINE
8
DEFAULT_255_2_778
10
105.9606867
20
79.88825
11
105.4288867
21
79.88825
0
LINE
8
DEFAULT_255_2_778
10
105.4288867
20
79.88825
11
105.5394867
21
80.49605
0
LINE
8
DEFAULT_255_2_778
10
105.5394867
20
80.49605
11
105.8921867
21
80.64265
0
LINE
8
DEFAULT_255_2_778
10
105.8921867
20
80.64265
11
105.6000867
21
80.82785
0
LINE
8
DEFAULT_255_2_778
10
105.6000867
20
80.82785
11
105.7572867
21
81.69165
0
LINE
8
DEFAULT_255_2_778
10
105.7572867
20
81.69165
11
106.2533867
21
81.69225
0
LINE
8
DEFAULT_255_2_778
10
106.2533867
20
81.69225
11
106.2186867
21
81.50015
0
LINE
8
DEFAULT_255_2_778
10
110.2244867
20
80.98605
11
110.3498867
21
81.67135
0
LINE
8
DEFAULT_255_2_778
10
110.3498867
20
81.67135
11
110.8491867
21
81.69515
0
LINE
8
DEFAULT_255_2_778
10
110.8491867
20
81.69515
11
110.8107867
21
81.49375
0
LINE
8
DEFAULT_255_2_778
10
111.3103867
20
81.75725
11
111.2536867
21
81.44695
0
LINE
8
DEFAULT_255_2_778
10
112.7184867
20
80.63445
11
113.2198867
21
80.25685
0
LINE
8
DEFAULT_255_2_778
10
114.5527867
20
81.86075
11
113.6756867
21
82.24225
0
LINE
8
DEFAULT_255_2_778
10
113.6756867
20
82.24225
11
113.5804867
21
82.24225
0
LINE
8
DEFAULT_255_2_778
10
113.2325867
20
80.07695
11
113.2838867
21
80.07695
0
LINE
8
DEFAULT_255_2_778
10
113.2838867
20
80.07695
11
113.2838867
21
79.88615
0
LINE
8
DEFAULT_255_2_778
10
113.2838867
20
79.88615
11
113.3076867
21
79.88615
0
LINE
8
DEFAULT_255_2_778
10
113.3076867
20
79.88615
11
113.3076867
21
80.07695
0
LINE
8
DEFAULT_255_2_778
10
113.3076867
20
80.07695
11
113.3589867
21
80.07695
0
LINE
8
DEFAULT_255_2_778
10
113.3589867
20
80.07695
11
113.3589867
21
80.09805
0
LINE
8
DEFAULT_255_2_778
10
113.3589867
20
80.09805
11
113.2325867
21
80.09805
0
LINE
8
DEFAULT_255_2_778
10
113.2325867
20
80.09805
11
113.2325867
21
80.07695
0
LINE
8
DEFAULT_255_2_778
10
113.5545867
20
80.09805
11
113.4777867
21
79.92085
0
LINE
8
DEFAULT_255_2_778
10
113.4777867
20
79.92085
11
113.4002867
21
80.09805
0
LINE
8
DEFAULT_255_2_778
10
113.4002867
20
80.09805
11
113.3679867
21
80.09805
0
LINE
8
DEFAULT_255_2_778
10
113.3679867
20
80.09805
11
113.3679867
21
79.88615
0
LINE
8
DEFAULT_255_2_778
10
113.3679867
20
79.88615
11
113.3880867
21
79.88615
0
LINE
8
DEFAULT_255_2_778
10
113.3880867
20
79.88615
11
113.3885867
21
80.07455
0
LINE
8
DEFAULT_255_2_778
10
113.3885867
20
80.07455
11
113.4698867
21
79.88615
0
LINE
8
DEFAULT_255_2_778
10
113.4698867
20
79.88615
11
113.4849867
21
79.88615
0
LINE
8
DEFAULT_255_2_778
10
113.4849867
20
79.88615
11
113.5658867
21
80.07455
0
LINE
8
DEFAULT_255_2_778
10
113.5658867
20
80.07455
11
113.5873867
21
80.09805
0
LINE
8
DEFAULT_255_2_778
10
113.5873867
20
80.09805
11
113.5873867
21
79.88615
0
LINE
8
DEFAULT_255_2_778
10
113.5873867
20
79.88615
11
113.5653867
21
79.88615
0
LINE
8
DEFAULT_255_2_778
10
113.5653867
20
79.88615
11
113.5658867
21
80.07455
0
LINE
8
DEFAULT_255_2_778
10
102.7936867
20
80.79505
11
102.7936867
21
80.77145
0
LINE
8
DEFAULT_255_2_778
10
104.1297867
20
80.77145
11
104.1300867
21
80.77145
0
LINE
8
DEFAULT_255_2_778
10
101.7064867
20
82.30445
11
101.0092867
21
82.30445
0
LINE
8
DEFAULT_255_2_778
10
101.0092867
20
82.30445
11
100.5777867
21
79.91155
0
LINE
8
DEFAULT_255_2_778
10
100.5777867
20
79.91155
11
101.2868867
21
79.91155
0
LINE
8
DEFAULT_255_2_778
10
102.5608867
20
81.92295
11
102.5608867
21
81.92295
0
LINE
8
DEFAULT_255_2_778
10
112.7798867
20
79.67555
11
112.7798867
21
79.67555
0
LINE
8
DEFAULT_255_2_778
10
108.8224867
20
80.79125
11
108.8256867
21
80.79475
0
LINE
8
DEFAULT_255_2_778
10
111.4645867
20
81.01725
11
112.2588867
21
81.01805
0
LINE
8
DEFAULT_255_2_778
10
113.5661867
20
80.07485
11
113.5656867
21
79.88645
0
LINE
8
DEFAULT_255_2_778
10
113.5656867
20
79.88645
11
113.5875867
21
79.88645
0
LINE
8
DEFAULT_255_2_778
10
113.5875867
20
79.88645
11
113.5875867
21
80.09835
0
LINE
8
DEFAULT_255_2_778
10
113.5875867
20
80.09835
11
113.5661867
21
80.07485
0
LINE
8
DEFAULT_255_2_778
10
101.3442867
20
80.17165
11
100.8804867
21
80.17165
0
LINE
8
DEFAULT_255_2_778
10
100.8804867
20
80.17165
11
101.2273867
21
82.07105
0
LINE
8
DEFAULT_255_2_778
10
101.2273867
20
82.07105
11
101.6905867
21
82.07105
0
LINE
8
DEFAULT_255_2_778
10
102.4245867
20
81.11485
11
102.4248867
21
81.11465
0
ARC
8
DEFAULT_255_2_778
10
116.9436842
20
80.1248978
40
0.2494849
50
359.9750642
51
70.0351824
0
ARC
8
DEFAULT_255_2_778
10
116.0898021
20
80.9822625
40
0.264425
50
182.1832138
51
247.7713329
0
ARC
8
DEFAULT_255_2_778
10
116.074857
20
82.3364717
40
0.2492882
50
109.9575273
51
180.0879183
0
ARC
8
DEFAULT_255_2_778
10
99.0299181
20
62.3605408
40
0.2242638
50
26.0675565
51
72.4695976
0
ARC
8
DEFAULT_255_2_778
10
99.0297482
20
65.4484498
40
0.2244221
50
287.5631575
51
333.9487105
0
ARC
8
DEFAULT_255_2_778
10
98.3957159
20
64.7725227
40
0.17222
50
99.8788028
51
161.6331559
0
ARC
8
DEFAULT_255_2_778
10
98.3955851
20
63.0360039
40
0.172048
50
198.3325921
51
260.1554461
0
ARC
8
DEFAULT_255_2_778
10
99.0299771
20
58.8631945
40
0.2240995
50
26.0159166
51
72.4721288
0
ARC
8
DEFAULT_255_2_778
10
99.0301477
20
61.950871
40
0.2239405
50
287.4949345
51
333.967896
0
ARC
8
DEFAULT_255_2_778
10
98.3955852
20
61.2753744
40
0.1720482
50
99.8445683
51
161.6673689
0
ARC
8
DEFAULT_255_2_778
10
98.3957155
20
59.5388552
40
0.1722194
50
198.3667349
51
260.121322
0
ARC
8
DEFAULT_255_2_778
10
99.0297477
20
55.3654286
40
0.2244223
50
26.051235
51
72.4367238
0
ARC
8
DEFAULT_255_2_778
10
99.0301477
20
58.453071
40
0.2239405
50
287.4949345
51
333.967896
0
ARC
8
DEFAULT_255_2_778
10
98.3955904
20
57.7775212
40
0.1721015
50
99.8432734
51
161.6195211
0
ARC
8
DEFAULT_255_2_778
10
98.3954601
20
56.0409057
40
0.17193
50
198.3462756
51
260.1908867
0
LINE
8
DEFAULT_255_2_778
10
116.9438691
20
81.4894892
11
115.8373691
21
81.4894892
0
LINE
8
DEFAULT_255_2_778
10
115.8373691
20
81.4894892
11
115.8373691
21
81.8251892
0
LINE
8
DEFAULT_255_2_778
10
115.8373691
20
81.8251892
11
117.1936691
21
81.8251892
0
LINE
8
DEFAULT_255_2_778
10
117.1936691
20
81.8251892
11
117.1936691
21
81.4894892
0
LINE
8
DEFAULT_255_2_778
10
117.1936691
20
81.4894892
11
116.9438691
21
81.4894892
0
LINE
8
DEFAULT_255_2_778
10
117.1261691
20
83.0139892
11
117.1370691
21
82.7337892
0
LINE
8
DEFAULT_255_2_778
10
117.1370691
20
82.7337892
11
117.1968691
21
82.4839892
0
LINE
8
DEFAULT_255_2_778
10
117.1968691
20
80.8306892
11
117.1370691
21
80.5805892
0
LINE
8
DEFAULT_255_2_778
10
117.1370691
20
80.5805892
11
117.1259691
21
80.2953892
0
LINE
8
DEFAULT_255_2_778
10
117.0288691
20
80.3593892
11
115.9897691
21
80.7374892
0
LINE
8
DEFAULT_255_2_778
10
115.8255691
20
80.9721892
11
115.8255691
21
82.3360892
0
LINE
8
DEFAULT_255_2_778
10
115.9897691
20
82.5707892
11
117.0288691
21
82.9491892
0
LINE
8
DEFAULT_255_2_778
10
98.2322691
20
64.8267892
11
98.2322691
21
62.9818892
0
LINE
8
DEFAULT_255_2_778
10
95.3848691
20
64.8034892
11
95.3848691
21
63.0048892
0
LINE
8
DEFAULT_255_2_778
10
98.2322691
20
63.0048892
11
95.3848691
21
63.0048892
0
LINE
8
DEFAULT_255_2_778
10
95.3848691
20
63.0048892
11
95.1575691
21
62.4052892
0
LINE
8
DEFAULT_255_2_778
10
98.3661691
20
62.8664892
11
98.3661691
21
64.9418892
0
LINE
8
DEFAULT_255_2_778
10
98.3661691
20
64.9418892
11
99.0974691
21
65.2342892
0
LINE
8
DEFAULT_255_2_778
10
99.0974691
20
65.2342892
11
99.0974691
21
62.5738892
0
LINE
8
DEFAULT_255_2_778
10
99.0974691
20
62.5738892
11
98.3661691
21
62.8664892
0
LINE
8
DEFAULT_255_2_778
10
98.2322691
20
64.8034892
11
95.3848691
21
64.8034892
0
LINE
8
DEFAULT_255_2_778
10
95.3848691
20
64.8034892
11
95.1575691
21
65.4030892
0
LINE
8
DEFAULT_255_2_778
10
99.2316691
20
65.4030892
11
95.1575691
21
65.4030892
0
LINE
8
DEFAULT_255_2_778
10
95.1575691
20
65.4030892
11
95.1575691
21
62.4050892
0
LINE
8
DEFAULT_255_2_778
10
95.1575691
20
62.4050892
11
99.2316691
21
62.4050892
0
LINE
8
DEFAULT_255_2_778
10
99.2316691
20
62.4050892
11
99.2316691
21
65.4030892
0
LINE
8
DEFAULT_255_2_778
10
98.2322691
20
61.3294892
11
98.2322691
21
59.4845892
0
LINE
8
DEFAULT_255_2_778
10
95.3848691
20
61.3062892
11
95.3848691
21
59.5075892
0
LINE
8
DEFAULT_255_2_778
10
98.3661691
20
59.3691892
11
98.3661691
21
61.4445892
0
LINE
8
DEFAULT_255_2_778
10
98.3661691
20
61.4445892
11
99.0974691
21
61.7369892
0
LINE
8
DEFAULT_255_2_778
10
99.0974691
20
61.7369892
11
99.0974691
21
59.0765892
0
LINE
8
DEFAULT_255_2_778
10
99.0974691
20
59.0765892
11
98.3661691
21
59.3691892
0
LINE
8
DEFAULT_255_2_778
10
98.2322691
20
61.3062892
11
95.3848691
21
61.3062892
0
LINE
8
DEFAULT_255_2_778
10
95.3848691
20
61.3062892
11
95.1575691
21
61.9057892
0
LINE
8
DEFAULT_255_2_778
10
95.1575691
20
58.9077892
11
99.2316691
21
58.9077892
0
LINE
8
DEFAULT_255_2_778
10
99.2316691
20
58.9077892
11
99.2316691
21
61.9057892
0
LINE
8
DEFAULT_255_2_778
10
99.2316691
20
61.9057892
11
95.1575691
21
61.9057892
0
LINE
8
DEFAULT_255_2_778
10
95.1575691
20
61.9057892
11
95.1575691
21
58.9077892
0
LINE
8
DEFAULT_255_2_778
10
95.1575691
20
58.9077892
11
95.3848691
21
59.5073892
0
LINE
8
DEFAULT_255_2_778
10
95.3848691
20
59.5073892
11
98.2322691
21
59.5073892
0
LINE
8
DEFAULT_255_2_778
10
98.2322691
20
57.8317892
11
98.2322691
21
55.9867892
0
LINE
8
DEFAULT_255_2_778
10
95.3848691
20
57.8084892
11
95.3848691
21
56.0097892
0
LINE
8
DEFAULT_255_2_778
10
98.3661691
20
55.8714892
11
98.3661691
21
57.9467892
0
LINE
8
DEFAULT_255_2_778
10
98.3661691
20
57.9467892
11
99.0974691
21
58.2391892
0
LINE
8
DEFAULT_255_2_778
10
99.0974691
20
58.2391892
11
99.0974691
21
55.5787892
0
LINE
8
DEFAULT_255_2_778
10
99.0974691
20
55.5787892
11
98.3661691
21
55.8714892
0
LINE
8
DEFAULT_255_2_778
10
98.2322691
20
57.8084892
11
95.3848691
21
57.8084892
0
LINE
8
DEFAULT_255_2_778
10
95.3848691
20
57.8084892
11
95.1575691
21
58.4079892
0
LINE
8
DEFAULT_255_2_778
10
95.1575691
20
55.4099892
11
99.2316691
21
55.4099892
0
LINE
8
DEFAULT_255_2_778
10
99.2316691
20
55.4099892
11
99.2316691
21
58.4079892
0
LINE
8
DEFAULT_255_2_778
10
99.2316691
20
58.4079892
11
95.1575691
21
58.4079892
0
LINE
8
DEFAULT_255_2_778
10
95.1575691
20
58.4079892
11
95.1575691
21
55.4099892
0
LINE
8
DEFAULT_255_2_778
10
95.1575691
20
55.4099892
11
95.3848691
21
56.0095892
0
LINE
8
DEFAULT_255_2_778
10
95.3848691
20
56.0095892
11
98.2322691
21
56.0095892
0
ARC
8
DEFAULT_255_2_778
10
114.4032434
20
94.4080718
40
0.9965279
50
359.970611
51
41.9854906
0
ARC
8
DEFAULT_255_2_778
10
114.4007408
20
94.4091982
40
0.9976376
50
41.8412552
51
88.320848
0
ARC
8
DEFAULT_255_2_778
10
114.3995911
20
94.3890169
40
1.0178443
50
88.2894485
51
89.9392018
0
ARC
8
DEFAULT_255_2_778
10
92.6741815
20
94.407593
40
0.9992676
50
90.0005934
51
134.9936231
0
ARC
8
DEFAULT_255_2_778
10
92.6755741
20
94.4072389
40
1.000503
50
135.0356857
51
179.9815787
0
ARC
8
DEFAULT_255_2_778
10
114.4009452
20
94.3935264
40
0.7114262
50
359.9544303
51
0.0151894
0
ARC
8
DEFAULT_255_2_778
10
114.3634877
20
94.3937624
40
0.7488838
50
359.9963772
51
44.995391
0
ARC
8
DEFAULT_255_2_778
10
114.3635968
20
94.3937348
40
0.7488262
50
45.0027847
51
89.9978294
0
LINE
8
DEFAULT_255_2_778
10
114.3636252
20
95.142561
11
114.3628712
21
95.1425606
0
ARC
8
DEFAULT_255_2_778
10
92.7114482
20
94.3932441
40
0.7493165
50
89.9982437
51
135.014087
0
ARC
8
DEFAULT_255_2_778
10
92.7117829
20
94.3927368
40
0.7499119
50
135.0047508
51
179.9828991
0
LINE
8
DEFAULT_255_2_778
10
104.7264712
20
65.6531606
11
104.7264712
21
55.1605606
0
LINE
8
DEFAULT_255_2_778
10
94.4354712
20
65.6531606
11
94.4354712
21
55.1605606
0
LINE
8
DEFAULT_255_2_778
10
100.1306712
20
55.1605606
11
104.3769712
21
55.1605606
0
LINE
8
DEFAULT_255_2_778
10
104.3769712
20
55.1605606
11
104.3769712
21
65.6531606
0
LINE
8
DEFAULT_255_2_778
10
104.3769712
20
65.6531606
11
100.1306712
21
65.6531606
0
LINE
8
DEFAULT_255_2_778
10
100.1306712
20
65.6531606
11
100.1306712
21
55.1605606
0
LINE
8
DEFAULT_255_2_778
10
100.1306712
20
55.1605606
11
94.7852712
21
55.1605606
0
LINE
8
DEFAULT_255_2_778
10
94.7852712
20
55.1605606
11
94.7852712
21
65.6531606
0
LINE
8
DEFAULT_255_2_778
10
94.7852712
20
65.6531606
11
99.6310712
21
65.6531606
0
LINE
8
DEFAULT_255_2_778
10
99.6310712
20
65.6531606
11
99.6310712
21
55.1605606
0
LINE
8
DEFAULT_255_2_778
10
97.3630712
20
54.7607606
11
97.3630712
21
54.0455606
0
LINE
8
DEFAULT_255_2_778
10
97.3630712
20
66.9366606
11
97.3630712
21
66.0529606
0
LINE
8
DEFAULT_255_2_778
10
100.5602712
20
66.6357606
11
104.6798712
21
66.6357606
0
LINE
8
DEFAULT_255_2_778
10
98.0224712
20
54.7607606
11
98.0224712
21
54.0455606
0
LINE
8
DEFAULT_255_2_778
10
98.0224712
20
66.9366606
11
98.0224712
21
66.0529606
0
LINE
8
DEFAULT_255_2_778
10
100.5602712
20
54.7607606
11
100.5602712
21
54.0455606
0
LINE
8
DEFAULT_255_2_778
10
100.5602712
20
66.9366606
11
100.5602712
21
66.0529606
0
LINE
8
DEFAULT_255_2_778
10
104.3570712
20
65.6531606
11
104.3570712
21
66.0529606
0
LINE
8
DEFAULT_255_2_778
10
104.3570712
20
66.0529606
11
97.3630712
21
66.0529606
0
LINE
8
DEFAULT_255_2_778
10
97.3630712
20
66.0529606
11
97.3630712
21
65.6531606
0
LINE
8
DEFAULT_255_2_778
10
97.3630712
20
55.1605606
11
97.3630712
21
54.7607606
0
LINE
8
DEFAULT_255_2_778
10
97.3630712
20
54.7607606
11
104.3570712
21
54.7607606
0
LINE
8
DEFAULT_255_2_778
10
104.3570712
20
54.7607606
11
104.3570712
21
55.1605606
0
LINE
8
DEFAULT_255_2_778
10
104.4269712
20
65.6531606
11
104.3769712
21
65.6531606
0
LINE
8
DEFAULT_255_2_778
10
104.3769712
20
55.1605606
11
105.1262712
21
55.1605606
0
LINE
8
DEFAULT_255_2_778
10
105.1262712
20
55.1605606
11
105.1262712
21
65.6531606
0
LINE
8
DEFAULT_255_2_778
10
105.1262712
20
65.6531606
11
104.4269712
21
65.6531606
0
LINE
8
DEFAULT_255_2_778
10
104.4269712
20
65.6531606
11
104.4269712
21
55.1605606
0
LINE
8
DEFAULT_255_2_778
10
94.7852712
20
65.6531606
11
94.0359712
21
65.6531606
0
LINE
8
DEFAULT_255_2_778
10
94.0359712
20
65.6531606
11
94.0359712
21
55.1605606
0
LINE
8
DEFAULT_255_2_778
10
94.0359712
20
55.1605606
11
94.7352712
21
55.1605606
0
LINE
8
DEFAULT_255_2_778
10
104.6798712
20
65.6531606
11
104.6798712
21
66.9366606
0
LINE
8
DEFAULT_255_2_778
10
104.6798712
20
66.9366606
11
97.1860712
21
66.9366606
0
LINE
8
DEFAULT_255_2_778
10
97.1860712
20
66.9366606
11
97.1860712
21
65.6531606
0
LINE
8
DEFAULT_255_2_778
10
97.1860712
20
55.1605606
11
97.1860712
21
54.0455606
0
LINE
8
DEFAULT_255_2_778
10
97.1860712
20
54.0455606
11
104.6795712
21
54.0455606
0
LINE
8
DEFAULT_255_2_778
10
104.6795712
20
54.0455606
11
104.6795712
21
55.1605606
0
LINE
8
DEFAULT_255_2_778
10
105.5532712
20
34.3439606
11
115.3997712
21
34.3439606
0
LINE
8
DEFAULT_255_2_778
10
115.3997712
20
34.3439606
11
115.3997712
21
94.4075606
0
LINE
8
DEFAULT_255_2_778
10
114.4006712
20
95.4068606
11
92.6741712
21
95.4068606
0
LINE
8
DEFAULT_255_2_778
10
91.6750712
20
94.4075606
11
91.6750712
21
34.3439606
0
LINE
8
DEFAULT_255_2_778
10
91.6750712
20
34.3439606
11
100.8973712
21
34.3439606
0
LINE
8
DEFAULT_255_2_778
10
105.5151712
20
34.6545606
11
115.1123712
21
34.6545606
0
LINE
8
DEFAULT_255_2_778
10
115.1123712
20
34.6545606
11
115.1123712
21
94.3929606
0
LINE
8
DEFAULT_255_2_778
10
114.3628712
20
95.1425606
11
92.7114712
21
95.1425606
0
LINE
8
DEFAULT_255_2_778
10
91.9618712
20
94.3929606
11
91.9618712
21
34.6545606
0
LINE
8
DEFAULT_255_2_778
10
91.9618712
20
34.6545606
11
100.9349712
21
34.6545606
0
ARC
8
DEFAULT_255_2_778
10
0.4906746
20
80.1247035
40
0.2498094
50
110.016981
51
179.9957003
0
ARC
8
DEFAULT_255_2_778
10
0.4903823
20
83.1842363
40
0.2495172
50
179.9573203
51
250.0299968
0
ARC
8
DEFAULT_255_2_778
10
1.3588948
20
82.3367007
40
0.2496705
50
359.9819777
51
70.0053551
0
ARC
8
DEFAULT_255_2_778
10
1.3438115
20
80.9832025
40
0.264961
50
292.2795754
51
357.7331267
0
ARC
8
DEFAULT_255_2_778
10
108.8614518
20
100.286865
40
0.596223
50
276.8695116
51
333.7885532
0
ARC
8
DEFAULT_255_2_778
10
107.5539635
20
100.1810616
40
0.4862275
50
198.9052156
51
270.0010452
0
ARC
8
DEFAULT_255_2_778
10
107.5539649
20
100.186332
40
0.4914979
50
270.000876
51
271.0842373
0
ARC
8
DEFAULT_255_2_778
10
114.4512678
20
94.3997572
40
2.7473149
50
3.4633411
51
24.9866399
0
ARC
8
DEFAULT_255_2_778
10
114.4428083
20
94.3945815
40
2.7571693
50
25.0098721
51
76.2680081
0
ARC
8
DEFAULT_255_2_778
10
114.4444789
20
94.3857971
40
2.7653085
50
76.3448371
51
85.6179863
0
ARC
8
DEFAULT_255_2_778
10
92.2542893
20
94.6166461
40
2.5264079
50
89.7125249
51
89.9990558
0
ARC
8
DEFAULT_255_2_778
10
92.254355
20
94.6345588
40
2.5084952
50
90.0005514
51
135.4187374
0
ARC
8
DEFAULT_255_2_778
10
92.2544388
20
94.6348265
40
2.5083671
50
135.4244353
51
179.9942902
0
ARC
8
DEFAULT_255_2_778
10
92.2563591
20
94.6350807
40
2.5102872
50
180.0000968
51
181.1357808
0
ARC
8
DEFAULT_255_2_778
10
91.8857599
20
96.3458793
40
2.5315951
50
159.1840344
51
180.0307141
0
ARC
8
DEFAULT_255_2_778
10
91.8938761
20
96.3397014
40
2.5413786
50
100.7286057
51
159.1188698
0
ARC
8
DEFAULT_255_2_778
10
91.8902212
20
96.329225
40
2.5509975
50
89.9736378
51
100.6041481
0
LINE
8
DEFAULT_255_2_778
10
91.8913949
20
98.8802222
11
91.8917652
21
98.8802222
0
ARC
8
DEFAULT_255_2_778
10
95.4654469
20
101.121504
40
0.0500182
50
0.0208901
51
89.9791099
0
ARC
8
DEFAULT_255_2_778
10
95.27816
20
99.7505634
40
1.4332505
50
82.490789
51
89.767964
0
ARC
8
DEFAULT_255_2_778
10
95.2785426
20
99.7973558
40
1.3864571
50
89.7759435
51
90.0020936
0
ARC
8
DEFAULT_255_2_778
10
95.2784477
20
99.7703792
40
1.4134336
50
89.9982086
51
92.5417712
0
ARC
8
DEFAULT_255_2_778
10
95.29021
20
102.1080326
40
1.7414143
50
270.5054844
51
277.4255047
0
ARC
8
DEFAULT_255_2_778
10
95.291183
20
102.0695735
40
1.7029483
50
270.0000046
51
270.4841625
0
ARC
8
DEFAULT_255_2_778
10
95.2910532
20
102.0508932
40
1.684268
50
267.4277681
51
270.0044229
0
ARC
8
DEFAULT_255_2_778
10
94.4663524
20
106.058287
40
5.7608001
50
267.5109043
51
269.4082082
0
ARC
8
DEFAULT_255_2_778
10
94.4662355
20
106.0522656
40
5.7547776
50
269.4087525
51
269.9999865
0
ARC
8
DEFAULT_255_2_778
10
94.4668878
20
106.0198829
40
5.7223951
50
269.9934559
51
277.5136839
0
ARC
8
DEFAULT_255_2_778
10
95.164943
20
101.2561207
40
0.0502222
50
0.1158437
51
44.6607013
0
ARC
8
DEFAULT_255_2_778
10
95.1655393
20
101.2561264
40
0.0497958
50
45.1381953
51
90.0852409
0
ARC
8
DEFAULT_255_2_778
10
94.4526041
20
95.8886818
40
5.4639422
50
82.5034537
51
90.0006831
0
ARC
8
DEFAULT_255_2_778
10
94.4525444
20
95.883684
40
5.46894
50
90.0000567
51
91.0089958
0
ARC
8
DEFAULT_255_2_778
10
94.4526037
20
95.8812874
40
5.4713373
50
91.0091746
51
92.4746563
0
LINE
8
DEFAULT_255_2_778
10
82.9451652
20
96.1378222
11
82.9455576
21
96.1378221
0
ARC
8
DEFAULT_255_2_778
10
82.9454442
20
96.7720811
40
0.634259
50
270.0102424
51
354.9746526
0
ARC
8
DEFAULT_255_2_778
10
114.3782444
20
95.9648507
40
2.927224
50
17.5274689
51
43.551581
0
ARC
8
DEFAULT_255_2_778
10
114.3747275
20
95.9630075
40
2.9310431
50
43.5303259
51
79.9023756
0
ARC
8
DEFAULT_255_2_778
10
114.3735561
20
95.9522508
40
2.9418386
50
79.9166464
51
84.4951808
0
ARC
8
DEFAULT_255_2_778
10
83.422407
20
100.6350746
40
3.6802918
50
262.5774486
51
269.9991163
0
ARC
8
DEFAULT_255_2_778
10
83.4223575
20
100.6330626
40
3.6782798
50
269.9998864
51
271.0316129
0
ARC
8
DEFAULT_255_2_778
10
83.4223061
20
100.6351213
40
3.680339
50
271.0318367
51
272.4411752
0
LINE
8
DEFAULT_255_2_778
10
90.5942652
20
100.7916222
11
90.5938949
21
100.7916222
0
ARC
8
DEFAULT_255_2_778
10
90.5909155
20
98.2602409
40
2.5313831
50
89.9325634
51
110.7805862
0
ARC
8
DEFAULT_255_2_778
10
90.597166
20
98.2519511
40
2.5413529
50
110.8460289
51
169.2389565
0
ARC
8
DEFAULT_255_2_778
10
90.6078513
20
98.2555406
40
2.5511862
50
169.3629594
51
179.9936755
0
LINE
8
DEFAULT_255_2_778
10
90.7357652
20
100.0365222
11
90.7355803
21
100.0365222
0
ARC
8
DEFAULT_255_2_778
10
90.7325975
20
97.5049667
40
2.5315573
50
89.932492
51
110.7801453
0
ARC
8
DEFAULT_255_2_778
10
90.7388715
20
97.4966504
40
2.5415601
50
110.8458701
51
169.2354755
0
ARC
8
DEFAULT_255_2_778
10
90.7494624
20
97.500257
40
2.5512971
50
169.3594669
51
179.9895519
0
ARC
8
DEFAULT_255_2_778
10
114.6618983
20
98.5502315
40
2.51449
50
8.7287432
51
31.8785079
0
ARC
8
DEFAULT_255_2_778
10
114.6542186
20
98.5449983
40
2.5237751
50
31.8873185
51
81.1746453
0
ARC
8
DEFAULT_255_2_778
10
114.6557413
20
98.5354263
40
2.533002
50
81.2418993
51
89.8750524
0
ARC
8
DEFAULT_255_2_778
10
7.4120516
20
100.2867023
40
0.5960614
50
276.8713989
51
333.7983473
0
ARC
8
DEFAULT_255_2_778
10
6.1043478
20
100.1808859
40
0.4863475
50
198.9158437
51
270.0169789
0
ARC
8
DEFAULT_255_2_778
10
6.1044849
20
100.1853649
40
0.4908265
50
270.0008296
51
271.0600343
0
ARC
8
DEFAULT_255_2_778
10
3.194676
20
98.151757
40
2.6417701
50
92.3410642
51
113.7131515
0
ARC
8
DEFAULT_255_2_778
10
3.2005367
20
98.1428894
40
2.6522467
50
113.7520325
51
167.7385517
0
ARC
8
DEFAULT_255_2_778
10
3.2107449
20
98.1449882
40
2.6617797
50
167.8293625
51
177.6178758
0
ARC
8
DEFAULT_255_2_778
10
9.7591799
20
100.156328
40
0.6349944
50
5.0951868
51
89.9652363
0
LINE
8
DEFAULT_255_2_778
10
11.3221652
20
96.1378222
11
11.3217728
21
96.1378221
0
ARC
8
DEFAULT_255_2_778
10
11.3218862
20
96.7720811
40
0.634259
50
185.0253474
51
269.9897576
0
ARC
8
DEFAULT_255_2_778
10
10.5970584
20
99.8894893
40
0.5136828
50
92.3980357
51
113.568453
0
ARC
8
DEFAULT_255_2_778
10
10.8439961
20
100.6532024
40
3.6982245
50
267.2872712
51
269.6210542
0
ARC
8
DEFAULT_255_2_778
10
10.8439837
20
100.6533588
40
3.6983807
50
269.6212618
51
269.9999981
0
ARC
8
DEFAULT_255_2_778
10
10.844079
20
100.6477281
40
3.69275
50
269.9985191
51
277.4105799
0
ARC
8
DEFAULT_255_2_778
10
2.8921093
20
98.4354809
40
2.6503517
50
92.1178563
51
113.1939752
0
ARC
8
DEFAULT_255_2_778
10
2.897534
20
98.4275221
40
2.6598044
50
113.2338643
51
167.6060351
0
ARC
8
DEFAULT_255_2_778
10
2.9075196
20
98.4297885
40
2.6690744
50
167.6995616
51
177.5599406
0
ARC
8
DEFAULT_255_2_778
10
3.1638855
20
93.9353906
40
2.6171408
50
174.801032
51
177.5356405
0
ARC
8
DEFAULT_255_2_778
10
3.2172812
20
93.9276446
40
2.6710201
50
153.6057793
51
174.7393459
0
ARC
8
DEFAULT_255_2_778
10
3.3069921
20
93.885477
40
2.7701254
50
143.7770943
51
153.6493924
0
ARC
8
DEFAULT_255_2_778
10
3.2822045
20
93.910725
40
2.7352148
50
125.7759958
51
143.8969239
0
ARC
8
DEFAULT_255_2_778
10
3.2169549
20
94.0040827
40
2.6213272
50
98.4261753
51
125.8118655
0
ARC
8
DEFAULT_255_2_778
10
3.1986099
20
94.0938794
40
2.5298164
50
92.5339081
51
98.3131917
0
ARC
8
DEFAULT_255_2_778
10
2.2397578
20
93.9167277
40
1.6940417
50
142.8067072
51
175.5752601
0
ARC
8
DEFAULT_255_2_778
10
2.7203662
20
93.5787842
40
2.2812831
50
126.5849933
51
143.342295
0
ARC
8
DEFAULT_255_2_778
10
3.0326836
20
93.1667995
40
2.7982466
50
112.5034439
51
126.6921556
0
ARC
8
DEFAULT_255_2_778
10
3.1892271
20
92.7978984
40
3.1989753
50
99.224115
51
112.5648947
0
ARC
8
DEFAULT_255_2_778
10
3.2262246
20
92.6076557
40
3.392694
50
95.5540242
51
99.3258447
0
ARC
8
DEFAULT_255_2_778
10
4.0240238
20
89.5781516
40
2.5525711
50
90.0372312
51
110.9958327
0
ARC
8
DEFAULT_255_2_778
10
4.0299419
20
89.5700875
40
2.5622216
50
111.0547734
51
168.5374718
0
ARC
8
DEFAULT_255_2_778
10
4.0407491
20
89.5732254
40
2.5721949
50
168.6538135
51
179.1090324
0
ARC
8
DEFAULT_255_2_778
10
4.6346567
20
88.9163762
40
2.5489856
50
89.6806218
51
90.0015025
0
ARC
8
DEFAULT_255_2_778
10
4.6317269
20
88.951536
40
2.5138275
50
89.9347461
51
111.1828453
0
ARC
8
DEFAULT_255_2_778
10
4.638677
20
88.940871
40
2.5262846
50
111.2424205
51
168.5768625
0
ARC
8
DEFAULT_255_2_778
10
4.6490565
20
88.9441986
40
2.535805
50
168.6970074
51
179.4571846
0
ARC
8
DEFAULT_255_2_778
10
109.0873656
20
0.0446546
40
0.223121
50
273.663694
51
280.8499113
0
ARC
8
DEFAULT_255_2_778
10
108.9405363
20
1.9130937
40
2.0972995
50
272.0188563
51
274.4050379
0
ARC
8
DEFAULT_255_2_778
10
108.7192336
20
7.3792197
40
7.5678828
50
271.3463008
51
272.2354042
0
ARC
8
DEFAULT_255_2_778
10
108.5037487
20
16.4382227
40
16.6294481
50
270.6112262
51
271.3551973
0
ARC
8
DEFAULT_255_2_778
10
108.3898963
20
26.3339489
40
26.5258272
50
269.9878368
51
270.6291137
0
ARC
8
DEFAULT_255_2_778
10
108.8495138
20
0.6013974
40
0.5974972
50
26.2776499
51
83.0642689
0
ARC
8
DEFAULT_255_2_778
10
107.5422221
20
0.704241
40
0.490378
50
88.8615495
51
89.9990441
0
ARC
8
DEFAULT_255_2_778
10
107.5422797
20
0.7087928
40
0.4858263
50
90.0058239
51
161.1296827
0
ARC
8
DEFAULT_255_2_778
10
2.9274494
20
41.1263235
40
0.2005196
50
202.9230611
51
268.0325227
0
ARC
8
DEFAULT_255_2_778
10
2.9274491
20
59.7623212
40
0.2005192
50
91.9673807
51
157.0769748
0
ARC
8
DEFAULT_255_2_778
10
3.9924337
20
59.2226387
40
1.3940329
50
153.6941458
51
170.0746033
0
ARC
8
DEFAULT_255_2_778
10
83.1312386
20
4.1478838
40
0.6343383
50
6.366316
51
90.0066337
0
ARC
8
DEFAULT_255_2_778
10
90.7367626
20
2.6358667
40
2.536199
50
180.0642603
51
200.8535598
0
ARC
8
DEFAULT_255_2_778
10
90.7441009
20
2.6415894
40
2.5450951
50
200.9151426
51
259.4484192
0
ARC
8
DEFAULT_255_2_778
10
90.7406115
20
2.6528797
40
2.5555616
50
259.5716813
51
269.8980704
0
ARC
8
DEFAULT_255_2_778
10
116.9845895
20
17.7018373
40
0.2494757
50
359.9506117
51
70.0366679
0
ARC
8
DEFAULT_255_2_778
10
114.7764716
20
6.0904594
40
2.1036203
50
266.702359
51
269.9984236
0
ARC
8
DEFAULT_255_2_778
10
114.7763688
20
6.0748189
40
2.0879799
50
270.0012309
51
305.387794
0
ARC
8
DEFAULT_255_2_778
10
114.7787355
20
6.0747076
40
2.0865195
50
305.336582
51
337.5960504
0
ARC
8
DEFAULT_255_2_778
10
114.7612118
20
6.082331
40
2.105626
50
337.5860073
51
339.7872445
0
ARC
8
DEFAULT_255_2_778
10
114.5928074
20
4.6428834
40
2.6355892
50
271.4361972
51
294.7763928
0
ARC
8
DEFAULT_255_2_778
10
114.5893912
20
4.650198
40
2.6436621
50
294.7771822
51
341.8370457
0
ARC
8
DEFAULT_255_2_778
10
114.5795391
20
4.6506937
40
2.653179
50
341.8931947
51
350.1194485
0
ARC
8
DEFAULT_255_2_778
10
4.9397567
20
87.6415756
40
2.5489863
50
89.6806219
51
90.0015025
0
ARC
8
DEFAULT_255_2_778
10
4.9368319
20
87.6766416
40
2.5139219
50
89.9348635
51
111.1824444
0
ARC
8
DEFAULT_255_2_778
10
4.943662
20
87.6661377
40
2.5261854
50
111.2408053
51
168.5779513
0
ARC
8
DEFAULT_255_2_778
10
4.953751
20
87.6695836
40
2.5353979
50
168.6994327
51
179.461279
0
ARC
8
DEFAULT_255_2_778
10
84.5081505
20
0.7323166
40
0.6349945
50
185.0951953
51
269.9652329
0
ARC
8
DEFAULT_255_2_778
10
83.7269605
20
2.8968363
40
1.9584045
50
99.7546836
51
106.0056568
0
ARC
8
DEFAULT_255_2_778
10
84.0080592
20
1.3179459
40
3.5621068
50
95.5408005
51
99.9078614
0
ARC
8
DEFAULT_255_2_778
10
84.1735081
20
-0.3551539
40
5.2433651
50
91.2769667
51
95.5750082
0
ARC
8
DEFAULT_255_2_778
10
84.2007789
20
-1.1678423
40
6.0564663
50
89.9953549
51
91.3635557
0
ARC
8
DEFAULT_255_2_778
10
84.2023683
20
0.8625365
40
4.0260874
50
89.9530814
51
90.0156314
0
ARC
8
DEFAULT_255_2_778
10
84.1536493
20
2.7155852
40
1.5529084
50
88.0804759
51
89.9996633
0
ARC
8
DEFAULT_255_2_778
10
84.1539029
20
2.7113094
40
1.5571842
50
90.0089931
51
107.4877854
0
ARC
8
DEFAULT_255_2_778
10
83.7016331
20
3.6825849
40
0.5141761
50
91.7461866
51
101.0469081
0
ARC
8
DEFAULT_255_2_778
10
83.6027164
20
4.1574521
40
0.0297842
50
89.2419266
51
148.7074821
0
ARC
8
DEFAULT_255_2_778
10
82.9453022
20
4.1164082
40
0.6344141
50
5.0381891
51
90.0123779
0
ARC
8
DEFAULT_255_2_778
10
82.9721141
20
4.7285559
40
0.0349575
50
89.0172846
51
140.4350778
0
ARC
8
DEFAULT_255_2_778
10
83.1263394
20
4.0017109
40
0.7771334
50
95.195381
51
101.4014773
0
ARC
8
DEFAULT_255_2_778
10
83.3229016
20
2.1865121
40
2.6028632
50
94.2487231
51
95.886247
0
ARC
8
DEFAULT_255_2_778
10
4.2967812
20
41.705353
40
1.6588739
50
187.0544584
51
200.5103568
0
ARC
8
DEFAULT_255_2_778
10
91.8925187
20
4.546573
40
2.5359549
50
180.0598892
51
200.8519868
0
ARC
8
DEFAULT_255_2_778
10
91.9001334
20
4.5524962
40
2.5451808
50
200.9155783
51
259.4479578
0
ARC
8
DEFAULT_255_2_778
10
91.8967974
20
4.5641484
40
2.5560307
50
259.5693038
51
269.8939226
0
ARC
8
DEFAULT_255_2_778
10
114.6210989
20
6.2972662
40
2.5513755
50
270.7717806
51
297.8929683
0
ARC
8
DEFAULT_255_2_778
10
114.6201844
20
6.3015286
40
2.5555707
50
297.866383
51
336.4234089
0
ARC
8
DEFAULT_255_2_778
10
114.6093213
20
6.3053458
40
2.567054
50
336.4423001
51
341.3072394
0
ARC
8
DEFAULT_255_2_778
10
90.7368187
20
3.391673
40
2.5359549
50
180.0598892
51
200.8519868
0
ARC
8
DEFAULT_255_2_778
10
90.7444334
20
3.3975962
40
2.5451808
50
200.9155783
51
259.4479578
0
ARC
8
DEFAULT_255_2_778
10
90.7410974
20
3.4092484
40
2.5560307
50
259.5693038
51
269.8939226
0
ARC
8
DEFAULT_255_2_778
10
114.6278613
20
2.3584514
40
2.5511098
50
327.4524341
51
350.8579059
0
ARC
8
DEFAULT_255_2_778
10
114.622372
20
2.3619433
40
2.5576157
50
279.2793076
51
327.4526514
0
ARC
8
DEFAULT_255_2_778
10
114.6238525
20
2.3710207
40
2.5663373
50
270.7817123
51
279.2140062
0
LINE
8
DEFAULT_255_2_778
10
82.9469652
20
4.5095222
11
82.9473576
21
4.5095223
0
ARC
8
DEFAULT_255_2_778
10
82.9473092
20
3.8753343
40
0.634188
50
5.0194769
51
89.9956337
0
ARC
8
DEFAULT_255_2_778
10
83.4223061
20
0.2538231
40
3.6803391
50
87.5588248
51
88.9681633
0
ARC
8
DEFAULT_255_2_778
10
83.4223575
20
0.2558818
40
3.6782797
50
88.9683871
51
90.0001136
0
ARC
8
DEFAULT_255_2_778
10
83.422407
20
0.2538699
40
3.6802918
50
90.0008837
51
97.4225514
0
ARC
8
DEFAULT_255_2_778
10
7.4113179
20
0.6009072
40
0.5971771
50
26.2596612
51
83.0705878
0
ARC
8
DEFAULT_255_2_778
10
6.1038268
20
0.7039183
40
0.4899007
50
88.8609874
51
89.9990422
0
ARC
8
DEFAULT_255_2_778
10
6.1040963
20
0.7078299
40
0.4859892
50
90.0308017
51
161.1159534
0
ARC
8
DEFAULT_255_2_778
10
1.3439229
20
18.5626246
40
0.2648466
50
292.2636694
51
357.7490239
0
ARC
8
DEFAULT_255_2_778
10
1.3589922
20
19.9162691
40
0.2495729
50
359.9662762
51
70.0210125
0
ARC
8
DEFAULT_255_2_778
10
10.2156039
20
3.8036649
40
0.4896079
50
15.0287745
51
61.6675812
0
ARC
8
DEFAULT_255_2_778
10
10.216264
20
3.8036358
40
0.4893207
50
61.7372331
51
89.9978219
0
ARC
8
DEFAULT_255_2_778
10
10.2162919
20
3.8035354
40
0.4894211
50
90.0010817
51
91.5702985
0
ARC
8
DEFAULT_255_2_778
10
10.216222
20
3.8051612
40
0.487794
50
91.5673232
51
108.435296
0
ARC
8
DEFAULT_255_2_778
10
4.8594511
20
13.1325347
40
2.4415986
50
178.5217391
51
179.9995901
0
ARC
8
DEFAULT_255_2_778
10
4.8546173
20
13.1324799
40
2.4367647
50
179.998302
51
225.4273907
0
ARC
8
DEFAULT_255_2_778
10
4.853426
20
13.1314269
40
2.4351785
50
225.4299711
51
270.0001547
0
ARC
8
DEFAULT_255_2_778
10
4.853416
20
13.1348735
40
2.438625
50
270.0003895
51
272.3630854
0
ARC
8
DEFAULT_255_2_778
10
4.5551247
20
11.8210023
40
2.4437949
50
177.6613763
51
179.9996101
0
ARC
8
DEFAULT_255_2_778
10
4.5493659
20
11.8208249
40
2.438036
50
179.9954411
51
224.9983717
0
ARC
8
DEFAULT_255_2_778
10
4.5489353
20
11.8200314
40
2.4371704
50
224.992337
51
269.993021
0
ARC
8
DEFAULT_255_2_778
10
4.5486259
20
11.8212798
40
2.4384188
50
270.0002945
51
272.3559953
0
ARC
8
DEFAULT_255_2_778
10
3.8927371
20
11.1705528
40
2.4261612
50
177.5108333
51
179.9997693
0
ARC
8
DEFAULT_255_2_778
10
3.8900763
20
11.1706581
40
2.4235003
50
180.0022583
51
224.998742
0
ARC
8
DEFAULT_255_2_778
10
3.89014
20
11.1707279
40
2.4235947
50
224.9988436
51
269.9968448
0
ARC
8
DEFAULT_255_2_778
10
3.8899967
20
11.1732574
40
2.4261243
50
270.0002342
51
272.4891843
0
ARC
8
DEFAULT_255_2_778
10
3.0919098
20
7.3074913
40
2.4225924
50
177.2215983
51
179.9997969
0
ARC
8
DEFAULT_255_2_778
10
3.0901189
20
7.3076908
40
2.4208015
50
180.0045188
51
224.8764035
0
ARC
8
DEFAULT_255_2_778
10
3.0904616
20
7.3081565
40
2.421373
50
224.8784907
51
269.9988833
0
ARC
8
DEFAULT_255_2_778
10
3.090401
20
7.3111259
40
2.4243424
50
270.0003179
51
272.5169346
0
ARC
8
DEFAULT_255_2_778
10
2.9883045
20
6.7093033
40
2.443078
50
270.000338
51
272.3167948
0
ARC
8
DEFAULT_255_2_778
10
2.9885899
20
6.7075162
40
2.441291
50
224.5912395
51
269.99364
0
ARC
8
DEFAULT_255_2_778
10
2.9877411
20
6.7063824
40
2.4398904
50
179.9962445
51
224.5862713
0
ARC
8
DEFAULT_255_2_778
10
2.9921909
20
6.7065235
40
2.44434
50
176.8410382
51
179.9995599
0
ARC
8
DEFAULT_255_2_778
10
3.0029345
20
2.5622398
40
2.470201
50
178.3440698
51
179.9997673
0
ARC
8
DEFAULT_255_2_778
10
2.9988313
20
2.5622246
40
2.4660977
50
179.9994131
51
225.1944512
0
ARC
8
DEFAULT_255_2_778
10
2.998827
20
2.5626028
40
2.4663628
50
225.2007146
51
269.9969599
0
ARC
8
DEFAULT_255_2_778
10
2.9986803
20
2.5657043
40
2.4694643
50
270.0003657
51
272.0511165
0
ARC
8
DEFAULT_255_2_778
10
2.7100345
20
2.2690398
40
2.470201
50
178.3440698
51
179.9997673
0
ARC
8
DEFAULT_255_2_778
10
2.7059313
20
2.2690246
40
2.4660977
50
179.9994131
51
225.1944512
0
ARC
8
DEFAULT_255_2_778
10
2.705927
20
2.2694028
40
2.4663628
50
225.2007146
51
269.9969599
0
ARC
8
DEFAULT_255_2_778
10
2.7057803
20
2.2725043
40
2.4694643
50
270.0003657
51
272.0511165
0
ARC
8
DEFAULT_255_2_778
10
10.844442
20
0.2481715
40
3.6857329
50
82.577786
51
90.0023294
0
ARC
8
DEFAULT_255_2_778
10
10.8442492
20
0.2361194
40
3.697785
50
89.9993359
51
91.4789335
0
ARC
8
DEFAULT_255_2_778
10
10.844389
20
0.2302419
40
3.7036641
50
91.4787486
51
92.4128594
0
ARC
8
DEFAULT_255_2_778
10
11.3204763
20
3.874746
40
0.6344763
50
89.9919708
51
174.9476049
0
ARC
8
DEFAULT_255_2_778
10
11.3220281
20
4.1169082
40
0.6344141
50
89.9876221
51
174.9618109
0
ARC
8
DEFAULT_255_2_778
10
9.7590914
20
0.7326034
40
0.6350814
50
270.0427458
51
354.9066968
0
ARC
8
DEFAULT_255_2_778
10
88.462053
20
92.1851938
40
0.0971877
50
187.7525182
51
214.0888929
0
ARC
8
DEFAULT_255_2_778
10
88.7962779
20
92.2712056
40
0.4417876
50
191.6330628
51
192.96557
0
ARC
8
DEFAULT_255_2_778
10
116.9444867
20
83.1841393
40
0.2493787
50
289.9476779
51
0.0650015
0
ARC
8
DEFAULT_255_2_778
10
39.4828281
20
50.4444706
40
37.5356629
50
173.0173702
51
179.9692003
0
ARC
8
DEFAULT_255_2_778
10
40.9429127
20
50.4441224
40
38.9957476
50
179.9698419
51
179.999431
0
ARC
8
DEFAULT_255_2_778
10
39.4772718
20
50.4444346
40
37.5301066
50
179.9998854
51
186.983147
0
ARC
8
DEFAULT_255_2_778
10
107.8653217
20
32.7560658
40
0.2498566
50
90.0359002
51
179.9870526
0
ARC
8
DEFAULT_255_2_778
10
116.9841533
20
20.7611727
40
0.2497119
50
290.0013109
51
0.0113719
0
LINE
8
DEFAULT_255_2_778
10
0.4903652
20
81.4895222
11
1.5968652
21
81.4895222
0
LINE
8
DEFAULT_255_2_778
10
1.5968652
20
81.4895222
11
1.5968652
21
81.8252222
0
LINE
8
DEFAULT_255_2_778
10
1.5968652
20
81.8252222
11
0.2406652
21
81.8252222
0
LINE
8
DEFAULT_255_2_778
10
0.2406652
20
81.8252222
11
0.2406652
21
81.4895222
0
LINE
8
DEFAULT_255_2_778
10
0.2406652
20
81.4895222
11
0.4903652
21
81.4895222
0
LINE
8
DEFAULT_255_2_778
10
0.3080652
20
83.0140222
11
0.2972652
21
82.7338222
0
LINE
8
DEFAULT_255_2_778
10
0.2972652
20
82.7338222
11
0.2374652
21
82.4840222
0
LINE
8
DEFAULT_255_2_778
10
0.2374652
20
80.8306222
11
0.2972652
21
80.5806222
0
LINE
8
DEFAULT_255_2_778
10
0.2972652
20
80.5806222
11
0.3080652
21
80.2954222
0
LINE
8
DEFAULT_255_2_778
10
1.4442652
20
80.7378222
11
0.4051652
21
80.3594222
0
LINE
8
DEFAULT_255_2_778
10
0.2408652
20
80.1247222
11
0.2408652
21
83.1844222
0
LINE
8
DEFAULT_255_2_778
10
0.4051652
20
82.9497222
11
1.4442652
21
82.5713222
0
LINE
8
DEFAULT_255_2_778
10
1.6085652
20
82.3366222
11
1.6085652
21
80.9727222
0
LINE
8
DEFAULT_255_2_778
10
109.3963652
20
100.0235222
11
109.7823652
21
101.0842222
0
LINE
8
DEFAULT_255_2_778
10
108.0593652
20
99.7248222
11
108.3951652
21
99.7248222
0
LINE
8
DEFAULT_255_2_778
10
108.3951652
20
99.7248222
11
108.3951652
21
101.0811222
0
LINE
8
DEFAULT_255_2_778
10
108.3951652
20
101.0811222
11
108.0593652
21
101.0811222
0
LINE
8
DEFAULT_255_2_778
10
108.0593652
20
101.0811222
11
108.0593652
21
99.7248222
0
LINE
8
DEFAULT_255_2_778
10
109.7786652
20
101.0842222
11
106.7078652
21
101.0842222
0
LINE
8
DEFAULT_255_2_778
10
106.7078652
20
101.0842222
11
107.0939652
21
100.0235222
0
LINE
8
DEFAULT_255_2_778
10
109.7786652
20
101.0736222
11
109.6074652
21
101.0125222
0
LINE
8
DEFAULT_255_2_778
10
109.6074652
20
101.0125222
11
109.3037652
21
101.0242222
0
LINE
8
DEFAULT_255_2_778
10
109.3037652
20
101.0242222
11
109.0539652
21
101.0840222
0
LINE
8
DEFAULT_255_2_778
10
107.4008652
20
101.0840222
11
107.1510652
21
101.0242222
0
LINE
8
DEFAULT_255_2_778
10
107.1510652
20
101.0242222
11
106.8417652
21
101.0123222
0
LINE
8
DEFAULT_255_2_778
10
106.8417652
20
101.0123222
11
106.7078652
21
101.0840222
0
LINE
8
DEFAULT_255_2_778
10
109.5476652
20
100.9194222
11
109.5476652
21
100.9194222
0
LINE
8
DEFAULT_255_2_778
10
109.7749652
20
101.0837222
11
109.7823652
21
101.0837222
0
LINE
8
DEFAULT_255_2_778
10
109.7823652
20
101.0837222
11
109.7749652
21
101.0837222
0
LINE
8
DEFAULT_255_2_778
10
107.5720652
20
99.6946222
11
108.9243652
21
99.6946222
0
LINE
8
DEFAULT_255_2_778
10
99.7107652
20
99.7954222
11
97.5125652
21
99.7954222
0
LINE
8
DEFAULT_255_2_778
10
97.5125652
20
99.7954222
11
97.5125652
21
101.8031222
0
LINE
8
DEFAULT_255_2_778
10
97.5125652
20
101.8031222
11
99.7107652
21
101.8031222
0
LINE
8
DEFAULT_255_2_778
10
99.7107652
20
101.8031222
11
99.7107652
21
99.7954222
0
LINE
8
DEFAULT_255_2_778
10
99.7107652
20
100.8088222
11
97.5125652
21
100.8088222
0
LINE
8
DEFAULT_255_2_778
10
91.8917652
20
98.8802222
11
90.7360652
21
100.0359222
0
LINE
8
DEFAULT_255_2_778
10
90.7360652
20
100.0359222
11
90.7363652
21
100.2132222
0
LINE
8
DEFAULT_255_2_778
10
90.7363652
20
100.2132222
11
90.5947652
21
100.2093222
0
LINE
8
DEFAULT_255_2_778
10
90.5947652
20
100.2093222
11
90.5947652
21
100.7813222
0
LINE
8
DEFAULT_255_2_778
10
90.6828652
20
101.0842222
11
90.7783652
21
101.0842222
0
LINE
8
DEFAULT_255_2_778
10
90.5945652
20
101.0128222
11
90.7193652
21
101.0128222
0
LINE
8
DEFAULT_255_2_778
10
90.7193652
20
100.3349222
11
90.5976652
21
100.3349222
0
LINE
8
DEFAULT_255_2_778
10
90.7193652
20
100.8845222
11
90.5945652
21
100.8845222
0
LINE
8
DEFAULT_255_2_778
10
91.6552652
20
101.0419222
11
91.6494652
21
101.0091222
0
LINE
8
DEFAULT_255_2_778
10
92.0314652
20
101.0419222
11
92.0372652
21
101.0091222
0
LINE
8
DEFAULT_255_2_778
10
92.0931652
20
100.6405222
11
92.0314652
21
101.0091222
0
LINE
8
DEFAULT_255_2_778
10
92.0314652
20
101.0091222
11
92.0314652
21
101.0419222
0
LINE
8
DEFAULT_255_2_778
10
92.0314652
20
101.0419222
11
91.6552652
21
101.0419222
0
LINE
8
DEFAULT_255_2_778
10
91.6552652
20
101.0419222
11
91.6552652
21
101.0091222
0
LINE
8
DEFAULT_255_2_778
10
95.5152652
20
101.1213222
11
95.5152652
21
100.3812222
0
LINE
8
DEFAULT_255_2_778
10
92.9672652
20
101.3475222
11
94.2161652
21
101.3475222
0
LINE
8
DEFAULT_255_2_778
10
94.2161652
20
101.3475222
11
92.9672652
21
101.3475222
0
LINE
8
DEFAULT_255_2_778
10
92.9672652
20
101.3475222
11
92.9672652
21
100.6545222
0
LINE
8
DEFAULT_255_2_778
10
92.9672652
20
100.6545222
11
92.9672652
21
100.3029222
0
LINE
8
DEFAULT_255_2_778
10
92.9672652
20
100.3029222
11
94.2161652
21
100.3029222
0
LINE
8
DEFAULT_255_2_778
10
95.2151652
20
100.3466222
11
95.2151652
21
101.2562222
0
LINE
8
DEFAULT_255_2_778
10
92.9675652
20
101.0842222
11
90.7193652
21
101.0842222
0
LINE
8
DEFAULT_255_2_778
10
90.7193652
20
101.0842222
11
90.7193652
21
100.2190222
0
LINE
8
DEFAULT_255_2_778
10
90.7193652
20
100.2190222
11
92.2179652
21
100.2190222
0
LINE
8
DEFAULT_255_2_778
10
92.2179652
20
100.2190222
11
92.2179652
21
99.9121222
0
LINE
8
DEFAULT_255_2_778
10
92.0314652
20
101.0091222
11
92.7807652
21
101.0091222
0
LINE
8
DEFAULT_255_2_778
10
92.7807652
20
101.0091222
11
92.8424652
21
100.6625222
0
LINE
8
DEFAULT_255_2_778
10
92.8424652
20
100.6625222
11
92.8424652
21
100.6408222
0
LINE
8
DEFAULT_255_2_778
10
92.8424652
20
100.6408222
11
92.0931652
21
100.6408222
0
LINE
8
DEFAULT_255_2_778
10
92.0931652
20
100.6408222
11
92.0931652
21
100.6080222
0
LINE
8
DEFAULT_255_2_778
10
92.0931652
20
100.6080222
11
91.5935652
21
100.6080222
0
LINE
8
DEFAULT_255_2_778
10
91.5935652
20
100.6080222
11
91.5935652
21
100.6408222
0
LINE
8
DEFAULT_255_2_778
10
91.5935652
20
100.6408222
11
90.8442652
21
100.6408222
0
LINE
8
DEFAULT_255_2_778
10
90.8442652
20
100.6408222
11
90.8442652
21
100.6625222
0
LINE
8
DEFAULT_255_2_778
10
90.8442652
20
100.6625222
11
90.9059652
21
101.0091222
0
LINE
8
DEFAULT_255_2_778
10
90.9059652
20
101.0091222
11
91.6552652
21
101.0091222
0
LINE
8
DEFAULT_255_2_778
10
91.6552652
20
101.0091222
11
91.5935652
21
100.6405222
0
LINE
8
DEFAULT_255_2_778
10
84.2056652
20
96.0000222
11
82.9451652
21
96.1378222
0
LINE
8
DEFAULT_255_2_778
10
83.5772652
20
96.7165222
11
83.7166652
21
98.3109222
0
LINE
8
DEFAULT_255_2_778
10
83.7166652
20
98.3109222
11
84.3487652
21
98.2556222
0
LINE
8
DEFAULT_255_2_778
10
84.3487652
20
98.2556222
11
84.5080652
21
100.7913222
0
LINE
8
DEFAULT_255_2_778
10
114.6557652
20
98.8805222
11
91.8917652
21
98.8805222
0
LINE
8
DEFAULT_255_2_778
10
91.8917652
20
98.8805222
11
92.2669652
21
97.1433222
0
LINE
8
DEFAULT_255_2_778
10
92.2669652
20
97.1433222
11
114.6557652
21
97.1433222
0
LINE
8
DEFAULT_255_2_778
10
114.6557652
20
97.1433222
11
114.6557652
21
101.0840222
0
LINE
8
DEFAULT_255_2_778
10
83.8756652
20
100.3603222
11
83.2435652
21
100.3878222
0
LINE
8
DEFAULT_255_2_778
10
83.2435652
20
100.3878222
11
11.0237652
21
100.3878222
0
LINE
8
DEFAULT_255_2_778
10
11.0237652
20
100.3878222
11
10.5755652
21
100.4024222
0
LINE
8
DEFAULT_255_2_778
10
11.3203652
20
96.9856222
11
82.9469652
21
96.9856222
0
LINE
8
DEFAULT_255_2_778
10
83.5790652
20
96.9581222
11
83.8759652
21
100.3603222
0
LINE
8
DEFAULT_255_2_778
10
83.8759652
20
100.3603222
11
83.8759652
21
100.2127222
0
LINE
8
DEFAULT_255_2_778
10
11.0237652
20
100.9943222
11
11.0237652
21
100.3878222
0
LINE
8
DEFAULT_255_2_778
10
11.0237652
20
100.3878222
11
11.3205652
21
96.9856222
0
LINE
8
DEFAULT_255_2_778
10
11.3205652
20
96.9856222
11
11.3224652
21
96.1378222
0
LINE
8
DEFAULT_255_2_778
10
11.3224652
20
96.1378222
11
82.9454652
21
96.1378222
0
LINE
8
DEFAULT_255_2_778
10
82.9454652
20
96.1378222
11
82.9472652
21
96.9856222
0
LINE
8
DEFAULT_255_2_778
10
82.9472652
20
96.9856222
11
83.2441652
21
100.3878222
0
LINE
8
DEFAULT_255_2_778
10
83.2441652
20
100.3878222
11
83.2441652
21
100.9943222
0
LINE
8
DEFAULT_255_2_778
10
83.2441652
20
100.9943222
11
11.0237652
21
100.9943222
0
LINE
8
DEFAULT_255_2_778
10
11.0237652
20
100.9943222
11
9.7595652
21
100.9392222
0
LINE
8
DEFAULT_255_2_778
10
88.2005652
20
98.2558222
11
84.3484652
21
98.2558222
0
LINE
8
DEFAULT_255_2_778
10
84.3484652
20
98.2558222
11
84.2056652
21
96.6212222
0
LINE
8
DEFAULT_255_2_778
10
84.2056652
20
96.6212222
11
88.1981652
21
96.6212222
0
LINE
8
DEFAULT_255_2_778
10
84.5077652
20
100.9392222
11
84.5077652
21
100.7916222
0
LINE
8
DEFAULT_255_2_778
10
84.5077652
20
100.7916222
11
90.5942652
21
100.7916222
0
LINE
8
DEFAULT_255_2_778
10
88.1981652
20
96.0005222
11
84.2056652
21
96.0005222
0
LINE
8
DEFAULT_255_2_778
10
84.2056652
20
96.0005222
11
84.2056652
21
96.6215222
0
LINE
8
DEFAULT_255_2_778
10
89.3559652
20
96.3453222
11
88.2005652
21
97.5010222
0
LINE
8
DEFAULT_255_2_778
10
7.9468652
20
100.0235222
11
8.3329652
21
101.0842222
0
LINE
8
DEFAULT_255_2_778
10
8.3329652
20
101.0842222
11
90.5945652
21
101.0842222
0
LINE
8
DEFAULT_255_2_778
10
90.5945652
20
101.0842222
11
90.5945652
21
100.8797222
0
LINE
8
DEFAULT_255_2_778
10
85.2983652
20
93.1965222
11
8.0675652
21
93.1965222
0
LINE
8
DEFAULT_255_2_778
10
114.6612652
20
101.0842222
11
109.7717652
21
101.0842222
0
LINE
8
DEFAULT_255_2_778
10
103.8318652
20
101.0842222
11
102.6640652
21
101.0673222
0
LINE
8
DEFAULT_255_2_778
10
102.6640652
20
101.0673222
11
99.7104652
21
101.0676222
0
LINE
8
DEFAULT_255_2_778
10
97.5123652
20
101.0845222
11
95.5152652
21
101.0845222
0
LINE
8
DEFAULT_255_2_778
10
97.5123652
20
100.0624222
11
96.1134652
21
100.0624222
0
LINE
8
DEFAULT_255_2_778
10
96.1134652
20
100.0624222
11
96.1134652
21
99.9127222
0
LINE
8
DEFAULT_255_2_778
10
96.1134652
20
99.9127222
11
92.2179652
21
99.9127222
0
LINE
8
DEFAULT_255_2_778
10
107.0171652
20
100.2196222
11
105.0047652
21
100.2196222
0
LINE
8
DEFAULT_255_2_778
10
105.0047652
20
100.2196222
11
105.0047652
21
99.9127222
0
LINE
8
DEFAULT_255_2_778
10
105.0047652
20
99.9127222
11
101.1093652
21
99.9127222
0
LINE
8
DEFAULT_255_2_778
10
101.1093652
20
99.9127222
11
101.1093652
21
100.0624222
0
LINE
8
DEFAULT_255_2_778
10
101.1093652
20
100.0624222
11
99.7104652
21
100.0624222
0
LINE
8
DEFAULT_255_2_778
10
106.7023652
20
101.0845222
11
103.8310652
21
101.0845222
0
LINE
8
DEFAULT_255_2_778
10
6.6099652
20
99.7245222
11
6.9456652
21
99.7245222
0
LINE
8
DEFAULT_255_2_778
10
6.9456652
20
99.7245222
11
6.9456652
21
101.0811222
0
LINE
8
DEFAULT_255_2_778
10
6.9456652
20
101.0811222
11
6.6099652
21
101.0811222
0
LINE
8
DEFAULT_255_2_778
10
6.6099652
20
101.0811222
11
6.6099652
21
99.7245222
0
LINE
8
DEFAULT_255_2_778
10
8.3292652
20
101.0840222
11
5.2581652
21
101.0840222
0
LINE
8
DEFAULT_255_2_778
10
5.2581652
20
101.0840222
11
5.6442652
21
100.0232222
0
LINE
8
DEFAULT_255_2_778
10
8.3289652
20
101.0734222
11
8.1577652
21
101.0123222
0
LINE
8
DEFAULT_255_2_778
10
8.1577652
20
101.0123222
11
7.8540652
21
101.0239222
0
LINE
8
DEFAULT_255_2_778
10
7.8540652
20
101.0239222
11
7.6042652
21
101.0837222
0
LINE
8
DEFAULT_255_2_778
10
5.9511652
20
101.0837222
11
5.7013652
21
101.0239222
0
LINE
8
DEFAULT_255_2_778
10
5.7013652
20
101.0239222
11
5.3920652
21
101.0120222
0
LINE
8
DEFAULT_255_2_778
10
5.3920652
20
101.0120222
11
5.2581652
21
101.0837222
0
LINE
8
DEFAULT_255_2_778
10
8.0979652
20
100.9191222
11
8.0979652
21
100.9191222
0
LINE
8
DEFAULT_255_2_778
10
7.4804652
20
99.6944222
11
6.1167652
21
99.6944222
0
LINE
8
DEFAULT_255_2_778
10
4.9539652
20
90.1905222
11
4.9539652
21
87.8836222
0
LINE
8
DEFAULT_255_2_778
10
0.5512652
20
98.2556222
11
3.0867652
21
98.2556222
0
LINE
8
DEFAULT_255_2_778
10
3.0867652
20
98.2556222
11
3.0867652
21
100.7913222
0
LINE
8
DEFAULT_255_2_778
10
0.5512652
20
98.2556222
11
0.5512652
21
98.2556222
0
LINE
8
DEFAULT_255_2_778
10
9.9188652
20
98.2556222
11
9.7595652
21
100.7913222
0
LINE
8
DEFAULT_255_2_778
10
10.0616652
20
96.0000222
11
11.3221652
21
96.1378222
0
LINE
8
DEFAULT_255_2_778
10
10.6900652
20
96.7165222
11
10.3916652
21
100.2127222
0
LINE
8
DEFAULT_255_2_778
10
10.3916652
20
100.2127222
11
10.3916652
21
100.3603222
0
LINE
8
DEFAULT_255_2_778
10
5.3648652
20
100.7913222
11
3.0867652
21
100.7913222
0
LINE
8
DEFAULT_255_2_778
10
3.0867652
20
100.7913222
11
2.8872652
21
100.9908222
0
LINE
8
DEFAULT_255_2_778
10
2.8872652
20
100.9908222
11
2.7941652
21
101.0840222
0
LINE
8
DEFAULT_255_2_778
10
8.2262652
20
100.7913222
11
9.7595652
21
100.7913222
0
LINE
8
DEFAULT_255_2_778
10
9.7595652
20
100.7913222
11
9.7595652
21
100.9390222
0
LINE
8
DEFAULT_255_2_778
10
3.0867652
20
96.6196222
11
3.1965652
21
96.6218222
0
LINE
8
DEFAULT_255_2_778
10
3.1084652
20
95.9989222
11
3.1965652
21
96.0005222
0
LINE
8
DEFAULT_255_2_778
10
3.1965652
20
96.0005222
11
3.9860652
21
92.1823222
0
LINE
8
DEFAULT_255_2_778
10
3.9860652
20
92.1823222
11
4.0220652
21
92.1826222
0
LINE
8
DEFAULT_255_2_778
10
2.8978652
20
95.9844222
11
3.1084652
21
95.9984222
0
LINE
8
DEFAULT_255_2_778
10
3.1084652
20
95.9984222
11
3.0864652
21
96.6186222
0
LINE
8
DEFAULT_255_2_778
10
3.0864652
20
96.6186222
11
3.0864652
21
98.2550222
0
LINE
8
DEFAULT_255_2_778
10
3.0864652
20
98.2550222
11
9.9188652
21
98.2550222
0
LINE
8
DEFAULT_255_2_778
10
9.9188652
20
98.2550222
11
10.0616652
21
96.6204222
0
LINE
8
DEFAULT_255_2_778
10
10.0616652
20
96.6204222
11
3.1965652
21
96.6204222
0
LINE
8
DEFAULT_255_2_778
10
3.1965652
20
96.6204222
11
3.1965652
21
95.9995222
0
LINE
8
DEFAULT_255_2_778
10
3.1965652
20
95.9995222
11
10.0616652
21
95.9995222
0
LINE
8
DEFAULT_255_2_778
10
10.0616652
20
95.9995222
11
10.0616652
21
96.6204222
0
LINE
8
DEFAULT_255_2_778
10
6.9097652
20
91.4653222
11
4.6488652
21
91.4653222
0
LINE
8
DEFAULT_255_2_778
10
4.6488652
20
91.4653222
11
4.0223652
21
92.1307222
0
LINE
8
DEFAULT_255_2_778
10
7.4095652
20
90.1905222
11
4.9541652
21
90.1905222
0
LINE
8
DEFAULT_255_2_778
10
4.9541652
20
90.1905222
11
4.6488652
21
91.4653222
0
LINE
8
DEFAULT_255_2_778
10
5.2584652
20
101.0842222
11
2.7988652
21
101.0842222
0
LINE
8
DEFAULT_255_2_778
10
108.0485652
20
1.1646222
11
108.3842652
21
1.1646222
0
LINE
8
DEFAULT_255_2_778
10
108.3842652
20
1.1646222
11
108.3842652
21
-0.1916778
0
LINE
8
DEFAULT_255_2_778
10
108.3842652
20
-0.1916778
11
108.0485652
21
-0.1916778
0
LINE
8
DEFAULT_255_2_778
10
108.0485652
20
-0.1916778
11
108.0485652
21
1.1646222
0
LINE
8
DEFAULT_255_2_778
10
109.7638652
20
-0.1947778
11
109.7712652
21
-0.1947778
0
LINE
8
DEFAULT_255_2_778
10
109.7712652
20
-0.1947778
11
109.3852652
21
0.8659222
0
LINE
8
DEFAULT_255_2_778
10
108.9216652
20
1.1945222
11
107.5519652
21
1.1945222
0
LINE
8
DEFAULT_255_2_778
10
107.0825652
20
0.8659222
11
106.6965652
21
-0.1947778
0
LINE
8
DEFAULT_255_2_778
10
106.6965652
20
-0.1947778
11
106.8303652
21
-0.1230778
0
LINE
8
DEFAULT_255_2_778
10
106.8303652
20
-0.1230778
11
107.1396652
21
-0.1349778
0
LINE
8
DEFAULT_255_2_778
10
107.1396652
20
-0.1349778
11
107.3032652
21
-0.1741778
0
LINE
8
DEFAULT_255_2_778
10
2.9205652
20
40.9259222
11
5.0110652
21
40.9259222
0
LINE
8
DEFAULT_255_2_778
10
5.0110652
20
59.9627222
11
2.9205652
21
59.9627222
0
LINE
8
DEFAULT_255_2_778
10
116.9845652
20
19.0663222
11
115.8780652
21
19.0663222
0
LINE
8
DEFAULT_255_2_778
10
115.8780652
20
19.0663222
11
115.8780652
21
19.4021222
0
LINE
8
DEFAULT_255_2_778
10
115.8780652
20
19.4021222
11
117.2343652
21
19.4021222
0
LINE
8
DEFAULT_255_2_778
10
117.2343652
20
19.4021222
11
117.2343652
21
19.0663222
0
LINE
8
DEFAULT_255_2_778
10
117.2343652
20
19.0663222
11
116.9845652
21
19.0663222
0
LINE
8
DEFAULT_255_2_778
10
117.1668652
20
20.5908222
11
117.1777652
21
20.3106222
0
LINE
8
DEFAULT_255_2_778
10
117.1777652
20
20.3106222
11
117.2375652
21
20.0609222
0
LINE
8
DEFAULT_255_2_778
10
117.2375652
20
18.4075222
11
117.1777652
21
18.1575222
0
LINE
8
DEFAULT_255_2_778
10
117.1777652
20
18.1575222
11
117.1668652
21
17.8722222
0
LINE
8
DEFAULT_255_2_778
10
117.0697652
20
17.9363222
11
116.0307652
21
18.3146222
0
LINE
8
DEFAULT_255_2_778
10
116.7371652
20
5.3548222
11
105.9228652
21
5.3548222
0
LINE
8
DEFAULT_255_2_778
10
117.2340652
20
20.7612222
11
117.2340652
21
5.5003222
0
LINE
8
DEFAULT_255_2_778
10
117.2340652
20
5.5003222
11
117.1933652
21
5.4818222
0
LINE
8
DEFAULT_255_2_778
10
11.3203652
20
4.5092222
11
82.9469652
21
4.5092222
0
LINE
8
DEFAULT_255_2_778
10
82.9469652
20
4.5092222
11
82.9451652
21
4.7508222
0
LINE
8
DEFAULT_255_2_778
10
84.3484652
20
2.6330222
11
88.2005652
21
2.6330222
0
LINE
8
DEFAULT_255_2_778
10
88.2005652
20
2.6330222
11
88.1981652
21
2.7439222
0
LINE
8
DEFAULT_255_2_778
10
88.1981652
20
4.8886222
11
84.2056652
21
4.8886222
0
LINE
8
DEFAULT_255_2_778
10
84.2056652
20
4.8886222
11
84.2056652
21
4.2676222
0
LINE
8
DEFAULT_255_2_778
10
83.5772652
20
4.1729222
11
83.5772652
21
4.1721222
0
LINE
8
DEFAULT_255_2_778
10
82.9451652
20
4.7508222
11
82.9451652
21
4.7508222
0
LINE
8
DEFAULT_255_2_778
10
83.1300652
20
4.7822222
11
11.1364652
21
4.7822222
0
LINE
8
DEFAULT_255_2_778
10
11.1364652
20
4.7822222
11
11.0798652
21
4.7791222
0
LINE
8
DEFAULT_255_2_778
10
2.4094652
20
54.6350222
11
2.4059652
21
54.6268222
0
LINE
8
DEFAULT_255_2_778
10
2.4059652
20
54.6268222
11
2.4094652
21
54.6239222
0
LINE
8
DEFAULT_255_2_778
10
89.0226652
20
91.4653222
11
85.0760652
21
91.4653222
0
LINE
8
DEFAULT_255_2_778
10
85.0760652
20
91.4653222
11
85.0760652
21
91.5039222
0
LINE
8
DEFAULT_255_2_778
10
85.9574652
20
9.4230222
11
89.0228652
21
9.4230222
0
LINE
8
DEFAULT_255_2_778
10
90.7363652
20
0.8521222
11
90.7363652
21
0.0970222
0
LINE
8
DEFAULT_255_2_778
10
90.7363652
20
0.0970222
11
84.5080652
21
0.0970222
0
LINE
8
DEFAULT_255_2_778
10
84.5080652
20
0.0970222
11
84.5080652
21
-0.0505778
0
LINE
8
DEFAULT_255_2_778
10
84.5080652
20
-0.0505778
11
83.2438652
21
-0.1056778
0
LINE
8
DEFAULT_255_2_778
10
0.2403652
20
2.3232222
11
0.5512652
21
2.6330222
0
LINE
8
DEFAULT_255_2_778
10
0.5512652
20
2.6330222
11
0.5512652
21
6.8407222
0
LINE
8
DEFAULT_255_2_778
10
0.5512652
20
6.8407222
11
1.4685652
21
11.2754222
0
LINE
8
DEFAULT_255_2_778
10
1.4685652
20
11.2754222
11
2.1133652
21
11.9202222
0
LINE
8
DEFAULT_255_2_778
10
2.1133652
20
11.9202222
11
2.4186652
21
13.1949222
0
LINE
8
DEFAULT_255_2_778
10
2.4186652
20
13.1949222
11
2.4440652
21
21.3695222
0
LINE
8
DEFAULT_255_2_778
10
2.4440652
20
21.3695222
11
2.4618652
21
30.2389222
0
LINE
8
DEFAULT_255_2_778
10
2.4618652
20
30.2389222
11
2.4729652
21
37.9528222
0
LINE
8
DEFAULT_255_2_778
10
2.4729652
20
37.9528222
11
2.4782652
21
44.6830222
0
LINE
8
DEFAULT_255_2_778
10
2.4782652
20
44.6830222
11
2.6239652
21
44.6830222
0
LINE
8
DEFAULT_255_2_778
10
2.6239652
20
44.6830222
11
2.6351652
21
44.5094222
0
LINE
8
DEFAULT_255_2_778
10
2.6351652
20
44.5094222
11
2.6504652
21
41.5016222
0
LINE
8
DEFAULT_255_2_778
10
91.8920652
20
2.0081222
11
91.8920652
21
2.0533222
0
LINE
8
DEFAULT_255_2_778
10
91.8920652
20
2.0533222
11
92.2672652
21
3.7451222
0
LINE
8
DEFAULT_255_2_778
10
89.3279652
20
90.1905222
11
85.0760652
21
90.1905222
0
LINE
8
DEFAULT_255_2_778
10
85.0760652
20
90.1905222
11
85.0760652
21
91.4653222
0
LINE
8
DEFAULT_255_2_778
10
7.4095652
20
91.4346222
11
7.4182652
21
87.8461222
0
LINE
8
DEFAULT_255_2_778
10
7.4182652
20
87.8461222
11
6.9099652
21
87.8836222
0
LINE
8
DEFAULT_255_2_778
10
6.9099652
20
87.8836222
11
4.9541652
21
87.8836222
0
LINE
8
DEFAULT_255_2_778
10
4.9541652
20
87.8836222
11
4.9914652
21
75.4207222
0
LINE
8
DEFAULT_255_2_778
10
4.9914652
20
75.4207222
11
5.0028652
21
67.0969222
0
LINE
8
DEFAULT_255_2_778
10
5.0028652
20
67.0969222
11
5.0084652
21
62.9358222
0
LINE
8
DEFAULT_255_2_778
10
5.0084652
20
62.9358222
11
5.0113652
21
59.9630222
0
LINE
8
DEFAULT_255_2_778
10
5.0113652
20
59.9630222
11
6.4413652
21
59.9630222
0
LINE
8
DEFAULT_255_2_778
10
6.4413652
20
59.9630222
11
6.4588652
21
62.9358222
0
LINE
8
DEFAULT_255_2_778
10
6.4588652
20
62.9358222
11
6.6197652
21
77.9284222
0
LINE
8
DEFAULT_255_2_778
10
6.6197652
20
77.9284222
11
6.6676652
21
78.3060222
0
LINE
8
DEFAULT_255_2_778
10
6.6676652
20
78.3060222
11
6.8898652
21
78.6169222
0
LINE
8
DEFAULT_255_2_778
10
6.8898652
20
78.6169222
11
7.2094652
21
78.8359222
0
LINE
8
DEFAULT_255_2_778
10
7.2094652
20
78.8359222
11
7.5989652
21
78.8793222
0
LINE
8
DEFAULT_255_2_778
10
7.5989652
20
78.8793222
11
86.0084652
21
78.8793222
0
LINE
8
DEFAULT_255_2_778
10
86.0084652
20
78.8793222
11
86.3979652
21
78.8359222
0
LINE
8
DEFAULT_255_2_778
10
86.3979652
20
78.8359222
11
86.7175652
21
78.6169222
0
LINE
8
DEFAULT_255_2_778
10
86.7175652
20
78.6169222
11
86.9398652
21
78.3060222
0
LINE
8
DEFAULT_255_2_778
10
86.9398652
20
78.3060222
11
86.9877652
21
77.9284222
0
LINE
8
DEFAULT_255_2_778
10
86.9877652
20
77.9284222
11
87.1652652
21
64.1931222
0
LINE
8
DEFAULT_255_2_778
10
87.1652652
20
64.1931222
11
87.1821652
21
55.0264222
0
LINE
8
DEFAULT_255_2_778
10
87.1821652
20
55.0264222
11
87.1906652
21
50.4448222
0
LINE
8
DEFAULT_255_2_778
10
87.1906652
20
50.4448222
11
87.1821652
21
45.8633222
0
LINE
8
DEFAULT_255_2_778
10
87.1821652
20
45.8633222
11
87.1652652
21
36.6966222
0
LINE
8
DEFAULT_255_2_778
10
87.1652652
20
36.6966222
11
86.9877652
21
22.9612222
0
LINE
8
DEFAULT_255_2_778
10
86.9877652
20
22.9612222
11
86.9398652
21
22.5837222
0
LINE
8
DEFAULT_255_2_778
10
86.9398652
20
22.5837222
11
86.7175652
21
22.2728222
0
LINE
8
DEFAULT_255_2_778
10
86.7175652
20
22.2728222
11
86.3979652
21
22.0537222
0
LINE
8
DEFAULT_255_2_778
10
86.3979652
20
22.0537222
11
86.0084652
21
22.0103222
0
LINE
8
DEFAULT_255_2_778
10
86.0084652
20
22.0103222
11
7.5989652
21
22.0103222
0
LINE
8
DEFAULT_255_2_778
10
7.5989652
20
22.0103222
11
7.2094652
21
22.0537222
0
LINE
8
DEFAULT_255_2_778
10
7.2094652
20
22.0537222
11
6.8898652
21
22.2728222
0
LINE
8
DEFAULT_255_2_778
10
6.8898652
20
22.2728222
11
6.6676652
21
22.5837222
0
LINE
8
DEFAULT_255_2_778
10
6.6676652
20
22.5837222
11
6.6197652
21
22.9612222
0
LINE
8
DEFAULT_255_2_778
10
6.6197652
20
22.9612222
11
6.4413652
21
40.9267222
0
LINE
8
DEFAULT_255_2_778
10
6.4413652
20
40.9267222
11
5.0113652
21
40.9267222
0
LINE
8
DEFAULT_255_2_778
10
5.0113652
20
40.9267222
11
5.0084652
21
37.9539222
0
LINE
8
DEFAULT_255_2_778
10
5.0084652
20
37.9539222
11
4.9975652
21
30.2399222
0
LINE
8
DEFAULT_255_2_778
10
4.9975652
20
30.2399222
11
4.9541652
21
13.0058222
0
LINE
8
DEFAULT_255_2_778
10
4.9541652
20
13.0058222
11
8.7893652
21
13.0058222
0
LINE
8
DEFAULT_255_2_778
10
114.6554652
20
-0.1945778
11
114.6554652
21
3.7461222
0
LINE
8
DEFAULT_255_2_778
10
89.5628652
20
5.3556222
11
89.5605652
21
5.4657222
0
LINE
8
DEFAULT_255_2_778
10
89.5605652
20
5.4657222
11
89.3562652
21
4.5447222
0
LINE
8
DEFAULT_255_2_778
10
89.3562652
20
4.5447222
11
88.2008652
21
3.3890222
0
LINE
8
DEFAULT_255_2_778
10
90.7363652
20
0.8532222
11
91.8917652
21
2.0089222
0
LINE
8
DEFAULT_255_2_778
10
91.8917652
20
2.0089222
11
114.6557652
21
2.0089222
0
LINE
8
DEFAULT_255_2_778
10
89.7465652
20
33.1337222
11
89.7465652
21
94.5855222
0
LINE
8
DEFAULT_255_2_778
10
89.7465652
20
94.5855222
11
89.3562652
21
96.3447222
0
LINE
8
DEFAULT_255_2_778
10
5.0113652
20
59.8868222
11
5.0150652
21
50.4446222
0
LINE
8
DEFAULT_255_2_778
10
5.0150652
20
50.4446222
11
5.0113652
21
41.0024222
0
LINE
8
DEFAULT_255_2_778
10
5.0113652
20
41.0024222
11
6.4416652
21
41.0024222
0
LINE
8
DEFAULT_255_2_778
10
6.4416652
20
41.0024222
11
6.4416652
21
41.3622222
0
LINE
8
DEFAULT_255_2_778
10
6.4416652
20
41.3622222
11
6.4194652
21
50.6890222
0
LINE
8
DEFAULT_255_2_778
10
6.4194652
20
50.6890222
11
6.4408652
21
60.0159222
0
LINE
8
DEFAULT_255_2_778
10
0.2408652
20
2.3404222
11
0.2408652
21
98.5471222
0
LINE
8
DEFAULT_255_2_778
10
0.2408652
20
98.5471222
11
0.5512652
21
98.2556222
0
LINE
8
DEFAULT_255_2_778
10
0.5512652
20
98.2556222
11
0.5512652
21
94.0479222
0
LINE
8
DEFAULT_255_2_778
10
0.5512652
20
94.0479222
11
1.4685652
21
89.6132222
0
LINE
8
DEFAULT_255_2_778
10
1.4685652
20
89.6132222
11
2.1133652
21
88.9684222
0
LINE
8
DEFAULT_255_2_778
10
2.1133652
20
88.9684222
11
2.4186652
21
87.6937222
0
LINE
8
DEFAULT_255_2_778
10
2.4186652
20
87.6937222
11
2.4311652
21
83.5715222
0
LINE
8
DEFAULT_255_2_778
10
2.4311652
20
83.5715222
11
2.4559652
21
75.3265222
0
LINE
8
DEFAULT_255_2_778
10
2.4559652
20
75.3265222
11
2.4729652
21
62.9358222
0
LINE
8
DEFAULT_255_2_778
10
2.4729652
20
62.9358222
11
2.4782652
21
56.2056222
0
LINE
8
DEFAULT_255_2_778
10
2.4782652
20
56.2056222
11
2.5800652
21
56.2056222
0
LINE
8
DEFAULT_255_2_778
10
117.1933652
20
74.4997222
11
117.1967652
21
74.4962222
0
LINE
8
DEFAULT_255_2_778
10
117.1967652
20
74.4962222
11
117.1967652
21
33.0061222
0
LINE
8
DEFAULT_255_2_778
10
117.1933652
20
4.0004222
11
117.1933652
21
3.2966222
0
LINE
8
DEFAULT_255_2_778
10
117.1933652
20
3.2966222
11
117.1465652
21
1.9531222
0
LINE
8
DEFAULT_255_2_778
10
114.6588652
20
-0.1950778
11
109.7717652
21
-0.1950778
0
LINE
8
DEFAULT_255_2_778
10
88.1981652
20
4.2679222
11
84.2056652
21
4.2679222
0
LINE
8
DEFAULT_255_2_778
10
84.2056652
20
4.2679222
11
84.3484652
21
2.6333222
0
LINE
8
DEFAULT_255_2_778
10
84.3484652
20
2.6333222
11
83.7163652
21
2.5780222
0
LINE
8
DEFAULT_255_2_778
10
83.7163652
20
2.5780222
11
83.5769652
21
4.1724222
0
LINE
8
DEFAULT_255_2_778
10
83.5769652
20
4.1724222
11
83.5788652
21
3.9308222
0
LINE
8
DEFAULT_255_2_778
10
83.5788652
20
3.9308222
11
83.8756652
21
0.5285222
0
LINE
8
DEFAULT_255_2_778
10
83.8756652
20
0.5285222
11
83.8756652
21
0.6762222
0
LINE
8
DEFAULT_255_2_778
10
83.8756652
20
0.6762222
11
83.2435652
21
0.5010222
0
LINE
8
DEFAULT_255_2_778
10
83.2435652
20
0.5010222
11
11.0237652
21
0.5010222
0
LINE
8
DEFAULT_255_2_778
10
11.0237652
20
0.5010222
11
11.0237652
21
-0.1050778
0
LINE
8
DEFAULT_255_2_778
10
11.0237652
20
-0.1050778
11
83.2438652
21
-0.1050778
0
LINE
8
DEFAULT_255_2_778
10
83.2438652
20
-0.1050778
11
83.2438652
21
0.5010222
0
LINE
8
DEFAULT_255_2_778
10
83.2438652
20
0.5010222
11
82.9469652
21
3.9033222
0
LINE
8
DEFAULT_255_2_778
10
82.9469652
20
3.9033222
11
82.9469652
21
4.5095222
0
LINE
8
DEFAULT_255_2_778
10
82.9469652
20
3.9033222
11
11.3205652
21
3.9033222
0
LINE
8
DEFAULT_255_2_778
10
86.1804652
20
95.2391222
11
8.0675652
21
95.2391222
0
LINE
8
DEFAULT_255_2_778
10
8.0675652
20
95.2391222
11
8.0675652
21
92.6694222
0
LINE
8
DEFAULT_255_2_778
10
8.0675652
20
92.6694222
11
12.7072652
21
92.6694222
0
LINE
8
DEFAULT_255_2_778
10
12.7072652
20
92.6694222
11
12.7858652
21
92.4797222
0
LINE
8
DEFAULT_255_2_778
10
86.1804652
20
6.1187222
11
8.0675652
21
6.1187222
0
LINE
8
DEFAULT_255_2_778
10
8.0675652
20
6.1187222
11
8.0675652
21
8.6661222
0
LINE
8
DEFAULT_255_2_778
10
8.0675652
20
8.6661222
11
12.6982652
21
8.6661222
0
LINE
8
DEFAULT_255_2_778
10
12.6982652
20
8.6661222
11
12.7323652
21
8.7486222
0
LINE
8
DEFAULT_255_2_778
10
88.3720652
20
8.7486222
11
81.5155652
21
8.7486222
0
LINE
8
DEFAULT_255_2_778
10
81.5155652
20
8.7486222
11
81.4621652
21
8.7753222
0
LINE
8
DEFAULT_255_2_778
10
109.7680652
20
-0.1955778
11
8.3329652
21
-0.1955778
0
LINE
8
DEFAULT_255_2_778
10
8.3329652
20
-0.1955778
11
7.9468652
21
0.8651222
0
LINE
8
DEFAULT_255_2_778
10
5.6442652
20
0.8651222
11
5.2581652
21
-0.1955778
0
LINE
8
DEFAULT_255_2_778
10
5.2581652
20
-0.1955778
11
8.3289652
21
-0.1955778
0
LINE
8
DEFAULT_255_2_778
10
6.6096652
20
1.1638222
11
6.9454652
21
1.1638222
0
LINE
8
DEFAULT_255_2_778
10
6.9454652
20
1.1638222
11
6.9454652
21
-0.1923778
0
LINE
8
DEFAULT_255_2_778
10
6.9454652
20
-0.1923778
11
6.6096652
21
-0.1923778
0
LINE
8
DEFAULT_255_2_778
10
6.6096652
20
-0.1923778
11
6.6096652
21
1.1638222
0
LINE
8
DEFAULT_255_2_778
10
8.3289652
20
-0.1852778
11
8.1577652
21
-0.1241778
0
LINE
8
DEFAULT_255_2_778
10
8.1577652
20
-0.1241778
11
7.8540652
21
-0.1357778
0
LINE
8
DEFAULT_255_2_778
10
7.8540652
20
-0.1357778
11
7.6042652
21
-0.1955778
0
LINE
8
DEFAULT_255_2_778
10
5.9511652
20
-0.1955778
11
5.7013652
21
-0.1357778
0
LINE
8
DEFAULT_255_2_778
10
5.7013652
20
-0.1357778
11
5.3920652
21
-0.1238778
0
LINE
8
DEFAULT_255_2_778
10
5.3920652
20
-0.1238778
11
5.2581652
21
-0.1955778
0
LINE
8
DEFAULT_255_2_778
10
8.0979652
20
-0.0310778
11
8.0979652
21
-0.0310778
0
LINE
8
DEFAULT_255_2_778
10
8.3252652
20
-0.1955778
11
8.3326652
21
-0.1955778
0
LINE
8
DEFAULT_255_2_778
10
8.3326652
20
-0.1955778
11
8.3252652
21
-0.1955778
0
LINE
8
DEFAULT_255_2_778
10
6.1164652
20
1.1934222
11
7.4801652
21
1.1934222
0
LINE
8
DEFAULT_255_2_778
10
0.4901652
20
19.0690222
11
1.5966652
21
19.0690222
0
LINE
8
DEFAULT_255_2_778
10
1.5966652
20
19.0690222
11
1.5966652
21
19.4047222
0
LINE
8
DEFAULT_255_2_778
10
1.5966652
20
19.4047222
11
0.2406652
21
19.4047222
0
LINE
8
DEFAULT_255_2_778
10
0.2406652
20
19.4047222
11
0.2406652
21
19.0690222
0
LINE
8
DEFAULT_255_2_778
10
0.2406652
20
19.0690222
11
0.4901652
21
19.0690222
0
LINE
8
DEFAULT_255_2_778
10
0.2374652
20
20.5292222
11
1.4442652
21
20.1508222
0
LINE
8
DEFAULT_255_2_778
10
1.6085652
20
19.9161222
11
1.6085652
21
18.5522222
0
LINE
8
DEFAULT_255_2_778
10
1.6085652
20
18.5522222
11
1.6085652
21
19.9161222
0
LINE
8
DEFAULT_255_2_778
10
1.4442652
20
18.3175222
11
0.3035652
21
17.9392222
0
LINE
8
DEFAULT_255_2_778
10
10.0619652
20
4.2679222
11
9.9190652
21
2.6333222
0
LINE
8
DEFAULT_255_2_778
10
9.9190652
20
2.6333222
11
3.0867652
21
2.6333222
0
LINE
8
DEFAULT_255_2_778
10
3.0867652
20
2.6333222
11
0.5512652
21
2.6333222
0
LINE
8
DEFAULT_255_2_778
10
11.3221652
20
4.7510222
11
10.0616652
21
4.8889222
0
LINE
8
DEFAULT_255_2_778
10
4.9539652
20
10.6983222
11
4.9539652
21
13.0052222
0
LINE
8
DEFAULT_255_2_778
10
4.9539652
20
13.0052222
11
2.4207652
21
13.9363222
0
LINE
8
DEFAULT_255_2_778
10
4.6488652
20
9.3849222
11
4.9541652
21
10.6986222
0
LINE
8
DEFAULT_255_2_778
10
4.9541652
20
10.6986222
11
8.7893652
21
10.6986222
0
LINE
8
DEFAULT_255_2_778
10
3.1968652
20
4.8891222
11
3.0870652
21
4.2682222
0
LINE
8
DEFAULT_255_2_778
10
3.0870652
20
0.0978222
11
2.7943652
21
-0.1947778
0
LINE
8
DEFAULT_255_2_778
10
2.7943652
20
-0.1947778
11
5.2587652
21
-0.1947778
0
LINE
8
DEFAULT_255_2_778
10
5.3648652
20
0.0973222
11
3.0867652
21
0.0973222
0
LINE
8
DEFAULT_255_2_778
10
3.0867652
20
0.0973222
11
3.0867652
21
4.2697222
0
LINE
8
DEFAULT_255_2_778
10
3.0867652
20
4.2697222
11
3.1965652
21
4.2679222
0
LINE
8
DEFAULT_255_2_778
10
3.1965652
20
4.2679222
11
10.0616652
21
4.2679222
0
LINE
8
DEFAULT_255_2_778
10
10.0616652
20
4.2679222
11
10.0616652
21
4.8889222
0
LINE
8
DEFAULT_255_2_778
10
10.0616652
20
4.8889222
11
3.1965652
21
4.8889222
0
LINE
8
DEFAULT_255_2_778
10
3.1965652
20
4.8889222
11
3.9950652
21
8.7491222
0
LINE
8
DEFAULT_255_2_778
10
3.9950652
20
8.7491222
11
12.7323652
21
8.7491222
0
LINE
8
DEFAULT_255_2_778
10
12.7323652
20
8.7491222
11
12.7858652
21
8.7759222
0
LINE
8
DEFAULT_255_2_778
10
11.3221652
20
4.7513222
11
11.3203652
21
3.9036222
0
LINE
8
DEFAULT_255_2_778
10
11.3203652
20
3.9036222
11
11.0234652
21
0.5013222
0
LINE
8
DEFAULT_255_2_778
10
8.7840652
20
9.3849222
11
4.6485652
21
9.3849222
0
LINE
8
DEFAULT_255_2_778
10
4.6485652
20
9.3849222
11
4.0130652
21
8.7491222
0
LINE
8
DEFAULT_255_2_778
10
8.2262652
20
0.0973222
11
9.7595652
21
0.0973222
0
LINE
8
DEFAULT_255_2_778
10
9.7595652
20
0.0973222
11
9.7595652
21
-0.0503778
0
LINE
8
DEFAULT_255_2_778
10
9.7595652
20
-0.0503778
11
11.0237652
21
-0.1053778
0
LINE
8
DEFAULT_255_2_778
10
10.3916652
20
0.5285222
11
10.6884652
21
3.9308222
0
LINE
8
DEFAULT_255_2_778
10
10.6884652
20
3.9308222
11
10.6903652
21
4.1724222
0
LINE
8
DEFAULT_255_2_778
10
10.6903652
20
4.1724222
11
10.5509652
21
2.5780222
0
LINE
8
DEFAULT_255_2_778
10
10.5509652
20
2.5780222
11
9.9188652
21
2.6333222
0
LINE
8
DEFAULT_255_2_778
10
9.9188652
20
2.6333222
11
9.7595652
21
0.0975222
0
LINE
8
DEFAULT_255_2_778
10
88.1981652
20
97.5004222
11
88.2005652
21
92.9684222
0
LINE
8
DEFAULT_255_2_778
10
88.2005652
20
92.9684222
11
88.3630652
21
92.1831222
0
LINE
8
DEFAULT_255_2_778
10
88.3630652
20
92.1831222
11
4.0223652
21
92.1831222
0
LINE
8
DEFAULT_255_2_778
10
4.0223652
20
92.1831222
11
4.0223652
21
92.1307222
0
LINE
8
DEFAULT_255_2_778
10
85.0760652
20
87.8836222
11
89.4186652
21
87.8836222
0
LINE
8
DEFAULT_255_2_778
10
89.4186652
20
87.8836222
11
89.4126652
21
88.7044222
0
LINE
8
DEFAULT_255_2_778
10
89.4126652
20
88.7044222
11
89.3930652
21
89.3915222
0
LINE
8
DEFAULT_255_2_778
10
89.3930652
20
89.3915222
11
89.3644652
21
89.9474222
0
LINE
8
DEFAULT_255_2_778
10
89.3644652
20
89.9474222
11
89.3284652
21
90.1908222
0
LINE
8
DEFAULT_255_2_778
10
89.3284652
20
90.1908222
11
89.0231652
21
91.4656222
0
LINE
8
DEFAULT_255_2_778
10
89.0231652
20
91.4656222
11
89.0080652
21
91.5042222
0
LINE
8
DEFAULT_255_2_778
10
89.0080652
20
91.5042222
11
88.3815652
21
92.1307222
0
LINE
8
DEFAULT_255_2_778
10
89.4673652
20
33.1308222
11
89.4803652
21
50.4443222
0
LINE
8
DEFAULT_255_2_778
10
89.4803652
20
50.4443222
11
89.4777652
21
56.6901222
0
LINE
8
DEFAULT_255_2_778
10
89.4777652
20
56.6901222
11
89.4726652
21
69.1829222
0
LINE
8
DEFAULT_255_2_778
10
89.4726652
20
69.1829222
11
89.4369652
21
81.6495222
0
LINE
8
DEFAULT_255_2_778
10
89.4369652
20
81.6495222
11
89.4189652
21
87.8836222
0
LINE
8
DEFAULT_255_2_778
10
85.9566652
20
13.3590222
11
85.9566652
21
13.0052222
0
LINE
8
DEFAULT_255_2_778
10
85.9566652
20
13.0052222
11
89.4189652
21
13.0052222
0
LINE
8
DEFAULT_255_2_778
10
89.4189652
20
13.0052222
11
89.4647652
21
31.5327222
0
LINE
8
DEFAULT_255_2_778
10
89.4647652
20
31.5327222
11
89.4647652
21
33.1313222
0
LINE
8
DEFAULT_255_2_778
10
88.1987652
20
3.3887222
11
88.2010652
21
7.9207222
0
LINE
8
DEFAULT_255_2_778
10
88.2010652
20
7.9207222
11
88.3725652
21
8.7491222
0
LINE
8
DEFAULT_255_2_778
10
88.3725652
20
8.7491222
11
89.0080652
21
9.3849222
0
LINE
8
DEFAULT_255_2_778
10
89.0080652
20
9.3849222
11
89.0231652
21
9.4236222
0
LINE
8
DEFAULT_255_2_778
10
89.0231652
20
9.4236222
11
89.3284652
21
10.6983222
0
LINE
8
DEFAULT_255_2_778
10
89.3284652
20
10.6983222
11
85.9568652
21
10.6983222
0
LINE
8
DEFAULT_255_2_778
10
117.1478652
20
98.9316222
11
117.1938652
21
94.5662222
0
LINE
8
DEFAULT_255_2_778
10
117.1938652
20
94.5662222
11
117.1938652
21
83.1844222
0
LINE
8
DEFAULT_255_2_778
10
105.9226652
20
33.1329222
11
117.1930652
21
33.1329222
0
LINE
8
DEFAULT_255_2_778
10
117.1930652
20
33.1329222
11
117.1930652
21
80.1250222
0
LINE
8
DEFAULT_255_2_778
10
85.2978652
20
8.6663222
11
85.2978652
21
6.1189222
0
LINE
8
DEFAULT_255_2_778
10
85.2978652
20
6.1189222
11
86.1801652
21
6.1189222
0
LINE
8
DEFAULT_255_2_778
10
86.1801652
20
6.1189222
11
86.1801652
21
8.6663222
0
LINE
8
DEFAULT_255_2_778
10
86.1801652
20
8.6663222
11
85.2978652
21
8.6663222
0
LINE
8
DEFAULT_255_2_778
10
86.1801652
20
92.6694222
11
86.1801652
21
95.2391222
0
LINE
8
DEFAULT_255_2_778
10
86.1801652
20
95.2391222
11
85.2978652
21
95.2391222
0
LINE
8
DEFAULT_255_2_778
10
85.2978652
20
95.2391222
11
85.2978652
21
92.6694222
0
LINE
8
DEFAULT_255_2_778
10
85.2978652
20
92.6694222
11
86.1801652
21
92.6694222
0
LINE
8
DEFAULT_255_2_778
10
86.1801652
20
92.6694222
11
81.5404652
21
92.6694222
0
LINE
8
DEFAULT_255_2_778
10
81.5404652
20
92.6694222
11
81.4618652
21
92.4797222
0
LINE
8
DEFAULT_255_2_778
10
2.4094652
20
45.2593222
11
2.4094652
21
55.6296222
0
LINE
8
DEFAULT_255_2_778
10
2.6501652
20
59.3870222
11
2.6348652
21
56.3792222
0
LINE
8
DEFAULT_255_2_778
10
2.6348652
20
56.3792222
11
2.5557652
21
56.1294222
0
LINE
8
DEFAULT_255_2_778
10
2.5557652
20
56.1294222
11
2.4779652
21
56.1294222
0
LINE
8
DEFAULT_255_2_778
10
2.4779652
20
56.1294222
11
2.4054652
21
55.7058222
0
LINE
8
DEFAULT_255_2_778
10
2.4054652
20
55.7058222
11
2.4054652
21
55.4404222
0
LINE
8
DEFAULT_255_2_778
10
2.4054652
20
55.4404222
11
2.2255652
21
55.0076222
0
LINE
8
DEFAULT_255_2_778
10
2.2255652
20
45.8816222
11
2.4054652
21
45.4487222
0
LINE
8
DEFAULT_255_2_778
10
2.4054652
20
45.4487222
11
2.4054652
21
45.1833222
0
LINE
8
DEFAULT_255_2_778
10
2.4054652
20
45.1833222
11
2.4094652
21
45.1833222
0
LINE
8
DEFAULT_255_2_778
10
2.6237652
20
44.6838222
11
2.5554652
21
44.7600222
0
LINE
8
DEFAULT_255_2_778
10
2.5554652
20
44.7600222
11
2.4776652
21
44.7600222
0
LINE
8
DEFAULT_255_2_778
10
2.4776652
20
44.7600222
11
2.4051652
21
45.1836222
0
LINE
8
DEFAULT_255_2_778
10
0.5099652
20
75.8266222
11
1.6423652
21
75.8266222
0
LINE
8
DEFAULT_255_2_778
10
1.6423652
20
75.8266222
11
1.6423652
21
25.0620222
0
LINE
8
DEFAULT_255_2_778
10
1.6423652
20
25.0620222
11
0.5099652
21
25.0620222
0
LINE
8
DEFAULT_255_2_778
10
0.5099652
20
25.0620222
11
0.5099652
21
75.8266222
0
LINE
8
DEFAULT_255_2_778
10
98.8103652
20
33.1781222
11
98.8103652
21
30.5148222
0
LINE
8
DEFAULT_255_2_778
10
98.8103652
20
30.5148222
11
107.6154652
21
30.5148222
0
LINE
8
DEFAULT_255_2_778
10
107.6154652
20
30.5148222
11
107.6154652
21
32.7561222
0
LINE
8
DEFAULT_255_2_778
10
107.8651652
20
33.0059222
11
116.9840652
21
33.0059222
0
LINE
8
DEFAULT_255_2_778
10
116.9840652
20
33.0059222
11
117.2338652
21
33.0059222
0
LINE
8
DEFAULT_255_2_778
10
117.2338652
20
33.0059222
11
117.2338652
21
20.7612222
0
LINE
8
DEFAULT_255_2_778
10
117.0695652
20
20.5265222
11
116.0304652
21
20.1482222
0
LINE
8
DEFAULT_255_2_778
10
113.9254652
20
5.4818222
11
117.1930652
21
5.4818222
0
LINE
8
DEFAULT_255_2_778
10
117.1930652
20
5.4818222
11
117.1930652
21
4.0290222
0
ENDSEC
0
EOF