0
SECTION
2
HEADER
9
$MEASUREMENT
70
1
0
ENDSEC
0
SECTION
2
TABLES
0
TABLE
2
LTYPE
0
LTYPE
72
65
70
64
2
CONTINUOUS
3
______
73
0
40
0
0
ENDTAB
0
TABLE
2
LAYER
0
LAYER
2
DEFAULT_255_2_778
70
0
62
255
6
CONTINUOUS
0
ENDTAB
0
ENDSEC
0
SECTION
2
ENTITIES
0
ARC
8
DEFAULT_255_2_778
10
8.3416201
20
8.5909617
40
1.5169825
50
0.3057619
51
30.024955
0
ARC
8
DEFAULT_255_2_778
10
8.3343344
20
8.5878527
40
1.5248463
50
29.9891179
51
81.8117742
0
ARC
8
DEFAULT_255_2_778
10
8.3348867
20
8.5750505
40
1.5374412
50
81.9000981
51
89.6163609
0
ARC
8
DEFAULT_255_2_778
10
8.3483476
20
8.6145152
40
1.4979453
50
90.1211196
51
127.1310789
0
ARC
8
DEFAULT_255_2_778
10
8.3541616
20
8.5874456
40
1.5230813
50
126.6907523
51
175.9118878
0
ARC
8
DEFAULT_255_2_778
10
8.3128983
20
8.5991081
40
1.4811172
50
176.2480999
51
180.0019733
0
ARC
8
DEFAULT_255_2_778
10
8.3441685
20
8.6021689
40
3.5337889
50
163.3773173
51
180.0504541
0
ARC
8
DEFAULT_255_2_778
10
8.362595
20
8.5893576
40
3.5551171
50
128.4129841
51
163.2644252
0
ARC
8
DEFAULT_255_2_778
10
8.3579417
20
8.6059886
40
3.5392009
50
101.7631573
51
128.5212433
0
ARC
8
DEFAULT_255_2_778
10
8.3543282
20
8.6061292
40
3.5383283
50
89.9764756
51
101.7063371
0
ARC
8
DEFAULT_255_2_778
10
8.3589012
20
8.6104792
40
3.5339793
50
73.3777663
51
90.0505868
0
ARC
8
DEFAULT_255_2_778
10
8.3461894
20
8.5923609
40
3.5549837
50
38.4122658
51
73.2649859
0
ARC
8
DEFAULT_255_2_778
10
8.3627134
20
8.5969457
40
3.539194
50
11.7623655
51
38.5203131
0
ARC
8
DEFAULT_255_2_778
10
8.3626645
20
8.6005118
40
3.5385167
50
359.9764459
51
11.7056735
0
LINE
8
DEFAULT_255_2_778
10
11.885381
20
7.5539571
11
9.858581
21
7.5539571
0
LINE
8
DEFAULT_255_2_778
10
9.858581
20
7.5539571
11
9.858581
21
8.5990571
0
LINE
8
DEFAULT_255_2_778
10
6.831781
20
8.5990571
11
6.831781
21
7.5539571
0
LINE
8
DEFAULT_255_2_778
10
6.831781
20
7.5539571
11
4.810381
21
7.5539571
0
LINE
8
DEFAULT_255_2_778
10
4.810381
20
7.5539571
11
4.810381
21
8.5990571
0
LINE
8
DEFAULT_255_2_778
10
11.901181
20
8.5990571
11
11.885381
21
7.5539571
0
ARC
8
DEFAULT_255_2_778
10
3.9678387
20
6.8871829
40
0.6721778
50
89.0856023
51
89.999623
0
ARC
8
DEFAULT_255_2_778
10
3.9679358
20
6.8870387
40
0.6723219
50
90.0078991
51
134.9839518
0
ARC
8
DEFAULT_255_2_778
10
3.9682022
20
6.887305
40
0.6723218
50
135.0160482
51
179.9921009
0
ARC
8
DEFAULT_255_2_778
10
3.9680579
20
6.8874021
40
0.6721777
50
180.000377
51
180.9143977
0
ARC
8
DEFAULT_255_2_778
10
3.9680905
20
0.4047002
40
0.6723193
50
178.621425
51
179.9998693
0
ARC
8
DEFAULT_255_2_778
10
3.9676509
20
0.4047644
40
0.6718797
50
180.0053417
51
224.7831683
0
ARC
8
DEFAULT_255_2_778
10
3.9679013
20
0.4050465
40
0.672256
50
224.785203
51
269.9991473
0
ARC
8
DEFAULT_255_2_778
10
3.967887
20
0.4052053
40
0.6724149
50
270.0003622
51
270.9099608
0
ARC
8
DEFAULT_255_2_778
10
12.7329497
20
0.4067447
40
0.6739495
50
269.1171716
51
269.9996572
0
ARC
8
DEFAULT_255_2_778
10
12.7331428
20
0.4047744
40
0.6719792
50
269.9831956
51
315.0074545
0
ARC
8
DEFAULT_255_2_778
10
12.7335936
20
0.4047701
40
0.6716576
50
314.980523
51
0.0065493
0
ARC
8
DEFAULT_255_2_778
10
12.7323704
20
0.4048425
40
0.6728808
50
0.0003778
51
0.9139218
0
ARC
8
DEFAULT_255_2_778
10
12.658213
20
6.8343709
40
0.7478688
50
2.8361304
51
45.8148621
0
ARC
8
DEFAULT_255_2_778
10
12.7155773
20
6.8945278
40
0.6647495
50
45.7465378
51
89.85447
0
ARC
8
DEFAULT_255_2_778
10
8.3265381
20
2.4440027
40
0.4505365
50
270.359593
51
359.640407
0
ARC
8
DEFAULT_255_2_778
10
8.3321933
20
2.4440027
40
0.4505365
50
180.359593
51
269.640407
0
ARC
8
DEFAULT_255_2_778
10
8.2988387
20
4.0627558
40
0.8605588
50
187.830209
51
241.0026056
0
ARC
8
DEFAULT_255_2_778
10
8.4532676
20
4.1029844
40
1.0192022
50
179.9499255
51
188.8879475
0
ARC
8
DEFAULT_255_2_778
10
8.3339367
20
4.0986243
40
0.8998862
50
131.7013227
51
179.6656796
0
ARC
8
DEFAULT_255_2_778
10
8.3348324
20
4.1009126
40
0.8987764
50
90.3166179
51
131.8409964
0
ARC
8
DEFAULT_255_2_778
10
8.3246571
20
4.0997077
40
0.8999825
50
41.8747098
51
89.6683981
0
ARC
8
DEFAULT_255_2_778
10
8.3270182
20
4.0989074
40
0.8987613
50
0.3166934
51
42.0131728
0
ARC
8
DEFAULT_255_2_778
10
8.3978087
20
4.0523741
40
0.8295572
50
0.0054317
51
3.5593568
0
ARC
8
DEFAULT_255_2_778
10
8.3656626
20
4.0667641
40
0.861822
50
298.5966655
51
359.0485055
0
LINE
8
DEFAULT_255_2_778
10
12.7225657
20
7.5592751
11
3.9785657
21
7.5592751
0
LINE
8
DEFAULT_255_2_778
10
3.2959657
20
6.8766751
11
3.2959657
21
0.4208751
0
LINE
8
DEFAULT_255_2_778
10
3.9785657
20
-0.2671249
11
12.7225657
21
-0.2671249
0
LINE
8
DEFAULT_255_2_778
10
13.4051657
20
0.4155751
11
13.4051657
21
6.8713751
0
LINE
8
DEFAULT_255_2_778
10
12.7172657
20
7.5592751
11
12.7225657
21
7.5592751
0
LINE
8
DEFAULT_255_2_778
10
8.7770657
20
3.3153751
11
8.7770657
21
2.4411751
0
LINE
8
DEFAULT_255_2_778
10
7.8816657
20
2.4411751
11
7.8816657
21
3.3100751
0
LINE
8
DEFAULT_255_2_778
10
8.7781657
20
3.3100751
11
8.7770657
21
3.3153751
0
ARC
8
DEFAULT_255_2_778
10
0.9671212
20
9.1336297
40
0.6191685
50
180.0525848
51
269.9474152
0
ARC
8
DEFAULT_255_2_778
10
0.9671212
20
9.1324932
40
0.6191685
50
90.0525848
51
179.9474152
0
ARC
8
DEFAULT_255_2_778
10
3.0826847
20
9.1324932
40
0.6191685
50
0.0525848
51
89.9474152
0
ARC
8
DEFAULT_255_2_778
10
3.0826847
20
9.1336297
40
0.6191685
50
270.0525848
51
359.9474152
0
ARC
8
DEFAULT_255_2_778
10
4.5666423
20
12.386362
40
0.5451718
50
270.0003764
51
270.9260087
0
ARC
8
DEFAULT_255_2_778
10
4.5666235
20
12.3860241
40
0.5448337
50
226.538863
51
270.0023521
0
ARC
8
DEFAULT_255_2_778
10
2.9242368
20
13.829967
40
0.6178619
50
179.7543706
51
230.1294205
0
ARC
8
DEFAULT_255_2_778
10
2.943306
20
13.8326022
40
0.6369255
50
175.8356157
51
179.9987846
0
ARC
8
DEFAULT_255_2_778
10
2.953401
20
13.831077
40
0.6471052
50
148.5752051
51
175.765835
0
ARC
8
DEFAULT_255_2_778
10
2.9788078
20
13.8169652
40
0.676144
50
142.3518255
51
148.6772786
0
ARC
8
DEFAULT_255_2_778
10
2.9176585
20
13.8338776
40
0.6178619
50
89.7543706
51
140.1294205
0
ARC
8
DEFAULT_255_2_778
10
2.9202938
20
13.8148084
40
0.6369255
50
85.8356157
51
89.9987846
0
ARC
8
DEFAULT_255_2_778
10
2.9187685
20
13.8047134
40
0.6471052
50
58.5752051
51
85.765835
0
ARC
8
DEFAULT_255_2_778
10
2.9046567
20
13.7793066
40
0.676144
50
52.3518255
51
58.6772786
0
ARC
8
DEFAULT_255_2_778
10
4.585476
20
12.4753063
40
0.6176138
50
359.7464247
51
50.1352085
0
ARC
8
DEFAULT_255_2_778
10
4.5657502
20
12.4725868
40
0.6373334
50
355.8300251
51
359.9987544
0
ARC
8
DEFAULT_255_2_778
10
4.555704
20
12.4741102
40
0.6474642
50
328.5871512
51
355.7602104
0
ARC
8
DEFAULT_255_2_778
10
4.5305759
20
12.4880584
40
0.6761802
50
322.3648164
51
328.6882399
0
ARC
8
DEFAULT_255_2_778
10
4.4488994
20
12.6739408
40
0.8598925
50
293.9654456
51
315.8657393
0
ARC
8
DEFAULT_255_2_778
10
4.5696882
20
12.4133764
40
0.5727466
50
271.7339885
51
293.5114617
0
ARC
8
DEFAULT_255_2_778
10
4.575461
20
12.352269
40
0.5115076
50
269.9990934
51
271.2947641
0
ARC
8
DEFAULT_255_2_778
10
8.3510571
20
13.9103655
40
0.6191043
50
180.0466499
51
269.9533435
0
ARC
8
DEFAULT_255_2_778
10
8.3510996
20
16.0418151
40
0.6191466
50
90.0505834
51
179.9957153
0
ARC
8
DEFAULT_255_2_778
10
8.3499847
20
16.0417932
40
0.6191685
50
0.0525848
51
89.9474152
0
ARC
8
DEFAULT_255_2_778
10
8.3499847
20
13.9098297
40
0.6191685
50
270.0525848
51
359.9474152
0
ARC
8
DEFAULT_255_2_778
10
12.1054528
20
12.402333
40
0.5610735
50
258.999942
51
269.8468425
0
ARC
8
DEFAULT_255_2_778
10
12.103703
20
12.4298066
40
0.5877498
50
217.0401135
51
259.678426
0
ARC
8
DEFAULT_255_2_778
10
12.1019787
20
12.4582874
40
0.6039975
50
179.4613403
51
219.2957729
0
ARC
8
DEFAULT_255_2_778
10
12.1528789
20
12.4639342
40
0.654871
50
179.6334636
51
179.9972422
0
ARC
8
DEFAULT_255_2_778
10
12.1314213
20
12.4690105
40
0.6334008
50
130.5961206
51
180.0802275
0
ARC
8
DEFAULT_255_2_778
10
13.7654767
20
13.8477415
40
0.6039915
50
89.4618925
51
129.2959631
0
ARC
8
DEFAULT_255_2_778
10
13.7711166
20
13.7953685
40
0.656338
50
89.6449568
51
89.997158
0
ARC
8
DEFAULT_255_2_778
10
13.7762157
20
13.8185433
40
0.6331515
50
40.5856247
51
90.0933944
0
ARC
8
DEFAULT_255_2_778
10
13.7904635
20
13.8485457
40
0.6029638
50
359.4269607
51
39.3012292
0
ARC
8
DEFAULT_255_2_778
10
13.7330422
20
13.8425375
40
0.6603549
50
359.4818671
51
359.9980685
0
ARC
8
DEFAULT_255_2_778
10
13.7599093
20
13.8370698
40
0.633461
50
310.6361718
51
359.9544229
0
ARC
8
DEFAULT_255_2_778
10
12.1134218
20
12.4398725
40
0.5980954
50
269.9977705
51
311.3749238
0
ARC
8
DEFAULT_255_2_778
10
12.1133904
20
12.4401071
40
0.59833
50
269.0387706
51
270.0007717
0
ARC
8
DEFAULT_255_2_778
10
13.5702572
20
9.1335657
40
0.6191045
50
180.046669
51
269.9533356
0
ARC
8
DEFAULT_255_2_778
10
13.5702571
20
9.1325572
40
0.6191044
50
90.0466611
51
179.9533323
0
ARC
8
DEFAULT_255_2_778
10
15.7016847
20
9.1324932
40
0.6191685
50
0.0525848
51
89.9474152
0
ARC
8
DEFAULT_255_2_778
10
15.7016847
20
9.1336297
40
0.6191685
50
270.0525848
51
359.9474152
0
LINE
8
DEFAULT_255_2_778
10
3.083253
20
8.5144614
11
0.966553
21
8.5144614
0
LINE
8
DEFAULT_255_2_778
10
0.966553
20
9.7516614
11
3.083253
21
9.7516614
0
LINE
8
DEFAULT_255_2_778
10
3.083253
20
8.5144614
11
3.083253
21
8.5144614
0
LINE
8
DEFAULT_255_2_778
10
4.191853
20
11.9905614
11
2.528153
21
13.3557614
0
LINE
8
DEFAULT_255_2_778
10
3.317653
20
14.3146614
11
4.981353
21
12.9493614
0
LINE
8
DEFAULT_255_2_778
10
4.575453
20
11.8407614
11
4.575453
21
11.8412614
0
LINE
8
DEFAULT_255_2_778
10
7.731953
20
13.9098614
11
7.731953
21
16.0418614
0
LINE
8
DEFAULT_255_2_778
10
8.969153
20
16.0423614
11
8.969153
21
13.9092614
0
LINE
8
DEFAULT_255_2_778
10
8.350553
20
13.2906614
11
8.350553
21
13.2912614
0
LINE
8
DEFAULT_255_2_778
10
11.719253
20
12.9499614
11
13.382953
21
14.3151614
0
LINE
8
DEFAULT_255_2_778
10
14.172453
20
13.3563614
11
12.508753
21
11.9910614
0
LINE
8
DEFAULT_255_2_778
10
12.103353
20
11.8418614
11
12.103953
21
11.8412614
0
LINE
8
DEFAULT_255_2_778
10
15.702253
20
8.5144614
11
13.569753
21
8.5144614
0
LINE
8
DEFAULT_255_2_778
10
13.569753
20
9.7516614
11
15.702253
21
9.7516614
0
LINE
8
DEFAULT_255_2_778
10
15.702253
20
8.5144614
11
15.702253
21
8.5144614
0
ENDSEC
0
EOF