0
SECTION
2
HEADER
9
$MEASUREMENT
70
1
0
ENDSEC
0
SECTION
2
TABLES
0
TABLE
2
LTYPE
0
LTYPE
72
65
70
64
2
CONTINUOUS
3
______
73
0
40
0
0
ENDTAB
0
TABLE
2
LAYER
0
LAYER
2
DEFAULT_255_2_778
70
0
62
255
6
CONTINUOUS
0
ENDTAB
0
ENDSEC
0
SECTION
2
ENTITIES
0
ARC
8
DEFAULT_255_2_778
10
22.8146105
20
11.8990101
40
0.8695247
50
270.1493297
51
355.4487538
0
ARC
8
DEFAULT_255_2_778
10
22.7935194
20
11.9003717
40
0.8906572
50
355.469104
51
0.0075103
0
ARC
8
DEFAULT_255_2_778
10
22.8056396
20
11.8929912
40
0.8785691
50
0.4889359
51
89.2671545
0
ARC
8
DEFAULT_255_2_778
10
22.815227
20
11.9114771
40
0.860013
50
89.8900887
51
133.4271429
0
ARC
8
DEFAULT_255_2_778
10
22.8223208
20
11.900666
40
0.8727441
50
133.2774633
51
180.0116573
0
ARC
8
DEFAULT_255_2_778
10
22.8138291
20
11.8919073
40
0.864295
50
179.4311301
51
180.0011837
0
ARC
8
DEFAULT_255_2_778
10
22.8115881
20
11.8918036
40
0.8620542
50
179.9942969
51
224.8920852
0
ARC
8
DEFAULT_255_2_778
10
22.8120256
20
11.8919238
40
0.862449
50
224.8772272
51
269.9995088
0
ARC
8
DEFAULT_255_2_778
10
22.8120176
20
11.8975544
40
0.8680797
50
270.0000421
51
270.3207203
0
LINE
8
DEFAULT_255_2_778
10
26.2000767
20
5.6795884
11
26.2005428
21
5.6790673
0
ARC
8
DEFAULT_255_2_778
10
28.3446517
20
7.57226
40
2.8603115
50
221.4436724
51
230.2093444
0
ARC
8
DEFAULT_255_2_778
10
27.7154556
20
6.8069377
40
1.8695822
50
230.0154249
51
261.159658
0
ARC
8
DEFAULT_255_2_778
10
27.88561
20
7.7580292
40
2.8356098
50
260.715777
51
268.7527839
0
ARC
8
DEFAULT_255_2_778
10
27.9226533
20
8.6662916
40
3.7445033
50
268.4886054
51
270.0141292
0
ARC
8
DEFAULT_255_2_778
10
27.9313781
20
7.1707474
40
2.2489725
50
269.8012486
51
286.5482656
0
ARC
8
DEFAULT_255_2_778
10
27.8958409
20
7.1882306
40
2.2760393
50
287.2804719
51
326.075203
0
ARC
8
DEFAULT_255_2_778
10
27.3197484
20
7.6209266
40
2.9957884
50
325.3576192
51
340.4539498
0
ARC
8
DEFAULT_255_2_778
10
26.7476782
20
7.8289637
40
3.6044967
50
340.3799677
51
352.8869744
0
ARC
8
DEFAULT_255_2_778
10
26.2954032
20
7.893378
40
4.0612749
50
352.7753161
51
0.0481141
0
ARC
8
DEFAULT_255_2_778
10
26.3756044
20
7.9081187
40
3.9810884
50
359.8369345
51
9.670587
0
ARC
8
DEFAULT_255_2_778
10
27.1494677
20
8.04326
40
3.1955218
50
9.6127674
51
21.7781229
0
ARC
8
DEFAULT_255_2_778
10
27.7894806
20
8.304689
40
2.5042003
50
21.6564718
51
39.2044018
0
ARC
8
DEFAULT_255_2_778
10
28.1137554
20
8.565682
40
2.0879522
50
39.2792649
51
73.5934968
0
ARC
8
DEFAULT_255_2_778
10
28.0195356
20
8.2440597
40
2.4230911
50
73.6043483
51
87.2358534
0
ARC
8
DEFAULT_255_2_778
10
27.9920055
20
7.8916376
40
2.7764509
50
87.0191185
51
90.0150399
0
ARC
8
DEFAULT_255_2_778
10
27.9795338
20
7.372829
40
3.2952804
50
89.7958218
51
96.1568191
0
ARC
8
DEFAULT_255_2_778
10
27.8692301
20
8.3651866
40
2.2968187
50
96.0760695
51
106.4900174
0
ARC
8
DEFAULT_255_2_778
10
27.8365112
20
8.5569025
40
2.1038273
50
107.1176424
51
130.1716401
0
ARC
8
DEFAULT_255_2_778
10
28.4561061
20
7.7394969
40
3.1285709
50
129.1854041
51
130.8984761
0
ARC
8
DEFAULT_255_2_778
10
28.7903679
20
7.3553246
40
3.6378038
50
130.9163244
51
133.1105119
0
ARC
8
DEFAULT_255_2_778
10
29.3422061
20
6.7657375
40
4.4453545
50
133.1096592
51
134.97793
0
ARC
8
DEFAULT_255_2_778
10
28.8670074
20
7.9320119
40
2.6894594
50
170.6084205
51
180.2646685
0
ARC
8
DEFAULT_255_2_778
10
28.0531296
20
8.0707277
40
1.8638593
50
157.4706823
51
170.7328291
0
ARC
8
DEFAULT_255_2_778
10
27.4895599
20
8.3115995
40
1.2510248
50
135.0911585
51
157.7708565
0
ARC
8
DEFAULT_255_2_778
10
27.3419406
20
8.4390551
40
1.0565871
50
100.6575762
51
134.3347519
0
ARC
8
DEFAULT_255_2_778
10
27.4110835
20
8.1278075
40
1.3752923
50
89.7669794
51
101.0903683
0
ARC
8
DEFAULT_255_2_778
10
27.4281764
20
7.9387511
40
1.5643796
50
76.3637202
51
90.4211834
0
ARC
8
DEFAULT_255_2_778
10
27.5356707
20
8.3596627
40
1.1300021
50
27.5932107
51
76.6289626
0
ARC
8
DEFAULT_255_2_778
10
27.0518236
20
8.0853786
40
1.6859685
50
13.7406492
51
28.2379997
0
ARC
8
DEFAULT_255_2_778
10
26.2728225
20
7.8871644
40
2.4897677
50
4.4056081
51
13.9134143
0
ARC
8
DEFAULT_255_2_778
10
25.4339998
20
7.8110265
40
3.3319803
50
359.9185252
51
4.6029701
0
ARC
8
DEFAULT_255_2_778
10
25.6486237
20
7.7933998
40
3.1173797
50
351.7527812
51
0.2368867
0
ARC
8
DEFAULT_255_2_778
10
26.6034765
20
7.6511388
40
2.1519985
50
340.3212145
51
351.8545223
0
ARC
8
DEFAULT_255_2_778
10
27.2725239
20
7.4056829
40
1.4393818
50
321.9690435
51
340.5529118
0
ARC
8
DEFAULT_255_2_778
10
27.5358182
20
7.2082086
40
1.1103495
50
282.2693118
51
321.6250593
0
ARC
8
DEFAULT_255_2_778
10
27.4454348
20
7.5778786
40
1.4908152
50
269.6672474
51
282.6444745
0
ARC
8
DEFAULT_255_2_778
10
27.4255232
20
7.3526821
40
1.2656437
50
250.3990569
51
270.5094531
0
ARC
8
DEFAULT_255_2_778
10
27.3937544
20
7.2181048
40
1.1283102
50
208.3089842
51
249.6262441
0
ARC
8
DEFAULT_255_2_778
10
27.8199721
20
7.4708326
40
1.6235316
50
193.9385333
51
209.0281829
0
ARC
8
DEFAULT_255_2_778
10
28.4353096
20
7.6282791
40
2.2586807
50
183.0695836
51
194.0549026
0
ARC
8
DEFAULT_255_2_778
10
28.9669154
20
7.6691389
40
2.7917389
50
179.9702496
51
183.3227257
0
ARC
8
DEFAULT_255_2_778
10
34.5594153
20
8.5047159
40
2.1683081
50
94.0949695
51
139.2649143
0
ARC
8
DEFAULT_255_2_778
10
34.3278042
20
8.7150457
40
1.8555732
50
139.5191445
51
152.5544842
0
ARC
8
DEFAULT_255_2_778
10
40.159526
20
7.1266776
40
7.5009571
50
177.4883896
51
180.0831763
0
ARC
8
DEFAULT_255_2_778
10
37.66941
20
7.2379635
40
5.0083568
50
174.1001902
51
177.5119285
0
ARC
8
DEFAULT_255_2_778
10
35.9080743
20
7.4240443
40
3.237226
50
169.0253646
51
174.1718497
0
ARC
8
DEFAULT_255_2_778
10
34.7205128
20
7.6575191
40
2.0269379
50
161.4819702
51
169.1136611
0
ARC
8
DEFAULT_255_2_778
10
34.0241364
20
7.8937788
40
1.2915836
50
149.4657167
51
161.6086536
0
ARC
8
DEFAULT_255_2_778
10
33.8007344
20
8.0163874
40
1.0369002
50
124.6980891
51
149.0294962
0
ARC
8
DEFAULT_255_2_778
10
34.1446345
20
7.5273078
40
1.634775
50
102.525159
51
124.8499325
0
ARC
8
DEFAULT_255_2_778
10
34.4105385
20
6.4320113
40
2.7617587
50
94.917947
51
102.9824211
0
ARC
8
DEFAULT_255_2_778
10
34.5625661
20
4.9195482
40
4.2817424
50
92.5686122
51
95.2097427
0
ARC
8
DEFAULT_255_2_778
10
36.8253889
20
8.1330694
40
3.1354064
50
359.8029905
51
15.5822705
0
ARC
8
DEFAULT_255_2_778
10
37.3726564
20
8.2930798
40
2.5652809
50
15.4232147
51
35.9140918
0
ARC
8
DEFAULT_255_2_778
10
37.7637537
20
8.5787306
40
2.0809786
50
35.8606406
51
71.1140665
0
ARC
8
DEFAULT_255_2_778
10
37.715582
20
8.4087466
40
2.2574236
50
71.3537395
51
85.9836339
0
ARC
8
DEFAULT_255_2_778
10
37.6864957
20
8.1108399
40
2.556649
50
85.8010086
51
90.0250761
0
ARC
8
DEFAULT_255_2_778
10
37.6753492
20
7.2570597
40
3.4104435
50
89.8315357
51
100.3127876
0
ARC
8
DEFAULT_255_2_778
10
37.569254
20
7.8252283
40
2.8324615
50
100.2588461
51
114.902947
0
ARC
8
DEFAULT_255_2_778
10
37.4519345
20
8.0974374
40
2.5361738
50
115.0884466
51
155.7715307
0
ARC
8
DEFAULT_255_2_778
10
37.995274
20
7.8254656
40
3.1433645
50
155.3150739
51
167.7944089
0
ARC
8
DEFAULT_255_2_778
10
38.6510472
20
7.6811143
40
3.8148337
50
167.7576931
51
177.6019257
0
ARC
8
DEFAULT_255_2_778
10
39.1697086
20
7.6482135
40
4.334432
50
177.4542697
51
180.0122277
0
ARC
8
DEFAULT_255_2_778
10
38.4869803
20
7.6365056
40
3.6517195
50
179.8308155
51
188.5006518
0
ARC
8
DEFAULT_255_2_778
10
37.7431301
20
7.5230822
40
2.8992756
50
188.4567628
51
199.8832673
0
ARC
8
DEFAULT_255_2_778
10
37.2512826
20
7.3428498
40
2.3754514
50
199.8299966
51
217.2461946
0
ARC
8
DEFAULT_255_2_778
10
37.2054599
20
7.3336156
40
2.3334746
50
217.7466816
51
246.962497
0
ARC
8
DEFAULT_255_2_778
10
37.492861
20
7.962239
40
3.0244908
50
246.6124278
51
259.1120852
0
ARC
8
DEFAULT_255_2_778
10
37.6534269
20
8.771615
40
3.849629
50
259.0407371
51
268.2433204
0
ARC
8
DEFAULT_255_2_778
10
37.6847098
20
9.3677116
40
4.4464234
50
268.0758713
51
270.0085941
0
ARC
8
DEFAULT_255_2_778
10
37.6973757
20
11.4756612
40
6.5543838
50
269.89511
51
273.9175754
0
ARC
8
DEFAULT_255_2_778
10
37.8145508
20
9.7963313
40
4.8709726
50
273.8920828
51
279.5233064
0
ARC
8
DEFAULT_255_2_778
10
37.9708397
20
8.8623104
40
3.9239663
50
279.5291116
51
287.9400261
0
ARC
8
DEFAULT_255_2_778
10
37.9527318
20
8.8921722
40
3.9579619
50
288.056261
51
294.2442104
0
ARC
8
DEFAULT_255_2_778
10
37.8299911
20
10.1134258
40
4.0272425
50
270.7054746
51
293.2988838
0
ARC
8
DEFAULT_255_2_778
10
37.8664451
20
8.5622924
40
2.4758388
50
260.2760311
51
270.3038924
0
ARC
8
DEFAULT_255_2_778
10
37.726516
20
7.7733579
40
1.6746113
50
245.4588358
51
260.4356881
0
ARC
8
DEFAULT_255_2_778
10
37.5025986
20
7.3044741
40
1.1551162
50
197.1696358
51
245.9022767
0
ARC
8
DEFAULT_255_2_778
10
37.9443533
20
7.4541988
40
1.6214323
50
184.1385333
51
197.6164877
0
ARC
8
DEFAULT_255_2_778
10
38.2939417
20
7.4929634
40
1.9729526
50
183.7336347
51
184.5286767
0
ARC
8
DEFAULT_255_2_778
10
37.8064478
20
7.8131805
40
2.1371607
50
347.8807093
51
352.4908386
0
ARC
8
DEFAULT_255_2_778
10
35.8839998
20
8.071418
40
4.0768722
50
352.4235458
51
356.2055709
0
ARC
8
DEFAULT_255_2_778
10
35.0080707
20
8.1408562
40
4.9554893
50
356.0746906
51
358.9095233
0
ARC
8
DEFAULT_255_2_778
10
35.8277258
20
8.1234222
40
4.135651
50
358.934901
51
359.9842926
0
ARC
8
DEFAULT_255_2_778
10
37.5391791
20
8.4864241
40
1.0159034
50
72.2343686
51
90.5020885
0
ARC
8
DEFAULT_255_2_778
10
37.5371875
20
8.5733649
40
0.9341489
50
15.6930661
51
70.4907015
0
ARC
8
DEFAULT_255_2_778
10
36.978987
20
8.3533396
40
1.5322638
50
1.9354084
51
17.9686283
0
ARC
8
DEFAULT_255_2_778
10
37.9380976
20
8.1386197
40
1.5794609
50
150.4880731
51
170.2872541
0
ARC
8
DEFAULT_255_2_778
10
37.5765466
20
8.3598485
40
1.1559316
50
112.1863044
51
151.2030103
0
ARC
8
DEFAULT_255_2_778
10
37.5258484
20
8.4340587
40
1.0682389
50
89.7624814
51
111.1713891
0
LINE
8
DEFAULT_255_2_778
10
16.2043767
20
12.7034884
11
16.2043767
21
5.0345884
0
LINE
8
DEFAULT_255_2_778
10
16.2043767
20
5.0345884
11
21.1520767
21
5.0345884
0
LINE
8
DEFAULT_255_2_778
10
21.1520767
20
5.0345884
11
21.1520767
21
6.1994884
0
LINE
8
DEFAULT_255_2_778
10
21.1520767
20
6.1994884
11
17.7138767
21
6.1994884
0
LINE
8
DEFAULT_255_2_778
10
17.7138767
20
6.1994884
11
17.7138767
21
12.7034884
0
LINE
8
DEFAULT_255_2_778
10
17.7138767
20
12.7034884
11
16.2043767
21
12.7034884
0
LINE
8
DEFAULT_255_2_778
10
22.0622767
20
5.0345884
11
23.5743767
21
5.0345884
0
LINE
8
DEFAULT_255_2_778
10
23.5743767
20
5.0345884
11
23.5743767
21
10.5545884
0
LINE
8
DEFAULT_255_2_778
10
23.5743767
20
10.5545884
11
22.0648767
21
10.5545884
0
LINE
8
DEFAULT_255_2_778
10
22.0648767
20
10.5545884
11
22.0648767
21
5.0345884
0
LINE
8
DEFAULT_255_2_778
10
26.2000767
20
9.9097884
11
26.1775767
21
9.9097884
0
LINE
8
DEFAULT_255_2_778
10
26.1775767
20
9.9097884
11
26.1775767
21
13.1786884
0
LINE
8
DEFAULT_255_2_778
10
26.1775767
20
13.1786884
11
24.6681767
21
13.1786884
0
LINE
8
DEFAULT_255_2_778
10
24.6681767
20
13.1786884
11
24.6681767
21
5.0347884
0
LINE
8
DEFAULT_255_2_778
10
24.6681767
20
5.0347884
11
26.1436767
21
5.0347884
0
LINE
8
DEFAULT_255_2_778
10
26.1436767
20
5.0347884
11
26.1775767
21
5.6795884
0
LINE
8
DEFAULT_255_2_778
10
26.1775767
20
5.6795884
11
26.2000767
21
5.6795884
0
LINE
8
DEFAULT_255_2_778
10
26.1751767
20
7.6705884
11
26.1751767
21
7.9192884
0
LINE
8
DEFAULT_255_2_778
10
32.6810767
20
9.5702884
11
32.6585767
21
9.5702884
0
LINE
8
DEFAULT_255_2_778
10
32.6585767
20
9.5702884
11
32.6246767
21
10.5545884
0
LINE
8
DEFAULT_255_2_778
10
32.6246767
20
10.5545884
11
31.1490767
21
10.5545884
0
LINE
8
DEFAULT_255_2_778
10
31.1490767
20
10.5545884
11
31.1490767
21
5.0345884
0
LINE
8
DEFAULT_255_2_778
10
31.1490767
20
5.0345884
11
32.6585767
21
5.0345884
0
LINE
8
DEFAULT_255_2_778
10
32.6585767
20
5.0345884
11
32.6585767
21
7.1157884
0
LINE
8
DEFAULT_255_2_778
10
34.3706767
20
9.1969884
11
34.4045767
21
10.6674884
0
LINE
8
DEFAULT_255_2_778
10
39.5779767
20
5.2832884
11
39.4228767
21
6.4145884
0
LINE
8
DEFAULT_255_2_778
10
36.3251767
20
7.3644884
11
39.8959767
21
7.3644884
0
LINE
8
DEFAULT_255_2_778
10
38.5103767
20
8.4050884
11
36.3812767
21
8.4050884
0
ARC
8
DEFAULT_255_2_778
10
44.5332657
20
8.8962502
40
3.9204456
50
89.851967
51
105.0605447
0
ARC
8
DEFAULT_255_2_778
10
44.4034046
20
9.3279075
40
3.4698972
50
104.8419386
51
146.051741
0
ARC
8
DEFAULT_255_2_778
10
44.6207533
20
9.1870017
40
3.7288878
50
146.1207287
51
159.0928698
0
ARC
8
DEFAULT_255_2_778
10
45.063738
20
9.0171069
40
4.2033342
50
159.0843107
51
169.359639
0
ARC
8
DEFAULT_255_2_778
10
45.6773804
20
8.8999616
40
4.8280558
50
169.3379714
51
177.5061777
0
ARC
8
DEFAULT_255_2_778
10
46.1776501
20
8.8701376
40
5.3291554
50
177.419863
51
180.0113411
0
ARC
8
DEFAULT_255_2_778
10
45.9220608
20
8.860469
40
5.0735733
50
179.9027255
51
187.7616292
0
ARC
8
DEFAULT_255_2_778
10
45.2481724
20
8.7672796
40
4.3932734
50
187.7443403
51
197.3333675
0
ARC
8
DEFAULT_255_2_778
10
44.7440996
20
8.6091611
40
3.8649836
50
197.3221132
51
209.2183329
0
ARC
8
DEFAULT_255_2_778
10
44.4348324
20
8.4355947
40
3.5103412
50
209.2098885
51
226.4114846
0
ARC
8
DEFAULT_255_2_778
10
44.4322459
20
8.4592437
40
3.5257339
50
226.7069047
51
259.0996339
0
ARC
8
DEFAULT_255_2_778
10
44.5375369
20
8.8988115
40
3.977333
50
258.8076556
51
270.0843862
0
ARC
8
DEFAULT_255_2_778
10
44.5535396
20
8.8423377
40
3.9208681
50
269.8517541
51
285.0597308
0
ARC
8
DEFAULT_255_2_778
10
44.6835821
20
8.4100485
40
3.4696625
50
284.8408228
51
326.0533036
0
ARC
8
DEFAULT_255_2_778
10
44.4660897
20
8.5510371
40
3.7288188
50
326.1223604
51
339.0945476
0
ARC
8
DEFAULT_255_2_778
10
44.022875
20
8.7210091
40
4.2035075
50
339.0859352
51
349.3607687
0
ARC
8
DEFAULT_255_2_778
10
43.4089633
20
8.8381956
40
4.8285015
50
349.3390666
51
357.506506
0
ARC
8
DEFAULT_255_2_778
10
42.9079597
20
8.8680411
40
5.3303353
50
357.4202925
51
0.0111968
0
ARC
8
DEFAULT_255_2_778
10
43.1647289
20
8.8776964
40
5.0735733
50
359.9027255
51
7.7616292
0
ARC
8
DEFAULT_255_2_778
10
43.8386173
20
8.9708859
40
4.3932734
50
7.7443403
51
17.3333675
0
ARC
8
DEFAULT_255_2_778
10
44.34269
20
9.1290044
40
3.8649836
50
17.3221132
51
29.2183329
0
ARC
8
DEFAULT_255_2_778
10
44.6519573
20
9.3025707
40
3.5103412
50
29.2098885
51
46.4114846
0
ARC
8
DEFAULT_255_2_778
10
44.6545438
20
9.2789217
40
3.5257339
50
46.7069047
51
79.0996339
0
ARC
8
DEFAULT_255_2_778
10
44.5492527
20
8.839354
40
3.977333
50
78.8076556
51
90.0843862
0
ARC
8
DEFAULT_255_2_778
10
44.5560192
20
9.3169121
40
2.7306998
50
73.8061271
51
90.2648861
0
ARC
8
DEFAULT_255_2_778
10
44.6490694
20
9.6488729
40
2.3859616
50
37.3644107
51
73.7287623
0
ARC
8
DEFAULT_255_2_778
10
44.3305054
20
9.398541
40
2.7910814
50
24.0507309
51
37.4800025
0
ARC
8
DEFAULT_255_2_778
10
43.7951218
20
9.1567721
40
3.3785184
50
14.0779776
51
24.0945967
0
ARC
8
DEFAULT_255_2_778
10
43.0632641
20
8.9712496
40
4.1335227
50
5.9436704
51
14.1047541
0
ARC
8
DEFAULT_255_2_778
10
42.1964638
20
8.8768797
40
5.0054371
50
359.9107507
51
5.9906581
0
ARC
8
DEFAULT_255_2_778
10
42.253323
20
8.8592294
40
4.9485816
50
353.2067063
51
0.1140847
0
ARC
8
DEFAULT_255_2_778
10
43.1513092
20
8.7506556
40
4.0440573
50
344.9521394
51
353.2292438
0
ARC
8
DEFAULT_255_2_778
10
43.8649275
20
8.5567374
40
3.3045641
50
334.5500151
51
344.9867277
0
ARC
8
DEFAULT_255_2_778
10
44.3768063
20
8.3112884
40
2.7368831
50
320.8073687
51
334.584865
0
ARC
8
DEFAULT_255_2_778
10
44.636232
20
8.1033348
40
2.4044109
50
278.0945174
51
320.7413739
0
ARC
8
DEFAULT_255_2_778
10
44.547476
20
8.5422196
40
2.8515397
50
269.9179978
51
278.6184268
0
ARC
8
DEFAULT_255_2_778
10
44.5307724
20
8.4213818
40
2.7307283
50
253.8062577
51
270.2648424
0
ARC
8
DEFAULT_255_2_778
10
44.4377219
20
8.0894201
40
2.3859891
50
217.3652109
51
253.7289137
0
ARC
8
DEFAULT_255_2_778
10
44.7565613
20
8.3399253
40
2.7914329
50
204.0308053
51
217.4800677
0
ARC
8
DEFAULT_255_2_778
10
45.2924501
20
8.5817568
40
3.3793561
50
194.0675518
51
204.0756054
0
ARC
8
DEFAULT_255_2_778
10
46.0240154
20
8.7670638
40
4.1340238
50
185.9396501
51
194.0943182
0
ARC
8
DEFAULT_255_2_778
10
46.8902328
20
8.8613013
40
5.0053442
50
179.9109263
51
185.9865206
0
ARC
8
DEFAULT_255_2_778
10
46.833908
20
8.8789374
40
4.949023
50
173.2070092
51
180.1140889
0
ARC
8
DEFAULT_255_2_778
10
45.9357575
20
8.9875265
40
4.0443337
50
164.952691
51
173.2295535
0
ARC
8
DEFAULT_255_2_778
10
45.2239353
20
9.1808272
40
3.3067353
50
154.6177974
51
164.985127
0
ARC
8
DEFAULT_255_2_778
10
44.7119139
20
9.4257535
40
2.739152
50
140.8680893
51
154.655509
0
ARC
8
DEFAULT_255_2_778
10
44.4505172
20
9.634997
40
2.4043342
50
98.10548
51
140.8046928
0
ARC
8
DEFAULT_255_2_778
10
44.5393077
20
9.1962
40
2.8513857
50
89.9178725
51
98.6286321
0
ARC
8
DEFAULT_255_2_778
10
53.5562258
20
11.0181446
40
2.9292185
50
172.1698965
51
180.2293941
0
ARC
8
DEFAULT_255_2_778
10
52.6482212
20
11.1466994
40
2.0121694
50
161.2000043
51
172.2739194
0
ARC
8
DEFAULT_255_2_778
10
52.0153503
20
11.3670829
40
1.3420486
50
144.2252472
51
161.3995217
0
ARC
8
DEFAULT_255_2_778
10
51.7316066
20
11.5678906
40
0.9944533
50
96.0402196
51
144.0548745
0
ARC
8
DEFAULT_255_2_778
10
51.7960068
20
11.2137521
40
1.3536672
50
89.8931685
51
97.1737056
0
ARC
8
DEFAULT_255_2_778
10
51.8069119
20
9.9100056
40
2.6574246
50
84.3992933
51
90.1807021
0
ARC
8
DEFAULT_255_2_778
10
51.8717774
20
10.5785406
40
1.9857506
50
75.9292633
51
84.3793865
0
ARC
8
DEFAULT_255_2_778
10
51.7965479
20
10.320835
40
2.2540376
50
69.470084
51
75.66696
0
ARC
8
DEFAULT_255_2_778
10
52.0855364
20
11.5932722
40
1.6492257
50
68.9864269
51
74.3410067
0
ARC
8
DEFAULT_255_2_778
10
51.7477291
20
10.4078591
40
2.8818255
50
74.2353709
51
79.1620386
0
ARC
8
DEFAULT_255_2_778
10
51.6806478
20
10.0951437
40
3.2015842
50
79.0352589
51
82.8380306
0
ARC
8
DEFAULT_255_2_778
10
51.7624906
20
10.7975672
40
2.4944458
50
82.6917124
51
88.5244446
0
ARC
8
DEFAULT_255_2_778
10
51.7868741
20
11.450179
40
1.8414381
50
88.7599936
51
89.9889019
0
ARC
8
DEFAULT_255_2_778
10
51.774966
20
10.6310122
40
2.6606331
50
89.735881
51
100.5957939
0
ARC
8
DEFAULT_255_2_778
10
51.6494006
20
11.281366
40
1.9982833
50
100.4857531
51
117.0456342
0
ARC
8
DEFAULT_255_2_778
10
51.5502656
20
11.5042609
40
1.7547352
50
117.4719522
51
152.1633406
0
ARC
8
DEFAULT_255_2_778
10
52.0669591
20
11.2120522
40
2.3481481
50
151.7455112
51
164.3113146
0
ARC
8
DEFAULT_255_2_778
10
52.8123486
20
10.9972702
40
3.123852
50
164.2155863
51
172.9242243
0
ARC
8
DEFAULT_255_2_778
10
53.818644
20
10.8704369
40
4.1381076
50
172.8977784
51
180.0605328
0
ARC
8
DEFAULT_255_2_778
10
54.596568
20
10.857307
40
4.9160372
50
179.8979269
51
179.9987178
0
LINE
8
DEFAULT_255_2_778
10
49.6808308
20
10.857417
11
49.6808308
21
10.506917
0
LINE
8
DEFAULT_255_2_778
10
49.6808308
20
10.506917
11
48.7910308
21
10.506917
0
LINE
8
DEFAULT_255_2_778
10
48.7910308
20
10.506917
11
48.7910308
21
9.783017
0
LINE
8
DEFAULT_255_2_778
10
48.7910308
20
9.783017
11
49.6808308
21
9.783017
0
LINE
8
DEFAULT_255_2_778
10
49.6808308
20
9.783017
11
49.6808308
21
5.032417
0
LINE
8
DEFAULT_255_2_778
10
49.6808308
20
5.032417
11
50.6270308
21
5.032417
0
LINE
8
DEFAULT_255_2_778
10
50.6270308
20
5.032417
11
50.6270308
21
9.785117
0
LINE
8
DEFAULT_255_2_778
10
50.6270308
20
9.785117
11
52.0239308
21
9.785117
0
LINE
8
DEFAULT_255_2_778
10
52.0239308
20
9.785117
11
52.0239308
21
10.509017
0
LINE
8
DEFAULT_255_2_778
10
52.0239308
20
10.509017
11
50.6270308
21
10.509017
0
LINE
8
DEFAULT_255_2_778
10
50.6270308
20
10.509017
11
50.6270308
21
11.006417
0
LINE
8
DEFAULT_255_2_778
10
52.5870308
20
12.431717
11
52.6769308
21
13.132817
0
ARC
8
DEFAULT_255_2_778
10
56.7021258
20
11.0181446
40
2.9292185
50
172.1698965
51
180.2293941
0
ARC
8
DEFAULT_255_2_778
10
55.7941212
20
11.1466994
40
2.0121694
50
161.2000043
51
172.2739194
0
ARC
8
DEFAULT_255_2_778
10
55.1612503
20
11.3670829
40
1.3420486
50
144.2252472
51
161.3995217
0
ARC
8
DEFAULT_255_2_778
10
54.8775066
20
11.5678906
40
0.9944533
50
96.0402196
51
144.0548745
0
ARC
8
DEFAULT_255_2_778
10
54.9419068
20
11.2137521
40
1.3536672
50
89.8931685
51
97.1737056
0
ARC
8
DEFAULT_255_2_778
10
54.9528119
20
9.9100056
40
2.6574246
50
84.3992933
51
90.1807021
0
ARC
8
DEFAULT_255_2_778
10
55.0176774
20
10.5785406
40
1.9857506
50
75.9292633
51
84.3793865
0
ARC
8
DEFAULT_255_2_778
10
54.9424479
20
10.320835
40
2.2540376
50
69.470084
51
75.66696
0
ARC
8
DEFAULT_255_2_778
10
55.2314364
20
11.5932722
40
1.6492257
50
68.9864269
51
74.3410067
0
ARC
8
DEFAULT_255_2_778
10
54.8936291
20
10.4078591
40
2.8818255
50
74.2353709
51
79.1620386
0
ARC
8
DEFAULT_255_2_778
10
54.8265478
20
10.0951437
40
3.2015842
50
79.0352589
51
82.8380306
0
ARC
8
DEFAULT_255_2_778
10
54.9083906
20
10.7975672
40
2.4944458
50
82.6917124
51
88.5244446
0
ARC
8
DEFAULT_255_2_778
10
54.9327741
20
11.450179
40
1.8414381
50
88.7599936
51
89.9889019
0
ARC
8
DEFAULT_255_2_778
10
54.920866
20
10.6310122
40
2.6606331
50
89.735881
51
100.5957939
0
ARC
8
DEFAULT_255_2_778
10
54.7953006
20
11.281366
40
1.9982833
50
100.4857531
51
117.0456342
0
ARC
8
DEFAULT_255_2_778
10
54.6961656
20
11.5042609
40
1.7547352
50
117.4719522
51
152.1633406
0
ARC
8
DEFAULT_255_2_778
10
55.2128591
20
11.2120522
40
2.3481481
50
151.7455112
51
164.3113146
0
ARC
8
DEFAULT_255_2_778
10
55.9582486
20
10.9972702
40
3.123852
50
164.2155863
51
172.9242243
0
ARC
8
DEFAULT_255_2_778
10
56.964544
20
10.8704369
40
4.1381076
50
172.8977784
51
180.0605328
0
ARC
8
DEFAULT_255_2_778
10
57.742468
20
10.857307
40
4.9160372
50
179.8979269
51
179.9987178
0
LINE
8
DEFAULT_255_2_778
10
52.8267308
20
10.857417
11
52.8267308
21
10.506917
0
LINE
8
DEFAULT_255_2_778
10
52.8267308
20
10.506917
11
51.9369308
21
10.506917
0
LINE
8
DEFAULT_255_2_778
10
51.9369308
20
10.506917
11
51.9369308
21
9.783017
0
LINE
8
DEFAULT_255_2_778
10
51.9369308
20
9.783017
11
52.8267308
21
9.783017
0
LINE
8
DEFAULT_255_2_778
10
52.8267308
20
9.783017
11
52.8267308
21
5.032417
0
LINE
8
DEFAULT_255_2_778
10
52.8267308
20
5.032417
11
53.7729308
21
5.032417
0
LINE
8
DEFAULT_255_2_778
10
53.7729308
20
5.032417
11
53.7729308
21
9.785117
0
LINE
8
DEFAULT_255_2_778
10
53.7729308
20
9.785117
11
55.1698308
21
9.785117
0
LINE
8
DEFAULT_255_2_778
10
55.1698308
20
9.785117
11
55.1698308
21
10.509017
0
LINE
8
DEFAULT_255_2_778
10
55.1698308
20
10.509017
11
53.7729308
21
10.509017
0
LINE
8
DEFAULT_255_2_778
10
53.7729308
20
10.509017
11
53.7729308
21
11.006417
0
LINE
8
DEFAULT_255_2_778
10
55.7329308
20
12.431717
11
55.8228308
21
13.132817
0
ARC
8
DEFAULT_255_2_778
10
56.7423043
20
11.8950983
40
0.5827971
50
269.7057565
51
0.144514
0
ARC
8
DEFAULT_255_2_778
10
56.6897822
20
11.9004405
40
0.635329
50
359.650786
51
359.9971471
0
ARC
8
DEFAULT_255_2_778
10
56.7420649
20
11.9055464
40
0.5830691
50
359.4951517
51
90.2698471
0
ARC
8
DEFAULT_255_2_778
10
56.7365577
20
11.9055463
40
0.583069
50
89.7294083
51
180.5044742
0
ARC
8
DEFAULT_255_2_778
10
56.736536
20
11.8953488
40
0.5830466
50
179.5027459
51
270.2727305
0
ARC
8
DEFAULT_255_2_778
10
62.2376325
20
7.8042747
40
3.0583371
50
171.3024108
51
180.1848289
0
ARC
8
DEFAULT_255_2_778
10
61.5666123
20
7.909105
40
2.3791822
50
159.7735851
51
171.3542757
0
ARC
8
DEFAULT_255_2_778
10
61.1073387
20
8.0804164
40
1.8890036
50
143.5138412
51
159.8331031
0
ARC
8
DEFAULT_255_2_778
10
60.9657046
20
8.1630962
40
1.7260572
50
96.8018122
51
142.9247887
0
ARC
8
DEFAULT_255_2_778
10
61.0686726
20
7.6701943
40
2.2281169
50
89.9167177
51
97.9299018
0
ARC
8
DEFAULT_255_2_778
10
61.0736693
20
6.4550316
40
3.4432777
50
79.9263184
51
90.0292524
0
ARC
8
DEFAULT_255_2_778
10
61.0800389
20
6.4967309
40
3.4011073
50
70.1186839
51
79.9090951
0
ARC
8
DEFAULT_255_2_778
10
61.0835185
20
6.5060617
40
3.3911494
50
64.631612
51
70.1203574
0
ARC
8
DEFAULT_255_2_778
10
61.4577137
20
7.9414319
40
2.6269201
50
63.5859607
51
69.9757887
0
ARC
8
DEFAULT_255_2_778
10
61.1983484
20
7.2417721
40
3.3730978
50
69.9059649
51
76.4361306
0
ARC
8
DEFAULT_255_2_778
10
61.1352145
20
6.9968491
40
3.6259984
50
76.3740084
51
84.5236358
0
ARC
8
DEFAULT_255_2_778
10
61.1490393
20
7.1460975
40
3.4761117
50
84.5156942
51
89.9724406
0
ARC
8
DEFAULT_255_2_778
10
61.1381671
20
6.8767511
40
3.7454787
50
89.8081068
51
101.2017899
0
ARC
8
DEFAULT_255_2_778
10
60.9931187
20
7.5853953
40
3.0221608
50
101.1141938
51
116.8681846
0
ARC
8
DEFAULT_255_2_778
10
60.7584635
20
8.0401267
40
2.5104711
50
116.781169
51
152.6633091
0
ARC
8
DEFAULT_255_2_778
10
61.0663049
20
7.8828068
40
2.8561784
50
152.6957159
51
165.6415743
0
ARC
8
DEFAULT_255_2_778
10
61.6332285
20
7.7349612
40
3.442058
50
165.5976676
51
175.0062346
0
ARC
8
DEFAULT_255_2_778
10
62.2515147
20
7.6740486
40
4.0633054
50
174.9094859
51
180.0569636
0
ARC
8
DEFAULT_255_2_778
10
62.004952
20
7.6599157
40
3.816754
50
179.8484848
51
188.032977
0
ARC
8
DEFAULT_255_2_778
10
61.2604906
20
7.5530017
40
3.0646575
50
187.9987334
51
198.4208792
0
ARC
8
DEFAULT_255_2_778
10
60.7435128
20
7.3792506
40
2.519265
50
198.3870828
51
212.56279
0
ARC
8
DEFAULT_255_2_778
10
60.5755703
20
7.2934077
40
2.3315898
50
213.006154
51
254.4531425
0
ARC
8
DEFAULT_255_2_778
10
60.8201158
20
8.0275461
40
3.1046548
50
253.7365326
51
267.1568258
0
ARC
8
DEFAULT_255_2_778
10
60.8595426
20
8.5185479
40
3.5970392
50
266.917523
51
270.0154298
0
ARC
8
DEFAULT_255_2_778
10
60.873301
20
11.7706126
40
6.8491157
50
269.8930085
51
272.8816333
0
ARC
8
DEFAULT_255_2_778
10
60.9943855
20
9.4646443
40
4.5399786
50
272.8184823
51
278.2146733
0
ARC
8
DEFAULT_255_2_778
10
61.134031
20
8.4737069
40
3.5392575
50
278.2693085
51
286.7008958
0
ARC
8
DEFAULT_255_2_778
10
61.0673504
20
8.6789011
40
3.7549617
50
286.7756645
51
291.4260639
0
ARC
8
DEFAULT_255_2_778
10
60.8663422
20
9.2003427
40
4.3137959
50
291.3813525
51
293.2951779
0
ARC
8
DEFAULT_255_2_778
10
61.0145149
20
9.2021452
40
3.5570431
50
282.2187769
51
294.3728733
0
ARC
8
DEFAULT_255_2_778
10
61.0188573
20
9.1745316
40
3.5291364
50
282.0540355
51
282.2447565
0
ARC
8
DEFAULT_255_2_778
10
61.0187957
20
9.1635674
40
3.5184275
50
272.3523115
51
282.092304
0
ARC
8
DEFAULT_255_2_778
10
61.0290007
20
8.9873309
40
3.3419219
50
270.0053257
51
272.3015134
0
ARC
8
DEFAULT_255_2_778
10
61.0152046
20
7.8481148
40
2.2027511
50
256.418349
51
270.3669334
0
ARC
8
DEFAULT_255_2_778
10
60.8489372
20
7.2341981
40
1.5670543
50
211.9548582
51
257.0564291
0
ARC
8
DEFAULT_255_2_778
10
61.1662386
20
7.4303553
40
1.9400904
50
198.3139227
51
211.9105742
0
ARC
8
DEFAULT_255_2_778
10
61.7652695
20
7.6324052
40
2.5722712
50
188.7792579
51
198.3938121
0
ARC
8
DEFAULT_255_2_778
10
62.6133636
20
7.7662671
40
3.4308611
50
181.3728681
51
188.8268626
0
ARC
8
DEFAULT_255_2_778
10
63.2754093
20
7.7939857
40
4.093398
50
179.9912773
51
181.5387172
0
ARC
8
DEFAULT_255_2_778
10
64.3823449
20
8.1123345
40
3.6155895
50
359.7951687
51
11.0966784
0
ARC
8
DEFAULT_255_2_778
10
65.180584
20
8.2734449
40
2.8012698
50
11.0053514
51
25.2439313
0
ARC
8
DEFAULT_255_2_778
10
65.8605425
20
8.6114385
40
2.0421624
50
24.8025601
51
53.4666962
0
ARC
8
DEFAULT_255_2_778
10
65.9726765
20
8.7231701
40
1.8857802
50
54.1833956
51
75.1742941
0
ARC
8
DEFAULT_255_2_778
10
65.8776109
20
8.3671173
40
2.254305
50
75.1541117
51
88.0338962
0
ARC
8
DEFAULT_255_2_778
10
65.8552329
20
8.0228656
40
2.5991433
50
87.8012374
51
90.009293
0
ARC
8
DEFAULT_255_2_778
10
65.8474805
20
8.0506458
40
2.5713736
50
89.8366537
51
106.6631381
0
ARC
8
DEFAULT_255_2_778
10
65.8594685
20
8.0864624
40
2.5405915
50
107.15376
51
149.6647252
0
ARC
8
DEFAULT_255_2_778
10
66.2793841
20
7.8072664
40
3.0441617
50
149.1210074
51
164.714972
0
ARC
8
DEFAULT_255_2_778
10
66.6900869
20
7.6923216
40
3.4706393
50
164.6719033
51
177.2578255
0
ARC
8
DEFAULT_255_2_778
10
66.9790675
20
7.6702044
40
3.7603563
50
177.13187
51
180.0075507
0
ARC
8
DEFAULT_255_2_778
10
67.3099207
20
7.6593791
40
4.0912224
50
179.8553357
51
187.2274957
0
ARC
8
DEFAULT_255_2_778
10
66.4521614
20
7.5485085
40
3.2263307
50
187.1906372
51
196.5944171
0
ARC
8
DEFAULT_255_2_778
10
65.8375557
20
7.3636492
40
2.5845287
50
196.5582432
51
209.0176306
0
ARC
8
DEFAULT_255_2_778
10
65.4909282
20
7.169938
40
2.1874482
50
208.9848089
51
231.0857929
0
ARC
8
DEFAULT_255_2_778
10
65.5916823
20
7.3270752
40
2.3730911
50
231.5761907
51
254.4552747
0
ARC
8
DEFAULT_255_2_778
10
65.8029347
20
8.0360895
40
3.1128138
50
254.2064925
51
266.6013592
0
ARC
8
DEFAULT_255_2_778
10
65.853093
20
8.6256433
40
3.704335
50
266.3674981
51
270.0265773
0
ARC
8
DEFAULT_255_2_778
10
65.8658222
20
10.6358867
40
5.7145885
50
269.8896028
51
274.1509435
0
ARC
8
DEFAULT_255_2_778
10
65.9702552
20
9.2410874
40
4.3158899
50
274.1084938
51
281.2529038
0
ARC
8
DEFAULT_255_2_778
10
66.0155923
20
8.9567425
40
4.0281793
50
281.4096722
51
289.8041505
0
ARC
8
DEFAULT_255_2_778
10
65.7825611
20
9.6253419
40
4.7361931
50
289.7161204
51
292.1284582
0
ARC
8
DEFAULT_255_2_778
10
66.3808195
20
8.2318365
40
2.520625
50
288.3776459
51
295.7706514
0
ARC
8
DEFAULT_255_2_778
10
65.9966046
20
9.3981835
40
3.7486231
50
279.4061038
51
288.3301901
0
ARC
8
DEFAULT_255_2_778
10
65.9391605
20
9.6551131
40
4.0115133
50
273.9313536
51
279.6157961
0
ARC
8
DEFAULT_255_2_778
10
65.985388
20
8.9908364
40
3.3456303
50
270.0740392
51
273.9215055
0
ARC
8
DEFAULT_255_2_778
10
65.9771133
20
7.9437025
40
2.2985281
50
257.759735
51
270.3140335
0
ARC
8
DEFAULT_255_2_778
10
65.8457375
20
7.361854
40
1.7020611
50
237.4885303
51
257.9290814
0
ARC
8
DEFAULT_255_2_778
10
65.765879
20
7.2099037
40
1.5310693
50
206.9622182
51
236.9524461
0
ARC
8
DEFAULT_255_2_778
10
66.1477323
20
7.4115485
40
1.9628547
50
193.4370912
51
207.1546922
0
ARC
8
DEFAULT_255_2_778
10
66.7741739
20
7.5650493
40
2.6078205
50
183.709088
51
193.5189932
0
ARC
8
DEFAULT_255_2_778
10
67.3334488
20
7.6127712
40
3.1690318
50
181.0118469
51
183.9159621
0
ARC
8
DEFAULT_255_2_778
10
65.7855591
20
8.6055007
40
1.2928464
50
72.2683576
51
90.4408658
0
ARC
8
DEFAULT_255_2_778
10
65.799195
20
8.7208701
40
1.1790128
50
23.4182238
51
71.1919454
0
ARC
8
DEFAULT_255_2_778
10
65.2127673
20
8.4195416
40
1.837409
50
9.4347787
51
24.7728704
0
ARC
8
DEFAULT_255_2_778
10
64.6173027
20
8.3110537
40
2.4426207
50
359.8206783
51
9.6554826
0
ARC
8
DEFAULT_255_2_778
10
66.9170199
20
7.9442585
40
2.7309279
50
161.7846358
51
172.4430133
0
ARC
8
DEFAULT_255_2_778
10
66.1683275
20
8.1956108
40
1.9411895
50
146.6674562
51
161.9240432
0
ARC
8
DEFAULT_255_2_778
10
65.7006256
20
8.5179972
40
1.3733318
50
100.4148847
51
147.1827648
0
ARC
8
DEFAULT_255_2_778
10
65.7696089
20
8.1843645
40
1.7139548
50
89.7993431
51
100.6667516
0
ARC
8
DEFAULT_255_2_778
10
20.2256524
20
1.1737216
40
1.016981
50
163.3238961
51
180.5077771
0
ARC
8
DEFAULT_255_2_778
10
19.9338428
20
1.2645152
40
0.7113974
50
137.0300667
51
163.5846112
0
ARC
8
DEFAULT_255_2_778
10
19.8292687
20
1.3569044
40
0.5719174
50
89.6150352
51
136.6616907
0
ARC
8
DEFAULT_255_2_778
10
19.8457064
20
1.3411167
40
0.5878271
50
73.1154289
51
91.2277426
0
ARC
8
DEFAULT_255_2_778
10
19.9093959
20
1.5827876
40
0.3382025
50
10.6815163
51
71.5485095
0
ARC
8
DEFAULT_255_2_778
10
19.2203953
20
1.3817394
40
1.0548445
50
3.0676706
51
14.4787853
0
ARC
8
DEFAULT_255_2_778
10
17.8702569
20
1.2831037
40
2.4084697
50
359.7955335
51
3.6919419
0
ARC
8
DEFAULT_255_2_778
10
19.1912104
20
1.4109446
40
1.4732526
50
359.52025
51
10.7903871
0
ARC
8
DEFAULT_255_2_778
10
19.8071126
20
1.533559
40
0.8453006
50
10.4420296
51
29.7304532
0
ARC
8
DEFAULT_255_2_778
10
20.0289741
20
1.6508946
40
0.5945098
50
30.5145081
51
82.7780867
0
ARC
8
DEFAULT_255_2_778
10
19.9474541
20
1.2726348
40
0.9805832
50
80.8307413
51
90.2479089
0
ARC
8
DEFAULT_255_2_778
10
19.9384268
20
1.4756586
40
0.777565
50
89.6474466
51
118.4083169
0
ARC
8
DEFAULT_255_2_778
10
20.0575486
20
1.297278
40
0.9913374
50
119.5592483
51
147.938495
0
ARC
8
DEFAULT_255_2_778
10
21.6473645
20
1.2018777
40
1.4836027
50
359.503007
51
16.7328649
0
ARC
8
DEFAULT_255_2_778
10
22.1530439
20
1.3631374
40
0.9529477
50
16.2012687
51
44.9924163
0
ARC
8
DEFAULT_255_2_778
10
22.2964026
20
1.4854897
40
0.7652033
50
46.1028211
51
81.7049979
0
ARC
8
DEFAULT_255_2_778
10
22.2599882
20
1.2966451
40
0.9573662
50
81.1790049
51
90.1302818
0
ARC
8
DEFAULT_255_2_778
10
22.2583679
20
1.2355144
40
1.0184946
50
90.0313133
51
150.8980755
0
ARC
8
DEFAULT_255_2_778
10
22.5333807
20
1.0557231
40
1.346435
50
149.904941
51
171.3598574
0
ARC
8
DEFAULT_255_2_778
10
22.7611017
20
1.0124758
40
1.5780916
50
171.0495626
51
180.0750458
0
ARC
8
DEFAULT_255_2_778
10
22.8581884
20
1.0000996
40
1.6752088
50
179.6473992
51
191.2618178
0
ARC
8
DEFAULT_255_2_778
10
22.3551261
20
0.8967638
40
1.1616564
50
191.1088332
51
208.5700811
0
ARC
8
DEFAULT_255_2_778
10
22.1593358
20
0.804092
40
0.9454677
50
209.3122171
51
263.704799
0
ARC
8
DEFAULT_255_2_778
10
22.2547052
20
1.2404626
40
1.3904572
50
261.769963
51
270.1279931
0
ARC
8
DEFAULT_255_2_778
10
22.2695936
20
1.8904957
40
2.0405208
50
269.6691633
51
277.8815053
0
ARC
8
DEFAULT_255_2_778
10
22.3251236
20
1.4409374
40
1.5876085
50
278.1211458
51
290.3599547
0
ARC
8
DEFAULT_255_2_778
10
22.2240365
20
1.7246188
40
1.888741
50
290.2408614
51
292.8117902
0
ARC
8
DEFAULT_255_2_778
10
22.4071729
20
1.3352172
40
1.1646102
50
283.7155274
51
296.0825157
0
ARC
8
DEFAULT_255_2_778
10
22.2934792
20
1.7419229
40
1.5867373
50
279.8288062
51
284.2218263
0
ARC
8
DEFAULT_255_2_778
10
22.2994841
20
1.6848328
40
1.529465
50
271.6138946
51
279.9722382
0
ARC
8
DEFAULT_255_2_778
10
22.3126015
20
1.3825111
40
1.2269024
50
270.0097988
51
271.3991902
0
ARC
8
DEFAULT_255_2_778
10
22.2997798
20
0.9798475
40
0.8243416
50
247.5404389
51
270.9057906
0
ARC
8
DEFAULT_255_2_778
10
22.2405722
20
0.8084202
40
0.6433882
50
199.6915126
51
246.5809428
0
ARC
8
DEFAULT_255_2_778
10
22.5865168
20
0.9475041
40
1.0160691
50
183.8933073
51
200.5025519
0
ARC
8
DEFAULT_255_2_778
10
22.9351165
20
0.9851541
40
1.3664912
50
180.9453439
51
184.4758647
0
ARC
8
DEFAULT_255_2_778
10
22.2358693
20
1.4804866
40
0.4706363
50
52.5035273
51
91.2610917
0
ARC
8
DEFAULT_255_2_778
10
22.1592544
20
1.414246
40
0.5701948
50
15.6891325
51
50.4467579
0
ARC
8
DEFAULT_255_2_778
10
21.7719803
20
1.2874586
40
0.9774796
50
359.4285022
51
16.7054604
0
ARC
8
DEFAULT_255_2_778
10
22.6731709
20
1.1445315
40
1.0913161
50
156.013848
51
172.9905128
0
ARC
8
DEFAULT_255_2_778
10
22.2120405
20
1.3723722
40
0.5777576
50
95.2193503
51
158.0679231
0
ARC
8
DEFAULT_255_2_778
10
22.2277199
20
1.2385071
40
0.7125021
50
89.9443991
51
95.4957264
0
ARC
8
DEFAULT_255_2_778
10
25.2644842
20
3.6854878
40
3.8017613
50
261.7249005
51
264.4898928
0
ARC
8
DEFAULT_255_2_778
10
25.5140523
20
6.2187356
40
6.3472696
50
264.4432322
51
266.8289242
0
ARC
8
DEFAULT_255_2_778
10
25.5529438
20
6.7513398
40
6.881216
50
266.7509086
51
269.0327728
0
ARC
8
DEFAULT_255_2_778
10
25.5226828
20
5.1725721
40
5.3021634
50
269.0717437
51
269.983019
0
ARC
8
DEFAULT_255_2_778
10
25.5416385
20
1.9489666
40
2.0786591
50
269.4341836
51
296.1313984
0
ARC
8
DEFAULT_255_2_778
10
25.7658331
20
1.4884388
40
1.566462
50
296.1881639
51
333.565017
0
ARC
8
DEFAULT_255_2_778
10
25.6446946
20
1.5348113
40
1.6956238
50
333.984187
51
350.1227001
0
ARC
8
DEFAULT_255_2_778
10
25.2540046
20
1.6064676
40
2.0928176
50
350.0248078
51
0.1845596
0
ARC
8
DEFAULT_255_2_778
10
25.3896698
20
1.6249877
40
1.957177
50
359.6551752
51
11.5291181
0
ARC
8
DEFAULT_255_2_778
10
25.9355582
20
1.7401284
40
1.3992951
50
11.377085
51
30.6729571
0
ARC
8
DEFAULT_255_2_778
10
26.0366146
20
1.7782035
40
1.2930904
50
31.5061961
51
65.6818107
0
ARC
8
DEFAULT_255_2_778
10
25.7602604
20
1.2150717
40
1.9201641
50
65.0869814
51
78.428018
0
ARC
8
DEFAULT_255_2_778
10
25.578876
20
0.3605642
40
2.7936951
50
78.2991354
51
87.4597463
0
ARC
8
DEFAULT_255_2_778
10
25.5296583
20
-0.4149358
40
3.5706451
50
87.2222881
51
90.0296368
0
ARC
8
DEFAULT_255_2_778
10
25.529371
20
-2.0837739
40
5.239483
50
90.0170561
51
93.9312674
0
ARC
8
DEFAULT_255_2_778
10
25.506062
20
-1.738121
40
4.8930454
50
93.9364631
51
95.4220276
0
ARC
8
DEFAULT_255_2_778
10
25.4159623
20
-0.8733467
40
4.0236348
50
95.3083486
51
100.0369332
0
ARC
8
DEFAULT_255_2_778
10
25.438172
20
0.769159
40
2.0609159
50
89.8387458
51
99.4326786
0
ARC
8
DEFAULT_255_2_778
10
25.5561078
20
-5.5318508
40
8.3626693
50
89.9129631
51
90.7683053
0
ARC
8
DEFAULT_255_2_778
10
25.579977
20
0.8497139
40
1.9811264
50
79.222054
51
90.3229209
0
ARC
8
DEFAULT_255_2_778
10
25.69463
20
1.4339916
40
1.3857194
50
63.0170561
51
79.3613381
0
ARC
8
DEFAULT_255_2_778
10
25.8322419
20
1.7141124
40
1.0736635
50
11.3601513
51
62.7787221
0
ARC
8
DEFAULT_255_2_778
10
25.3113467
20
1.57507
40
1.6120941
50
359.6530745
51
12.5585004
0
ARC
8
DEFAULT_255_2_778
10
25.1565421
20
1.555665
40
1.7668956
50
348.0779167
51
0.3127274
0
ARC
8
DEFAULT_255_2_778
10
25.5877432
20
1.4624724
40
1.3257455
50
330.2033892
51
348.1688599
0
ARC
8
DEFAULT_255_2_778
10
25.684508
20
1.4354797
40
1.2286079
50
277.620578
51
329.0532742
0
ARC
8
DEFAULT_255_2_778
10
25.56701
20
1.914455
40
1.7197497
50
269.8834381
51
279.384698
0
ARC
8
DEFAULT_255_2_778
10
25.5466808
20
5.4017582
40
5.2070766
50
270.0000002
51
270.1851938
0
ARC
8
DEFAULT_255_2_778
10
25.5470785
20
5.4359895
40
5.2413078
50
265.1036122
51
269.9956532
0
LINE
8
DEFAULT_255_2_778
10
56.2663113
20
5.0345089
11
57.2124113
21
5.0345089
0
LINE
8
DEFAULT_255_2_778
10
57.2124113
20
5.0345089
11
57.2124113
21
10.5093089
0
LINE
8
DEFAULT_255_2_778
10
57.2124113
20
10.5093089
11
56.2663113
21
10.5093089
0
LINE
8
DEFAULT_255_2_778
10
56.2663113
20
10.5093089
11
56.2663113
21
5.0345089
0
LINE
8
DEFAULT_255_2_778
10
62.5364113
20
9.5702089
11
62.6263113
21
10.2941089
0
LINE
8
DEFAULT_255_2_778
10
62.5723113
20
5.2382089
11
62.4824113
21
5.9621089
0
LINE
8
DEFAULT_255_2_778
10
67.9640113
20
7.5565089
11
67.9979113
21
8.0994089
0
LINE
8
DEFAULT_255_2_778
10
67.5666113
20
5.2380089
11
67.4767113
21
5.9619089
0
LINE
8
DEFAULT_255_2_778
10
64.1649113
20
7.5568089
11
67.9611113
21
7.5568089
0
LINE
8
DEFAULT_255_2_778
10
67.0599113
20
8.3034089
11
64.2098113
21
8.3034089
0
LINE
8
DEFAULT_255_2_778
10
18.4644113
20
3.1324089
11
16.2049113
21
3.1324089
0
LINE
8
DEFAULT_255_2_778
10
16.2049113
20
3.1324089
11
16.2049113
21
2.8078089
0
LINE
8
DEFAULT_255_2_778
10
16.2049113
20
2.8078089
11
17.1373113
21
2.8078089
0
LINE
8
DEFAULT_255_2_778
10
17.1373113
20
2.8078089
11
17.1373113
21
-0.1026911
0
LINE
8
DEFAULT_255_2_778
10
17.1373113
20
-0.1026911
11
17.5231113
21
-0.1026911
0
LINE
8
DEFAULT_255_2_778
10
17.5231113
20
-0.1026911
11
17.5231113
21
2.8078089
0
LINE
8
DEFAULT_255_2_778
10
17.5231113
20
2.8078089
11
18.4650113
21
2.8078089
0
LINE
8
DEFAULT_255_2_778
10
18.4650113
20
2.8078089
11
18.4650113
21
3.1324089
0
LINE
8
DEFAULT_255_2_778
10
19.2058113
20
1.8240089
11
19.2058113
21
3.3327089
0
LINE
8
DEFAULT_255_2_778
10
19.2058113
20
3.3327089
11
18.8224113
21
3.3327089
0
LINE
8
DEFAULT_255_2_778
10
18.8224113
20
3.3327089
11
18.8224113
21
-0.1052911
0
LINE
8
DEFAULT_255_2_778
10
18.8224113
20
-0.1052911
11
19.2087113
21
-0.1052911
0
LINE
8
DEFAULT_255_2_778
10
19.2087113
20
-0.1052911
11
19.2087113
21
1.1647089
0
LINE
8
DEFAULT_255_2_778
10
20.2787113
20
1.2745089
11
20.2787113
21
-0.1055911
0
LINE
8
DEFAULT_255_2_778
10
20.2787113
20
-0.1055911
11
20.6644113
21
-0.1055911
0
LINE
8
DEFAULT_255_2_778
10
20.6644113
20
-0.1055911
11
20.6644113
21
1.3986089
0
LINE
8
DEFAULT_255_2_778
10
19.2174113
20
1.8235089
11
19.2087113
21
1.8235089
0
LINE
8
DEFAULT_255_2_778
10
23.1171113
20
0.9599089
11
23.1309113
21
1.1890089
0
LINE
8
DEFAULT_255_2_778
10
22.9563113
20
-0.0163911
11
22.9192113
21
0.2892089
0
LINE
8
DEFAULT_255_2_778
10
21.5688113
20
0.9626089
11
23.1166113
21
0.9626089
0
LINE
8
DEFAULT_255_2_778
10
22.7494113
20
1.2777089
11
21.5900113
21
1.2777089
0
LINE
8
DEFAULT_255_2_778
10
24.7173113
20
3.0893089
11
24.7173113
21
-0.0766911
0
LINE
8
DEFAULT_255_2_778
10
25.0997113
20
0.2138089
11
25.0997113
21
2.8019089
0
ARC
8
DEFAULT_255_2_778
10
28.7754082
20
1.150704
40
1.1033577
50
89.5145324
51
110.016755
0
ARC
8
DEFAULT_255_2_778
10
28.7674003
20
1.2348408
40
1.0217837
50
111.2098431
51
163.2349961
0
ARC
8
DEFAULT_255_2_778
10
29.2195968
20
1.0618164
40
1.5050809
50
161.893525
51
180.4223475
0
ARC
8
DEFAULT_255_2_778
10
29.2280011
20
1.0396454
40
1.5134848
50
179.5806711
51
197.8154849
0
ARC
8
DEFAULT_255_2_778
10
28.8176661
20
0.897095
40
1.0792609
50
197.2754865
51
230.735516
0
ARC
8
DEFAULT_255_2_778
10
28.7416575
20
0.8324984
40
0.9813066
50
231.7845063
51
261.2118982
0
ARC
8
DEFAULT_255_2_778
10
28.7822014
20
1.041177
40
1.1937577
50
260.8190059
51
270.1226552
0
ARC
8
DEFAULT_255_2_778
10
28.7940934
20
0.9579434
40
1.1105606
50
269.5183079
51
289.5861125
0
ARC
8
DEFAULT_255_2_778
10
28.805306
20
0.8640606
40
1.0185657
50
290.762296
51
343.5150738
0
ARC
8
DEFAULT_255_2_778
10
28.342446
20
1.0395636
40
1.512652
50
342.1154944
51
0.4226607
0
ARC
8
DEFAULT_255_2_778
10
28.3418363
20
1.0617867
40
1.513261
50
359.58106
51
17.8170028
0
ARC
8
DEFAULT_255_2_778
10
28.7518715
20
1.2042512
40
1.0793488
50
17.2771332
51
50.7356954
0
ARC
8
DEFAULT_255_2_778
10
28.8278602
20
1.2688328
40
0.9814188
50
51.7842364
51
81.2115448
0
ARC
8
DEFAULT_255_2_778
10
28.7873113
20
1.0601328
40
1.1938921
50
80.8186821
51
90.1225896
0
ARC
8
DEFAULT_255_2_778
10
28.7751272
20
0.7728859
40
0.6197387
50
244.5820733
51
270.8903177
0
ARC
8
DEFAULT_255_2_778
10
28.8130102
20
0.7877937
40
0.650059
50
198.3178139
51
242.1295263
0
ARC
8
DEFAULT_255_2_778
10
29.4028233
20
1.0192206
40
1.2831788
50
181.3963845
51
199.8508375
0
ARC
8
DEFAULT_255_2_778
10
29.8018664
20
1.0506582
40
1.6830095
50
179.9910188
51
182.1352857
0
ARC
8
DEFAULT_255_2_778
10
29.4949055
20
1.0673259
40
1.3761464
50
162.8589434
51
180.6829888
0
ARC
8
DEFAULT_255_2_778
10
28.8875358
20
1.2651771
40
0.7375116
50
131.9550606
51
163.6401971
0
ARC
8
DEFAULT_255_2_778
10
28.7605596
20
1.3791647
40
0.5681453
50
94.3921892
51
130.1170876
0
ARC
8
DEFAULT_255_2_778
10
28.7840786
20
1.2180266
40
0.7306957
50
89.9468106
51
95.2633442
0
ARC
8
DEFAULT_255_2_778
10
28.7943936
20
1.3288625
40
0.6199345
50
64.5858898
51
90.8906845
0
ARC
8
DEFAULT_255_2_778
10
28.7566003
20
1.3141302
40
0.6500557
50
18.3172328
51
62.1336559
0
ARC
8
DEFAULT_255_2_778
10
28.1665971
20
1.0826513
40
1.2833719
50
1.3954927
51
19.8498503
0
ARC
8
DEFAULT_255_2_778
10
27.7670832
20
1.0511861
40
1.6836737
50
359.9910145
51
2.1348633
0
ARC
8
DEFAULT_255_2_778
10
28.0751729
20
1.0345259
40
1.3756817
50
342.8555832
51
0.6828988
0
ARC
8
DEFAULT_255_2_778
10
28.6821661
20
0.8367583
40
0.7374308
50
311.9485858
51
343.63642
0
ARC
8
DEFAULT_255_2_778
10
28.8089749
20
0.7229378
40
0.5683027
50
274.3903195
51
310.1104862
0
ARC
8
DEFAULT_255_2_778
10
28.7854356
20
0.8842217
40
0.731
50
269.9468058
51
275.2622439
0
ARC
8
DEFAULT_255_2_778
10
31.8837449
20
1.0698038
40
1.2439547
50
166.3293626
51
180.4558967
0
ARC
8
DEFAULT_255_2_778
10
31.4981329
20
1.1667233
40
0.8463666
50
144.5993887
51
166.5350379
0
ARC
8
DEFAULT_255_2_778
10
31.3868352
20
1.2285796
40
0.7199499
50
88.0343646
51
143.4809203
0
LINE
8
DEFAULT_255_2_778
10
31.4115295
20
1.9481059
11
31.4128376
21
1.9481065
0
ARC
8
DEFAULT_255_2_778
10
31.4130759
20
0.5971079
40
1.3509986
50
63.8387566
51
90.0101058
0
ARC
8
DEFAULT_255_2_778
10
31.527627
20
1.0989885
40
1.1407591
50
62.98823
51
73.1060709
0
ARC
8
DEFAULT_255_2_778
10
31.4383832
20
0.8260767
40
1.4278405
50
72.8619326
51
85.8169627
0
ARC
8
DEFAULT_255_2_778
10
31.4437421
20
0.8935284
40
1.3601776
50
85.8348437
51
89.9836774
0
ARC
8
DEFAULT_255_2_778
10
31.4311763
20
0.8631749
40
1.3905914
50
89.4662854
51
109.60036
0
ARC
8
DEFAULT_255_2_778
10
31.3161252
20
1.1799638
40
1.0535659
50
109.4853265
51
158.6842946
0
ARC
8
DEFAULT_255_2_778
10
31.6136963
20
1.0585225
40
1.3749342
50
158.4774104
51
174.4978679
0
ARC
8
DEFAULT_255_2_778
10
31.9833813
20
1.0125578
40
1.7473535
50
174.1599144
51
180.077118
0
ARC
8
DEFAULT_255_2_778
10
31.8071885
20
1.0003707
40
1.5711897
50
179.6413418
51
192.3653307
0
ARC
8
DEFAULT_255_2_778
10
31.3751303
20
0.9026882
40
1.1282398
50
192.2183817
51
211.546103
0
ARC
8
DEFAULT_255_2_778
10
31.2475793
20
0.844868
40
0.9894418
50
212.5570556
51
265.1451617
0
ARC
8
DEFAULT_255_2_778
10
31.3228986
20
1.2187735
40
1.3690686
50
263.3283517
51
270.0682538
0
ARC
8
DEFAULT_255_2_778
10
31.3391514
20
2.1581848
40
2.3085252
50
269.6370939
51
275.9480035
0
ARC
8
DEFAULT_255_2_778
10
31.4271131
20
1.2909104
40
1.4368067
50
276.0430694
51
287.0669576
0
ARC
8
DEFAULT_255_2_778
10
31.3880845
20
1.3976592
40
1.5503206
50
287.2879718
51
293.9519626
0
ARC
8
DEFAULT_255_2_778
10
31.2834959
20
1.6452132
40
1.8190234
50
293.79707
51
293.9886298
0
ARC
8
DEFAULT_255_2_778
10
31.3899581
20
1.5513373
40
1.3960354
50
270.138371
51
295.2711654
0
ARC
8
DEFAULT_255_2_778
10
31.3776825
20
0.9349923
40
0.7798434
50
243.4600754
51
271.1496824
0
ARC
8
DEFAULT_255_2_778
10
31.3335472
20
0.8122018
40
0.6504535
50
205.0892328
51
242.1051054
0
ARC
8
DEFAULT_255_2_778
10
31.6360286
20
0.9620762
40
0.9879746
50
189.2088526
51
205.5225923
0
ARC
8
DEFAULT_255_2_778
10
32.1600858
20
1.0544562
40
1.5200792
50
179.6852752
51
189.4848599
0
LINE
8
DEFAULT_255_2_778
10
32.0087295
20
1.8097059
11
32.0457295
21
2.1153059
0
LINE
8
DEFAULT_255_2_778
10
32.0230295
20
-0.0166941
11
31.9859295
21
0.2889059
0
ARC
8
DEFAULT_255_2_778
10
32.9475636
20
0.9265744
40
1.0170234
50
343.326684
51
0.5074248
0
ARC
8
DEFAULT_255_2_778
10
33.2393616
20
0.8357935
40
0.7114548
50
317.0361788
51
343.5878624
0
ARC
8
DEFAULT_255_2_778
10
33.3440056
20
0.7433643
40
0.5718959
50
269.6134278
51
316.6674447
0
ARC
8
DEFAULT_255_2_778
10
33.3275571
20
0.758881
40
0.5875346
50
253.1112131
51
271.2278601
0
ARC
8
DEFAULT_255_2_778
10
33.2639521
20
0.5174771
40
0.3381912
50
190.677477
51
251.540564
0
ARC
8
DEFAULT_255_2_778
10
33.9531386
20
0.7185601
40
1.0550205
50
183.0676688
51
194.4768435
0
ARC
8
DEFAULT_255_2_778
10
35.3032807
20
0.8171889
40
2.4086489
50
179.7956086
51
183.6917268
0
ARC
8
DEFAULT_255_2_778
10
33.9817215
20
0.6893546
40
1.4729259
50
179.5204955
51
190.7916971
0
ARC
8
DEFAULT_255_2_778
10
33.3661371
20
0.5667909
40
0.8452954
50
190.4436502
51
209.7319726
0
ARC
8
DEFAULT_255_2_778
10
33.1443804
20
0.4495098
40
0.5946229
50
210.5160627
51
262.7767516
0
ARC
8
DEFAULT_255_2_778
10
33.2259037
20
0.8277523
40
0.9806801
50
260.8298067
51
270.2479196
0
ARC
8
DEFAULT_255_2_778
10
33.2349229
20
0.6242827
40
0.7772161
50
269.6479342
51
298.4196776
0
ARC
8
DEFAULT_255_2_778
10
33.1152699
20
0.8034634
40
0.9919496
50
299.5724435
51
327.9298986
0
LINE
8
DEFAULT_255_2_778
10
33.9645471
20
0.2741813
11
33.9783471
21
-0.1079187
0
LINE
8
DEFAULT_255_2_778
10
33.9783471
20
-0.1079187
11
34.3503471
21
-0.1079187
0
LINE
8
DEFAULT_255_2_778
10
34.3503471
20
-0.1079187
11
34.3503471
21
2.2055813
0
LINE
8
DEFAULT_255_2_778
10
34.3503471
20
2.2055813
11
33.9645471
21
2.2055813
0
LINE
8
DEFAULT_255_2_778
10
33.9645471
20
2.2055813
11
33.9645471
21
0.9355813
0
LINE
8
DEFAULT_255_2_778
10
32.8946471
20
0.8257813
11
32.8946471
21
2.2058813
0
LINE
8
DEFAULT_255_2_778
10
32.8946471
20
2.2058813
11
32.5088471
21
2.2058813
0
LINE
8
DEFAULT_255_2_778
10
32.5088471
20
2.2058813
11
32.5088471
21
0.7016813
0
LINE
8
DEFAULT_255_2_778
10
33.9558471
20
0.2767813
11
33.9651471
21
0.2767813
0
ARC
8
DEFAULT_255_2_778
10
36.8096166
20
1.4588829
40
1.3386043
50
359.4828911
51
11.807182
0
ARC
8
DEFAULT_255_2_778
10
37.3689607
20
1.5818057
40
0.7659651
50
11.3681185
51
33.3187456
0
ARC
8
DEFAULT_255_2_778
10
37.5441382
20
1.684327
40
0.5633663
50
34.3922514
51
82.5849705
0
ARC
8
DEFAULT_255_2_778
10
37.4806941
20
1.3842404
40
0.8694675
50
80.9909864
51
90.212699
0
ARC
8
DEFAULT_255_2_778
10
37.4944931
20
1.5028266
40
0.7510683
50
91.2990061
51
147.8164656
0
ARC
8
DEFAULT_255_2_778
10
37.8180841
20
1.2362323
40
1.1681507
50
145.2024724
51
154.8165234
0
ARC
8
DEFAULT_255_2_778
10
35.861014
20
1.5127803
40
0.9131789
50
13.974367
51
32.4958808
0
ARC
8
DEFAULT_255_2_778
10
36.1809838
20
1.7129734
40
0.5357639
50
32.8221995
51
82.621108
0
ARC
8
DEFAULT_255_2_778
10
36.1259447
20
1.4338167
40
0.8198914
50
81.3120174
51
90.2221065
0
ARC
8
DEFAULT_255_2_778
10
36.1136484
20
1.5578379
40
0.6959237
50
89.2492874
51
115.1309634
0
ARC
8
DEFAULT_255_2_778
10
36.2240513
20
1.4092153
40
0.8781373
50
117.5349642
51
149.0256671
0
ARC
8
DEFAULT_255_2_778
10
36.794589
20
0.9931256
40
1.5827165
50
146.7398798
51
148.3296259
0
ARC
8
DEFAULT_255_2_778
10
36.9587833
20
1.0798016
40
1.5204505
50
168.4732914
51
180.3805974
0
ARC
8
DEFAULT_255_2_778
10
36.4059998
20
1.1973619
40
0.9553359
50
151.4101191
51
168.756937
0
ARC
8
DEFAULT_255_2_778
10
36.0463185
20
1.4023152
40
0.5414906
50
117.2961936
51
152.2399365
0
ARC
8
DEFAULT_255_2_778
10
35.9995835
20
1.4658742
40
0.4637422
50
89.5449728
51
115.7660334
0
ARC
8
DEFAULT_255_2_778
10
36.0162924
20
1.536363
40
0.3934545
50
61.1411137
51
91.8972286
0
ARC
8
DEFAULT_255_2_778
10
36.0145835
20
1.5762951
40
0.3599063
50
16.7722122
51
57.832764
0
ARC
8
DEFAULT_255_2_778
10
35.5436897
20
1.407476
40
0.8598693
50
4.4835519
51
18.4884588
0
ARC
8
DEFAULT_255_2_778
10
34.7796888
20
1.3288325
40
1.6277872
50
359.8018094
51
5.1410292
0
ARC
8
DEFAULT_255_2_778
10
38.3530276
20
1.0806551
40
1.5597956
50
169.0207081
51
180.3803068
0
ARC
8
DEFAULT_255_2_778
10
37.7763431
20
1.1969327
40
0.9715307
50
152.7597753
51
169.2753172
0
ARC
8
DEFAULT_255_2_778
10
37.4093296
20
1.3939095
40
0.5551061
50
121.0627494
51
153.4968591
0
ARC
8
DEFAULT_255_2_778
10
37.3532596
20
1.463549
40
0.4666786
50
89.3975656
51
119.5773474
0
ARC
8
DEFAULT_255_2_778
10
37.3712549
20
1.5373129
40
0.3931069
50
61.024586
51
91.9080141
0
ARC
8
DEFAULT_255_2_778
10
37.369087
20
1.5765036
40
0.3604774
50
16.7423112
51
57.7036879
0
ARC
8
DEFAULT_255_2_778
10
36.8977347
20
1.407788
40
0.8608369
50
4.4806687
51
18.4585954
0
ARC
8
DEFAULT_255_2_778
10
36.134576
20
1.3293149
40
1.6279001
50
359.8024438
51
5.1357969
0
ARC
8
DEFAULT_255_2_778
10
39.1241389
20
1.2019654
40
1.4831832
50
359.5030696
51
16.7355106
0
ARC
8
DEFAULT_255_2_778
10
39.6295121
20
1.3631538
40
0.9528417
50
16.2041315
51
44.9973903
0
ARC
8
DEFAULT_255_2_778
10
39.7726907
20
1.4853396
40
0.7653439
50
46.108098
51
81.7071667
0
ARC
8
DEFAULT_255_2_778
10
39.7362443
20
1.2963311
40
0.9576732
50
81.180423
51
90.1303041
0
ARC
8
DEFAULT_255_2_778
10
39.7346683
20
1.2355691
40
1.0184329
50
90.0338626
51
150.8986223
0
ARC
8
DEFAULT_255_2_778
10
40.0096399
20
1.0557677
40
1.3463428
50
149.9040595
51
171.3585516
0
ARC
8
DEFAULT_255_2_778
10
40.237107
20
1.0125657
40
1.5777418
50
171.0486211
51
180.0749501
0
ARC
8
DEFAULT_255_2_778
10
40.3349566
20
1.0001915
40
1.675622
50
179.6474472
51
191.2603572
0
ARC
8
DEFAULT_255_2_778
10
39.8324743
20
0.8970677
40
1.1626797
50
191.1115296
51
208.4884086
0
ARC
8
DEFAULT_255_2_778
10
39.6355714
20
0.8038739
40
0.9452436
50
209.2163927
51
263.6913221
0
ARC
8
DEFAULT_255_2_778
10
39.7309536
20
1.2398883
40
1.3898899
50
261.7578615
51
270.1283178
0
ARC
8
DEFAULT_255_2_778
10
39.7458272
20
1.8880118
40
2.0380439
50
269.6693644
51
277.9107135
0
ARC
8
DEFAULT_255_2_778
10
39.8008212
20
1.4433333
40
1.5900424
50
278.1532349
51
290.4015849
0
ARC
8
DEFAULT_255_2_778
10
39.6989178
20
1.7290624
40
1.8933761
50
290.2777149
51
292.797893
0
ARC
8
DEFAULT_255_2_778
10
39.8829389
20
1.3370259
40
1.1664999
50
283.7009143
51
296.0692917
0
ARC
8
DEFAULT_255_2_778
10
39.7696139
20
1.7426381
40
1.587474
50
279.84858
51
284.2072843
0
ARC
8
DEFAULT_255_2_778
10
39.7757657
20
1.6847919
40
1.5294329
50
271.6183874
51
279.9921774
0
ARC
8
DEFAULT_255_2_778
10
39.788947
20
1.3823202
40
1.2267184
50
270.0102439
51
271.4019701
0
ARC
8
DEFAULT_255_2_778
10
39.7761349
20
0.9798404
40
0.8243416
50
247.5404389
51
270.9057906
0
ARC
8
DEFAULT_255_2_778
10
39.7169273
20
0.8084132
40
0.6433882
50
199.6915126
51
246.5809428
0
ARC
8
DEFAULT_255_2_778
10
40.0628719
20
0.9474971
40
1.0160691
50
183.8933073
51
200.5025519
0
ARC
8
DEFAULT_255_2_778
10
40.4114716
20
0.9851471
40
1.3664912
50
180.9453439
51
184.4758647
0
ARC
8
DEFAULT_255_2_778
10
39.7121996
20
1.4808238
40
0.4703916
50
52.4879466
51
91.258736
0
ARC
8
DEFAULT_255_2_778
10
39.635295
20
1.4142314
40
0.5704105
50
15.6857765
51
50.4331009
0
ARC
8
DEFAULT_255_2_778
10
39.247987
20
1.2874408
40
0.9777279
50
359.4292815
51
16.7028904
0
ARC
8
DEFAULT_255_2_778
10
40.1470675
20
1.1444858
40
1.0915606
50
156.016198
51
172.9900415
0
ARC
8
DEFAULT_255_2_778
10
39.6857652
20
1.3724178
40
0.5778099
50
95.2258135
51
158.0735233
0
ARC
8
DEFAULT_255_2_778
10
39.7013729
20
1.2388593
40
0.7122427
50
89.9442152
51
95.4975695
0
LINE
8
DEFAULT_255_2_778
10
37.7624664
20
1.3227019
11
37.7624664
21
-0.1049981
0
LINE
8
DEFAULT_255_2_778
10
37.7624664
20
-0.1049981
11
38.1481664
21
-0.1049981
0
LINE
8
DEFAULT_255_2_778
10
38.1481664
20
-0.1049981
11
38.1481664
21
1.4468019
0
LINE
8
DEFAULT_255_2_778
10
36.7609664
20
1.7333019
11
36.7471664
21
1.7333019
0
LINE
8
DEFAULT_255_2_778
10
35.4475664
20
1.8241019
11
35.4383664
21
1.8241019
0
LINE
8
DEFAULT_255_2_778
10
35.4383664
20
1.8241019
11
35.4245664
21
2.2061019
0
LINE
8
DEFAULT_255_2_778
10
35.4245664
20
2.2061019
11
35.0525664
21
2.2061019
0
LINE
8
DEFAULT_255_2_778
10
35.0525664
20
2.2061019
11
35.0525664
21
-0.1049981
0
LINE
8
DEFAULT_255_2_778
10
35.0525664
20
-0.1049981
11
35.4383664
21
-0.1049981
0
LINE
8
DEFAULT_255_2_778
10
35.4383664
20
-0.1049981
11
35.4383664
21
1.0697019
0
LINE
8
DEFAULT_255_2_778
10
36.4074664
20
1.3232019
11
36.4074664
21
-0.1044981
0
LINE
8
DEFAULT_255_2_778
10
36.4074664
20
-0.1044981
11
36.7932664
21
-0.1044981
0
LINE
8
DEFAULT_255_2_778
10
36.7932664
20
-0.1044981
11
36.7932664
21
1.0703019
0
LINE
8
DEFAULT_255_2_778
10
40.5934664
20
0.9599019
11
40.6072664
21
1.1891019
0
LINE
8
DEFAULT_255_2_778
10
40.4325664
20
-0.0163981
11
40.3955664
21
0.2892019
0
LINE
8
DEFAULT_255_2_778
10
39.0451664
20
0.9626019
11
40.5929664
21
0.9626019
0
LINE
8
DEFAULT_255_2_778
10
40.2256664
20
1.2777019
11
39.0636664
21
1.2777019
0
ARC
8
DEFAULT_255_2_778
10
42.5558306
20
1.174055
40
1.0170234
50
163.326684
51
180.5074248
0
ARC
8
DEFAULT_255_2_778
10
42.2640326
20
1.2648359
40
0.7114548
50
137.0361788
51
163.5878624
0
ARC
8
DEFAULT_255_2_778
10
42.1593886
20
1.3572651
40
0.5718959
50
89.6134278
51
136.6674447
0
ARC
8
DEFAULT_255_2_778
10
42.1758371
20
1.3417484
40
0.5875346
50
73.1112131
51
91.2278601
0
ARC
8
DEFAULT_255_2_778
10
42.2394421
20
1.5831523
40
0.3381912
50
10.677477
51
71.540564
0
ARC
8
DEFAULT_255_2_778
10
41.5502556
20
1.3820693
40
1.0550205
50
3.0676688
51
14.4768435
0
ARC
8
DEFAULT_255_2_778
10
40.2001135
20
1.2834404
40
2.4086489
50
359.7956086
51
3.6917268
0
ARC
8
DEFAULT_255_2_778
10
41.521369
20
1.4109828
40
1.4732298
50
359.5202799
51
10.7905946
0
ARC
8
DEFAULT_255_2_778
10
42.1373161
20
1.5336061
40
0.8452319
50
10.4423429
51
29.7324961
0
ARC
8
DEFAULT_255_2_778
10
42.3590706
20
1.6508684
40
0.5945709
50
30.518344
51
82.7816353
0
ARC
8
DEFAULT_255_2_778
10
42.2774919
20
1.2723003
40
0.9809569
50
80.8324949
51
90.2479274
0
ARC
8
DEFAULT_255_2_778
10
42.2684548
20
1.4758883
40
0.7773746
50
89.6467821
51
118.2873346
0
ARC
8
DEFAULT_255_2_778
10
42.3871145
20
1.2978992
40
0.9905454
50
119.4524689
51
147.9495291
0
LINE
8
DEFAULT_255_2_778
10
41.5388471
20
1.8240481
11
41.5250471
21
2.2061481
0
LINE
8
DEFAULT_255_2_778
10
41.5250471
20
2.2061481
11
41.1530471
21
2.2061481
0
LINE
8
DEFAULT_255_2_778
10
41.1530471
20
2.2061481
11
41.1530471
21
-0.1049519
0
LINE
8
DEFAULT_255_2_778
10
41.1530471
20
-0.1049519
11
41.5388471
21
-0.1049519
0
LINE
8
DEFAULT_255_2_778
10
41.5388471
20
-0.1049519
11
41.5388471
21
1.1650481
0
LINE
8
DEFAULT_255_2_778
10
42.6087471
20
1.2748481
11
42.6087471
21
-0.1052519
0
LINE
8
DEFAULT_255_2_778
10
42.6087471
20
-0.1052519
11
42.9945471
21
-0.1052519
0
LINE
8
DEFAULT_255_2_778
10
42.9945471
20
-0.1052519
11
42.9945471
21
1.3986481
0
LINE
8
DEFAULT_255_2_778
10
41.5475471
20
1.8235481
11
41.5382471
21
1.8235481
0
ARC
8
DEFAULT_255_2_778
10
44.6951979
20
0.4521992
40
0.8969326
50
179.2915877
51
194.5368821
0
ARC
8
DEFAULT_255_2_778
10
44.3167557
20
0.3480348
40
0.504494
50
193.87366
51
226.3997852
0
ARC
8
DEFAULT_255_2_778
10
44.3161
20
0.3781893
40
0.5263087
50
228.7159503
51
264.1749312
0
ARC
8
DEFAULT_255_2_778
10
44.3745019
20
0.7057883
40
0.8585032
50
262.5161151
51
270.1689806
0
ARC
8
DEFAULT_255_2_778
10
44.3900252
20
1.6443419
40
1.7971001
50
269.5857998
51
275.7628031
0
ARC
8
DEFAULT_255_2_778
10
44.5001681
20
0.6160625
40
0.7629844
50
275.286976
51
289.4749544
0
ARC
8
DEFAULT_255_2_778
10
44.5717066
20
0.3899037
40
0.5259743
50
290.3415019
51
294.0231552
0
ARC
8
DEFAULT_255_2_778
10
44.5054371
20
0.7763728
40
0.623546
50
269.9996476
51
292.5473458
0
ARC
8
DEFAULT_255_2_778
10
44.5054489
20
0.7775023
40
0.6246757
50
269.1914496
51
269.9985714
0
ARC
8
DEFAULT_255_2_778
10
44.4835527
20
0.4929379
40
0.3403006
50
243.1160174
51
272.2029846
0
ARC
8
DEFAULT_255_2_778
10
44.4660642
20
0.4171697
40
0.26547
50
190.9421325
51
239.0847412
0
ARC
8
DEFAULT_255_2_778
10
44.9464117
20
0.5441204
40
0.7619172
50
179.61133
51
193.4594431
0
ARC
8
DEFAULT_255_2_778
10
45.4590175
20
0.5633899
40
1.2745836
50
179.9955576
51
180.6338892
0
LINE
8
DEFAULT_255_2_778
10
44.7165338
20
2.2060888
11
44.1836338
21
2.2060888
0
LINE
8
DEFAULT_255_2_778
10
44.1836338
20
2.2060888
11
44.1836338
21
2.7166888
0
LINE
8
DEFAULT_255_2_778
10
44.1836338
20
2.7166888
11
43.7978338
21
2.7166888
0
LINE
8
DEFAULT_255_2_778
10
43.7978338
20
2.7166888
11
43.7978338
21
2.2060888
0
LINE
8
DEFAULT_255_2_778
10
43.7978338
20
2.2060888
11
43.4446338
21
2.2060888
0
LINE
8
DEFAULT_255_2_778
10
43.4446338
20
2.2060888
11
43.4446338
21
1.9004888
0
LINE
8
DEFAULT_255_2_778
10
43.4446338
20
1.9004888
11
43.7983338
21
1.9004888
0
LINE
8
DEFAULT_255_2_778
10
43.7983338
20
1.9004888
11
43.7983338
21
0.4632888
0
LINE
8
DEFAULT_255_2_778
10
44.7858338
20
-0.0905112
11
44.7445338
21
0.2004888
0
LINE
8
DEFAULT_255_2_778
10
44.1844338
20
0.5634888
11
44.1844338
21
1.9004888
0
LINE
8
DEFAULT_255_2_778
10
44.1844338
20
1.9004888
11
44.7146338
21
1.9004888
0
LINE
8
DEFAULT_255_2_778
10
44.7146338
20
1.9004888
11
44.7146338
21
2.2060888
0
LINE
8
DEFAULT_255_2_778
10
46.7037338
20
-0.1051112
11
46.7037338
21
1.3588888
0
LINE
8
DEFAULT_255_2_778
10
46.7037338
20
1.3588888
11
47.8203338
21
1.3588888
0
LINE
8
DEFAULT_255_2_778
10
47.8203338
20
1.3588888
11
47.8203338
21
1.6834888
0
LINE
8
DEFAULT_255_2_778
10
47.8203338
20
1.6834888
11
46.7037338
21
1.6834888
0
LINE
8
DEFAULT_255_2_778
10
46.7037338
20
1.6834888
11
46.7037338
21
2.8106888
0
LINE
8
DEFAULT_255_2_778
10
46.7037338
20
2.8106888
11
47.9737338
21
2.8106888
0
LINE
8
DEFAULT_255_2_778
10
47.9737338
20
2.8106888
11
47.9737338
21
3.1352888
0
LINE
8
DEFAULT_255_2_778
10
47.9737338
20
3.1352888
11
46.3156338
21
3.1352888
0
LINE
8
DEFAULT_255_2_778
10
46.3156338
20
3.1352888
11
46.3156338
21
-0.1021112
0
LINE
8
DEFAULT_255_2_778
10
46.3156338
20
-0.1021112
11
46.7014338
21
-0.1021112
0
ARC
8
DEFAULT_255_2_778
10
49.3645082
20
1.150704
40
1.1033577
50
89.5145324
51
110.016755
0
ARC
8
DEFAULT_255_2_778
10
49.3565003
20
1.2348408
40
1.0217837
50
111.2098431
51
163.2349961
0
ARC
8
DEFAULT_255_2_778
10
49.8086968
20
1.0618164
40
1.5050809
50
161.893525
51
180.4223475
0
ARC
8
DEFAULT_255_2_778
10
49.8171011
20
1.0396454
40
1.5134848
50
179.5806711
51
197.8154849
0
ARC
8
DEFAULT_255_2_778
10
49.4067661
20
0.897095
40
1.0792609
50
197.2754865
51
230.735516
0
ARC
8
DEFAULT_255_2_778
10
49.3307575
20
0.8324984
40
0.9813066
50
231.7845063
51
261.2118982
0
ARC
8
DEFAULT_255_2_778
10
49.3713014
20
1.041177
40
1.1937577
50
260.8190059
51
270.1226552
0
ARC
8
DEFAULT_255_2_778
10
49.3831934
20
0.9579434
40
1.1105606
50
269.5183079
51
289.5861125
0
ARC
8
DEFAULT_255_2_778
10
49.394406
20
0.8640606
40
1.0185657
50
290.762296
51
343.5150738
0
ARC
8
DEFAULT_255_2_778
10
48.931546
20
1.0395636
40
1.512652
50
342.1154944
51
0.4226607
0
ARC
8
DEFAULT_255_2_778
10
48.9309363
20
1.0617867
40
1.513261
50
359.58106
51
17.8170028
0
ARC
8
DEFAULT_255_2_778
10
49.3409715
20
1.2042512
40
1.0793488
50
17.2771332
51
50.7356954
0
ARC
8
DEFAULT_255_2_778
10
49.4169602
20
1.2688328
40
0.9814188
50
51.7842364
51
81.2115448
0
ARC
8
DEFAULT_255_2_778
10
49.3764113
20
1.0601328
40
1.1938921
50
80.8186821
51
90.1225896
0
ARC
8
DEFAULT_255_2_778
10
49.3642272
20
0.7728859
40
0.6197387
50
244.5820733
51
270.8903177
0
ARC
8
DEFAULT_255_2_778
10
49.4021102
20
0.7877937
40
0.650059
50
198.3178139
51
242.1295263
0
ARC
8
DEFAULT_255_2_778
10
49.9919233
20
1.0192206
40
1.2831788
50
181.3963845
51
199.8508375
0
ARC
8
DEFAULT_255_2_778
10
50.3909664
20
1.0506582
40
1.6830095
50
179.9910188
51
182.1352857
0
ARC
8
DEFAULT_255_2_778
10
50.0840055
20
1.0673259
40
1.3761464
50
162.8589434
51
180.6829888
0
ARC
8
DEFAULT_255_2_778
10
49.4766358
20
1.2651771
40
0.7375116
50
131.9550606
51
163.6401971
0
ARC
8
DEFAULT_255_2_778
10
49.3496596
20
1.3791647
40
0.5681453
50
94.3921892
51
130.1170876
0
ARC
8
DEFAULT_255_2_778
10
49.3731786
20
1.2180266
40
0.7306957
50
89.9468106
51
95.2633442
0
ARC
8
DEFAULT_255_2_778
10
49.3834819
20
1.3289895
40
0.6198072
50
64.5832684
51
90.8897869
0
ARC
8
DEFAULT_255_2_778
10
49.3455849
20
1.314039
40
0.6501712
50
18.3223267
51
62.1315904
0
ARC
8
DEFAULT_255_2_778
10
48.7559158
20
1.0826226
40
1.2831534
50
1.3970115
51
19.8547345
0
ARC
8
DEFAULT_255_2_778
10
48.357328
20
1.0511966
40
1.6825287
50
359.9906486
51
2.1359568
0
ARC
8
DEFAULT_255_2_778
10
48.6645866
20
1.0345428
40
1.3753679
50
342.8508103
51
0.6823499
0
ARC
8
DEFAULT_255_2_778
10
49.2711478
20
0.8368552
40
0.7375523
50
311.9478273
51
343.6313515
0
ARC
8
DEFAULT_255_2_778
10
49.3979444
20
0.7230761
40
0.5684639
50
274.3110375
51
310.1081446
0
ARC
8
DEFAULT_255_2_778
10
49.3745189
20
0.8845055
40
0.7312837
50
269.9481283
51
275.1904985
0
ARC
8
DEFAULT_255_2_778
10
51.4016636
20
0.9265744
40
1.0170234
50
343.326684
51
0.5074248
0
ARC
8
DEFAULT_255_2_778
10
51.6934616
20
0.8357935
40
0.7114548
50
317.0361788
51
343.5878624
0
ARC
8
DEFAULT_255_2_778
10
51.7981056
20
0.7433643
40
0.5718959
50
269.6134278
51
316.6674447
0
ARC
8
DEFAULT_255_2_778
10
51.7816571
20
0.758881
40
0.5875346
50
253.1112131
51
271.2278601
0
ARC
8
DEFAULT_255_2_778
10
51.7180521
20
0.5174771
40
0.3381912
50
190.677477
51
251.540564
0
ARC
8
DEFAULT_255_2_778
10
52.4072386
20
0.7185601
40
1.0550205
50
183.0676688
51
194.4768435
0
ARC
8
DEFAULT_255_2_778
10
53.7573807
20
0.8171889
40
2.4086489
50
179.7956086
51
183.6917268
0
ARC
8
DEFAULT_255_2_778
10
52.4358215
20
0.6893546
40
1.4729259
50
179.5204955
51
190.7916971
0
ARC
8
DEFAULT_255_2_778
10
51.8202371
20
0.5667909
40
0.8452954
50
190.4436502
51
209.7319726
0
ARC
8
DEFAULT_255_2_778
10
51.5984804
20
0.4495098
40
0.5946229
50
210.5160627
51
262.7767516
0
ARC
8
DEFAULT_255_2_778
10
51.6800037
20
0.8277523
40
0.9806801
50
260.8298067
51
270.2479196
0
ARC
8
DEFAULT_255_2_778
10
51.6890229
20
0.6242827
40
0.7772161
50
269.6479342
51
298.4196776
0
ARC
8
DEFAULT_255_2_778
10
51.5693699
20
0.8034634
40
0.9919496
50
299.5724435
51
327.9298986
0
LINE
8
DEFAULT_255_2_778
10
52.4186471
20
0.2741813
11
52.4324471
21
-0.1079187
0
LINE
8
DEFAULT_255_2_778
10
52.4324471
20
-0.1079187
11
52.8044471
21
-0.1079187
0
LINE
8
DEFAULT_255_2_778
10
52.8044471
20
-0.1079187
11
52.8044471
21
2.2055813
0
LINE
8
DEFAULT_255_2_778
10
52.8044471
20
2.2055813
11
52.4186471
21
2.2055813
0
LINE
8
DEFAULT_255_2_778
10
52.4186471
20
2.2055813
11
52.4186471
21
0.9355813
0
LINE
8
DEFAULT_255_2_778
10
51.3487471
20
0.8257813
11
51.3487471
21
2.2058813
0
LINE
8
DEFAULT_255_2_778
10
51.3487471
20
2.2058813
11
50.9629471
21
2.2058813
0
LINE
8
DEFAULT_255_2_778
10
50.9629471
20
2.2058813
11
50.9629471
21
0.7016813
0
LINE
8
DEFAULT_255_2_778
10
52.4099471
20
0.2767813
11
52.4192471
21
0.2767813
0
ARC
8
DEFAULT_255_2_778
10
54.9092387
20
1.174055
40
1.0170234
50
163.326684
51
180.5074248
0
ARC
8
DEFAULT_255_2_778
10
54.6174407
20
1.2648359
40
0.7114548
50
137.0361788
51
163.5878624
0
ARC
8
DEFAULT_255_2_778
10
54.5127967
20
1.3572651
40
0.5718959
50
89.6134278
51
136.6674447
0
ARC
8
DEFAULT_255_2_778
10
54.5292452
20
1.3417484
40
0.5875346
50
73.1112131
51
91.2278601
0
ARC
8
DEFAULT_255_2_778
10
54.5928502
20
1.5831523
40
0.3381912
50
10.677477
51
71.540564
0
ARC
8
DEFAULT_255_2_778
10
53.9036637
20
1.3820693
40
1.0550205
50
3.0676688
51
14.4768435
0
ARC
8
DEFAULT_255_2_778
10
52.5535216
20
1.2834404
40
2.4086489
50
359.7956086
51
3.6917268
0
ARC
8
DEFAULT_255_2_778
10
53.874777
20
1.4109828
40
1.4732298
50
359.5202799
51
10.7905946
0
ARC
8
DEFAULT_255_2_778
10
54.4907242
20
1.5336061
40
0.8452319
50
10.4423429
51
29.7324961
0
ARC
8
DEFAULT_255_2_778
10
54.7124787
20
1.6508684
40
0.5945709
50
30.518344
51
82.7816353
0
ARC
8
DEFAULT_255_2_778
10
54.6308999
20
1.2723003
40
0.9809569
50
80.8324949
51
90.2479274
0
ARC
8
DEFAULT_255_2_778
10
54.6218629
20
1.4758883
40
0.7773746
50
89.6467821
51
118.2873346
0
ARC
8
DEFAULT_255_2_778
10
54.7405226
20
1.2978992
40
0.9905454
50
119.4524689
51
147.9495291
0
LINE
8
DEFAULT_255_2_778
10
53.8922552
20
1.8240481
11
53.8784552
21
2.2061481
0
LINE
8
DEFAULT_255_2_778
10
53.8784552
20
2.2061481
11
53.5064552
21
2.2061481
0
LINE
8
DEFAULT_255_2_778
10
53.5064552
20
2.2061481
11
53.5064552
21
-0.1049519
0
LINE
8
DEFAULT_255_2_778
10
53.5064552
20
-0.1049519
11
53.8922552
21
-0.1049519
0
LINE
8
DEFAULT_255_2_778
10
53.8922552
20
-0.1049519
11
53.8922552
21
1.1650481
0
LINE
8
DEFAULT_255_2_778
10
54.9621552
20
1.2748481
11
54.9621552
21
-0.1052519
0
LINE
8
DEFAULT_255_2_778
10
54.9621552
20
-0.1052519
11
55.3479552
21
-0.1052519
0
LINE
8
DEFAULT_255_2_778
10
55.3479552
20
-0.1052519
11
55.3479552
21
1.3986481
0
LINE
8
DEFAULT_255_2_778
10
53.9009552
20
1.8235481
11
53.8916552
21
1.8235481
0
ARC
8
DEFAULT_255_2_778
10
56.8334405
20
1.4218273
40
0.8634342
50
29.5708813
51
50.9252539
0
ARC
8
DEFAULT_255_2_778
10
56.9053763
20
1.4784572
40
0.7743898
50
52.4162744
51
89.3372478
0
ARC
8
DEFAULT_255_2_778
10
56.8683326
20
1.1238866
40
1.1298455
50
87.6665871
51
90.0164201
0
ARC
8
DEFAULT_255_2_778
10
56.8594212
20
1.3407173
40
0.9130551
50
89.4611053
51
148.054293
0
ARC
8
DEFAULT_255_2_778
10
57.1712282
20
1.1254307
40
1.2916716
50
147.2691564
51
166.7898296
0
ARC
8
DEFAULT_255_2_778
10
57.5976604
20
1.0189104
40
1.7311733
50
166.5829181
51
180.2872254
0
ARC
8
DEFAULT_255_2_778
10
57.5544314
20
0.9988871
40
1.6879608
50
179.6149073
51
193.0414917
0
ARC
8
DEFAULT_255_2_778
10
57.0378142
20
0.8745577
40
1.1566219
50
192.8163716
51
212.880194
0
ARC
8
DEFAULT_255_2_778
10
56.7907311
20
0.7175498
40
0.8638856
50
213.0314829
51
263.4882746
0
ARC
8
DEFAULT_255_2_778
10
56.83835
20
0.9692605
40
1.11953
50
262.5278099
51
270.0951273
0
ARC
8
DEFAULT_255_2_778
10
56.8501571
20
0.7088922
40
0.8592178
50
269.3365981
51
298.0490666
0
ARC
8
DEFAULT_255_2_778
10
56.7894238
20
0.7844704
40
0.9546482
50
299.1331043
51
326.3607832
0
ARC
8
DEFAULT_255_2_778
10
56.6981709
20
0.9009013
40
0.8953046
50
329.8137984
51
0.6995414
0
ARC
8
DEFAULT_255_2_778
10
56.9616756
20
0.7382175
40
0.5857894
50
269.7880695
51
330.6090091
0
ARC
8
DEFAULT_255_2_778
10
56.9484922
20
0.8052989
40
0.6529599
50
242.5992992
51
270.9667309
0
ARC
8
DEFAULT_255_2_778
10
56.9658017
20
0.7942667
40
0.6514521
50
201.8261097
51
240.8008719
0
ARC
8
DEFAULT_255_2_778
10
57.3884144
20
0.9832734
40
1.1141924
50
185.5954162
51
202.7689801
0
ARC
8
DEFAULT_255_2_778
10
57.8386374
20
1.0426294
40
1.568131
50
179.897597
51
186.1498792
0
ARC
8
DEFAULT_255_2_778
10
57.7806454
20
1.0577022
40
1.5101864
50
167.9213048
51
180.4655311
0
ARC
8
DEFAULT_255_2_778
10
57.1884506
20
1.1900475
40
0.903425
50
148.1852633
51
168.2698412
0
ARC
8
DEFAULT_255_2_778
10
56.9202772
20
1.3555558
40
0.5882915
50
91.8598315
51
148.1139409
0
ARC
8
DEFAULT_255_2_778
10
56.9501566
20
1.142014
40
0.8030181
50
89.9748696
51
93.4963548
0
ARC
8
DEFAULT_255_2_778
10
56.9392685
20
1.3260913
40
0.6190428
50
26.3697574
51
88.9595938
0
ARC
8
DEFAULT_255_2_778
10
56.7362669
20
1.2016637
40
0.8564527
50
3.0589636
51
27.7958403
0
ARC
8
DEFAULT_255_2_778
10
56.6014869
20
1.1858469
40
0.991922
50
359.9875912
51
3.5558392
0
ARC
8
DEFAULT_255_2_778
10
59.4499657
20
0.4726952
40
1.7787426
50
89.8536607
51
90.0024747
0
ARC
8
DEFAULT_255_2_778
10
59.4498888
20
0.4330677
40
1.8183701
50
89.9999984
51
112.1090156
0
ARC
8
DEFAULT_255_2_778
10
59.6198651
20
-0.1728158
40
2.146608
50
104.8523968
51
112.3782809
0
ARC
8
DEFAULT_255_2_778
10
59.4091739
20
0.6167487
40
1.3294175
50
92.7649948
51
104.7979652
0
ARC
8
DEFAULT_255_2_778
10
59.3996385
20
0.7170149
40
1.2288172
50
89.9967236
51
92.5464312
0
ARC
8
DEFAULT_255_2_778
10
59.4108365
20
1.344162
40
0.6017729
50
70.9834907
51
91.0595467
0
ARC
8
DEFAULT_255_2_778
10
59.4623077
20
1.5305968
40
0.40892
50
6.0280269
51
69.2898434
0
ARC
8
DEFAULT_255_2_778
10
58.9988006
20
1.4216248
40
0.8833272
50
359.6242582
51
9.9029668
0
ARC
8
DEFAULT_255_2_778
10
59.5404164
20
-0.552403
40
1.9317942
50
79.8120189
51
80.5344382
0
ARC
8
DEFAULT_255_2_778
10
59.5789411
20
-0.3273993
40
1.7035185
50
80.5679797
51
87.8628488
0
ARC
8
DEFAULT_255_2_778
10
59.5181844
20
-1.707683
40
3.0851218
50
87.6912211
51
90.120262
0
ARC
8
DEFAULT_255_2_778
10
59.5001211
20
-0.0106533
40
1.3881337
50
89.5217087
51
106.4129923
0
ARC
8
DEFAULT_255_2_778
10
59.3601323
20
0.4412502
40
0.9151139
50
106.0000823
51
132.3267953
0
ARC
8
DEFAULT_255_2_778
10
59.2254373
20
0.6034449
40
0.7045687
50
133.1101696
51
175.6568737
0
ARC
8
DEFAULT_255_2_778
10
59.3789776
20
0.5806147
40
0.8594691
50
174.9144103
51
180.0388468
0
ARC
8
DEFAULT_255_2_778
10
59.3586797
20
0.5716534
40
0.8392128
50
179.4279518
51
200.047639
0
ARC
8
DEFAULT_255_2_778
10
59.1948364
20
0.5124435
40
0.6649999
50
200.0944629
51
238.2295705
0
ARC
8
DEFAULT_255_2_778
10
59.2097279
20
0.5447205
40
0.7002947
50
238.5841801
51
270.2438848
0
ARC
8
DEFAULT_255_2_778
10
59.2239705
20
0.5607129
40
0.7163694
50
269.099242
51
334.324784
0
ARC
8
DEFAULT_255_2_778
10
59.2091335
20
1.4701078
40
1.0556399
50
359.3662744
51
15.0736663
0
ARC
8
DEFAULT_255_2_778
10
59.6058594
20
1.587228
40
0.6421827
50
14.1887832
51
73.6122113
0
ARC
8
DEFAULT_255_2_778
10
59.4730376
20
1.1885534
40
1.0622399
50
72.8060761
51
89.2785665
0
ARC
8
DEFAULT_255_2_778
10
59.4517664
20
0.8321033
40
1.4190288
50
88.6009679
51
90.0063621
0
ARC
8
DEFAULT_255_2_778
10
58.7474895
20
0.8751713
40
1.131465
50
345.8416968
51
0.5145328
0
ARC
8
DEFAULT_255_2_778
10
59.1575285
20
0.767293
40
0.7075073
50
323.341564
51
346.190332
0
ARC
8
DEFAULT_255_2_778
10
59.3358124
20
0.635666
40
0.4859001
50
269.0561992
51
323.2412308
0
ARC
8
DEFAULT_255_2_778
10
59.319369
20
0.5243777
40
0.3746408
50
191.8480683
51
271.2908479
0
ARC
8
DEFAULT_255_2_778
10
59.5560364
20
0.6037603
40
0.6232443
50
179.5797125
51
194.5242023
0
ARC
8
DEFAULT_255_2_778
10
59.4312403
20
0.6263711
40
0.4987579
50
146.5197866
51
182.0727289
0
ARC
8
DEFAULT_255_2_778
10
59.3774179
20
0.6376956
40
0.4480762
50
110.1811253
51
143.9300907
0
ARC
8
DEFAULT_255_2_778
10
59.5113826
20
0.299379
40
0.8118888
50
95.0052886
51
110.8180197
0
ARC
8
DEFAULT_255_2_778
10
59.5678862
20
-0.1829627
40
1.2973989
50
89.8532698
51
95.6326196
0
ARC
8
DEFAULT_255_2_778
10
59.5543504
20
-0.6980576
40
1.812568
50
80.8584301
51
89.467094
0
ARC
8
DEFAULT_255_2_778
10
59.000257
20
-4.57568
40
5.7293867
50
81.197744
51
81.5484629
0
ARC
8
DEFAULT_255_2_778
10
58.3153413
20
-9.0170423
40
10.2232495
50
81.2025231
51
81.2133765
0
ARC
8
DEFAULT_255_2_778
10
61.9646445
20
0.4522379
40
0.8968043
50
179.2911897
51
194.5379451
0
ARC
8
DEFAULT_255_2_778
10
61.5861686
20
0.3480588
40
0.5043293
50
193.8746872
51
226.4073956
0
ARC
8
DEFAULT_255_2_778
10
61.5856345
20
0.3783693
40
0.5263443
50
228.7252122
51
264.1797557
0
ARC
8
DEFAULT_255_2_778
10
61.644078
20
0.7063466
40
0.8589182
50
262.5196705
51
270.1688185
0
ARC
8
DEFAULT_255_2_778
10
61.6596557
20
1.6500058
40
1.802621
50
269.5853035
51
275.7433198
0
ARC
8
DEFAULT_255_2_778
10
61.7700959
20
0.615689
40
0.7624711
50
275.263918
51
289.4604757
0
ARC
8
DEFAULT_255_2_778
10
61.841869
20
0.3886296
40
0.524532
50
290.3314758
51
294.0231303
0
ARC
8
DEFAULT_255_2_778
10
61.7751104
20
0.7747156
40
0.6218458
50
269.9905084
51
292.6025895
0
ARC
8
DEFAULT_255_2_778
10
61.7750231
20
0.7774416
40
0.6245717
50
269.1913808
51
269.9985574
0
ARC
8
DEFAULT_255_2_778
10
61.7531346
20
0.4928336
40
0.340153
50
243.1020851
51
272.2027682
0
ARC
8
DEFAULT_255_2_778
10
61.7357666
20
0.417307
40
0.2655975
50
190.9395955
51
239.0691741
0
ARC
8
DEFAULT_255_2_778
10
62.2162095
20
0.5442712
40
0.76214
50
179.6120117
51
193.4574515
0
ARC
8
DEFAULT_255_2_778
10
62.7286004
20
0.5635332
40
1.2745915
50
179.9955581
51
180.6338897
0
ARC
8
DEFAULT_255_2_778
10
62.7396107
20
2.7871845
40
0.2421736
50
270.7566468
51
1.430937
0
ARC
8
DEFAULT_255_2_778
10
62.7396107
20
2.7992796
40
0.2421736
50
358.569063
51
89.2433532
0
ARC
8
DEFAULT_255_2_778
10
62.7459262
20
2.7992598
40
0.2421923
50
90.7374999
51
181.4261465
0
ARC
8
DEFAULT_255_2_778
10
62.7459262
20
2.7872043
40
0.2421925
50
178.5738766
51
269.2624835
0
LINE
8
DEFAULT_255_2_778
10
57.5842088
20
0.255632
11
57.5934088
21
0.255632
0
LINE
8
DEFAULT_255_2_778
10
57.5934088
20
0.255632
11
57.6072088
21
-0.102568
0
LINE
8
DEFAULT_255_2_778
10
57.6072088
20
-0.102568
11
57.9792088
21
-0.102568
0
LINE
8
DEFAULT_255_2_778
10
57.9792088
20
-0.102568
11
57.9792088
21
3.332732
0
LINE
8
DEFAULT_255_2_778
10
57.9792088
20
3.332732
11
57.5934088
21
3.332732
0
LINE
8
DEFAULT_255_2_778
10
57.5934088
20
3.332732
11
57.5934088
21
1.847632
0
LINE
8
DEFAULT_255_2_778
10
57.5934088
20
1.847632
11
57.5842088
21
1.847632
0
LINE
8
DEFAULT_255_2_778
10
57.5934088
20
1.185632
11
57.5934088
21
0.908632
0
LINE
8
DEFAULT_255_2_778
10
58.7655088
20
2.117732
11
58.8026088
21
1.812132
0
LINE
8
DEFAULT_255_2_778
10
59.8821088
20
1.415832
11
59.8821088
21
1.348932
0
LINE
8
DEFAULT_255_2_778
10
59.8696088
20
0.250332
11
59.8789088
21
0.250332
0
LINE
8
DEFAULT_255_2_778
10
59.8789088
20
0.250332
11
59.8927088
21
-0.107868
0
LINE
8
DEFAULT_255_2_778
10
59.8927088
20
-0.107868
11
60.2647088
21
-0.107868
0
LINE
8
DEFAULT_255_2_778
10
60.2647088
20
-0.107868
11
60.2647088
21
1.458432
0
LINE
8
DEFAULT_255_2_778
10
59.8789088
20
1.085932
11
59.8789088
21
0.885332
0
LINE
8
DEFAULT_255_2_778
10
61.9866088
20
2.206132
11
61.4537088
21
2.206132
0
LINE
8
DEFAULT_255_2_778
10
61.4537088
20
2.206132
11
61.4537088
21
2.716832
0
LINE
8
DEFAULT_255_2_778
10
61.4537088
20
2.716832
11
61.0679088
21
2.716832
0
LINE
8
DEFAULT_255_2_778
10
61.0679088
20
2.716832
11
61.0679088
21
2.206132
0
LINE
8
DEFAULT_255_2_778
10
61.0679088
20
2.206132
11
60.7142088
21
2.206132
0
LINE
8
DEFAULT_255_2_778
10
60.7142088
20
2.206132
11
60.7142088
21
1.900532
0
LINE
8
DEFAULT_255_2_778
10
60.7142088
20
1.900532
11
61.0679088
21
1.900532
0
LINE
8
DEFAULT_255_2_778
10
61.0679088
20
1.900532
11
61.0679088
21
0.463332
0
LINE
8
DEFAULT_255_2_778
10
62.0554088
20
-0.090468
11
62.0141088
21
0.200632
0
LINE
8
DEFAULT_255_2_778
10
61.4540088
20
0.563632
11
61.4540088
21
1.900532
0
LINE
8
DEFAULT_255_2_778
10
61.4540088
20
1.900532
11
61.9868088
21
1.900532
0
LINE
8
DEFAULT_255_2_778
10
61.9868088
20
1.900532
11
61.9868088
21
2.206132
0
LINE
8
DEFAULT_255_2_778
10
62.5496088
20
-0.104968
11
62.9354088
21
-0.104968
0
LINE
8
DEFAULT_255_2_778
10
62.9354088
20
-0.104968
11
62.9354088
21
2.206132
0
LINE
8
DEFAULT_255_2_778
10
62.9354088
20
2.206132
11
62.5496088
21
2.206132
0
LINE
8
DEFAULT_255_2_778
10
62.5496088
20
2.206132
11
62.5496088
21
-0.104968
0
ARC
8
DEFAULT_255_2_778
10
64.5352163
20
1.150704
40
1.1033577
50
89.5145324
51
110.016755
0
ARC
8
DEFAULT_255_2_778
10
64.5272084
20
1.2348408
40
1.0217837
50
111.2098431
51
163.2349961
0
ARC
8
DEFAULT_255_2_778
10
64.9794049
20
1.0618164
40
1.5050809
50
161.893525
51
180.4223475
0
ARC
8
DEFAULT_255_2_778
10
64.9878092
20
1.0396454
40
1.5134848
50
179.5806711
51
197.8154849
0
ARC
8
DEFAULT_255_2_778
10
64.5774742
20
0.897095
40
1.0792609
50
197.2754865
51
230.735516
0
ARC
8
DEFAULT_255_2_778
10
64.5014656
20
0.8324984
40
0.9813066
50
231.7845063
51
261.2118982
0
ARC
8
DEFAULT_255_2_778
10
64.5420094
20
1.041177
40
1.1937577
50
260.8190059
51
270.1226552
0
ARC
8
DEFAULT_255_2_778
10
64.5539015
20
0.9579434
40
1.1105606
50
269.5183079
51
289.5861125
0
ARC
8
DEFAULT_255_2_778
10
64.565114
20
0.8640606
40
1.0185657
50
290.762296
51
343.5150738
0
ARC
8
DEFAULT_255_2_778
10
64.102254
20
1.0395636
40
1.512652
50
342.1154944
51
0.4226607
0
ARC
8
DEFAULT_255_2_778
10
64.1016444
20
1.0617867
40
1.513261
50
359.58106
51
17.8170028
0
ARC
8
DEFAULT_255_2_778
10
64.5116795
20
1.2042512
40
1.0793488
50
17.2771332
51
50.7356954
0
ARC
8
DEFAULT_255_2_778
10
64.5876682
20
1.2688328
40
0.9814188
50
51.7842364
51
81.2115448
0
ARC
8
DEFAULT_255_2_778
10
64.5471194
20
1.0601328
40
1.1938921
50
80.8186821
51
90.1225896
0
ARC
8
DEFAULT_255_2_778
10
64.5349353
20
0.7728859
40
0.6197387
50
244.5820733
51
270.8903177
0
ARC
8
DEFAULT_255_2_778
10
64.5728183
20
0.7877937
40
0.650059
50
198.3178139
51
242.1295263
0
ARC
8
DEFAULT_255_2_778
10
65.1626314
20
1.0192206
40
1.2831788
50
181.3963845
51
199.8508375
0
ARC
8
DEFAULT_255_2_778
10
65.5616745
20
1.0506582
40
1.6830095
50
179.9910188
51
182.1352857
0
ARC
8
DEFAULT_255_2_778
10
65.2547136
20
1.0673259
40
1.3761464
50
162.8589434
51
180.6829888
0
ARC
8
DEFAULT_255_2_778
10
64.6473439
20
1.2651771
40
0.7375116
50
131.9550606
51
163.6401971
0
ARC
8
DEFAULT_255_2_778
10
64.5203677
20
1.3791647
40
0.5681453
50
94.3921892
51
130.1170876
0
ARC
8
DEFAULT_255_2_778
10
64.5438866
20
1.2180266
40
0.7306957
50
89.9468106
51
95.2633442
0
ARC
8
DEFAULT_255_2_778
10
64.55419
20
1.3289895
40
0.6198072
50
64.5832684
51
90.8897869
0
ARC
8
DEFAULT_255_2_778
10
64.516293
20
1.314039
40
0.6501712
50
18.3223267
51
62.1315904
0
ARC
8
DEFAULT_255_2_778
10
63.9266239
20
1.0826226
40
1.2831534
50
1.3970115
51
19.8547345
0
ARC
8
DEFAULT_255_2_778
10
63.5280361
20
1.0511966
40
1.6825287
50
359.9906486
51
2.1359568
0
ARC
8
DEFAULT_255_2_778
10
63.8352946
20
1.0345428
40
1.3753679
50
342.8508103
51
0.6823499
0
ARC
8
DEFAULT_255_2_778
10
64.4418559
20
0.8368552
40
0.7375523
50
311.9478273
51
343.6313515
0
ARC
8
DEFAULT_255_2_778
10
64.5686525
20
0.7230761
40
0.5684639
50
274.3110375
51
310.1081446
0
ARC
8
DEFAULT_255_2_778
10
64.545227
20
0.8845055
40
0.7312837
50
269.9481283
51
275.1904985
0
ARC
8
DEFAULT_255_2_778
10
67.5589015
20
1.174055
40
1.0170234
50
163.326684
51
180.5074248
0
ARC
8
DEFAULT_255_2_778
10
67.2671034
20
1.2648359
40
0.7114548
50
137.0361788
51
163.5878624
0
ARC
8
DEFAULT_255_2_778
10
67.1624594
20
1.3572651
40
0.5718959
50
89.6134278
51
136.6674447
0
ARC
8
DEFAULT_255_2_778
10
67.1789079
20
1.3417484
40
0.5875346
50
73.1112131
51
91.2278601
0
ARC
8
DEFAULT_255_2_778
10
67.242513
20
1.5831523
40
0.3381912
50
10.677477
51
71.540564
0
ARC
8
DEFAULT_255_2_778
10
66.5533264
20
1.3820693
40
1.0550205
50
3.0676688
51
14.4768435
0
ARC
8
DEFAULT_255_2_778
10
65.2031843
20
1.2834404
40
2.4086489
50
359.7956086
51
3.6917268
0
ARC
8
DEFAULT_255_2_778
10
66.5251624
20
1.4109778
40
1.4728072
50
359.5203388
51
10.793928
0
ARC
8
DEFAULT_255_2_778
10
67.1406962
20
1.5335547
40
0.8452236
50
10.4459883
51
29.7368334
0
ARC
8
DEFAULT_255_2_778
10
67.362367
20
1.6508015
40
0.5946434
50
30.5217188
51
82.7780008
0
ARC
8
DEFAULT_255_2_778
10
67.2808589
20
1.2726007
40
0.9806565
50
80.83109
51
90.2477847
0
ARC
8
DEFAULT_255_2_778
10
67.2718256
20
1.4758883
40
0.7773746
50
89.6467821
51
118.2873346
0
ARC
8
DEFAULT_255_2_778
10
67.3904853
20
1.2978992
40
0.9905454
50
119.4524689
51
147.9495291
0
LINE
8
DEFAULT_255_2_778
10
66.5419179
20
1.8240481
11
66.5281179
21
2.2061481
0
LINE
8
DEFAULT_255_2_778
10
66.5281179
20
2.2061481
11
66.1561179
21
2.2061481
0
LINE
8
DEFAULT_255_2_778
10
66.1561179
20
2.2061481
11
66.1561179
21
-0.1049519
0
LINE
8
DEFAULT_255_2_778
10
66.1561179
20
-0.1049519
11
66.5419179
21
-0.1049519
0
LINE
8
DEFAULT_255_2_778
10
66.5419179
20
-0.1049519
11
66.5419179
21
1.1650481
0
LINE
8
DEFAULT_255_2_778
10
67.6118179
20
1.2748481
11
67.6118179
21
-0.1052519
0
LINE
8
DEFAULT_255_2_778
10
67.6118179
20
-0.1052519
11
67.9979179
21
-0.1052519
0
LINE
8
DEFAULT_255_2_778
10
67.9979179
20
-0.1052519
11
67.9979179
21
1.3986481
0
LINE
8
DEFAULT_255_2_778
10
66.5509179
20
1.8235481
11
66.5416179
21
1.8235481
0
ARC
8
DEFAULT_255_2_778
10
8.0173207
20
12.5568382
40
0.3236751
50
89.3726827
51
90.0029625
0
ARC
8
DEFAULT_255_2_778
10
8.0173158
20
12.5552479
40
0.3252654
50
90.0020756
51
155.4882625
0
ARC
8
DEFAULT_255_2_778
10
8.0142902
20
12.5699877
40
0.3166307
50
157.6885092
51
176.6844433
0
ARC
8
DEFAULT_255_2_778
10
8.0145143
20
12.5699915
40
0.3168541
50
176.6874608
51
179.9997928
0
ARC
8
DEFAULT_255_2_778
10
8.0150177
20
12.5699519
40
0.3173574
50
179.9926481
51
225.0133704
0
ARC
8
DEFAULT_255_2_778
10
10.7243437
20
9.8669201
40
0.3280118
50
226.0186705
51
270.0074442
0
ARC
8
DEFAULT_255_2_778
10
10.7243898
20
9.8662903
40
0.327382
50
269.9993931
51
273.4350943
0
ARC
8
DEFAULT_255_2_778
10
10.7243897
20
9.8661043
40
0.3271964
50
273.4370629
51
290.9283862
0
ARC
8
DEFAULT_255_2_778
10
10.7189811
20
9.8563127
40
0.3200969
50
292.4588717
51
358.4749982
0
ARC
8
DEFAULT_255_2_778
10
10.7111268
20
12.5521674
40
0.3281958
50
2.6766534
51
88.1600312
0
LINE
8
DEFAULT_255_2_778
10
7.7906645
20
12.3454939
11
10.4965645
21
9.6308939
0
LINE
8
DEFAULT_255_2_778
10
11.0389645
20
9.8477939
11
11.0389645
21
12.5674939
0
LINE
8
DEFAULT_255_2_778
10
10.7216645
20
12.8801939
11
8.0208645
21
12.8801939
0
LINE
8
DEFAULT_255_2_778
10
8.0208645
20
12.8801939
11
8.0208645
21
12.8804939
0
ARC
8
DEFAULT_255_2_778
10
0.5977934
20
12.5475024
40
0.333427
50
93.0272813
51
177.9268762
0
ARC
8
DEFAULT_255_2_778
10
0.5976235
20
0.1817749
40
0.3332518
50
182.0482504
51
267.0520228
0
ARC
8
DEFAULT_255_2_778
10
10.706321
20
0.181847
40
0.3330979
50
272.0582844
51
357.8534162
0
ARC
8
DEFAULT_255_2_778
10
10.7346183
20
0.1692471
40
0.3045668
50
0.0232165
51
0.1160783
0
ARC
8
DEFAULT_255_2_778
10
10.7307578
20
8.1503578
40
0.3084346
50
359.5924855
51
359.9947041
0
ARC
8
DEFAULT_255_2_778
10
10.7159376
20
8.1486646
40
0.323259
50
0.2950563
51
44.6055171
0
ARC
8
DEFAULT_255_2_778
10
6.3275381
20
12.5559088
40
0.3245978
50
44.1648212
51
89.0738875
0
LINE
8
DEFAULT_255_2_778
10
0.2645846
20
12.5595641
11
0.2645846
21
0.1698641
0
LINE
8
DEFAULT_255_2_778
10
0.5804846
20
-0.1510359
11
10.7182846
21
-0.1510359
0
LINE
8
DEFAULT_255_2_778
10
11.0391846
20
0.1698641
11
11.0391846
21
8.1481641
0
LINE
8
DEFAULT_255_2_778
10
10.9460846
20
8.3756641
11
6.5603846
21
12.7820641
0
LINE
8
DEFAULT_255_2_778
10
6.3327846
20
12.8804641
11
0.5801846
21
12.8804641
0
LINE
8
DEFAULT_255_2_778
10
0.5801846
20
12.8804641
11
0.5801846
21
12.8804641
0
ARC
8
DEFAULT_255_2_778
10
0.5847382
20
12.5603412
40
0.3201558
50
90.8150979
51
179.9724014
0
ARC
8
DEFAULT_255_2_778
10
0.62558
20
12.560573
40
0.3609975
50
180.0123172
51
180.1600499
0
ARC
8
DEFAULT_255_2_778
10
0.6258812
20
0.1688558
40
0.3612988
50
179.8400189
51
179.987688
0
ARC
8
DEFAULT_255_2_778
10
0.5846032
20
0.1689588
40
0.3200207
50
180.0045433
51
269.2624576
0
ARC
8
DEFAULT_255_2_778
10
10.7188493
20
0.0858247
40
0.2368608
50
269.8632048
51
270.0456268
0
ARC
8
DEFAULT_255_2_778
10
10.7190607
20
0.1693839
40
0.3204202
50
269.9959247
51
314.9625426
0
ARC
8
DEFAULT_255_2_778
10
10.7187645
20
0.1690877
40
0.3204201
50
315.0374574
51
0.0040753
0
ARC
8
DEFAULT_255_2_778
10
10.6837989
20
0.1691104
40
0.3553858
50
0.0000019
51
0.1215843
0
ARC
8
DEFAULT_255_2_778
10
10.7237649
20
8.1504112
40
0.3154269
50
359.5919145
51
359.9999258
0
ARC
8
DEFAULT_255_2_778
10
10.7190232
20
8.1502403
40
0.3201685
50
0.0305016
51
44.8309033
0
ARC
8
DEFAULT_255_2_778
10
6.3294241
20
12.5602662
40
0.3202139
50
43.840815
51
89.4346286
0
LINE
8
DEFAULT_255_2_778
10
0.2645838
20
12.5595646
11
0.2645838
21
0.1698646
0
LINE
8
DEFAULT_255_2_778
10
0.5804838
20
-0.1510354
11
10.7182838
21
-0.1510354
0
LINE
8
DEFAULT_255_2_778
10
11.0391838
20
0.1698646
11
11.0391838
21
8.1481646
0
LINE
8
DEFAULT_255_2_778
10
10.9460838
20
8.3759646
11
6.5603838
21
12.7820646
0
LINE
8
DEFAULT_255_2_778
10
6.3325838
20
12.8804646
11
0.5801838
21
12.8804646
0
LINE
8
DEFAULT_255_2_778
10
0.5801838
20
12.8804646
11
0.5801838
21
12.8804646
0
LINE
8
DEFAULT_255_2_778
10
0.9014838
20
12.2385646
11
6.1983838
21
12.2385646
0
LINE
8
DEFAULT_255_2_778
10
6.1983838
20
12.2385646
11
10.3972838
21
8.0189646
0
LINE
8
DEFAULT_255_2_778
10
10.3972838
20
8.0189646
11
10.3972838
21
0.4910646
0
LINE
8
DEFAULT_255_2_778
10
10.3972838
20
0.4910646
11
0.8987838
21
0.4910646
0
LINE
8
DEFAULT_255_2_778
10
0.8987838
20
0.4910646
11
0.8987838
21
12.2385646
0
LINE
8
DEFAULT_255_2_778
10
0.8987838
20
12.2385646
11
0.9014838
21
12.2385646
0
ENDSEC
0
EOF