0
SECTION
2
HEADER
9
$MEASUREMENT
70
1
0
ENDSEC
0
SECTION
2
TABLES
0
TABLE
2
LTYPE
0
LTYPE
72
65
70
64
2
CONTINUOUS
3
______
73
0
40
0
0
ENDTAB
0
TABLE
2
LAYER
0
LAYER
2
DEFAULT_255_2_778
70
0
62
255
6
CONTINUOUS
0
ENDTAB
0
ENDSEC
0
SECTION
2
ENTITIES
0
ARC
8
DEFAULT_255_2_778
10
21.7533455
20
2.677934
40
0.5664519
50
199.433462
51
212.1900236
0
ARC
8
DEFAULT_255_2_778
10
28.193175
20
3.1311935
40
1.6020842
50
77.7110645
51
88.8398082
0
ARC
8
DEFAULT_255_2_778
10
28.1916003
20
3.107798
40
1.6255072
50
88.8010146
51
89.2574829
0
ARC
8
DEFAULT_255_2_778
10
28.286921
20
3.3421718
40
0.7858253
50
136.4828663
51
178.242784
0
ARC
8
DEFAULT_255_2_778
10
28.148964
20
3.5122825
40
0.5662957
50
100.1194555
51
129.8141419
0
ARC
8
DEFAULT_255_2_778
10
24.561408
20
1.2890405
40
1.1789719
50
270.0027838
51
280.0804947
0
ARC
8
DEFAULT_255_2_778
10
24.6905651
20
1.2287378
40
0.4630691
50
269.4782494
51
270.0000225
0
ARC
8
DEFAULT_255_2_778
10
24.7086251
20
1.8136345
40
1.0481832
50
265.219098
51
268.7822187
0
ARC
8
DEFAULT_255_2_778
10
24.198221
20
-5.1420262
40
5.926243
50
85.906482
51
85.9432967
0
ARC
8
DEFAULT_255_2_778
10
24.6367966
20
1.0378543
40
0.2691806
50
258.5445266
51
265.8817461
0
ARC
8
DEFAULT_255_2_778
10
24.4087232
20
-0.0748367
40
0.8666454
50
78.3764341
51
80.0100205
0
ARC
8
DEFAULT_255_2_778
10
24.3792526
20
1.2329418
40
0.2789298
50
203.1713421
51
209.7413788
0
ARC
8
DEFAULT_255_2_778
10
22.3403092
20
0.3287757
40
1.9515246
50
24.021075
51
24.3809644
0
ARC
8
DEFAULT_255_2_778
10
23.8464343
20
1.0129845
40
0.2972755
50
24.0994832
51
28.5080168
0
ARC
8
DEFAULT_255_2_778
10
24.6019393
20
1.413329
40
0.5453463
50
182.6913662
51
188.1976797
0
ARC
8
DEFAULT_255_2_778
10
24.6444834
20
1.4158455
40
0.587962
50
180.6993839
51
182.7416521
0
ARC
8
DEFAULT_255_2_778
10
25.6526645
20
2.3848715
40
0.3259166
50
269.4727274
51
270.0036571
0
ARC
8
DEFAULT_255_2_778
10
25.6522553
20
2.3881153
40
0.3291609
50
270.074851
51
314.1831098
0
ARC
8
DEFAULT_255_2_778
10
25.6536034
20
2.3835012
40
0.3249204
50
314.5797105
51
1.087619
0
ARC
8
DEFAULT_255_2_778
10
24.7906607
20
3.426409
40
0.6394052
50
179.9968468
51
180.3172388
0
ARC
8
DEFAULT_255_2_778
10
24.7909944
20
3.4265397
40
0.639739
50
132.7956004
51
180.0085556
0
ARC
8
DEFAULT_255_2_778
10
24.7907383
20
3.4267298
40
0.6394256
50
89.977972
51
132.7903328
0
ARC
8
DEFAULT_255_2_778
10
24.7909668
20
3.4228348
40
0.6433206
50
85.274462
51
89.9984569
0
ARC
8
DEFAULT_255_2_778
10
24.740685
20
3.3345005
40
0.7384638
50
62.6926455
51
71.9116703
0
ARC
8
DEFAULT_255_2_778
10
24.7631721
20
3.4113614
40
0.6638054
50
33.1929744
51
40.2960129
0
ARC
8
DEFAULT_255_2_778
10
25.27261
20
3.5153007
40
0.1437483
50
2.825575
51
14.0378467
0
ARC
8
DEFAULT_255_2_778
10
25.9221958
20
3.5628064
40
0.507624
50
184.5670053
51
185.7577284
0
ARC
8
DEFAULT_255_2_778
10
25.6247701
20
3.5335051
40
0.2087602
50
185.9457121
51
186.9985895
0
ARC
8
DEFAULT_255_2_778
10
18.2881524
20
3.435875
40
1.1904483
50
166.0199309
51
173.6195805
0
ARC
8
DEFAULT_255_2_778
10
18.4744911
20
3.414337
40
1.3780265
50
173.5906045
51
180.0610491
0
ARC
8
DEFAULT_255_2_778
10
18.4105915
20
1.3214756
40
1.2189404
50
329.6391288
51
335.8291071
0
ARC
8
DEFAULT_255_2_778
10
19.6113572
20
1.242806
40
0.0351305
50
46.2163602
51
80.1527139
0
ARC
8
DEFAULT_255_2_778
10
19.5136829
20
0.8546428
40
0.4353042
50
76.2206225
51
84.8492073
0
ARC
8
DEFAULT_255_2_778
10
19.2642743
20
-1.4357629
40
2.7391862
50
83.9544394
51
86.1013885
0
ARC
8
DEFAULT_255_2_778
10
18.4095763
20
-13.2186324
40
14.5529925
50
85.8982772
51
86.220183
0
ARC
8
DEFAULT_255_2_778
10
41.0546603
20
325.7848279
40
325.2059641
50
266.1713195
51
266.1765072
0
ARC
8
DEFAULT_255_2_778
10
18.3697758
20
1.3535108
40
0.6212155
50
341.1760637
51
355.1481545
0
ARC
8
DEFAULT_255_2_778
10
18.3569249
20
1.369737
40
0.638713
50
270.0189318
51
340.1702535
0
ARC
8
DEFAULT_255_2_778
10
18.3571568
20
1.3771313
40
0.6461072
50
269.3267849
51
269.9981559
0
ARC
8
DEFAULT_255_2_778
10
18.3577507
20
1.2599396
40
0.5289342
50
263.1609972
51
269.1132916
0
ARC
8
DEFAULT_255_2_778
10
18.253209
20
1.2279755
40
0.4794004
50
224.5151735
51
231.0081177
0
ARC
8
DEFAULT_255_2_778
10
18.3658102
20
3.4313801
40
0.6391449
50
129.9895259
51
180.0010278
0
ARC
8
DEFAULT_255_2_778
10
18.3588926
20
3.4455
40
0.6238927
50
89.9921947
51
130.336119
0
ARC
8
DEFAULT_255_2_778
10
18.3589731
20
3.4440753
40
0.6253174
50
85.166259
51
89.9995951
0
ARC
8
DEFAULT_255_2_778
10
18.3439299
20
3.3925416
40
0.6755623
50
57.604919
51
73.3172277
0
ARC
8
DEFAULT_255_2_778
10
18.3127021
20
3.3817963
40
0.7022919
50
40.9705464
51
50.3676505
0
ARC
8
DEFAULT_255_2_778
10
14.9961769
20
3.4980543
40
1.2190456
50
60.1970492
51
68.3075738
0
ARC
8
DEFAULT_255_2_778
10
14.9177241
20
2.8314831
40
1.8968341
50
91.9051063
51
98.5638034
0
ARC
8
DEFAULT_255_2_778
10
15.048736
20
3.0732276
40
1.0148731
50
90.4556442
51
96.0390321
0
ARC
8
DEFAULT_255_2_778
10
15.0808358
20
3.5555157
40
0.528794
50
73.5515362
51
79.4488151
0
ARC
8
DEFAULT_255_2_778
10
15.1311753
20
3.6780691
40
0.3962465
50
58.762187
51
66.217917
0
ARC
8
DEFAULT_255_2_778
10
15.2312831
20
3.7655358
40
0.2649256
50
49.7903813
51
54.7813377
0
ARC
8
DEFAULT_255_2_778
10
15.2094307
20
3.7411058
40
0.2976915
50
44.8269277
51
49.6139402
0
ARC
8
DEFAULT_255_2_778
10
14.8174092
20
3.529974
40
0.7455092
50
9.6519951
51
20.8788745
0
ARC
8
DEFAULT_255_2_778
10
14.92561
20
1.3751457
40
1.2613849
50
265.3187438
51
269.9993553
0
ARC
8
DEFAULT_255_2_778
10
14.9254977
20
1.3744194
40
1.2606585
50
270.0044608
51
305.5055549
0
ARC
8
DEFAULT_255_2_778
10
14.9068819
20
1.4059005
40
1.2971015
50
305.3673266
51
331.8508371
0
ARC
8
DEFAULT_255_2_778
10
14.8886588
20
1.410414
40
1.3153067
50
332.0519759
51
359.967534
0
ARC
8
DEFAULT_255_2_778
10
14.9659274
20
1.8677505
40
0.6534652
50
136.0629661
51
179.8230454
0
ARC
8
DEFAULT_255_2_778
10
14.9280641
20
1.9013941
40
0.602859
50
89.9934536
51
135.8685894
0
ARC
8
DEFAULT_255_2_778
10
14.928132
20
1.9002344
40
0.6040187
50
88.2416978
51
89.9999035
0
ARC
8
DEFAULT_255_2_778
10
14.9270524
20
1.4079051
40
0.6554129
50
341.2997678
51
359.9968196
0
ARC
8
DEFAULT_255_2_778
10
14.9458356
20
1.3999142
40
0.6350611
50
276.0315499
51
341.4393218
0
ARC
8
DEFAULT_255_2_778
10
14.981708
20
1.8299408
40
1.049001
50
265.103272
51
269.1018715
0
ARC
8
DEFAULT_255_2_778
10
14.9105846
20
1.2717954
40
0.4998604
50
253.003084
51
259.0301896
0
ARC
8
DEFAULT_255_2_778
10
11.7188469
20
3.4166716
40
0.4759567
50
359.7924916
51
8.7491352
0
ARC
8
DEFAULT_255_2_778
10
11.6345665
20
3.4149488
40
0.560234
50
359.3577149
51
359.9999078
0
ARC
8
DEFAULT_255_2_778
10
8.1006458
20
3.4650826
40
1.4051806
50
165.9562008
51
180.0250306
0
ARC
8
DEFAULT_255_2_778
10
8.1217124
20
1.6285602
40
0.5301914
50
260.64976
51
263.5078588
0
ARC
8
DEFAULT_255_2_778
10
8.1173901
20
1.581884
40
0.4834445
50
256.1136868
51
260.2564531
0
ARC
8
DEFAULT_255_2_778
10
8.0938202
20
1.4934302
40
0.3731286
50
242.7311592
51
248.8786308
0
ARC
8
DEFAULT_255_2_778
10
8.9939049
20
2.4637839
40
0.5146167
50
270.1403303
51
314.8539786
0
ARC
8
DEFAULT_255_2_778
10
8.9924608
20
2.4617593
40
0.5142059
50
315.1271562
51
359.8673305
0
ARC
8
DEFAULT_255_2_778
10
8.0920786
20
3.4391554
40
0.3875134
50
90.0315445
51
179.9832473
0
ARC
8
DEFAULT_255_2_778
10
5.7827213
20
5.2400886
40
0.3919576
50
180.0000287
51
180.1637013
0
ARC
8
DEFAULT_255_2_778
10
5.7771332
20
5.2400533
40
0.3863695
50
90.9591895
51
179.9948024
0
ARC
8
DEFAULT_255_2_778
10
3.02477
20
5.9121514
40
0.248129
50
114.1470816
51
118.8573696
0
ARC
8
DEFAULT_255_2_778
10
2.7852606
20
6.346786
40
0.248129
50
294.1470816
51
298.8573696
0
ARC
8
DEFAULT_255_2_778
10
2.9675658
20
5.6175911
40
0.3518038
50
180.2479418
51
184.7157044
0
ARC
8
DEFAULT_255_2_778
10
3.6918439
20
5.6773354
40
1.0785419
50
184.7155953
51
186.1778166
0
ARC
8
DEFAULT_255_2_778
10
3.3668262
20
5.6494878
40
0.7542742
50
191.7901463
51
192.0519045
0
ARC
8
DEFAULT_255_2_778
10
3.1218701
20
5.5956125
40
0.5034706
50
191.8764742
51
195.3697999
0
ARC
8
DEFAULT_255_2_778
10
3.0714188
20
5.5828554
40
0.4514437
50
195.505749
51
197.6244697
0
ARC
8
DEFAULT_255_2_778
10
3.2083176
20
5.6112123
40
0.5905407
50
201.65752
51
208.727894
0
ARC
8
DEFAULT_255_2_778
10
3.1679264
20
5.5857651
40
0.5426784
50
212.9160178
51
220.3689162
0
ARC
8
DEFAULT_255_2_778
10
3.2000628
20
5.5991622
40
0.574632
50
223.5471647
51
230.5146415
0
ARC
8
DEFAULT_255_2_778
10
3.2277781
20
5.6633664
40
0.6431881
50
236.9141905
51
246.5347575
0
ARC
8
DEFAULT_255_2_778
10
3.2044191
20
5.5876173
40
0.5641802
50
263.061643
51
269.7216066
0
ARC
8
DEFAULT_255_2_778
10
3.2023166
20
5.4367582
40
0.413315
50
269.9114411
51
277.7455074
0
ARC
8
DEFAULT_255_2_778
10
3.2017642
20
5.4400149
40
0.4166166
50
277.7604213
51
278.1137896
0
ARC
8
DEFAULT_255_2_778
10
3.3320879
20
5.5167767
40
0.4244084
50
321.1181687
51
332.8892349
0
LINE
8
DEFAULT_255_2_778
10
21.9388653
20
2.4656687
11
21.9094653
21
2.5203687
0
LINE
8
DEFAULT_255_2_778
10
21.9094653
20
2.5203687
11
21.8912653
21
2.5497687
0
LINE
8
DEFAULT_255_2_778
10
21.8912653
20
2.5497687
11
23.1371653
21
4.6616687
0
LINE
8
DEFAULT_255_2_778
10
23.1371653
20
4.6616687
11
22.4063653
21
4.6616687
0
LINE
8
DEFAULT_255_2_778
10
22.4063653
20
4.6616687
11
22.3624653
21
4.5886687
0
LINE
8
DEFAULT_255_2_778
10
22.3624653
20
4.5886687
11
22.3807653
21
4.6161687
0
LINE
8
DEFAULT_255_2_778
10
22.3807653
20
4.6161687
11
22.3624653
21
4.5886687
0
LINE
8
DEFAULT_255_2_778
10
22.3624653
20
4.5886687
11
21.3027653
21
2.8291687
0
LINE
8
DEFAULT_255_2_778
10
21.3027653
20
2.8291687
11
21.2554653
21
2.7450687
0
LINE
8
DEFAULT_255_2_778
10
21.2554653
20
2.7450687
11
21.2371653
21
2.7085687
0
LINE
8
DEFAULT_255_2_778
10
21.2371653
20
2.7085687
11
21.2189653
21
2.6645687
0
LINE
8
DEFAULT_255_2_778
10
21.2189653
20
2.6645687
11
21.2189653
21
2.6188687
0
LINE
8
DEFAULT_255_2_778
10
21.2189653
20
2.6188687
11
21.2099653
21
2.5696687
0
LINE
8
DEFAULT_255_2_778
10
21.2099653
20
2.5696687
11
21.2117653
21
2.5203687
0
LINE
8
DEFAULT_255_2_778
10
21.2117653
20
2.5203687
11
21.2191653
21
2.4894687
0
LINE
8
DEFAULT_255_2_778
10
21.2739653
20
2.3761687
11
21.2996653
21
2.3304687
0
LINE
8
DEFAULT_255_2_778
10
21.2996653
20
2.3304687
11
22.5529653
21
0.1433687
0
LINE
8
DEFAULT_255_2_778
10
22.5529653
20
0.1433687
11
23.2781653
21
0.1433687
0
LINE
8
DEFAULT_255_2_778
10
23.2781653
20
0.1433687
11
21.9388653
21
2.4656687
0
LINE
8
DEFAULT_255_2_778
10
20.4315653
20
6.5947687
11
20.4315653
21
0.1507687
0
LINE
8
DEFAULT_255_2_778
10
20.4315653
20
0.1507687
11
21.0892653
21
0.1507687
0
LINE
8
DEFAULT_255_2_778
10
21.0892653
20
0.1507687
11
21.0892653
21
6.5910687
0
LINE
8
DEFAULT_255_2_778
10
21.0892653
20
6.5910687
11
20.4315653
21
6.5947687
0
LINE
8
DEFAULT_255_2_778
10
28.7627653
20
4.6251687
11
28.6201653
21
4.6762687
0
LINE
8
DEFAULT_255_2_778
10
28.6201653
20
4.6762687
11
28.5780653
21
4.6873687
0
LINE
8
DEFAULT_255_2_778
10
28.5780653
20
4.6873687
11
28.5743653
21
4.6873687
0
LINE
8
DEFAULT_255_2_778
10
28.5743653
20
4.6873687
11
28.5378653
21
4.6965687
0
LINE
8
DEFAULT_255_2_778
10
28.5378653
20
4.6965687
11
28.5341653
21
4.6965687
0
LINE
8
DEFAULT_255_2_778
10
28.2126653
20
4.7331687
11
28.1396653
21
4.7312687
0
LINE
8
DEFAULT_255_2_778
10
28.1396653
20
4.7312687
11
28.0721653
21
4.7256687
0
LINE
8
DEFAULT_255_2_778
10
28.0721653
20
4.7256687
11
28.0046653
21
4.7164687
0
LINE
8
DEFAULT_255_2_778
10
28.0046653
20
4.7164687
11
27.9372653
21
4.7055687
0
LINE
8
DEFAULT_255_2_778
10
27.9372653
20
4.7055687
11
27.8641653
21
4.6873687
0
LINE
8
DEFAULT_255_2_778
10
27.8641653
20
4.6873687
11
27.7837653
21
4.6635687
0
LINE
8
DEFAULT_255_2_778
10
27.7837653
20
4.6635687
11
27.6924653
21
4.6307687
0
LINE
8
DEFAULT_255_2_778
10
27.6924653
20
4.6307687
11
27.6011653
21
4.5904687
0
LINE
8
DEFAULT_255_2_778
10
27.6011653
20
4.5904687
11
27.5281653
21
4.5539687
0
LINE
8
DEFAULT_255_2_778
10
27.5281653
20
4.5539687
11
27.5207653
21
4.5484687
0
LINE
8
DEFAULT_255_2_778
10
27.5207653
20
4.5484687
11
27.4659653
21
4.5156687
0
LINE
8
DEFAULT_255_2_778
10
27.4659653
20
4.5156687
11
27.4112653
21
4.4791687
0
LINE
8
DEFAULT_255_2_778
10
27.4112653
20
4.4791687
11
27.3453653
21
4.4298687
0
LINE
8
DEFAULT_255_2_778
10
27.3453653
20
4.4298687
11
27.3360653
21
4.4224687
0
LINE
8
DEFAULT_255_2_778
10
27.3360653
20
4.4224687
11
27.2921653
21
4.3822687
0
LINE
8
DEFAULT_255_2_778
10
27.2921653
20
4.3822687
11
27.2429653
21
4.3349687
0
LINE
8
DEFAULT_255_2_778
10
27.2429653
20
4.3349687
11
27.2355653
21
4.3274687
0
LINE
8
DEFAULT_255_2_778
10
27.2355653
20
4.3274687
11
27.2281653
21
4.3185687
0
LINE
8
DEFAULT_255_2_778
10
27.2281653
20
4.3185687
11
27.1879653
21
4.2745687
0
LINE
8
DEFAULT_255_2_778
10
27.1879653
20
4.2745687
11
27.1294653
21
4.2015687
0
LINE
8
DEFAULT_255_2_778
10
27.1294653
20
4.2015687
11
27.1019653
21
4.1650687
0
LINE
8
DEFAULT_255_2_778
10
27.1019653
20
4.1650687
11
27.0561653
21
4.0957687
0
LINE
8
DEFAULT_255_2_778
10
27.0561653
20
4.0957687
11
27.0323653
21
4.0555687
0
LINE
8
DEFAULT_255_2_778
10
27.0323653
20
4.0555687
11
27.0103653
21
4.0189687
0
LINE
8
DEFAULT_255_2_778
10
27.0103653
20
4.0189687
11
26.9884653
21
3.9787687
0
LINE
8
DEFAULT_255_2_778
10
26.9884653
20
3.9787687
11
26.9645653
21
3.9277687
0
LINE
8
DEFAULT_255_2_778
10
26.9645653
20
3.9277687
11
26.9463653
21
3.8800687
0
LINE
8
DEFAULT_255_2_778
10
26.9463653
20
3.8800687
11
26.9280653
21
3.8398687
0
LINE
8
DEFAULT_255_2_778
10
26.9280653
20
3.8398687
11
26.9061653
21
3.7739687
0
LINE
8
DEFAULT_255_2_778
10
26.9061653
20
3.7739687
11
26.9005653
21
3.7557687
0
LINE
8
DEFAULT_255_2_778
10
26.9005653
20
3.7557687
11
26.8823653
21
3.6917687
0
LINE
8
DEFAULT_255_2_778
10
26.8823653
20
3.6917687
11
26.8640653
21
3.5930687
0
LINE
8
DEFAULT_255_2_778
10
26.8640653
20
3.5930687
11
26.8585653
21
3.5527687
0
LINE
8
DEFAULT_255_2_778
10
26.8585653
20
3.5527687
11
26.8548653
21
3.5345687
0
LINE
8
DEFAULT_255_2_778
10
26.8548653
20
3.5345687
11
26.8473653
21
3.4578687
0
LINE
8
DEFAULT_255_2_778
10
26.8473653
20
3.4578687
11
26.8436653
21
3.3903687
0
LINE
8
DEFAULT_255_2_778
10
26.8436653
20
3.3903687
11
26.8436653
21
0.1510687
0
LINE
8
DEFAULT_255_2_778
10
26.8436653
20
0.1510687
11
27.5014653
21
0.1510687
0
LINE
8
DEFAULT_255_2_778
10
27.5014653
20
0.1510687
11
27.5014653
21
3.3662687
0
LINE
8
DEFAULT_255_2_778
10
27.7170653
20
3.8832687
11
27.7536653
21
3.9197687
0
LINE
8
DEFAULT_255_2_778
10
27.7536653
20
3.9197687
11
27.7863653
21
3.9472687
0
LINE
8
DEFAULT_255_2_778
10
28.0494653
20
4.0697687
11
28.1298653
21
4.0772687
0
LINE
8
DEFAULT_255_2_778
10
28.1298653
20
4.0772687
11
28.8479653
21
4.0589687
0
LINE
8
DEFAULT_255_2_778
10
28.8479653
20
4.0589687
11
28.8661653
21
4.4462687
0
LINE
8
DEFAULT_255_2_778
10
28.8661653
20
4.4462687
11
28.8680653
21
4.5047687
0
LINE
8
DEFAULT_255_2_778
10
28.8680653
20
4.5047687
11
28.8680653
21
4.5722687
0
LINE
8
DEFAULT_255_2_778
10
28.8680653
20
4.5722687
11
28.7455653
21
4.6270687
0
LINE
8
DEFAULT_255_2_778
10
28.7455653
20
4.6270687
11
28.7627653
21
4.6251687
0
LINE
8
DEFAULT_255_2_778
10
26.0713653
20
3.4887687
11
26.0658653
21
3.5527687
0
LINE
8
DEFAULT_255_2_778
10
26.0658653
20
3.5527687
11
26.0602653
21
3.5948687
0
LINE
8
DEFAULT_255_2_778
10
26.0602653
20
3.5948687
11
26.0565653
21
3.6131687
0
LINE
8
DEFAULT_255_2_778
10
26.0565653
20
3.6131687
11
26.0457653
21
3.6734687
0
LINE
8
DEFAULT_255_2_778
10
26.0457653
20
3.6734687
11
26.0330653
21
3.7282687
0
LINE
8
DEFAULT_255_2_778
10
26.0330653
20
3.7282687
11
26.0203653
21
3.7774687
0
LINE
8
DEFAULT_255_2_778
10
26.0203653
20
3.7774687
11
26.0076653
21
3.8176687
0
LINE
8
DEFAULT_255_2_778
10
26.0076653
20
3.8176687
11
25.9893653
21
3.8668687
0
LINE
8
DEFAULT_255_2_778
10
25.9893653
20
3.8668687
11
25.9673653
21
3.9216687
0
LINE
8
DEFAULT_255_2_778
10
25.9673653
20
3.9216687
11
25.9491653
21
3.9636687
0
LINE
8
DEFAULT_255_2_778
10
25.9491653
20
3.9636687
11
25.9126653
21
4.0422687
0
LINE
8
DEFAULT_255_2_778
10
25.9126653
20
4.0422687
11
25.8705653
21
4.1153687
0
LINE
8
DEFAULT_255_2_778
10
25.8705653
20
4.1153687
11
25.8229653
21
4.1883687
0
LINE
8
DEFAULT_255_2_778
10
25.8229653
20
4.1883687
11
25.7626653
21
4.2650687
0
LINE
8
DEFAULT_255_2_778
10
25.7626653
20
4.2650687
11
25.7004653
21
4.3343687
0
LINE
8
DEFAULT_255_2_778
10
25.7004653
20
4.3343687
11
25.6400653
21
4.3891687
0
LINE
8
DEFAULT_255_2_778
10
25.6400653
20
4.3891687
11
25.6345653
21
4.3947687
0
LINE
8
DEFAULT_255_2_778
10
25.6345653
20
4.3947687
11
25.5615653
21
4.4531687
0
LINE
8
DEFAULT_255_2_778
10
25.5615653
20
4.4531687
11
25.5506653
21
4.4624687
0
LINE
8
DEFAULT_255_2_778
10
25.5506653
20
4.4624687
11
25.4847653
21
4.5082687
0
LINE
8
DEFAULT_255_2_778
10
25.4847653
20
4.5082687
11
25.4117653
21
4.5539687
0
LINE
8
DEFAULT_255_2_778
10
25.4117653
20
4.5539687
11
25.3257653
21
4.5997687
0
LINE
8
DEFAULT_255_2_778
10
25.3257653
20
4.5997687
11
25.3202653
21
4.6034687
0
LINE
8
DEFAULT_255_2_778
10
25.3202653
20
4.6034687
11
25.2654653
21
4.6291687
0
LINE
8
DEFAULT_255_2_778
10
25.2654653
20
4.6291687
11
25.1559653
21
4.6693687
0
LINE
8
DEFAULT_255_2_778
10
25.1559653
20
4.6693687
11
25.0736653
21
4.6912687
0
LINE
8
DEFAULT_255_2_778
10
25.0736653
20
4.6912687
11
24.9712653
21
4.7095687
0
LINE
8
DEFAULT_255_2_778
10
24.9712653
20
4.7095687
11
24.8870653
21
4.7188687
0
LINE
8
DEFAULT_255_2_778
10
24.8870653
20
4.7188687
11
24.8651653
21
4.7206687
0
LINE
8
DEFAULT_255_2_778
10
24.8651653
20
4.7206687
11
24.8614653
21
4.7206687
0
LINE
8
DEFAULT_255_2_778
10
24.8614653
20
4.7206687
11
24.7847653
21
4.7243687
0
LINE
8
DEFAULT_255_2_778
10
24.7847653
20
4.7243687
11
24.7243653
21
4.7243687
0
LINE
8
DEFAULT_255_2_778
10
24.7243653
20
4.7243687
11
24.6878653
21
4.7225687
0
LINE
8
DEFAULT_255_2_778
10
24.6878653
20
4.7225687
11
24.6457653
21
4.7188687
0
LINE
8
DEFAULT_255_2_778
10
24.6457653
20
4.7188687
11
24.5910653
21
4.7114687
0
LINE
8
DEFAULT_255_2_778
10
24.5910653
20
4.7114687
11
24.5801653
21
4.7114687
0
LINE
8
DEFAULT_255_2_778
10
24.5801653
20
4.7114687
11
24.5180653
21
4.7005687
0
LINE
8
DEFAULT_255_2_778
10
24.5180653
20
4.7005687
11
24.4904653
21
4.6950687
0
LINE
8
DEFAULT_255_2_778
10
24.4904653
20
4.6950687
11
24.4283653
21
4.6804687
0
LINE
8
DEFAULT_255_2_778
10
24.4283653
20
4.6804687
11
24.3679653
21
4.6621687
0
LINE
8
DEFAULT_255_2_778
10
24.3679653
20
4.6621687
11
24.3095653
21
4.6402687
0
LINE
8
DEFAULT_255_2_778
10
24.3095653
20
4.6402687
11
24.2510653
21
4.6164687
0
LINE
8
DEFAULT_255_2_778
10
24.2510653
20
4.6164687
11
24.2290653
21
4.6053687
0
LINE
8
DEFAULT_255_2_778
10
24.2290653
20
4.6053687
11
24.1962653
21
4.5870687
0
LINE
8
DEFAULT_255_2_778
10
24.1962653
20
4.5870687
11
24.1414653
21
4.5576687
0
LINE
8
DEFAULT_255_2_778
10
24.1414653
20
4.5576687
11
24.0867653
21
4.5267687
0
LINE
8
DEFAULT_255_2_778
10
24.0867653
20
4.5267687
11
24.0356653
21
4.4902687
0
LINE
8
DEFAULT_255_2_778
10
24.0356653
20
4.4902687
11
24.0319653
21
4.4902687
0
LINE
8
DEFAULT_255_2_778
10
24.0319653
20
4.4902687
11
24.0081653
21
4.4719687
0
LINE
8
DEFAULT_255_2_778
10
24.0081653
20
4.4719687
11
23.9589653
21
4.4354687
0
LINE
8
DEFAULT_255_2_778
10
23.9589653
20
4.4354687
11
23.9369653
21
4.4354687
0
LINE
8
DEFAULT_255_2_778
10
23.9369653
20
4.4354687
11
23.8912653
21
4.3952687
0
LINE
8
DEFAULT_255_2_778
10
23.8912653
20
4.3952687
11
23.8655653
21
4.3714687
0
LINE
8
DEFAULT_255_2_778
10
23.8655653
20
4.3714687
11
23.8052653
21
4.3110687
0
LINE
8
DEFAULT_255_2_778
10
23.8052653
20
4.3110687
11
23.7650653
21
4.2634687
0
LINE
8
DEFAULT_255_2_778
10
23.7650653
20
4.2634687
11
23.7560653
21
4.2526687
0
LINE
8
DEFAULT_255_2_778
10
23.7560653
20
4.2526687
11
23.7266653
21
4.2161687
0
LINE
8
DEFAULT_255_2_778
10
23.7266653
20
4.2161687
11
23.6901653
21
4.1650687
0
LINE
8
DEFAULT_255_2_778
10
23.6901653
20
4.1650687
11
23.6827653
21
4.1541687
0
LINE
8
DEFAULT_255_2_778
10
23.6827653
20
4.1541687
11
23.6700653
21
4.1359687
0
LINE
8
DEFAULT_255_2_778
10
23.6700653
20
4.1359687
11
23.6461653
21
4.0957687
0
LINE
8
DEFAULT_255_2_778
10
23.6461653
20
4.0957687
11
23.6096653
21
4.0298687
0
LINE
8
DEFAULT_255_2_778
10
23.6096653
20
4.0298687
11
23.5988653
21
4.0060687
0
LINE
8
DEFAULT_255_2_778
10
23.5988653
20
4.0060687
11
23.5842653
21
3.9732687
0
LINE
8
DEFAULT_255_2_778
10
23.5842653
20
3.9732687
11
23.5586653
21
3.9147687
0
LINE
8
DEFAULT_255_2_778
10
23.5586653
20
3.9147687
11
23.5366653
21
3.8525687
0
LINE
8
DEFAULT_255_2_778
10
23.5366653
20
3.8525687
11
23.5109653
21
3.7649687
0
LINE
8
DEFAULT_255_2_778
10
23.5109653
20
3.7649687
11
23.4983653
21
3.7102687
0
LINE
8
DEFAULT_255_2_778
10
23.4983653
20
3.7102687
11
23.4855653
21
3.6462687
0
LINE
8
DEFAULT_255_2_778
10
23.4855653
20
3.6462687
11
23.4818653
21
3.6168687
0
LINE
8
DEFAULT_255_2_778
10
23.4818653
20
3.6168687
11
23.4744653
21
3.5509687
0
LINE
8
DEFAULT_255_2_778
10
23.4744653
20
3.5509687
11
23.4689653
21
3.4466687
0
LINE
8
DEFAULT_255_2_778
10
23.4689653
20
3.4466687
11
23.4689653
21
1.4004687
0
LINE
8
DEFAULT_255_2_778
10
23.4689653
20
1.4004687
11
23.4726653
21
1.2998687
0
LINE
8
DEFAULT_255_2_778
10
23.4726653
20
1.2998687
11
23.4781653
21
1.2321687
0
LINE
8
DEFAULT_255_2_778
10
23.4781653
20
1.2321687
11
23.4927653
21
1.1445687
0
LINE
8
DEFAULT_255_2_778
10
23.4927653
20
1.1445687
11
23.4927653
21
1.1263687
0
LINE
8
DEFAULT_255_2_778
10
23.4927653
20
1.1263687
11
23.5073653
21
1.0641687
0
LINE
8
DEFAULT_255_2_778
10
23.5073653
20
1.0641687
11
23.5329653
21
0.9728687
0
LINE
8
DEFAULT_255_2_778
10
23.5329653
20
0.9728687
11
23.5329653
21
0.8778687
0
LINE
8
DEFAULT_255_2_778
10
23.5329653
20
0.8778687
11
23.5329653
21
0.7955687
0
LINE
8
DEFAULT_255_2_778
10
23.5329653
20
0.7955687
11
23.5694653
21
0.7188687
0
LINE
8
DEFAULT_255_2_778
10
23.5694653
20
0.7188687
11
23.5967653
21
0.6730687
0
LINE
8
DEFAULT_255_2_778
10
23.5967653
20
0.6730687
11
23.6443653
21
0.6000687
0
LINE
8
DEFAULT_255_2_778
10
23.6443653
20
0.6000687
11
23.6864653
21
0.5452687
0
LINE
8
DEFAULT_255_2_778
10
23.6864653
20
0.5452687
11
23.7009653
21
0.5270687
0
LINE
8
DEFAULT_255_2_778
10
23.7009653
20
0.5270687
11
23.7319653
21
0.4905687
0
LINE
8
DEFAULT_255_2_778
10
23.7319653
20
0.4905687
11
23.7464653
21
0.4722687
0
LINE
8
DEFAULT_255_2_778
10
23.7464653
20
0.4722687
11
23.7904653
21
0.4264687
0
LINE
8
DEFAULT_255_2_778
10
23.7904653
20
0.4264687
11
23.8451653
21
0.3754687
0
LINE
8
DEFAULT_255_2_778
10
23.8451653
20
0.3754687
11
23.8999653
21
0.3314687
0
LINE
8
DEFAULT_255_2_778
10
23.8999653
20
0.3314687
11
23.9602653
21
0.2875687
0
LINE
8
DEFAULT_255_2_778
10
23.9602653
20
0.2875687
11
24.0332653
21
0.2418687
0
LINE
8
DEFAULT_255_2_778
10
24.0332653
20
0.2418687
11
24.1100653
21
0.2052687
0
LINE
8
DEFAULT_255_2_778
10
24.1100653
20
0.2052687
11
24.1610653
21
0.1833687
0
LINE
8
DEFAULT_255_2_778
10
24.1610653
20
0.1833687
11
24.1793653
21
0.1777687
0
LINE
8
DEFAULT_255_2_778
10
24.1793653
20
0.1777687
11
24.2415653
21
0.1558687
0
LINE
8
DEFAULT_255_2_778
10
24.2415653
20
0.1558687
11
24.2470653
21
0.1539687
0
LINE
8
DEFAULT_255_2_778
10
24.2470653
20
0.1539687
11
24.3293653
21
0.1357687
0
LINE
8
DEFAULT_255_2_778
10
24.3293653
20
0.1357687
11
24.4097653
21
0.1211687
0
LINE
8
DEFAULT_255_2_778
10
24.4097653
20
0.1211687
11
24.4701653
21
0.1137687
0
LINE
8
DEFAULT_255_2_778
10
24.4701653
20
0.1137687
11
24.4846653
21
0.1137687
0
LINE
8
DEFAULT_255_2_778
10
24.4846653
20
0.1137687
11
24.5614653
21
0.1100687
0
LINE
8
DEFAULT_255_2_778
10
24.7677653
20
0.1282687
11
25.5588653
21
0.2523687
0
LINE
8
DEFAULT_255_2_778
10
25.5588653
20
0.2523687
11
25.5533653
21
0.3015687
0
LINE
8
DEFAULT_255_2_778
10
25.5533653
20
0.3015687
11
25.5477653
21
0.3526687
0
LINE
8
DEFAULT_255_2_778
10
25.5477653
20
0.3526687
11
25.5403653
21
0.4439687
0
LINE
8
DEFAULT_255_2_778
10
25.5403653
20
0.4439687
11
25.5403653
21
0.4621687
0
LINE
8
DEFAULT_255_2_778
10
25.5403653
20
0.4621687
11
25.5366653
21
0.5024687
0
LINE
8
DEFAULT_255_2_778
10
25.5366653
20
0.5024687
11
25.5273653
21
0.6815687
0
LINE
8
DEFAULT_255_2_778
10
25.5273653
20
0.6815687
11
25.5236653
21
0.7474687
0
LINE
8
DEFAULT_255_2_778
10
25.5236653
20
0.7474687
11
25.5236653
21
0.7656687
0
LINE
8
DEFAULT_255_2_778
10
25.5236653
20
0.7656687
11
24.6905653
21
0.7656687
0
LINE
8
DEFAULT_255_2_778
10
24.5590653
20
0.7786687
11
24.5042653
21
0.7931687
0
LINE
8
DEFAULT_255_2_778
10
24.5042653
20
0.7931687
11
24.4402653
21
0.8151687
0
LINE
8
DEFAULT_255_2_778
10
24.4402653
20
0.8151687
11
24.3891653
21
0.8408687
0
LINE
8
DEFAULT_255_2_778
10
24.3891653
20
0.8408687
11
24.3288653
21
0.8773687
0
LINE
8
DEFAULT_255_2_778
10
24.3288653
20
0.8773687
11
24.2886653
21
0.9082687
0
LINE
8
DEFAULT_255_2_778
10
24.2886653
20
0.9082687
11
24.2812653
21
0.9138687
0
LINE
8
DEFAULT_255_2_778
10
24.2812653
20
0.9138687
11
24.2409653
21
0.9503687
0
LINE
8
DEFAULT_255_2_778
10
24.2409653
20
0.9503687
11
24.2044653
21
0.9942687
0
LINE
8
DEFAULT_255_2_778
10
24.2044653
20
0.9942687
11
24.1679653
21
1.0453687
0
LINE
8
DEFAULT_255_2_778
10
24.1679653
20
1.0453687
11
24.1370653
21
1.0945687
0
LINE
8
DEFAULT_255_2_778
10
24.1076653
20
1.1548687
11
24.0893653
21
1.2096687
0
LINE
8
DEFAULT_255_2_778
10
24.0893653
20
1.2096687
11
24.0711653
21
1.2771687
0
LINE
8
DEFAULT_255_2_778
10
24.0711653
20
1.2771687
11
24.0621653
21
1.3355687
0
LINE
8
DEFAULT_255_2_778
10
24.0565653
20
1.4086687
11
24.0565653
21
2.0589687
0
LINE
8
DEFAULT_255_2_778
10
24.0565653
20
2.0589687
11
25.6496653
21
2.0589687
0
LINE
8
DEFAULT_255_2_778
10
25.9784653
20
2.3896687
11
25.9784653
21
3.4869687
0
LINE
8
DEFAULT_255_2_778
10
25.9784653
20
3.4869687
11
26.0713653
21
3.4887687
0
LINE
8
DEFAULT_255_2_778
10
25.4210653
20
3.4228687
11
25.4210653
21
2.7286687
0
LINE
8
DEFAULT_255_2_778
10
25.4210653
20
2.7286687
11
24.1512653
21
2.7286687
0
LINE
8
DEFAULT_255_2_778
10
24.1512653
20
2.7286687
11
24.1512653
21
3.4228687
0
LINE
8
DEFAULT_255_2_778
10
24.8439653
20
4.0639687
11
24.9024653
21
4.0547687
0
LINE
8
DEFAULT_255_2_778
10
24.9024653
20
4.0547687
11
24.9699653
21
4.0364687
0
LINE
8
DEFAULT_255_2_778
10
25.0794653
20
3.9906687
11
25.0940653
21
3.9832687
0
LINE
8
DEFAULT_255_2_778
10
25.0940653
20
3.9832687
11
25.1342653
21
3.9594687
0
LINE
8
DEFAULT_255_2_778
10
25.1342653
20
3.9594687
11
25.1852653
21
3.9229687
0
LINE
8
DEFAULT_255_2_778
10
25.1852653
20
3.9229687
11
25.2273653
21
3.8864687
0
LINE
8
DEFAULT_255_2_778
10
25.2273653
20
3.8864687
11
25.2694653
21
3.8406687
0
LINE
8
DEFAULT_255_2_778
10
25.3186653
20
3.7747687
11
25.3405653
21
3.7382687
0
LINE
8
DEFAULT_255_2_778
10
25.3405653
20
3.7382687
11
25.3681653
21
3.6835687
0
LINE
8
DEFAULT_255_2_778
10
25.3681653
20
3.6835687
11
25.3755653
21
3.6652687
0
LINE
8
DEFAULT_255_2_778
10
25.3755653
20
3.6652687
11
25.3937653
21
3.6104687
0
LINE
8
DEFAULT_255_2_778
10
25.3937653
20
3.6104687
11
25.4120653
21
3.5501687
0
LINE
8
DEFAULT_255_2_778
10
25.4175653
20
3.5080687
11
25.4231653
21
3.4220687
0
LINE
8
DEFAULT_255_2_778
10
25.4231653
20
3.4220687
11
25.4210653
21
3.4228687
0
LINE
8
DEFAULT_255_2_778
10
19.0813653
20
3.3316687
11
19.1289653
21
3.3316687
0
LINE
8
DEFAULT_255_2_778
10
19.1289653
20
3.3316687
11
19.1710653
21
3.3334687
0
LINE
8
DEFAULT_255_2_778
10
19.1710653
20
3.3334687
11
19.2586653
21
3.3334687
0
LINE
8
DEFAULT_255_2_778
10
19.2586653
20
3.3334687
11
19.5144653
21
3.3390687
0
LINE
8
DEFAULT_255_2_778
10
19.5144653
20
3.3390687
11
19.5930653
21
3.3390687
0
LINE
8
DEFAULT_255_2_778
10
19.5930653
20
3.3390687
11
19.6843653
21
3.3427687
0
LINE
8
DEFAULT_255_2_778
10
19.6843653
20
3.3427687
11
19.6843653
21
3.4302687
0
LINE
8
DEFAULT_255_2_778
10
19.6843653
20
3.4302687
11
19.6824653
21
3.4779687
0
LINE
8
DEFAULT_255_2_778
10
19.6824653
20
3.4779687
11
19.6824653
21
3.4853687
0
LINE
8
DEFAULT_255_2_778
10
19.6824653
20
3.4853687
11
19.6769653
21
3.5512687
0
LINE
8
DEFAULT_255_2_778
10
19.6769653
20
3.5512687
11
19.6695653
21
3.6152687
0
LINE
8
DEFAULT_255_2_778
10
19.6695653
20
3.6152687
11
19.6586653
21
3.6774687
0
LINE
8
DEFAULT_255_2_778
10
19.6586653
20
3.6774687
11
19.6459653
21
3.7395687
0
LINE
8
DEFAULT_255_2_778
10
19.6459653
20
3.7395687
11
19.6277653
21
3.8017687
0
LINE
8
DEFAULT_255_2_778
10
19.6277653
20
3.8017687
11
19.6094653
21
3.8565687
0
LINE
8
DEFAULT_255_2_778
10
19.6094653
20
3.8565687
11
19.6076653
21
3.8602687
0
LINE
8
DEFAULT_255_2_778
10
19.6076653
20
3.8602687
11
19.5893653
21
3.9150687
0
LINE
8
DEFAULT_255_2_778
10
19.5893653
20
3.9150687
11
19.5893653
21
3.9168687
0
LINE
8
DEFAULT_255_2_778
10
19.5893653
20
3.9168687
11
19.5710653
21
3.9607687
0
LINE
8
DEFAULT_255_2_778
10
19.5710653
20
3.9607687
11
19.5308653
21
4.0412687
0
LINE
8
DEFAULT_255_2_778
10
19.5308653
20
4.0412687
11
19.4888653
21
4.1142687
0
LINE
8
DEFAULT_255_2_778
10
19.4888653
20
4.1142687
11
19.4779653
21
4.1324687
0
LINE
8
DEFAULT_255_2_778
10
19.4779653
20
4.1324687
11
19.4358653
21
4.1928687
0
LINE
8
DEFAULT_255_2_778
10
19.4358653
20
4.1928687
11
19.4303653
21
4.2002687
0
LINE
8
DEFAULT_255_2_778
10
19.4303653
20
4.2002687
11
19.3792653
21
4.2642687
0
LINE
8
DEFAULT_255_2_778
10
19.3792653
20
4.2642687
11
19.3189653
21
4.3301687
0
LINE
8
DEFAULT_255_2_778
10
19.3189653
20
4.3301687
11
19.2514653
21
4.3960687
0
LINE
8
DEFAULT_255_2_778
10
19.2514653
20
4.3960687
11
19.1673653
21
4.4362687
0
LINE
8
DEFAULT_255_2_778
10
19.1673653
20
4.4362687
11
19.1564653
21
4.4455687
0
LINE
8
DEFAULT_255_2_778
10
19.1564653
20
4.4455687
11
19.0779653
21
4.5002687
0
LINE
8
DEFAULT_255_2_778
10
19.0779653
20
4.5002687
11
19.0175653
21
4.5367687
0
LINE
8
DEFAULT_255_2_778
10
19.0175653
20
4.5367687
11
18.9297653
21
4.5825687
0
LINE
8
DEFAULT_255_2_778
10
18.9297653
20
4.5825687
11
18.8657653
21
4.6082687
0
LINE
8
DEFAULT_255_2_778
10
18.8657653
20
4.6082687
11
18.7561653
21
4.6484687
0
LINE
8
DEFAULT_255_2_778
10
18.7561653
20
4.6484687
11
18.7543653
21
4.6484687
0
LINE
8
DEFAULT_255_2_778
10
18.7543653
20
4.6484687
11
18.6738653
21
4.6703687
0
LINE
8
DEFAULT_255_2_778
10
18.6738653
20
4.6703687
11
18.5752653
21
4.6886687
0
LINE
8
DEFAULT_255_2_778
10
18.5752653
20
4.6886687
11
18.4839653
21
4.6995687
0
LINE
8
DEFAULT_255_2_778
10
18.4839653
20
4.6995687
11
18.4619653
21
4.7013687
0
LINE
8
DEFAULT_255_2_778
10
18.4619653
20
4.7013687
11
18.3759653
21
4.7050687
0
LINE
8
DEFAULT_255_2_778
10
18.3759653
20
4.7050687
11
18.3085653
21
4.7050687
0
LINE
8
DEFAULT_255_2_778
10
18.3085653
20
4.7050687
11
18.2719653
21
4.7032687
0
LINE
8
DEFAULT_255_2_778
10
18.2719653
20
4.7032687
11
18.2410653
21
4.7013687
0
LINE
8
DEFAULT_255_2_778
10
18.2410653
20
4.7013687
11
18.2082653
21
4.6976687
0
LINE
8
DEFAULT_255_2_778
10
18.2082653
20
4.6976687
11
18.1571653
21
4.6902687
0
LINE
8
DEFAULT_255_2_778
10
18.1571653
20
4.6902687
11
18.1388653
21
4.6865687
0
LINE
8
DEFAULT_255_2_778
10
18.1388653
20
4.6865687
11
18.1132653
21
4.6809687
0
LINE
8
DEFAULT_255_2_778
10
18.1132653
20
4.6809687
11
18.0767653
21
4.6717687
0
LINE
8
DEFAULT_255_2_778
10
18.0767653
20
4.6717687
11
18.0510653
21
4.6661687
0
LINE
8
DEFAULT_255_2_778
10
18.0510653
20
4.6661687
11
18.0145653
21
4.6553687
0
LINE
8
DEFAULT_255_2_778
10
18.0145653
20
4.6553687
11
17.9907653
21
4.6479687
0
LINE
8
DEFAULT_255_2_778
10
17.9907653
20
4.6479687
11
17.9304653
21
4.6296687
0
LINE
8
DEFAULT_255_2_778
10
17.9304653
20
4.6296687
11
17.8883653
21
4.6113687
0
LINE
8
DEFAULT_255_2_778
10
17.8883653
20
4.6113687
11
17.8883653
21
4.6058687
0
LINE
8
DEFAULT_255_2_778
10
17.8883653
20
4.6058687
11
17.8298653
21
4.5767687
0
LINE
8
DEFAULT_255_2_778
10
17.8298653
20
4.5767687
11
17.7896653
21
4.5584687
0
LINE
8
DEFAULT_255_2_778
10
17.7896653
20
4.5584687
11
17.7713653
21
4.5510687
0
LINE
8
DEFAULT_255_2_778
10
17.7713653
20
4.5510687
11
17.7166653
21
4.5201687
0
LINE
8
DEFAULT_255_2_778
10
17.7166653
20
4.5201687
11
17.6689653
21
4.4891687
0
LINE
8
DEFAULT_255_2_778
10
17.6689653
20
4.4891687
11
17.6142653
21
4.4489687
0
LINE
8
DEFAULT_255_2_778
10
17.6142653
20
4.4489687
11
17.5959653
21
4.4343687
0
LINE
8
DEFAULT_255_2_778
10
17.5959653
20
4.4343687
11
17.5650653
21
4.4105687
0
LINE
8
DEFAULT_255_2_778
10
17.5650653
20
4.4105687
11
17.5173653
21
4.3703687
0
LINE
8
DEFAULT_255_2_778
10
17.5173653
20
4.3703687
11
17.4716653
21
4.3264687
0
LINE
8
DEFAULT_255_2_778
10
17.4716653
20
4.3264687
11
17.4607653
21
4.3137687
0
LINE
8
DEFAULT_255_2_778
10
17.4607653
20
4.3137687
11
17.4298653
21
4.2809687
0
LINE
8
DEFAULT_255_2_778
10
17.4298653
20
4.2809687
11
17.3840653
21
4.2261687
0
LINE
8
DEFAULT_255_2_778
10
17.3840653
20
4.2261687
11
17.3401653
21
4.1676687
0
LINE
8
DEFAULT_255_2_778
10
17.3401653
20
4.1676687
11
17.2906653
21
4.0946687
0
LINE
8
DEFAULT_255_2_778
10
17.2906653
20
4.0946687
11
17.2612653
21
4.0451687
0
LINE
8
DEFAULT_255_2_778
10
17.2612653
20
4.0451687
11
17.2155653
21
3.9573687
0
LINE
8
DEFAULT_255_2_778
10
17.2155653
20
3.9573687
11
17.1861653
21
3.8880687
0
LINE
8
DEFAULT_255_2_778
10
17.1861653
20
3.8880687
11
17.1604653
21
3.8150687
0
LINE
8
DEFAULT_255_2_778
10
17.1604653
20
3.8150687
11
17.1348653
21
3.7290687
0
LINE
8
DEFAULT_255_2_778
10
17.1348653
20
3.7290687
11
17.1329653
21
3.7234687
0
LINE
8
DEFAULT_255_2_778
10
17.0964653
20
3.4128687
11
17.0964653
21
1.3392687
0
LINE
8
DEFAULT_255_2_778
10
17.0964653
20
1.3392687
11
17.0982653
21
1.2734687
0
LINE
8
DEFAULT_255_2_778
10
17.0982653
20
1.2734687
11
17.1057653
21
1.1966687
0
LINE
8
DEFAULT_255_2_778
10
17.1057653
20
1.1966687
11
17.1165653
21
1.1181687
0
LINE
8
DEFAULT_255_2_778
10
17.1165653
20
1.1181687
11
17.1348653
21
1.0231687
0
LINE
8
DEFAULT_255_2_778
10
17.1348653
20
1.0231687
11
17.1805653
21
0.8805687
0
LINE
8
DEFAULT_255_2_778
10
17.1805653
20
0.8805687
11
17.2115653
21
0.8074687
0
LINE
8
DEFAULT_255_2_778
10
17.2115653
20
0.8074687
11
17.2517653
21
0.7289687
0
LINE
8
DEFAULT_255_2_778
10
17.2517653
20
0.7289687
11
17.2919653
21
0.6630687
0
LINE
8
DEFAULT_255_2_778
10
17.2919653
20
0.6630687
11
17.3395653
21
0.5936687
0
LINE
8
DEFAULT_255_2_778
10
17.3395653
20
0.5936687
11
17.4070653
21
0.5077687
0
LINE
8
DEFAULT_255_2_778
10
17.4070653
20
0.5077687
11
17.4435653
21
0.4656687
0
LINE
8
DEFAULT_255_2_778
10
17.4435653
20
0.4656687
11
17.5165653
21
0.3963687
0
LINE
8
DEFAULT_255_2_778
10
17.5165653
20
0.3963687
11
17.5713653
21
0.3471687
0
LINE
8
DEFAULT_255_2_778
10
17.5713653
20
0.3471687
11
17.6335653
21
0.2994687
0
LINE
8
DEFAULT_255_2_778
10
17.6335653
20
0.2994687
11
17.7248653
21
0.2391687
0
LINE
8
DEFAULT_255_2_778
10
17.7248653
20
0.2391687
11
17.7795653
21
0.2081687
0
LINE
8
DEFAULT_255_2_778
10
17.7795653
20
0.2081687
11
17.8526653
21
0.1716687
0
LINE
8
DEFAULT_255_2_778
10
17.8526653
20
0.1716687
11
17.9401653
21
0.1351687
0
LINE
8
DEFAULT_255_2_778
10
17.9401653
20
0.1351687
11
18.0132653
21
0.1113687
0
LINE
8
DEFAULT_255_2_778
10
18.0132653
20
0.1113687
11
18.0992653
21
0.0894687
0
LINE
8
DEFAULT_255_2_778
10
18.0992653
20
0.0894687
11
18.1119653
21
0.0894687
0
LINE
8
DEFAULT_255_2_778
10
18.1119653
20
0.0894687
11
18.1886653
21
0.0766687
0
LINE
8
DEFAULT_255_2_778
10
18.1886653
20
0.0766687
11
18.2928653
21
0.0658687
0
LINE
8
DEFAULT_255_2_778
10
18.2928653
20
0.0658687
11
18.3733653
21
0.0640687
0
LINE
8
DEFAULT_255_2_778
10
18.3733653
20
0.0640687
11
18.4355653
21
0.0658687
0
LINE
8
DEFAULT_255_2_778
10
18.4355653
20
0.0658687
11
18.4355653
21
0.0695687
0
LINE
8
DEFAULT_255_2_778
10
18.4355653
20
0.0695687
11
18.4775653
21
0.0695687
0
LINE
8
DEFAULT_255_2_778
10
18.4775653
20
0.0695687
11
18.5378653
21
0.0769687
0
LINE
8
DEFAULT_255_2_778
10
18.5378653
20
0.0769687
11
18.5982653
21
0.0878687
0
LINE
8
DEFAULT_255_2_778
10
18.5982653
20
0.0878687
11
18.6238653
21
0.0933687
0
LINE
8
DEFAULT_255_2_778
10
18.6238653
20
0.0933687
11
18.6566653
21
0.1007687
0
LINE
8
DEFAULT_255_2_778
10
18.6566653
20
0.1007687
11
18.7151653
21
0.1190687
0
LINE
8
DEFAULT_255_2_778
10
18.7151653
20
0.1190687
11
18.8247653
21
0.1555687
0
LINE
8
DEFAULT_255_2_778
10
18.8247653
20
0.1555687
11
18.8794653
21
0.1793687
0
LINE
8
DEFAULT_255_2_778
10
18.8794653
20
0.1793687
11
18.9032653
21
0.1904687
0
LINE
8
DEFAULT_255_2_778
10
18.9032653
20
0.1904687
11
18.9323653
21
0.2050687
0
LINE
8
DEFAULT_255_2_778
10
18.9323653
20
0.2050687
11
18.9871653
21
0.2341687
0
LINE
8
DEFAULT_255_2_778
10
18.9871653
20
0.2341687
11
19.0091653
21
0.2468687
0
LINE
8
DEFAULT_255_2_778
10
19.0091653
20
0.2468687
11
19.0601653
21
0.2777687
0
LINE
8
DEFAULT_255_2_778
10
19.0601653
20
0.2777687
11
19.1093653
21
0.3105687
0
LINE
8
DEFAULT_255_2_778
10
19.1093653
20
0.3105687
11
19.1570653
21
0.3471687
0
LINE
8
DEFAULT_255_2_778
10
19.1570653
20
0.3471687
11
19.2027653
21
0.3836687
0
LINE
8
DEFAULT_255_2_778
10
19.2027653
20
0.3836687
11
19.2467653
21
0.4238687
0
LINE
8
DEFAULT_255_2_778
10
19.2467653
20
0.4238687
11
19.2887653
21
0.4659687
0
LINE
8
DEFAULT_255_2_778
10
19.2887653
20
0.4659687
11
19.3290653
21
0.5098687
0
LINE
8
DEFAULT_255_2_778
10
19.3290653
20
0.5098687
11
19.3528653
21
0.5391687
0
LINE
8
DEFAULT_255_2_778
10
19.3528653
20
0.5391687
11
19.3893653
21
0.5884687
0
LINE
8
DEFAULT_255_2_778
10
19.3893653
20
0.5884687
11
19.4258653
21
0.6431687
0
LINE
8
DEFAULT_255_2_778
10
19.4258653
20
0.6431687
11
19.4623653
21
0.7053687
0
LINE
8
DEFAULT_255_2_778
10
19.5226653
20
0.8223687
11
19.5700653
21
0.9411687
0
LINE
8
DEFAULT_255_2_778
10
19.5700653
20
0.9411687
11
19.5827653
21
0.9776687
0
LINE
8
DEFAULT_255_2_778
10
19.5827653
20
0.9776687
11
19.6009653
21
1.0323687
0
LINE
8
DEFAULT_255_2_778
10
19.6009653
20
1.0323687
11
19.6155653
21
1.0927687
0
LINE
8
DEFAULT_255_2_778
10
19.6155653
20
1.0927687
11
19.6263653
21
1.1530687
0
LINE
8
DEFAULT_255_2_778
10
19.6263653
20
1.1530687
11
19.6263653
21
1.1768687
0
LINE
8
DEFAULT_255_2_778
10
19.6263653
20
1.1768687
11
19.6356653
21
1.2681687
0
LINE
8
DEFAULT_255_2_778
10
19.3395653
20
1.3046687
11
19.1660653
21
1.3302687
0
LINE
8
DEFAULT_255_2_778
10
19.1660653
20
1.3302687
11
18.9887653
21
1.3429687
0
LINE
8
DEFAULT_255_2_778
10
18.9887653
20
1.3429687
11
18.9887653
21
1.3009687
0
LINE
8
DEFAULT_255_2_778
10
18.2947653
20
0.7347687
11
18.2801653
21
0.7347687
0
LINE
8
DEFAULT_255_2_778
10
18.2801653
20
0.7347687
11
18.2254653
21
0.7421687
0
LINE
8
DEFAULT_255_2_778
10
18.2254653
20
0.7421687
11
18.2217653
21
0.7421687
0
LINE
8
DEFAULT_255_2_778
10
18.2217653
20
0.7421687
11
18.1725653
21
0.7548687
0
LINE
8
DEFAULT_255_2_778
10
18.1725653
20
0.7548687
11
18.1616653
21
0.7585687
0
LINE
8
DEFAULT_255_2_778
10
18.1616653
20
0.7585687
11
18.1105653
21
0.7585687
0
LINE
8
DEFAULT_255_2_778
10
18.1105653
20
0.7585687
11
18.1050653
21
0.7603687
0
LINE
8
DEFAULT_255_2_778
10
18.1050653
20
0.7603687
11
18.0611653
21
0.7823687
0
LINE
8
DEFAULT_255_2_778
10
18.0611653
20
0.7823687
11
18.0063653
21
0.8151687
0
LINE
8
DEFAULT_255_2_778
10
18.0063653
20
0.8151687
11
17.9515653
21
0.8553687
0
LINE
8
DEFAULT_255_2_778
10
17.9113653
20
0.8918687
11
17.8748653
21
0.9339687
0
LINE
8
DEFAULT_255_2_778
10
17.8748653
20
0.9339687
11
17.8200653
21
1.0106687
0
LINE
8
DEFAULT_255_2_778
10
17.8200653
20
1.0106687
11
17.8018653
21
1.0434687
0
LINE
8
DEFAULT_255_2_778
10
17.8018653
20
1.0434687
11
17.7780653
21
1.0927687
0
LINE
8
DEFAULT_255_2_778
10
17.7780653
20
1.0927687
11
17.7541653
21
1.1585687
0
LINE
8
DEFAULT_255_2_778
10
17.7541653
20
1.1585687
11
17.7396653
21
1.2133687
0
LINE
8
DEFAULT_255_2_778
10
17.7396653
20
1.2133687
11
17.7303653
21
1.2718687
0
LINE
8
DEFAULT_255_2_778
10
17.7303653
20
1.2718687
11
17.7266653
21
1.3448687
0
LINE
8
DEFAULT_255_2_778
10
17.7266653
20
1.3448687
11
17.7266653
21
3.4313687
0
LINE
8
DEFAULT_255_2_778
10
18.4116653
20
4.0671687
11
18.4720653
21
4.0578687
0
LINE
8
DEFAULT_255_2_778
10
18.4720653
20
4.0578687
11
18.5378653
21
4.0396687
0
LINE
8
DEFAULT_255_2_778
10
18.7058653
20
3.9629687
11
18.7606653
21
3.9226687
0
LINE
8
DEFAULT_255_2_778
10
18.8429653
20
3.8422687
11
18.8522653
21
3.8314687
0
LINE
8
DEFAULT_255_2_778
10
18.8522653
20
3.8314687
11
18.8850653
21
3.7874687
0
LINE
8
DEFAULT_255_2_778
10
18.8850653
20
3.7874687
11
18.9143653
21
3.7398687
0
LINE
8
DEFAULT_255_2_778
10
18.9143653
20
3.7398687
11
18.9400653
21
3.6850687
0
LINE
8
DEFAULT_255_2_778
10
18.9400653
20
3.6850687
11
18.9400653
21
3.6374687
0
LINE
8
DEFAULT_255_2_778
10
18.9400653
20
3.6374687
11
18.9583653
21
3.5789687
0
LINE
8
DEFAULT_255_2_778
10
18.9583653
20
3.5789687
11
18.9710653
21
3.5149687
0
LINE
8
DEFAULT_255_2_778
10
18.9710653
20
3.5149687
11
18.9784653
21
3.4308687
0
LINE
8
DEFAULT_255_2_778
10
18.9784653
20
3.4308687
11
18.9784653
21
3.3321687
0
LINE
8
DEFAULT_255_2_778
10
18.9784653
20
3.3321687
11
19.0223653
21
3.3339687
0
LINE
8
DEFAULT_255_2_778
10
19.0223653
20
3.3339687
11
19.0813653
21
3.3316687
0
LINE
8
DEFAULT_255_2_778
10
16.2439653
20
3.3808687
11
16.2439653
21
3.4173687
0
LINE
8
DEFAULT_255_2_778
10
16.2439653
20
3.4173687
11
16.2402653
21
3.4683687
0
LINE
8
DEFAULT_255_2_778
10
16.2402653
20
3.4683687
11
16.2402653
21
3.4810687
0
LINE
8
DEFAULT_255_2_778
10
16.2402653
20
3.4810687
11
16.2365653
21
3.5104687
0
LINE
8
DEFAULT_255_2_778
10
16.2365653
20
3.5104687
11
16.2328653
21
3.5469687
0
LINE
8
DEFAULT_255_2_778
10
16.2328653
20
3.5469687
11
16.2436653
21
3.5943687
0
LINE
8
DEFAULT_255_2_778
10
16.2436653
20
3.5943687
11
16.2362653
21
3.6308687
0
LINE
8
DEFAULT_255_2_778
10
16.2362653
20
3.6308687
11
16.2362653
21
3.6345687
0
LINE
8
DEFAULT_255_2_778
10
16.2362653
20
3.6345687
11
16.2288653
21
3.6710687
0
LINE
8
DEFAULT_255_2_778
10
16.2288653
20
3.6710687
11
16.2180653
21
3.7149687
0
LINE
8
DEFAULT_255_2_778
10
16.2180653
20
3.7149687
11
16.2071653
21
3.7552687
0
LINE
8
DEFAULT_255_2_778
10
16.2071653
20
3.7552687
11
16.1963653
21
3.7917687
0
LINE
8
DEFAULT_255_2_778
10
16.1963653
20
3.7917687
11
16.1780653
21
3.8520687
0
LINE
8
DEFAULT_255_2_778
10
16.1780653
20
3.8520687
11
16.1598653
21
3.9068687
0
LINE
8
DEFAULT_255_2_778
10
16.1598653
20
3.9068687
11
16.1415653
21
3.9507687
0
LINE
8
DEFAULT_255_2_778
10
16.1415653
20
3.9507687
11
16.1378653
21
3.9599687
0
LINE
8
DEFAULT_255_2_778
10
16.1378653
20
3.9599687
11
16.1084653
21
4.0203687
0
LINE
8
DEFAULT_255_2_778
10
16.1084653
20
4.0203687
11
16.1029653
21
4.0314687
0
LINE
8
DEFAULT_255_2_778
10
16.1029653
20
4.0314687
11
16.0590653
21
4.1081687
0
LINE
8
DEFAULT_255_2_778
10
16.0590653
20
4.1081687
11
16.0132653
21
4.1756687
0
LINE
8
DEFAULT_255_2_778
10
16.0132653
20
4.1756687
11
16.0005653
21
4.1938687
0
LINE
8
DEFAULT_255_2_778
10
16.0005653
20
4.1938687
11
15.9566653
21
4.2523687
0
LINE
8
DEFAULT_255_2_778
10
15.9566653
20
4.2523687
11
15.8981653
21
4.3198687
0
LINE
8
DEFAULT_255_2_778
10
15.8981653
20
4.3198687
11
15.8359653
21
4.3820687
0
LINE
8
DEFAULT_255_2_778
10
15.8359653
20
4.3820687
11
15.7592653
21
4.4478687
0
LINE
8
DEFAULT_255_2_778
10
15.7592653
20
4.4478687
11
15.7483653
21
4.4571687
0
LINE
8
DEFAULT_255_2_778
10
15.7483653
20
4.4571687
11
15.6936653
21
4.4973687
0
LINE
8
DEFAULT_255_2_778
10
15.6936653
20
4.4973687
11
15.6094653
21
4.5521687
0
LINE
8
DEFAULT_255_2_778
10
15.6094653
20
4.5521687
11
15.6020653
21
4.5558687
0
LINE
8
DEFAULT_255_2_778
10
15.4467653
20
4.6307687
11
15.3480653
21
4.6672687
0
LINE
8
DEFAULT_255_2_778
10
15.3480653
20
4.6672687
11
15.3480653
21
4.6727687
0
LINE
8
DEFAULT_255_2_778
10
15.3480653
20
4.6727687
11
15.2806653
21
4.6910687
0
LINE
8
DEFAULT_255_2_778
10
15.2806653
20
4.6910687
11
15.2348653
21
4.7018687
0
LINE
8
DEFAULT_255_2_778
10
15.2348653
20
4.7018687
11
15.1689653
21
4.7145687
0
LINE
8
DEFAULT_255_2_778
10
15.1689653
20
4.7145687
11
15.0628653
21
4.7272687
0
LINE
8
DEFAULT_255_2_778
10
15.0628653
20
4.7272687
11
14.8546653
21
4.7272687
0
LINE
8
DEFAULT_255_2_778
10
14.6352653
20
4.7071687
11
14.6307653
21
4.7071687
0
LINE
8
DEFAULT_255_2_778
10
14.6307653
20
4.7071687
11
14.5175653
21
4.6889687
0
LINE
8
DEFAULT_255_2_778
10
14.5175653
20
4.6889687
11
14.4262653
21
4.6706687
0
LINE
8
DEFAULT_255_2_778
10
14.4262653
20
4.6706687
11
14.4080653
21
4.6706687
0
LINE
8
DEFAULT_255_2_778
10
14.4080653
20
4.6706687
11
14.2619653
21
4.6341687
0
LINE
8
DEFAULT_255_2_778
10
14.2619653
20
4.6341687
11
14.1889653
21
4.6341687
0
LINE
8
DEFAULT_255_2_778
10
14.1889653
20
4.6341687
11
14.1249653
21
4.6158687
0
LINE
8
DEFAULT_255_2_778
10
14.1249653
20
4.6158687
11
14.0444653
21
4.5865687
0
LINE
8
DEFAULT_255_2_778
10
14.0444653
20
4.5865687
11
14.0463653
21
4.5500687
0
LINE
8
DEFAULT_255_2_778
10
14.0463653
20
4.5500687
11
14.0481653
21
4.5005687
0
LINE
8
DEFAULT_255_2_778
10
14.0481653
20
4.5005687
11
14.0555653
21
4.3544687
0
LINE
8
DEFAULT_255_2_778
10
14.0555653
20
4.3544687
11
14.0555653
21
4.2520687
0
LINE
8
DEFAULT_255_2_778
10
14.0555653
20
4.2520687
11
14.0574653
21
4.2118687
0
LINE
8
DEFAULT_255_2_778
10
14.0574653
20
4.2118687
11
14.0592653
21
4.1843687
0
LINE
8
DEFAULT_255_2_778
10
14.0592653
20
4.1843687
11
14.0611653
21
4.1351687
0
LINE
8
DEFAULT_255_2_778
10
14.0611653
20
4.1351687
11
14.0648653
21
4.0256687
0
LINE
8
DEFAULT_255_2_778
10
14.0648653
20
4.0256687
11
14.1050653
21
4.0274687
0
LINE
8
DEFAULT_255_2_778
10
14.1050653
20
4.0274687
11
14.1926653
21
4.0330687
0
LINE
8
DEFAULT_255_2_778
10
14.1926653
20
4.0330687
11
14.2603653
21
4.0385687
0
LINE
8
DEFAULT_255_2_778
10
14.2603653
20
4.0385687
11
14.2968653
21
4.0404687
0
LINE
8
DEFAULT_255_2_778
10
14.2968653
20
4.0404687
11
14.5270653
21
4.0586687
0
LINE
8
DEFAULT_255_2_778
10
14.5270653
20
4.0586687
11
14.7464653
21
4.0732687
0
LINE
8
DEFAULT_255_2_778
10
14.7464653
20
4.0732687
11
14.8104653
21
4.0769687
0
LINE
8
DEFAULT_255_2_778
10
14.8104653
20
4.0769687
11
14.8506653
21
4.0787687
0
LINE
8
DEFAULT_255_2_778
10
14.8506653
20
4.0787687
11
14.9512653
21
4.0824687
0
LINE
8
DEFAULT_255_2_778
10
14.9512653
20
4.0824687
11
14.9419653
21
4.0824687
0
LINE
8
DEFAULT_255_2_778
10
15.0406653
20
4.0880687
11
15.1046653
21
4.0843687
0
LINE
8
DEFAULT_255_2_778
10
15.1046653
20
4.0843687
11
15.1776653
21
4.0753687
0
LINE
8
DEFAULT_255_2_778
10
15.2305653
20
4.0626687
11
15.2909653
21
4.0406687
0
LINE
8
DEFAULT_255_2_778
10
15.3366653
20
4.0168687
11
15.3475653
21
4.0094687
0
LINE
8
DEFAULT_255_2_778
10
15.3475653
20
4.0094687
11
15.3840653
21
3.9838687
0
LINE
8
DEFAULT_255_2_778
10
15.3840653
20
3.9838687
11
15.3840653
21
3.9819687
0
LINE
8
DEFAULT_255_2_778
10
15.4205653
20
3.9509687
11
15.4607653
21
3.9052687
0
LINE
8
DEFAULT_255_2_778
10
15.4607653
20
3.9052687
11
15.4864653
21
3.9052687
0
LINE
8
DEFAULT_255_2_778
10
15.4864653
20
3.9052687
11
15.5139653
21
3.8321687
0
LINE
8
DEFAULT_255_2_778
10
15.5139653
20
3.8321687
11
15.5139653
21
3.7956687
0
LINE
8
DEFAULT_255_2_778
10
15.5523653
20
3.6549687
11
15.5615653
21
3.5819687
0
LINE
8
DEFAULT_255_2_778
10
15.5615653
20
3.5819687
11
15.5671653
21
3.4832687
0
LINE
8
DEFAULT_255_2_778
10
15.5671653
20
3.4832687
11
15.5671653
21
2.9643687
0
LINE
8
DEFAULT_255_2_778
10
15.5671653
20
2.9643687
11
15.5414653
21
2.9733687
0
LINE
8
DEFAULT_255_2_778
10
15.5414653
20
2.9733687
11
15.5039653
21
2.9733687
0
LINE
8
DEFAULT_255_2_778
10
15.5039653
20
2.9733687
11
15.4599653
21
2.9842687
0
LINE
8
DEFAULT_255_2_778
10
15.4599653
20
2.9842687
11
15.4142653
21
2.9953687
0
LINE
8
DEFAULT_255_2_778
10
15.4142653
20
2.9953687
11
15.3814653
21
3.0027687
0
LINE
8
DEFAULT_255_2_778
10
15.3814653
20
3.0027687
11
15.3046653
21
3.0154687
0
LINE
8
DEFAULT_255_2_778
10
15.3046653
20
3.0154687
11
15.2771653
21
3.0191687
0
LINE
8
DEFAULT_255_2_778
10
15.2771653
20
3.0191687
11
15.2753653
21
3.0191687
0
LINE
8
DEFAULT_255_2_778
10
15.2753653
20
3.0191687
11
15.2570653
21
3.0283687
0
LINE
8
DEFAULT_255_2_778
10
15.2570653
20
3.0283687
11
15.2462653
21
3.0283687
0
LINE
8
DEFAULT_255_2_778
10
15.2462653
20
3.0283687
11
15.2205653
21
3.0320687
0
LINE
8
DEFAULT_255_2_778
10
15.2205653
20
3.0320687
11
15.1840653
21
3.0358687
0
LINE
8
DEFAULT_255_2_778
10
15.1840653
20
3.0358687
11
15.1329653
21
3.0395687
0
LINE
8
DEFAULT_255_2_778
10
15.1329653
20
3.0395687
11
15.1110653
21
3.0395687
0
LINE
8
DEFAULT_255_2_778
10
15.1110653
20
3.0395687
11
15.0744653
21
3.0413687
0
LINE
8
DEFAULT_255_2_778
10
15.0744653
20
3.0413687
11
15.0160653
21
3.0432687
0
LINE
8
DEFAULT_255_2_778
10
15.0160653
20
3.0432687
11
14.8771653
21
3.0432687
0
LINE
8
DEFAULT_255_2_778
10
14.8771653
20
3.0432687
11
14.8461653
21
3.0413687
0
LINE
8
DEFAULT_255_2_778
10
14.8461653
20
3.0413687
11
14.8096653
21
3.0395687
0
LINE
8
DEFAULT_255_2_778
10
14.8096653
20
3.0395687
11
14.7585653
21
3.0339687
0
LINE
8
DEFAULT_255_2_778
10
14.7585653
20
3.0339687
11
14.7220653
21
3.0283687
0
LINE
8
DEFAULT_255_2_778
10
14.7220653
20
3.0283687
11
14.7093653
21
3.0283687
0
LINE
8
DEFAULT_255_2_778
10
14.7093653
20
3.0283687
11
14.6728653
21
3.0228687
0
LINE
8
DEFAULT_255_2_778
10
14.6728653
20
3.0228687
11
14.6437653
21
3.0172687
0
LINE
8
DEFAULT_255_2_778
10
14.6437653
20
3.0172687
11
14.6072653
21
3.0098687
0
LINE
8
DEFAULT_255_2_778
10
14.6072653
20
3.0098687
11
14.5815653
21
3.0043687
0
LINE
8
DEFAULT_255_2_778
10
14.5815653
20
3.0043687
11
14.5413653
21
2.9953687
0
LINE
8
DEFAULT_255_2_778
10
14.5413653
20
2.9953687
11
14.4646653
21
2.9733687
0
LINE
8
DEFAULT_255_2_778
10
14.4646653
20
2.9733687
11
14.4098653
21
2.9733687
0
LINE
8
DEFAULT_255_2_778
10
14.4098653
20
2.9733687
11
14.3550653
21
2.9514687
0
LINE
8
DEFAULT_255_2_778
10
14.3550653
20
2.9514687
11
14.3312653
21
2.9405687
0
LINE
8
DEFAULT_255_2_778
10
14.3312653
20
2.9405687
11
14.3185653
21
2.9349687
0
LINE
8
DEFAULT_255_2_778
10
14.3185653
20
2.9349687
11
14.3003653
21
2.9275687
0
LINE
8
DEFAULT_255_2_778
10
14.3003653
20
2.9275687
11
14.2765653
21
2.9164687
0
LINE
8
DEFAULT_255_2_778
10
14.2765653
20
2.9164687
11
14.2254653
21
2.8908687
0
LINE
8
DEFAULT_255_2_778
10
14.2254653
20
2.8908687
11
14.1997653
21
2.8725687
0
LINE
8
DEFAULT_255_2_778
10
14.1997653
20
2.8725687
11
14.1778653
21
2.8580687
0
LINE
8
DEFAULT_255_2_778
10
14.1778653
20
2.8580687
11
14.1320653
21
2.8270687
0
LINE
8
DEFAULT_255_2_778
10
14.1320653
20
2.8270687
11
14.0680653
21
2.7759687
0
LINE
8
DEFAULT_255_2_778
10
14.0680653
20
2.7759687
11
14.0259653
21
2.7394687
0
LINE
8
DEFAULT_255_2_778
10
14.0259653
20
2.7394687
11
13.9857653
21
2.7029687
0
LINE
8
DEFAULT_255_2_778
10
13.9857653
20
2.7029687
11
13.9637653
21
2.6809687
0
LINE
8
DEFAULT_255_2_778
10
13.9637653
20
2.6809687
11
13.9600653
21
2.6754687
0
LINE
8
DEFAULT_255_2_778
10
13.9600653
20
2.6754687
11
13.9473653
21
2.6627687
0
LINE
8
DEFAULT_255_2_778
10
13.9473653
20
2.6627687
11
13.9198653
21
2.6299687
0
LINE
8
DEFAULT_255_2_778
10
13.9198653
20
2.6299687
11
13.8777653
21
2.5751687
0
LINE
8
DEFAULT_255_2_778
10
13.8777653
20
2.5751687
11
13.8722653
21
2.5659687
0
LINE
8
DEFAULT_255_2_778
10
13.8722653
20
2.5659687
11
13.8703653
21
2.5621687
0
LINE
8
DEFAULT_255_2_778
10
13.8703653
20
2.5621687
11
13.8465653
21
2.5293687
0
LINE
8
DEFAULT_255_2_778
10
13.8465653
20
2.5293687
11
13.8171653
21
2.4820687
0
LINE
8
DEFAULT_255_2_778
10
13.8171653
20
2.4820687
11
13.7899653
21
2.4328687
0
LINE
8
DEFAULT_255_2_778
10
13.7899653
20
2.4328687
11
13.7790653
21
2.4108687
0
LINE
8
DEFAULT_255_2_778
10
13.7790653
20
2.4108687
11
13.7571653
21
2.3632687
0
LINE
8
DEFAULT_255_2_778
10
13.7571653
20
2.3632687
11
13.7388653
21
2.3193687
0
LINE
8
DEFAULT_255_2_778
10
13.7388653
20
2.3193687
11
13.7388653
21
2.3137687
0
LINE
8
DEFAULT_255_2_778
10
13.7388653
20
2.3137687
11
13.7169653
21
2.2478687
0
LINE
8
DEFAULT_255_2_778
10
13.7169653
20
2.2478687
11
13.6859653
21
2.1875687
0
LINE
8
DEFAULT_255_2_778
10
13.6859653
20
2.1875687
11
13.6751653
21
2.1454687
0
LINE
8
DEFAULT_255_2_778
10
13.6751653
20
2.1454687
11
13.6677653
21
2.1272687
0
LINE
8
DEFAULT_255_2_778
10
13.6677653
20
2.1272687
11
13.6568653
21
2.0724687
0
LINE
8
DEFAULT_255_2_778
10
13.6568653
20
2.0724687
11
13.6512653
21
2.0359687
0
LINE
8
DEFAULT_255_2_778
10
13.6512653
20
2.0359687
11
13.6420653
21
1.9666687
0
LINE
8
DEFAULT_255_2_778
10
13.6420653
20
1.9666687
11
13.6364653
21
1.8935687
0
LINE
8
DEFAULT_255_2_778
10
13.6364653
20
1.8935687
11
13.6364653
21
1.3236687
0
LINE
8
DEFAULT_255_2_778
10
13.6364653
20
1.3236687
11
13.6439653
21
1.2506687
0
LINE
8
DEFAULT_255_2_778
10
13.6439653
20
1.2506687
11
13.6475653
21
1.2249687
0
LINE
8
DEFAULT_255_2_778
10
13.6475653
20
1.2249687
11
13.6568653
21
1.1739687
0
LINE
8
DEFAULT_255_2_778
10
13.6568653
20
1.1739687
11
13.6751653
21
1.0826687
0
LINE
8
DEFAULT_255_2_778
10
13.6751653
20
1.0826687
11
13.6769653
21
1.0789687
0
LINE
8
DEFAULT_255_2_778
10
13.6769653
20
1.0789687
11
13.6952653
21
1.0130687
0
LINE
8
DEFAULT_255_2_778
10
13.6952653
20
1.0130687
11
13.7190653
21
0.9437687
0
LINE
8
DEFAULT_255_2_778
10
13.7190653
20
0.9437687
11
13.7484653
21
0.8744687
0
LINE
8
DEFAULT_255_2_778
10
13.7484653
20
0.8744687
11
13.7904653
21
0.7902687
0
LINE
8
DEFAULT_255_2_778
10
13.7904653
20
0.7902687
11
13.8269653
21
0.7244687
0
LINE
8
DEFAULT_255_2_778
10
13.8269653
20
0.7244687
11
13.8727653
21
0.6566687
0
LINE
8
DEFAULT_255_2_778
10
13.8727653
20
0.6566687
11
13.9312653
21
0.5799687
0
LINE
8
DEFAULT_255_2_778
10
13.9312653
20
0.5799687
11
13.9823653
21
0.5251687
0
LINE
8
DEFAULT_255_2_778
10
13.9823653
20
0.5251687
11
14.0426653
21
0.4648687
0
LINE
8
DEFAULT_255_2_778
10
14.0426653
20
0.4648687
11
14.1286653
21
0.3918687
0
LINE
8
DEFAULT_255_2_778
10
14.1286653
20
0.3918687
11
14.1743653
21
0.3553687
0
LINE
8
DEFAULT_255_2_778
10
14.1743653
20
0.3553687
11
14.2566653
21
0.3005687
0
LINE
8
DEFAULT_255_2_778
10
14.2566653
20
0.3005687
11
14.3241653
21
0.2640687
0
LINE
8
DEFAULT_255_2_778
10
14.3241653
20
0.2640687
11
14.3971653
21
0.2275687
0
LINE
8
DEFAULT_255_2_778
10
14.3971653
20
0.2275687
11
14.4884653
21
0.1910687
0
LINE
8
DEFAULT_255_2_778
10
14.4884653
20
0.1910687
11
14.5614653
21
0.1671687
0
LINE
8
DEFAULT_255_2_778
10
14.5614653
20
0.1671687
11
14.6490653
21
0.1452687
0
LINE
8
DEFAULT_255_2_778
10
14.6490653
20
0.1452687
11
14.7403653
21
0.1269687
0
LINE
8
DEFAULT_255_2_778
10
14.7403653
20
0.1269687
11
14.8226653
21
0.1179687
0
LINE
8
DEFAULT_255_2_778
10
16.2039653
20
1.4096687
11
16.2039653
21
3.3387687
0
LINE
8
DEFAULT_255_2_778
10
16.2039653
20
3.3387687
11
16.2439653
21
3.3808687
0
LINE
8
DEFAULT_255_2_778
10
14.4040653
20
1.0551687
11
14.3857653
21
1.0879687
0
LINE
8
DEFAULT_255_2_778
10
14.3857653
20
1.0879687
11
14.3619653
21
1.1371687
0
LINE
8
DEFAULT_255_2_778
10
14.3619653
20
1.1371687
11
14.3437653
21
1.1919687
0
LINE
8
DEFAULT_255_2_778
10
14.3437653
20
1.1919687
11
14.3254653
21
1.2596687
0
LINE
8
DEFAULT_255_2_778
10
14.3254653
20
1.2596687
11
14.3161653
21
1.3144687
0
LINE
8
DEFAULT_255_2_778
10
14.3161653
20
1.3144687
11
14.3143653
21
1.3326687
0
LINE
8
DEFAULT_255_2_778
10
14.3143653
20
1.3326687
11
14.3124653
21
1.3911687
0
LINE
8
DEFAULT_255_2_778
10
14.3124653
20
1.3911687
11
14.3124653
21
1.8697687
0
LINE
8
DEFAULT_255_2_778
10
14.9466653
20
2.5039687
11
15.5824653
21
2.5039687
0
LINE
8
DEFAULT_255_2_778
10
15.5824653
20
2.5039687
11
15.5824653
21
1.4078687
0
LINE
8
DEFAULT_255_2_778
10
15.0125653
20
0.7683687
11
14.9652653
21
0.7810687
0
LINE
8
DEFAULT_255_2_778
10
14.8921653
20
0.7847687
11
14.8191653
21
0.7810687
0
LINE
8
DEFAULT_255_2_778
10
14.8191653
20
0.7810687
11
14.8154653
21
0.7810687
0
LINE
8
DEFAULT_255_2_778
10
14.7644653
20
0.7937687
11
14.7498653
21
0.7791687
0
LINE
8
DEFAULT_255_2_778
10
14.7498653
20
0.7791687
11
14.6913653
21
0.8011687
0
LINE
8
DEFAULT_255_2_778
10
14.6913653
20
0.8011687
11
14.6474653
21
0.8230687
0
LINE
8
DEFAULT_255_2_778
10
14.6474653
20
0.8230687
11
14.5926653
21
0.8596687
0
LINE
8
DEFAULT_255_2_778
10
14.5926653
20
0.8596687
11
14.5469653
21
0.8961687
0
LINE
8
DEFAULT_255_2_778
10
14.5469653
20
0.8961687
11
14.4995653
21
0.9400687
0
LINE
8
DEFAULT_255_2_778
10
14.4995653
20
0.9400687
11
14.4630653
21
0.9821687
0
LINE
8
DEFAULT_255_2_778
10
14.4630653
20
0.9821687
11
14.4265653
21
1.0331687
0
LINE
8
DEFAULT_255_2_778
10
14.4265653
20
1.0331687
11
14.4040653
21
1.0551687
0
LINE
8
DEFAULT_255_2_778
10
12.8456653
20
3.3808687
11
12.8456653
21
3.4448687
0
LINE
8
DEFAULT_255_2_778
10
12.8456653
20
3.4448687
11
12.8456653
21
3.4723687
0
LINE
8
DEFAULT_255_2_778
10
12.8456653
20
3.4723687
11
12.8419653
21
3.5162687
0
LINE
8
DEFAULT_255_2_778
10
12.8419653
20
3.5162687
11
12.8326653
21
3.5893687
0
LINE
8
DEFAULT_255_2_778
10
12.8326653
20
3.5893687
11
12.8326653
21
3.6202687
0
LINE
8
DEFAULT_255_2_778
10
12.8326653
20
3.6202687
11
12.8252653
21
3.6604687
0
LINE
8
DEFAULT_255_2_778
10
12.8252653
20
3.6604687
11
12.8197653
21
3.6898687
0
LINE
8
DEFAULT_255_2_778
10
12.8197653
20
3.6898687
11
12.8088653
21
3.7337687
0
LINE
8
DEFAULT_255_2_778
10
12.8088653
20
3.7337687
11
12.7832653
21
3.8216687
0
LINE
8
DEFAULT_255_2_778
10
12.7832653
20
3.8216687
11
12.7832653
21
3.8324687
0
LINE
8
DEFAULT_255_2_778
10
12.7832653
20
3.8324687
11
12.7649653
21
3.8816687
0
LINE
8
DEFAULT_255_2_778
10
12.7649653
20
3.8816687
11
12.7612653
21
3.8925687
0
LINE
8
DEFAULT_255_2_778
10
12.7612653
20
3.8925687
11
12.7337653
21
3.9584687
0
LINE
8
DEFAULT_255_2_778
10
12.7337653
20
3.9584687
11
12.7281653
21
3.9711687
0
LINE
8
DEFAULT_255_2_778
10
12.7281653
20
3.9711687
11
12.6916653
21
4.0441687
0
LINE
8
DEFAULT_255_2_778
10
12.6916653
20
4.0441687
11
12.6477653
21
4.1171687
0
LINE
8
DEFAULT_255_2_778
10
12.6477653
20
4.1171687
11
12.6239653
21
4.1536687
0
LINE
8
DEFAULT_255_2_778
10
12.6239653
20
4.1536687
11
12.6183653
21
4.1629687
0
LINE
8
DEFAULT_255_2_778
10
12.6183653
20
4.1629687
11
12.5908653
21
4.2031687
0
LINE
8
DEFAULT_255_2_778
10
12.5908653
20
4.2031687
11
12.5416653
21
4.2671687
0
LINE
8
DEFAULT_255_2_778
10
12.5416653
20
4.2671687
11
12.4905653
21
4.3256687
0
LINE
8
DEFAULT_255_2_778
10
12.4905653
20
4.3256687
11
12.4760653
21
4.3439687
0
LINE
8
DEFAULT_255_2_778
10
12.4760653
20
4.3439687
11
12.4302653
21
4.3896687
0
LINE
8
DEFAULT_255_2_778
10
12.4302653
20
4.3896687
11
12.3609653
21
4.4518687
0
LINE
8
DEFAULT_255_2_778
10
12.3609653
20
4.4518687
11
12.2953653
21
4.5010687
0
LINE
8
DEFAULT_255_2_778
10
12.2953653
20
4.5010687
11
12.2130653
21
4.5558687
0
LINE
8
DEFAULT_255_2_778
10
12.2130653
20
4.5558687
11
12.1437653
21
4.5923687
0
LINE
8
DEFAULT_255_2_778
10
12.1437653
20
4.5923687
11
12.0577653
21
4.6325687
0
LINE
8
DEFAULT_255_2_778
10
12.0577653
20
4.6325687
11
11.9791653
21
4.6616687
0
LINE
8
DEFAULT_255_2_778
10
11.9791653
20
4.6616687
11
11.8968653
21
4.6854687
0
LINE
8
DEFAULT_255_2_778
10
11.8968653
20
4.6854687
11
11.8584653
21
4.6854687
0
LINE
8
DEFAULT_255_2_778
10
11.8584653
20
4.6854687
11
11.8584653
21
4.6963687
0
LINE
8
DEFAULT_255_2_778
10
11.8584653
20
4.6963687
11
11.7780653
21
4.7145687
0
LINE
8
DEFAULT_255_2_778
10
11.7780653
20
4.7145687
11
11.7672653
21
4.7164687
0
LINE
8
DEFAULT_255_2_778
10
11.7672653
20
4.7164687
11
11.6759653
21
4.7275687
0
LINE
8
DEFAULT_255_2_778
10
11.6759653
20
4.7275687
11
11.6174653
21
4.7312687
0
LINE
8
DEFAULT_255_2_778
10
11.6174653
20
4.7312687
11
11.4933653
21
4.7312687
0
LINE
8
DEFAULT_255_2_778
10
11.4933653
20
4.7312687
11
11.4311653
21
4.7294687
0
LINE
8
DEFAULT_255_2_778
10
11.4311653
20
4.7294687
11
11.4237653
21
4.7294687
0
LINE
8
DEFAULT_255_2_778
10
11.4237653
20
4.7294687
11
11.3470653
21
4.7238687
0
LINE
8
DEFAULT_255_2_778
10
11.3470653
20
4.7238687
11
11.3068653
21
4.7201687
0
LINE
8
DEFAULT_255_2_778
10
11.3068653
20
4.7201687
11
11.3433653
21
4.7238687
0
LINE
8
DEFAULT_255_2_778
10
11.3433653
20
4.7238687
11
11.2703653
21
4.7164687
0
LINE
8
DEFAULT_255_2_778
10
11.2703653
20
4.7164687
11
11.2740653
21
4.7164687
0
LINE
8
DEFAULT_255_2_778
10
11.2740653
20
4.7164687
11
11.2229653
21
4.7108687
0
LINE
8
DEFAULT_255_2_778
10
11.2229653
20
4.7108687
11
11.1626653
21
4.7034687
0
LINE
8
DEFAULT_255_2_778
10
11.1626653
20
4.7034687
11
11.1131653
21
4.6960687
0
LINE
8
DEFAULT_255_2_778
10
11.1131653
20
4.6960687
11
11.0364653
21
4.6815687
0
LINE
8
DEFAULT_255_2_778
10
11.0364653
20
4.6815687
11
10.9634653
21
4.6632687
0
LINE
8
DEFAULT_255_2_778
10
10.9634653
20
4.6632687
11
10.9231653
21
4.6505687
0
LINE
8
DEFAULT_255_2_778
10
10.9231653
20
4.6505687
11
10.9231653
21
6.6275687
0
LINE
8
DEFAULT_255_2_778
10
10.9231653
20
6.6275687
11
10.2654653
21
6.6275687
0
LINE
8
DEFAULT_255_2_778
10
10.2654653
20
6.6275687
11
10.2654653
21
0.1671687
0
LINE
8
DEFAULT_255_2_778
10
10.2654653
20
0.1671687
11
10.9231653
21
0.1671687
0
LINE
8
DEFAULT_255_2_778
10
10.9231653
20
0.1671687
11
10.9231653
21
4.0094687
0
LINE
8
DEFAULT_255_2_778
10
10.9231653
20
4.0094687
11
11.5552653
21
4.0094687
0
LINE
8
DEFAULT_255_2_778
10
11.5552653
20
4.0094687
11
11.6100653
21
4.0057687
0
LINE
8
DEFAULT_255_2_778
10
11.6100653
20
4.0057687
11
11.6685653
21
3.9967687
0
LINE
8
DEFAULT_255_2_778
10
11.6685653
20
3.9967687
11
11.7325653
21
3.9822687
0
LINE
8
DEFAULT_255_2_778
10
11.7325653
20
3.9822687
11
11.7965653
21
3.9602687
0
LINE
8
DEFAULT_255_2_778
10
11.7965653
20
3.9602687
11
11.8476653
21
3.9364687
0
LINE
8
DEFAULT_255_2_778
10
11.8476653
20
3.9364687
11
11.9024653
21
3.9054687
0
LINE
8
DEFAULT_255_2_778
10
11.9024653
20
3.9054687
11
11.9571653
21
3.8652687
0
LINE
8
DEFAULT_255_2_778
10
11.9571653
20
3.8652687
11
11.9680653
21
3.8562687
0
LINE
8
DEFAULT_255_2_778
10
11.9680653
20
3.8562687
11
11.9989653
21
3.8287687
0
LINE
8
DEFAULT_255_2_778
10
11.9989653
20
3.8287687
11
12.0116653
21
3.8160687
0
LINE
8
DEFAULT_255_2_778
10
12.0116653
20
3.8160687
11
12.0391653
21
3.7866687
0
LINE
8
DEFAULT_255_2_778
10
12.0391653
20
3.7866687
11
12.0831653
21
3.7319687
0
LINE
8
DEFAULT_255_2_778
10
12.0831653
20
3.7319687
11
12.0905653
21
3.7210687
0
LINE
8
DEFAULT_255_2_778
10
12.0905653
20
3.7210687
11
12.1124653
21
3.7210687
0
LINE
8
DEFAULT_255_2_778
10
12.1124653
20
3.7210687
11
12.1400653
21
3.6663687
0
LINE
8
DEFAULT_255_2_778
10
12.1400653
20
3.6663687
11
12.1582653
21
3.6186687
0
LINE
8
DEFAULT_255_2_778
10
12.1582653
20
3.6186687
11
12.1765653
21
3.5565687
0
LINE
8
DEFAULT_255_2_778
10
12.1765653
20
3.5565687
11
12.1892653
21
3.4890687
0
LINE
8
DEFAULT_255_2_778
10
12.1947653
20
3.4086687
11
12.1947653
21
0.1820687
0
LINE
8
DEFAULT_255_2_778
10
12.1947653
20
0.1820687
11
12.8379653
21
0.1820687
0
LINE
8
DEFAULT_255_2_778
10
12.8379653
20
0.1820687
11
12.8379653
21
3.3755687
0
LINE
8
DEFAULT_255_2_778
10
12.8379653
20
3.3755687
11
12.8456653
21
3.3808687
0
LINE
8
DEFAULT_255_2_778
10
9.4949653
20
3.4538687
11
9.4931653
21
3.5086687
0
LINE
8
DEFAULT_255_2_778
10
9.4931653
20
3.5086687
11
9.4931653
21
3.5123687
0
LINE
8
DEFAULT_255_2_778
10
9.4931653
20
3.5123687
11
9.4912653
21
3.5432687
0
LINE
8
DEFAULT_255_2_778
10
9.4912653
20
3.5432687
11
9.4875653
21
3.5871687
0
LINE
8
DEFAULT_255_2_778
10
9.4875653
20
3.5871687
11
9.4875653
21
3.6200687
0
LINE
8
DEFAULT_255_2_778
10
9.4875653
20
3.6200687
11
9.4838653
21
3.6620687
0
LINE
8
DEFAULT_255_2_778
10
9.4838653
20
3.6620687
11
9.4782653
21
3.6948687
0
LINE
8
DEFAULT_255_2_778
10
9.4782653
20
3.6948687
11
9.4708653
21
3.7350687
0
LINE
8
DEFAULT_255_2_778
10
9.4708653
20
3.7350687
11
9.4835653
21
3.7589687
0
LINE
8
DEFAULT_255_2_778
10
9.4835653
20
3.7589687
11
9.4817653
21
3.7644687
0
LINE
8
DEFAULT_255_2_778
10
9.4817653
20
3.7644687
11
9.4761653
21
3.7827687
0
LINE
8
DEFAULT_255_2_778
10
9.4761653
20
3.7827687
11
9.4671653
21
3.8192687
0
LINE
8
DEFAULT_255_2_778
10
9.4671653
20
3.8192687
11
9.4489653
21
3.8740687
0
LINE
8
DEFAULT_255_2_778
10
9.4489653
20
3.8740687
11
9.4251653
21
3.9417687
0
LINE
8
DEFAULT_255_2_778
10
9.4251653
20
3.9417687
11
9.3975653
21
4.0076687
0
LINE
8
DEFAULT_255_2_778
10
9.3975653
20
4.0076687
11
9.3830653
21
4.0404687
0
LINE
8
DEFAULT_255_2_778
10
9.3830653
20
4.0404687
11
9.3520653
21
4.1026687
0
LINE
8
DEFAULT_255_2_778
10
9.3520653
20
4.1026687
11
9.3483653
21
4.1115687
0
LINE
8
DEFAULT_255_2_778
10
9.3483653
20
4.1115687
11
9.3155653
21
4.1663687
0
LINE
8
DEFAULT_255_2_778
10
9.3155653
20
4.1663687
11
9.3266653
21
4.1772687
0
LINE
8
DEFAULT_255_2_778
10
9.3266653
20
4.1772687
11
9.3010653
21
4.2174687
0
LINE
8
DEFAULT_255_2_778
10
9.3010653
20
4.2174687
11
9.2772653
21
4.2539687
0
LINE
8
DEFAULT_255_2_778
10
9.2772653
20
4.2539687
11
9.2187653
21
4.3306687
0
LINE
8
DEFAULT_255_2_778
10
9.2187653
20
4.3306687
11
9.1766653
21
4.3783687
0
LINE
8
DEFAULT_255_2_778
10
9.1766653
20
4.3783687
11
9.1658653
21
4.3891687
0
LINE
8
DEFAULT_255_2_778
10
9.1658653
20
4.3891687
11
9.0816653
21
4.4349687
0
LINE
8
DEFAULT_255_2_778
10
9.0816653
20
4.4349687
11
9.0377653
21
4.4769687
0
LINE
8
DEFAULT_255_2_778
10
9.0377653
20
4.4769687
11
9.0250653
21
4.4878687
0
LINE
8
DEFAULT_255_2_778
10
9.0250653
20
4.4878687
11
8.9885653
21
4.5206687
0
LINE
8
DEFAULT_255_2_778
10
8.9885653
20
4.5206687
11
8.9792653
21
4.5280687
0
LINE
8
DEFAULT_255_2_778
10
8.9792653
20
4.5280687
11
8.9464653
21
4.5537687
0
LINE
8
DEFAULT_255_2_778
10
8.9464653
20
4.5537687
11
8.9208653
21
4.5719687
0
LINE
8
DEFAULT_255_2_778
10
8.9208653
20
4.5719687
11
8.8806653
21
4.6177687
0
LINE
8
DEFAULT_255_2_778
10
8.8806653
20
4.6177687
11
8.8660653
21
4.6267687
0
LINE
8
DEFAULT_255_2_778
10
8.8660653
20
4.6267687
11
8.8168653
21
4.6577687
0
LINE
8
DEFAULT_255_2_778
10
8.8168653
20
4.6577687
11
8.8149653
21
4.6595687
0
LINE
8
DEFAULT_255_2_778
10
8.8149653
20
4.6595687
11
8.7784653
21
4.6815687
0
LINE
8
DEFAULT_255_2_778
10
8.7784653
20
4.6815687
11
8.7639653
21
4.6905687
0
LINE
8
DEFAULT_255_2_778
10
8.7639653
20
4.6905687
11
8.7274653
21
4.7087687
0
LINE
8
DEFAULT_255_2_778
10
8.7274653
20
4.7087687
11
8.7091653
21
4.7198687
0
LINE
8
DEFAULT_255_2_778
10
8.7091653
20
4.7198687
11
8.6488653
21
4.7473687
0
LINE
8
DEFAULT_255_2_778
10
8.6488653
20
4.7473687
11
8.6361653
21
4.7529687
0
LINE
8
DEFAULT_255_2_778
10
8.6361653
20
4.7529687
11
8.5813653
21
4.7749687
0
LINE
8
DEFAULT_255_2_778
10
8.5813653
20
4.7749687
11
8.5630653
21
4.7804687
0
LINE
8
DEFAULT_255_2_778
10
8.5630653
20
4.7804687
11
8.5154653
21
4.7987687
0
LINE
8
DEFAULT_255_2_778
10
8.5154653
20
4.7987687
11
8.4495653
21
4.8169687
0
LINE
8
DEFAULT_255_2_778
10
8.4495653
20
4.8169687
11
8.4313653
21
4.8225687
0
LINE
8
DEFAULT_255_2_778
10
8.4313653
20
4.8225687
11
8.3821653
21
4.8333687
0
LINE
8
DEFAULT_255_2_778
10
8.3821653
20
4.8333687
11
8.3638653
21
4.8370687
0
LINE
8
DEFAULT_255_2_778
10
8.3638653
20
4.8370687
11
8.2614653
21
4.8553687
0
LINE
8
DEFAULT_255_2_778
10
8.2614653
20
4.8553687
11
8.1519653
21
4.8661687
0
LINE
8
DEFAULT_255_2_778
10
8.1519653
20
4.8661687
11
8.0842653
21
4.8680687
0
LINE
8
DEFAULT_255_2_778
10
8.0842653
20
4.8680687
11
8.0365653
21
4.8661687
0
LINE
8
DEFAULT_255_2_778
10
8.0365653
20
4.8661687
11
8.0093653
21
4.8661687
0
LINE
8
DEFAULT_255_2_778
10
8.0093653
20
4.8661687
11
7.9728653
21
4.8624687
0
LINE
8
DEFAULT_255_2_778
10
7.9728653
20
4.8624687
11
7.9400653
21
4.8606687
0
LINE
8
DEFAULT_255_2_778
10
7.9400653
20
4.8606687
11
7.8979653
21
4.8550687
0
LINE
8
DEFAULT_255_2_778
10
7.8979653
20
4.8550687
11
7.8249653
21
4.8439687
0
LINE
8
DEFAULT_255_2_778
10
7.8249653
20
4.8439687
11
7.8066653
21
4.8402687
0
LINE
8
DEFAULT_255_2_778
10
7.8066653
20
4.8402687
11
7.7958653
21
4.8384687
0
LINE
8
DEFAULT_255_2_778
10
7.7958653
20
4.8384687
11
7.7592653
21
4.8291687
0
LINE
8
DEFAULT_255_2_778
10
7.7592653
20
4.8291687
11
7.6899653
21
4.8108687
0
LINE
8
DEFAULT_255_2_778
10
7.6899653
20
4.8108687
11
7.6624653
21
4.8034687
0
LINE
8
DEFAULT_255_2_778
10
7.6624653
20
4.8034687
11
7.6569653
21
4.7997687
0
LINE
8
DEFAULT_255_2_778
10
7.6569653
20
4.7997687
11
7.6203653
21
4.7870687
0
LINE
8
DEFAULT_255_2_778
10
7.6203653
20
4.7870687
11
7.5984653
21
4.7796687
0
LINE
8
DEFAULT_255_2_778
10
7.5984653
20
4.7796687
11
7.5764653
21
4.7706687
0
LINE
8
DEFAULT_255_2_778
10
7.5764653
20
4.7706687
11
7.5637653
21
4.7651687
0
LINE
8
DEFAULT_255_2_778
10
7.5637653
20
4.7651687
11
7.5545653
21
4.7651687
0
LINE
8
DEFAULT_255_2_778
10
7.5545653
20
4.7651687
11
7.5325653
21
4.7561687
0
LINE
8
DEFAULT_255_2_778
10
7.5325653
20
4.7561687
11
7.4960653
21
4.7378687
0
LINE
8
DEFAULT_255_2_778
10
7.4960653
20
4.7378687
11
7.4685653
21
4.7251687
0
LINE
8
DEFAULT_255_2_778
10
7.4685653
20
4.7251687
11
7.4264653
21
4.7032687
0
LINE
8
DEFAULT_255_2_778
10
7.4264653
20
4.7032687
11
7.4081653
21
4.6942687
0
LINE
8
DEFAULT_255_2_778
10
7.4081653
20
4.6942687
11
7.3661653
21
4.6685687
0
LINE
8
DEFAULT_255_2_778
10
7.3661653
20
4.6685687
11
7.3478653
21
4.6592687
0
LINE
8
DEFAULT_255_2_778
10
7.3478653
20
4.6592687
11
7.3240653
21
4.6410687
0
LINE
8
DEFAULT_255_2_778
10
7.3240653
20
4.6410687
11
7.3058653
21
4.6283687
0
LINE
8
DEFAULT_255_2_778
10
7.3058653
20
4.6283687
11
7.2875653
21
4.6193687
0
LINE
8
DEFAULT_255_2_778
10
7.2875653
20
4.6193687
11
7.2327653
21
4.5828687
0
LINE
8
DEFAULT_255_2_778
10
7.2327653
20
4.5828687
11
7.1888653
21
4.5463687
0
LINE
8
DEFAULT_255_2_778
10
7.1888653
20
4.5463687
11
7.1780653
21
4.5389687
0
LINE
8
DEFAULT_255_2_778
10
7.1780653
20
4.5389687
11
7.1671653
21
4.5299687
0
LINE
8
DEFAULT_255_2_778
10
7.1671653
20
4.5299687
11
7.1343653
21
4.5005687
0
LINE
8
DEFAULT_255_2_778
10
7.1343653
20
4.5005687
11
7.1250653
21
4.4915687
0
LINE
8
DEFAULT_255_2_778
10
7.1250653
20
4.4915687
11
7.1068653
21
4.4550687
0
LINE
8
DEFAULT_255_2_778
10
7.1068653
20
4.4550687
11
7.0758653
21
4.4222687
0
LINE
8
DEFAULT_255_2_778
10
7.0758653
20
4.4222687
11
7.0211653
21
4.3618687
0
LINE
8
DEFAULT_255_2_778
10
7.0211653
20
4.3618687
11
7.0028653
21
4.3399687
0
LINE
8
DEFAULT_255_2_778
10
7.0028653
20
4.3399687
11
6.9734653
21
4.3034687
0
LINE
8
DEFAULT_255_2_778
10
6.9734653
20
4.3034687
11
6.9515653
21
4.2740687
0
LINE
8
DEFAULT_255_2_778
10
6.9515653
20
4.2740687
11
6.9094653
21
4.2100687
0
LINE
8
DEFAULT_255_2_778
10
6.9094653
20
4.2100687
11
6.9038653
21
4.2026687
0
LINE
8
DEFAULT_255_2_778
10
6.9038653
20
4.2026687
11
6.8581653
21
4.1184687
0
LINE
8
DEFAULT_255_2_778
10
6.8581653
20
4.1184687
11
6.8287653
21
4.0637687
0
LINE
8
DEFAULT_255_2_778
10
6.8287653
20
4.0637687
11
6.8105653
21
4.0197687
0
LINE
8
DEFAULT_255_2_778
10
6.8105653
20
4.0197687
11
6.7739653
21
3.9248687
0
LINE
8
DEFAULT_255_2_778
10
6.7739653
20
3.9248687
11
6.7649653
21
3.8972687
0
LINE
8
DEFAULT_255_2_778
10
6.7649653
20
3.8972687
11
6.7374653
21
3.8060687
0
LINE
8
DEFAULT_255_2_778
10
6.6954653
20
3.4644687
11
6.6954653
21
1.5112687
0
LINE
8
DEFAULT_255_2_778
10
6.6954653
20
1.5112687
11
6.6972653
21
1.4308687
0
LINE
8
DEFAULT_255_2_778
10
6.6972653
20
1.4308687
11
6.6991653
21
1.4051687
0
LINE
8
DEFAULT_255_2_778
10
6.6991653
20
1.4051687
11
6.7046653
21
1.3377687
0
LINE
8
DEFAULT_255_2_778
10
6.7046653
20
1.3377687
11
6.7192653
21
1.2390687
0
LINE
8
DEFAULT_255_2_778
10
6.7192653
20
1.2390687
11
6.7192653
21
1.2170687
0
LINE
8
DEFAULT_255_2_778
10
6.7192653
20
1.2170687
11
6.7337653
21
1.1530687
0
LINE
8
DEFAULT_255_2_778
10
6.7337653
20
1.1530687
11
6.7702653
21
1.0342687
0
LINE
8
DEFAULT_255_2_778
10
6.7702653
20
1.0342687
11
6.7922653
21
0.9720687
0
LINE
8
DEFAULT_255_2_778
10
6.7922653
20
0.9720687
11
6.8012653
21
0.9482687
0
LINE
8
DEFAULT_255_2_778
10
6.8012653
20
0.9482687
11
6.8321653
21
0.8752687
0
LINE
8
DEFAULT_255_2_778
10
6.8321653
20
0.8752687
11
6.8321653
21
0.8659687
0
LINE
8
DEFAULT_255_2_778
10
6.8321653
20
0.8659687
11
6.8687653
21
0.7929687
0
LINE
8
DEFAULT_255_2_778
10
6.8687653
20
0.7929687
11
6.9052653
21
0.7326687
0
LINE
8
DEFAULT_255_2_778
10
6.9052653
20
0.7326687
11
6.9599653
21
0.6468687
0
LINE
8
DEFAULT_255_2_778
10
6.9599653
20
0.6468687
11
7.0057653
21
0.5865687
0
LINE
8
DEFAULT_255_2_778
10
7.0057653
20
0.5865687
11
7.0240653
21
0.5682687
0
LINE
8
DEFAULT_255_2_778
10
7.0240653
20
0.5682687
11
7.0568653
21
0.5280687
0
LINE
8
DEFAULT_255_2_778
10
7.0568653
20
0.5280687
11
7.1115653
21
0.4677687
0
LINE
8
DEFAULT_255_2_778
10
7.1115653
20
0.4677687
11
7.1242653
21
0.4550687
0
LINE
8
DEFAULT_255_2_778
10
7.1242653
20
0.4550687
11
7.1790653
21
0.4039687
0
LINE
8
DEFAULT_255_2_778
10
7.1790653
20
0.4039687
11
7.2375653
21
0.3563687
0
LINE
8
DEFAULT_255_2_778
10
7.2375653
20
0.3563687
11
7.3015653
21
0.3105687
0
LINE
8
DEFAULT_255_2_778
10
7.3015653
20
0.3105687
11
7.3838653
21
0.2595687
0
LINE
8
DEFAULT_255_2_778
10
7.3838653
20
0.2595687
11
7.4531653
21
0.2230687
0
LINE
8
DEFAULT_255_2_778
10
7.4531653
20
0.2230687
11
7.4769653
21
0.2119687
0
LINE
8
DEFAULT_255_2_778
10
7.4769653
20
0.2119687
11
7.5246653
21
0.1936687
0
LINE
8
DEFAULT_255_2_778
10
7.5246653
20
0.1936687
11
7.6031653
21
0.1661687
0
LINE
8
DEFAULT_255_2_778
10
7.6031653
20
0.1661687
11
7.6981653
21
0.1404687
0
LINE
8
DEFAULT_255_2_778
10
7.6981653
20
0.1404687
11
7.7767653
21
0.1259687
0
LINE
8
DEFAULT_255_2_778
10
7.7767653
20
0.1259687
11
7.8590653
21
0.1150687
0
LINE
8
DEFAULT_255_2_778
10
7.8590653
20
0.1150687
11
7.9614653
21
0.1095687
0
LINE
8
DEFAULT_255_2_778
10
7.9614653
20
0.1095687
11
7.9704653
21
0.1095687
0
LINE
8
DEFAULT_255_2_778
10
7.9704653
20
0.1095687
11
8.0799653
21
0.1150687
0
LINE
8
DEFAULT_255_2_778
10
8.0799653
20
0.1150687
11
8.1895653
21
0.1296687
0
LINE
8
DEFAULT_255_2_778
10
8.1895653
20
0.1296687
11
9.1176653
21
0.2320687
0
LINE
8
DEFAULT_255_2_778
10
9.1176653
20
0.2320687
11
9.0848653
21
1.0998687
0
LINE
8
DEFAULT_255_2_778
10
9.0848653
20
1.0998687
11
8.0982653
21
1.0998687
0
LINE
8
DEFAULT_255_2_778
10
8.0982653
20
1.0998687
11
8.0617653
21
1.1017687
0
LINE
8
DEFAULT_255_2_778
10
8.0013653
20
1.1125687
11
7.9593653
21
1.1453687
0
LINE
8
DEFAULT_255_2_778
10
7.9228653
20
1.1617687
11
7.8862653
21
1.1855687
0
LINE
8
DEFAULT_255_2_778
10
7.8862653
20
1.1855687
11
7.8497653
21
1.2130687
0
LINE
8
DEFAULT_255_2_778
10
7.8497653
20
1.2130687
11
7.8169653
21
1.2440687
0
LINE
8
DEFAULT_255_2_778
10
7.8169653
20
1.2440687
11
7.7841653
21
1.2861687
0
LINE
8
DEFAULT_255_2_778
10
7.7841653
20
1.2861687
11
7.7603653
21
1.3226687
0
LINE
8
DEFAULT_255_2_778
10
7.7603653
20
1.3226687
11
7.7346653
21
1.3829687
0
LINE
8
DEFAULT_255_2_778
10
7.7346653
20
1.3829687
11
7.7254653
21
1.4194687
0
LINE
8
DEFAULT_255_2_778
10
7.7254653
20
1.4194687
11
7.7235653
21
1.4303687
0
LINE
8
DEFAULT_255_2_778
10
7.7235653
20
1.4303687
11
7.7180653
21
1.4668687
0
LINE
8
DEFAULT_255_2_778
10
7.7180653
20
1.4668687
11
7.7161653
21
1.5033687
0
LINE
8
DEFAULT_255_2_778
10
7.7161653
20
1.5033687
11
7.7161653
21
1.9491687
0
LINE
8
DEFAULT_255_2_778
10
7.7161653
20
1.9491687
11
8.9951653
21
1.9491687
0
LINE
8
DEFAULT_255_2_778
10
9.5066653
20
2.4605687
11
9.5066653
21
3.4509687
0
LINE
8
DEFAULT_255_2_778
10
9.5066653
20
3.4509687
11
9.4949653
21
3.4538687
0
LINE
8
DEFAULT_255_2_778
10
7.7045653
20
2.9606687
11
7.7045653
21
3.4392687
0
LINE
8
DEFAULT_255_2_778
10
8.0918653
20
3.8266687
11
8.1395653
21
3.8229687
0
LINE
8
DEFAULT_255_2_778
10
8.1395653
20
3.8229687
11
8.1760653
21
3.8173687
0
LINE
8
DEFAULT_255_2_778
10
8.1760653
20
3.8173687
11
8.2381653
21
3.7991687
0
LINE
8
DEFAULT_255_2_778
10
8.2381653
20
3.7991687
11
8.2802653
21
3.7808687
0
LINE
8
DEFAULT_255_2_778
10
8.2802653
20
3.7808687
11
8.3278653
21
3.7480687
0
LINE
8
DEFAULT_255_2_778
10
8.3278653
20
3.7480687
11
8.3588653
21
3.7205687
0
LINE
8
DEFAULT_255_2_778
10
8.3588653
20
3.7205687
11
8.3644653
21
3.7131687
0
LINE
8
DEFAULT_255_2_778
10
8.3644653
20
3.7131687
11
8.3882653
21
3.6856687
0
LINE
8
DEFAULT_255_2_778
10
8.3882653
20
3.6856687
11
8.4247653
21
3.6308687
0
LINE
8
DEFAULT_255_2_778
10
8.4247653
20
3.6308687
11
8.4429653
21
3.5943687
0
LINE
8
DEFAULT_255_2_778
10
8.4429653
20
3.5943687
11
8.4522653
21
3.5705687
0
LINE
8
DEFAULT_255_2_778
10
8.4522653
20
3.5705687
11
8.4667653
21
3.5157687
0
LINE
8
DEFAULT_255_2_778
10
8.4667653
20
3.5157687
11
8.4741653
21
3.4427687
0
LINE
8
DEFAULT_255_2_778
10
8.4741653
20
3.4427687
11
8.4741653
21
2.9641687
0
LINE
8
DEFAULT_255_2_778
10
8.4741653
20
2.9641687
11
7.7489653
21
2.9641687
0
LINE
8
DEFAULT_255_2_778
10
7.7489653
20
2.9641687
11
7.7045653
21
2.9606687
0
LINE
8
DEFAULT_255_2_778
10
6.2665653
20
6.5415687
11
6.2665653
21
6.5306687
0
LINE
8
DEFAULT_255_2_778
10
6.2665653
20
6.5306687
11
6.2665653
21
6.6037687
0
LINE
8
DEFAULT_255_2_778
10
6.2665653
20
6.6037687
11
6.2300653
21
6.6219687
0
LINE
8
DEFAULT_255_2_778
10
6.2300653
20
6.6219687
11
6.1860653
21
6.6402687
0
LINE
8
DEFAULT_255_2_778
10
6.1860653
20
6.6402687
11
6.1276653
21
6.6584687
0
LINE
8
DEFAULT_255_2_778
10
6.1276653
20
6.6584687
11
6.1220653
21
6.6584687
0
LINE
8
DEFAULT_255_2_778
10
6.1220653
20
6.6584687
11
6.0910653
21
6.6674687
0
LINE
8
DEFAULT_255_2_778
10
6.0910653
20
6.6674687
11
6.0802653
21
6.6711687
0
LINE
8
DEFAULT_255_2_778
10
6.0802653
20
6.6711687
11
6.0564653
21
6.6767687
0
LINE
8
DEFAULT_255_2_778
10
6.0564653
20
6.6767687
11
6.0490653
21
6.6767687
0
LINE
8
DEFAULT_255_2_778
10
6.0490653
20
6.6767687
11
6.0125653
21
6.6841687
0
LINE
8
DEFAULT_255_2_778
10
6.0125653
20
6.6841687
11
6.0053653
21
6.6859687
0
LINE
8
DEFAULT_255_2_778
10
6.0053653
20
6.6859687
11
5.9797653
21
6.6896687
0
LINE
8
DEFAULT_255_2_778
10
5.9797653
20
6.6896687
11
5.9394653
21
6.6952687
0
LINE
8
DEFAULT_255_2_778
10
5.9394653
20
6.6952687
11
5.9212653
21
6.6952687
0
LINE
8
DEFAULT_255_2_778
10
5.9212653
20
6.6952687
11
5.8918653
21
6.6989687
0
LINE
8
DEFAULT_255_2_778
10
5.8918653
20
6.6989687
11
5.8479653
21
6.7026687
0
LINE
8
DEFAULT_255_2_778
10
5.8479653
20
6.7026687
11
5.8333653
21
6.7026687
0
LINE
8
DEFAULT_255_2_778
10
5.8333653
20
6.7026687
11
5.7934653
21
6.7042687
0
LINE
8
DEFAULT_255_2_778
10
5.7934653
20
6.7042687
11
5.7841653
21
6.7042687
0
LINE
8
DEFAULT_255_2_778
10
5.7841653
20
6.7042687
11
5.6891653
21
6.7024687
0
LINE
8
DEFAULT_255_2_778
10
5.6891653
20
6.7024687
11
5.6836653
21
6.7024687
0
LINE
8
DEFAULT_255_2_778
10
5.6836653
20
6.7024687
11
5.6288653
21
6.6968687
0
LINE
8
DEFAULT_255_2_778
10
5.6288653
20
6.6968687
11
5.5375653
21
6.6841687
0
LINE
8
DEFAULT_255_2_778
10
5.5375653
20
6.6841687
11
5.4973653
21
6.6748687
0
LINE
8
DEFAULT_255_2_778
10
5.4973653
20
6.6748687
11
5.4280653
21
6.6566687
0
LINE
8
DEFAULT_255_2_778
10
5.4280653
20
6.6566687
11
5.3513653
21
6.6328687
0
LINE
8
DEFAULT_255_2_778
10
5.3513653
20
6.6328687
11
5.2910653
21
6.6108687
0
LINE
8
DEFAULT_255_2_778
10
5.2910653
20
6.6108687
11
5.2325653
21
6.5851687
0
LINE
8
DEFAULT_255_2_778
10
5.2325653
20
6.5851687
11
5.2105653
21
6.5740687
0
LINE
8
DEFAULT_255_2_778
10
5.2105653
20
6.5740687
11
5.1557653
21
6.5484687
0
LINE
8
DEFAULT_255_2_778
10
5.1557653
20
6.5484687
11
5.0790653
21
6.5044687
0
LINE
8
DEFAULT_255_2_778
10
5.0790653
20
6.5044687
11
5.0608653
21
6.4936687
0
LINE
8
DEFAULT_255_2_778
10
5.0608653
20
6.4936687
11
5.0150653
21
6.4645687
0
LINE
8
DEFAULT_255_2_778
10
5.0150653
20
6.4645687
11
4.9420653
21
6.4097687
0
LINE
8
DEFAULT_255_2_778
10
4.9420653
20
6.4097687
11
4.9055653
21
6.3806687
0
LINE
8
DEFAULT_255_2_778
10
4.9055653
20
6.3806687
11
4.8761653
21
6.3568687
0
LINE
8
DEFAULT_255_2_778
10
4.8761653
20
6.3568687
11
4.8652653
21
6.3478687
0
LINE
8
DEFAULT_255_2_778
10
4.8652653
20
6.3478687
11
4.8105653
21
6.2967687
0
LINE
8
DEFAULT_255_2_778
10
4.8105653
20
6.2967687
11
4.7848653
21
6.2695687
0
LINE
8
DEFAULT_255_2_778
10
4.7848653
20
6.2695687
11
4.7610653
21
6.2457687
0
LINE
8
DEFAULT_255_2_778
10
4.7610653
20
6.2457687
11
4.7464653
21
6.2274687
0
LINE
8
DEFAULT_255_2_778
10
4.7464653
20
6.2274687
11
4.7099653
21
6.1854687
0
LINE
8
DEFAULT_255_2_778
10
4.7099653
20
6.1854687
11
4.6697653
21
6.1343687
0
LINE
8
DEFAULT_255_2_778
10
4.6697653
20
6.1343687
11
4.6403653
21
6.0978687
0
LINE
8
DEFAULT_255_2_778
10
4.6403653
20
6.0978687
11
4.6329653
21
6.0869687
0
LINE
8
DEFAULT_255_2_778
10
4.6329653
20
6.0869687
11
4.6073653
21
6.0504687
0
LINE
8
DEFAULT_255_2_778
10
4.6073653
20
6.0504687
11
4.5999653
21
6.0396687
0
LINE
8
DEFAULT_255_2_778
10
4.5999653
20
6.0396687
11
4.5943653
21
6.0306687
0
LINE
8
DEFAULT_255_2_778
10
4.5943653
20
6.0306687
11
4.5578653
21
5.9758687
0
LINE
8
DEFAULT_255_2_778
10
4.5578653
20
5.9758687
11
4.5504653
21
5.9795687
0
LINE
8
DEFAULT_255_2_778
10
4.5504653
20
5.9795687
11
4.5139653
21
5.9155687
0
LINE
8
DEFAULT_255_2_778
10
4.5139653
20
5.9155687
11
4.5028653
21
5.9155687
0
LINE
8
DEFAULT_255_2_778
10
4.5028653
20
5.9155687
11
4.4789653
21
5.8644687
0
LINE
8
DEFAULT_255_2_778
10
4.4789653
20
5.8644687
11
4.4644653
21
5.8279687
0
LINE
8
DEFAULT_255_2_778
10
4.4644653
20
5.8279687
11
4.4461653
21
5.7768687
0
LINE
8
DEFAULT_255_2_778
10
4.4461653
20
5.7768687
11
4.4406653
21
5.7586687
0
LINE
8
DEFAULT_255_2_778
10
4.4406653
20
5.7586687
11
4.4223653
21
5.7038687
0
LINE
8
DEFAULT_255_2_778
10
4.4223653
20
5.7038687
11
4.3985653
21
5.6252687
0
LINE
8
DEFAULT_255_2_778
10
4.3985653
20
5.6252687
11
4.3948653
21
5.6107687
0
LINE
8
DEFAULT_255_2_778
10
4.3948653
20
5.6107687
11
4.3930653
21
5.6051687
0
LINE
8
DEFAULT_255_2_778
10
4.3930653
20
5.6051687
11
4.3948653
21
5.6107687
0
LINE
8
DEFAULT_255_2_778
10
4.3948653
20
5.6107687
11
4.3765653
21
5.5284687
0
LINE
8
DEFAULT_255_2_778
10
4.3765653
20
5.5284687
11
4.3747653
21
5.5210687
0
LINE
8
DEFAULT_255_2_778
10
4.3747653
20
5.5210687
11
4.3638653
21
5.4480687
0
LINE
8
DEFAULT_255_2_778
10
4.3638653
20
5.4480687
11
4.3549653
21
5.3493687
0
LINE
8
DEFAULT_255_2_778
10
4.3549653
20
5.3493687
11
4.3676653
21
5.2397687
0
LINE
8
DEFAULT_255_2_778
10
4.3676653
20
5.2397687
11
4.3676653
21
-0.9318313
0
LINE
8
DEFAULT_255_2_778
10
4.3676653
20
-0.9318313
11
4.4115653
21
-0.9300313
0
LINE
8
DEFAULT_255_2_778
10
4.4115653
20
-0.9300313
11
5.3907653
21
-0.8752313
0
LINE
8
DEFAULT_255_2_778
10
5.3907653
20
-0.8752313
11
5.3907653
21
2.8273687
0
LINE
8
DEFAULT_255_2_778
10
5.3907653
20
2.8273687
11
6.1580653
21
2.8273687
0
LINE
8
DEFAULT_255_2_778
10
6.1580653
20
2.8273687
11
6.1580653
21
3.8504687
0
LINE
8
DEFAULT_255_2_778
10
6.1580653
20
3.8504687
11
5.3907653
21
3.8504687
0
LINE
8
DEFAULT_255_2_778
10
5.3907653
20
3.8504687
11
5.3907653
21
5.2389687
0
LINE
8
DEFAULT_255_2_778
10
5.7706653
20
5.6263687
11
6.2403653
21
5.6263687
0
LINE
8
DEFAULT_255_2_778
10
6.2403653
20
5.6263687
11
6.2823653
21
6.6074687
0
LINE
8
DEFAULT_255_2_778
10
6.2823653
20
6.6074687
11
6.2665653
21
6.5415687
0
LINE
8
DEFAULT_255_2_778
10
2.0278653
20
6.4960687
11
2.0278653
21
6.4923687
0
LINE
8
DEFAULT_255_2_778
10
2.0278653
20
6.4923687
11
1.0047653
21
6.5581687
0
LINE
8
DEFAULT_255_2_778
10
1.0047653
20
6.5581687
11
1.0047653
21
0.1634687
0
LINE
8
DEFAULT_255_2_778
10
1.0047653
20
0.1634687
11
2.0278653
21
0.1634687
0
LINE
8
DEFAULT_255_2_778
10
2.0278653
20
0.1634687
11
2.0278653
21
6.4960687
0
LINE
8
DEFAULT_255_2_778
10
2.0278653
20
6.4960687
11
2.0278653
21
6.4960687
0
LINE
8
DEFAULT_255_2_778
10
3.7709653
20
5.6665687
11
3.7691653
21
5.6848687
0
LINE
8
DEFAULT_255_2_778
10
3.7691653
20
5.6848687
11
3.7635653
21
5.7250687
0
LINE
8
DEFAULT_255_2_778
10
3.7635653
20
5.7250687
11
3.7545653
21
5.7615687
0
LINE
8
DEFAULT_255_2_778
10
3.7545653
20
5.7615687
11
3.7418653
21
5.8017687
0
LINE
8
DEFAULT_255_2_778
10
3.7418653
20
5.8017687
11
3.7236653
21
5.8456687
0
LINE
8
DEFAULT_255_2_778
10
3.7236653
20
5.8456687
11
3.7053653
21
5.8784687
0
LINE
8
DEFAULT_255_2_778
10
3.7053653
20
5.8784687
11
3.6979653
21
5.8930687
0
LINE
8
DEFAULT_255_2_778
10
3.6979653
20
5.8930687
11
3.6759653
21
5.9295687
0
LINE
8
DEFAULT_255_2_778
10
3.6759653
20
5.9295687
11
3.6704653
21
5.9369687
0
LINE
8
DEFAULT_255_2_778
10
3.6704653
20
5.9369687
11
3.6410653
21
5.9771687
0
LINE
8
DEFAULT_255_2_778
10
3.6410653
20
5.9771687
11
3.6320653
21
5.9880687
0
LINE
8
DEFAULT_255_2_778
10
3.6320653
20
5.9880687
11
3.6063653
21
6.0155687
0
LINE
8
DEFAULT_255_2_778
10
3.6063653
20
6.0155687
11
3.5955653
21
6.0263687
0
LINE
8
DEFAULT_255_2_778
10
3.5955653
20
6.0263687
11
3.5661653
21
6.0539687
0
LINE
8
DEFAULT_255_2_778
10
3.5661653
20
6.0539687
11
3.5368653
21
6.0777687
0
LINE
8
DEFAULT_255_2_778
10
3.5368653
20
6.0777687
11
3.5077653
21
6.0996687
0
LINE
8
DEFAULT_255_2_778
10
3.5077653
20
6.0996687
11
3.4582653
21
6.1290687
0
LINE
8
DEFAULT_255_2_778
10
3.4582653
20
6.1290687
11
3.4217653
21
6.1472687
0
LINE
8
DEFAULT_255_2_778
10
3.4217653
20
6.1472687
11
3.3743653
21
6.1655687
0
LINE
8
DEFAULT_255_2_778
10
3.3743653
20
6.1655687
11
3.3103653
21
6.1838687
0
LINE
8
DEFAULT_255_2_778
10
3.3103653
20
6.1838687
11
3.2738653
21
6.1912687
0
LINE
8
DEFAULT_255_2_778
10
3.2738653
20
6.1912687
11
3.2373653
21
6.1967687
0
LINE
8
DEFAULT_255_2_778
10
3.2373653
20
6.1967687
11
3.1825653
21
6.2004687
0
LINE
8
DEFAULT_255_2_778
10
3.1825653
20
6.2004687
11
3.1240653
21
6.1967687
0
LINE
8
DEFAULT_255_2_778
10
3.1240653
20
6.1967687
11
3.0692653
21
6.1877687
0
LINE
8
DEFAULT_255_2_778
10
3.0692653
20
6.1877687
11
3.0145653
21
6.1750687
0
LINE
8
DEFAULT_255_2_778
10
3.0145653
20
6.1750687
11
2.9597653
21
6.1568687
0
LINE
8
DEFAULT_255_2_778
10
2.9597653
20
6.1568687
11
2.9232653
21
6.1385687
0
LINE
8
DEFAULT_255_2_778
10
2.8867653
20
6.1203687
11
2.8610653
21
6.1057687
0
LINE
8
DEFAULT_255_2_778
10
2.8610653
20
6.1057687
11
2.8171653
21
6.0729687
0
LINE
8
DEFAULT_255_2_778
10
2.8171653
20
6.0729687
11
2.7914653
21
6.0509687
0
LINE
8
DEFAULT_255_2_778
10
2.7914653
20
6.0509687
11
2.7586653
21
6.0181687
0
LINE
8
DEFAULT_255_2_778
10
2.7586653
20
6.0181687
11
2.7258653
21
5.9816687
0
LINE
8
DEFAULT_255_2_778
10
2.7258653
20
5.9816687
11
2.7258653
21
5.9779687
0
LINE
8
DEFAULT_255_2_778
10
2.7258653
20
5.9779687
11
2.7258653
21
5.9541687
0
LINE
8
DEFAULT_255_2_778
10
2.7258653
20
5.9541687
11
2.6983653
21
5.9120687
0
LINE
8
DEFAULT_255_2_778
10
2.6983653
20
5.9120687
11
2.6946653
21
5.9083687
0
LINE
8
DEFAULT_255_2_778
10
2.6946653
20
5.9083687
11
2.6819653
21
5.8864687
0
LINE
8
DEFAULT_255_2_778
10
2.6819653
20
5.8864687
11
2.6692653
21
5.8591687
0
LINE
8
DEFAULT_255_2_778
10
2.6692653
20
5.8591687
11
2.6599653
21
5.8353687
0
LINE
8
DEFAULT_255_2_778
10
2.6599653
20
5.8353687
11
2.6491653
21
5.8059687
0
LINE
8
DEFAULT_255_2_778
10
2.6491653
20
5.8059687
11
2.6417653
21
5.7821687
0
LINE
8
DEFAULT_255_2_778
10
2.6417653
20
5.7821687
11
2.6343653
21
5.7512687
0
LINE
8
DEFAULT_255_2_778
10
2.6343653
20
5.7512687
11
2.6287653
21
5.7274687
0
LINE
8
DEFAULT_255_2_778
10
2.6287653
20
5.7274687
11
2.6232653
21
5.6945687
0
LINE
8
DEFAULT_255_2_778
10
2.6232653
20
5.6945687
11
2.6195653
21
5.6707687
0
LINE
8
DEFAULT_255_2_778
10
2.6195653
20
5.6707687
11
2.6157653
21
5.6160687
0
LINE
8
DEFAULT_255_2_778
10
2.6195653
20
5.5612687
11
2.6284653
21
5.5009687
0
LINE
8
DEFAULT_255_2_778
10
2.6284653
20
5.5009687
11
2.6284653
21
5.4953687
0
LINE
8
DEFAULT_255_2_778
10
2.6411653
20
5.4461687
11
2.6449653
21
5.4334687
0
LINE
8
DEFAULT_255_2_778
10
2.6449653
20
5.4334687
11
2.6594653
21
5.3932687
0
LINE
8
DEFAULT_255_2_778
10
2.6904653
20
5.3273687
11
2.7123653
21
5.2908687
0
LINE
8
DEFAULT_255_2_778
10
2.7544653
20
5.2342687
11
2.7835653
21
5.2032687
0
LINE
8
DEFAULT_255_2_778
10
2.8346653
20
5.1556687
11
2.8711653
21
5.1281687
0
LINE
8
DEFAULT_255_2_778
10
2.8711653
20
5.1281687
11
2.8766653
21
5.1244687
0
LINE
8
DEFAULT_255_2_778
10
2.9716653
20
5.0733687
11
2.9753653
21
5.0715687
0
LINE
8
DEFAULT_255_2_778
10
2.9753653
20
5.0715687
11
3.0229653
21
5.0532687
0
LINE
8
DEFAULT_255_2_778
10
3.0229653
20
5.0532687
11
3.0833653
21
5.0349687
0
LINE
8
DEFAULT_255_2_778
10
3.0833653
20
5.0349687
11
3.1362653
21
5.0275687
0
LINE
8
DEFAULT_255_2_778
10
3.2605653
20
5.0275687
11
3.3153653
21
5.0368687
0
LINE
8
DEFAULT_255_2_778
10
3.3153653
20
5.0368687
11
3.3701653
21
5.0513687
0
LINE
8
DEFAULT_255_2_778
10
3.3701653
20
5.0513687
11
3.4248653
21
5.0696687
0
LINE
8
DEFAULT_255_2_778
10
3.4248653
20
5.0696687
11
3.4743653
21
5.0934687
0
LINE
8
DEFAULT_255_2_778
10
3.4743653
20
5.0934687
11
3.5217653
21
5.1225687
0
LINE
8
DEFAULT_255_2_778
10
3.5217653
20
5.1225687
11
3.5656653
21
5.1553687
0
LINE
8
DEFAULT_255_2_778
10
3.5656653
20
5.1553687
11
3.6077653
21
5.1918687
0
LINE
8
DEFAULT_255_2_778
10
3.6077653
20
5.1918687
11
3.6624653
21
5.2503687
0
LINE
8
DEFAULT_255_2_778
10
3.7098653
20
5.3233687
11
3.7463653
21
5.3964687
0
LINE
8
DEFAULT_255_2_778
10
3.7463653
20
5.3964687
11
3.7646653
21
5.4511687
0
LINE
8
DEFAULT_255_2_778
10
3.7646653
20
5.4511687
11
3.7773653
21
5.5059687
0
LINE
8
DEFAULT_255_2_778
10
3.7773653
20
5.5059687
11
3.7847653
21
5.5607687
0
LINE
8
DEFAULT_255_2_778
10
3.7847653
20
5.5607687
11
3.7847653
21
5.6668687
0
LINE
8
DEFAULT_255_2_778
10
3.7847653
20
5.6668687
11
3.7709653
21
5.6665687
0
LINE
8
DEFAULT_255_2_778
10
2.6748653
20
4.7857687
11
2.6748653
21
0.1486687
0
LINE
8
DEFAULT_255_2_778
10
2.6748653
20
0.1486687
11
3.6979653
21
0.1486687
0
LINE
8
DEFAULT_255_2_778
10
3.6979653
20
0.1486687
11
3.6979653
21
4.7272687
0
LINE
8
DEFAULT_255_2_778
10
3.6979653
20
4.7272687
11
2.6748653
21
4.7857687
0
ENDSEC
0
EOF