0
SECTION
2
HEADER
9
$MEASUREMENT
70
1
0
ENDSEC
0
SECTION
2
TABLES
0
TABLE
2
LTYPE
0
LTYPE
72
65
70
64
2
CONTINUOUS
3
______
73
0
40
0
0
ENDTAB
0
TABLE
2
LAYER
0
LAYER
2
DEFAULT_255_2_778
70
0
62
255
6
CONTINUOUS
0
ENDTAB
0
ENDSEC
0
SECTION
2
ENTITIES
0
ARC
8
DEFAULT_255_2_778
10
20.8572485
20
114.8863835
40
20.7249804
50
173.886013
51
180.011755
0
ARC
8
DEFAULT_255_2_778
10
20.501686
20
114.9237827
40
20.3674571
50
166.8527399
51
173.8840907
0
ARC
8
DEFAULT_255_2_778
10
20.3358695
20
114.9613545
40
20.1974409
50
158.3761194
51
166.8495381
0
ARC
8
DEFAULT_255_2_778
10
20.3476891
20
114.9546487
40
20.2109
50
147.2481015
51
158.3707948
0
ARC
8
DEFAULT_255_2_778
10
20.4344182
20
114.8989904
40
20.3139522
50
117.5455429
51
147.2484141
0
ARC
8
DEFAULT_255_2_778
10
20.368849
20
115.0105666
40
20.1847022
50
108.1855724
51
117.5269853
0
ARC
8
DEFAULT_255_2_778
10
20.3846018
20
114.9577633
40
20.2397843
50
100.3371356
51
108.1812872
0
ARC
8
DEFAULT_255_2_778
10
20.4264294
20
114.7242745
40
20.4769889
50
93.8756307
51
100.3350412
0
ARC
8
DEFAULT_255_2_778
10
20.4504369
20
114.3942384
40
20.8078931
50
89.9949565
51
93.8801608
0
ARC
8
DEFAULT_255_2_778
10
115.2832206
20
114.4771515
40
20.7249804
50
83.886013
51
90.011755
0
ARC
8
DEFAULT_255_2_778
10
115.3206198
20
114.832714
40
20.3674571
50
76.8527399
51
83.8840907
0
ARC
8
DEFAULT_255_2_778
10
115.3581916
20
114.9985305
40
20.1974409
50
68.3761194
51
76.8495381
0
ARC
8
DEFAULT_255_2_778
10
115.3514858
20
114.9867109
40
20.2109
50
57.2481015
51
68.3707948
0
ARC
8
DEFAULT_255_2_778
10
115.2958275
20
114.8999818
40
20.3139522
50
27.5455429
51
57.2484141
0
ARC
8
DEFAULT_255_2_778
10
115.4074037
20
114.965551
40
20.1847022
50
18.1855724
51
27.5269853
0
ARC
8
DEFAULT_255_2_778
10
115.3546004
20
114.9497982
40
20.2397843
50
10.3371356
51
18.1812872
0
ARC
8
DEFAULT_255_2_778
10
115.1211116
20
114.9079706
40
20.4769889
50
3.8756307
51
10.3350412
0
ARC
8
DEFAULT_255_2_778
10
114.7910755
20
114.8839631
40
20.8078931
50
359.9949565
51
3.8801608
0
ARC
8
DEFAULT_255_2_778
10
114.8739886
20
20.0511794
40
20.7249804
50
353.886013
51
0.011755
0
ARC
8
DEFAULT_255_2_778
10
115.2295511
20
20.0137802
40
20.3674571
50
346.8527399
51
353.8840907
0
ARC
8
DEFAULT_255_2_778
10
115.3953676
20
19.9762084
40
20.1974409
50
338.3761194
51
346.8495381
0
ARC
8
DEFAULT_255_2_778
10
115.383548
20
19.9829142
40
20.2109
50
327.2481015
51
338.3707948
0
ARC
8
DEFAULT_255_2_778
10
115.2968189
20
20.0385725
40
20.3139522
50
297.5455429
51
327.2484141
0
ARC
8
DEFAULT_255_2_778
10
115.3623881
20
19.9269963
40
20.1847022
50
288.1855724
51
297.5269853
0
ARC
8
DEFAULT_255_2_778
10
115.3466353
20
19.9797996
40
20.2397843
50
280.3371356
51
288.1812872
0
ARC
8
DEFAULT_255_2_778
10
115.3048077
20
20.2132884
40
20.4769889
50
273.8756307
51
280.3350412
0
ARC
8
DEFAULT_255_2_778
10
115.2808002
20
20.5433245
40
20.8078931
50
269.9949565
51
273.8801608
0
ARC
8
DEFAULT_255_2_778
10
20.4480165
20
20.4604114
40
20.7249804
50
263.886013
51
270.011755
0
ARC
8
DEFAULT_255_2_778
10
20.4106173
20
20.1048489
40
20.3674571
50
256.8527399
51
263.8840907
0
ARC
8
DEFAULT_255_2_778
10
20.3730455
20
19.9390324
40
20.1974409
50
248.3761194
51
256.8495381
0
ARC
8
DEFAULT_255_2_778
10
20.3797513
20
19.950852
40
20.2109
50
237.2481015
51
248.3707948
0
ARC
8
DEFAULT_255_2_778
10
20.4354096
20
20.0375811
40
20.3139522
50
207.5455429
51
237.2484141
0
ARC
8
DEFAULT_255_2_778
10
20.3238334
20
19.9720119
40
20.1847022
50
198.1855724
51
207.5269853
0
ARC
8
DEFAULT_255_2_778
10
20.3766367
20
19.9877647
40
20.2397843
50
190.3371356
51
198.1812872
0
ARC
8
DEFAULT_255_2_778
10
20.6101255
20
20.0295923
40
20.4769889
50
183.8756307
51
190.3350412
0
ARC
8
DEFAULT_255_2_778
10
20.9401616
20
20.0535998
40
20.8078931
50
179.9949565
51
183.8801608
0
LINE
8
DEFAULT_255_2_778
10
20.4522686
20
135.2021314
11
115.2789686
21
135.2021314
0
LINE
8
DEFAULT_255_2_778
10
135.5989686
20
114.8821314
11
135.5989686
21
20.0554314
0
LINE
8
DEFAULT_255_2_778
10
115.2789686
20
-0.2645686
11
20.4522686
21
-0.2645686
0
LINE
8
DEFAULT_255_2_778
10
0.1322686
20
20.0554314
11
0.1322686
21
114.8821314
0
ARC
8
DEFAULT_255_2_778
10
73.0821472
20
76.0419281
40
44.303904
50
355.3278583
51
357.4662758
0
ARC
8
DEFAULT_255_2_778
10
75.7738413
20
75.8205494
40
41.6031219
50
352.8656644
51
355.3297782
0
ARC
8
DEFAULT_255_2_778
10
78.2094058
20
75.5150617
40
39.1484739
50
350.1143959
51
352.8665936
0
ARC
8
DEFAULT_255_2_778
10
80.2600542
20
75.1579055
40
37.0669554
50
347.1282433
51
350.1140787
0
ARC
8
DEFAULT_255_2_778
10
81.9048172
20
74.7817556
40
35.3797285
50
343.6620649
51
347.12872
0
ARC
8
DEFAULT_255_2_778
10
83.0753398
20
74.4395168
40
34.1602001
50
339.5983779
51
343.6606366
0
ARC
8
DEFAULT_255_2_778
10
83.5432513
20
74.2694112
40
33.6623413
50
334.4908945
51
339.5921177
0
ARC
8
DEFAULT_255_2_778
10
81.4271058
20
75.3892169
40
36.0545843
50
321.8420162
51
334.3330676
0
ARC
8
DEFAULT_255_2_778
10
75.7151501
20
79.7133055
40
43.2177057
50
317.8795997
51
322.0129767
0
ARC
8
DEFAULT_255_2_778
10
70.9695699
20
83.9923819
40
49.6076164
50
314.7294313
51
317.889841
0
ARC
8
DEFAULT_255_2_778
10
65.723184
20
89.2765554
40
57.0538902
50
312.2856154
51
314.7379109
0
ARC
8
DEFAULT_255_2_778
10
62.4428071
20
92.8387891
40
61.8963635
50
311.9867732
51
312.313438
0
ARC
8
DEFAULT_255_2_778
10
-4.8501981
20
169.4086922
40
163.8313997
50
311.3919804
51
311.5659513
0
ARC
8
DEFAULT_255_2_778
10
-8.7043129
20
173.7831518
40
169.6615022
50
311.1533253
51
311.3916252
0
ARC
8
DEFAULT_255_2_778
10
-13.2431636
20
178.9763419
40
176.5586312
50
310.9088279
51
311.1533311
0
ARC
8
DEFAULT_255_2_778
10
-17.8581057
20
184.3021241
40
183.6057332
50
310.6672637
51
310.9088676
0
ARC
8
DEFAULT_255_2_778
10
-22.0143797
20
189.1385781
40
189.9827153
50
310.4614846
51
310.6675091
0
ARC
8
DEFAULT_255_2_778
10
-25.5932495
20
193.3335293
40
195.496872
50
310.2853021
51
310.4616891
0
ARC
8
DEFAULT_255_2_778
10
-29.2970386
20
197.7043575
40
201.2259375
50
310.0586191
51
310.2850815
0
ARC
8
DEFAULT_255_2_778
10
-33.454968
20
202.6496066
40
207.6868867
50
309.8190876
51
310.058565
0
ARC
8
DEFAULT_255_2_778
10
-37.7444801
20
207.7951855
40
214.3859086
50
309.5560476
51
309.8189793
0
ARC
8
DEFAULT_255_2_778
10
-41.5984282
20
212.4595533
40
220.4364656
50
309.3418403
51
309.5563022
0
ARC
8
DEFAULT_255_2_778
10
-44.7980177
20
216.3626449
40
225.4833951
50
309.1311381
51
309.3418763
0
ARC
8
DEFAULT_255_2_778
10
-48.3061258
20
220.6765586
40
231.0436714
50
308.832651
51
309.1308286
0
ARC
8
DEFAULT_255_2_778
10
-51.639926
20
224.8166596
40
236.3591826
50
308.5765871
51
308.8328752
0
ARC
8
DEFAULT_255_2_778
10
-54.939726
20
228.9570182
40
241.6536368
50
308.1492317
51
308.5760985
0
ARC
8
DEFAULT_255_2_778
10
-58.4166765
20
233.3892801
40
247.286941
50
307.1662693
51
308.1484044
0
ARC
8
DEFAULT_255_2_778
10
-57.7513239
20
232.5072835
40
246.1821311
50
306.8389935
51
307.1668816
0
ARC
8
DEFAULT_255_2_778
10
-54.8459965
20
228.6209119
40
241.3298339
50
306.2640141
51
306.8401673
0
ARC
8
DEFAULT_255_2_778
10
-48.9942428
20
220.6408019
40
231.434119
50
305.7081089
51
306.2645145
0
ARC
8
DEFAULT_255_2_778
10
-41.7103059
20
210.5071617
40
218.9542791
50
305.1991553
51
305.7081083
0
ARC
8
DEFAULT_255_2_778
10
-34.0237602
20
199.6115484
40
205.6202109
50
304.730934
51
305.1989785
0
ARC
8
DEFAULT_255_2_778
10
-26.2197748
20
188.3534491
40
191.9217809
50
304.2658589
51
304.7310537
0
ARC
8
DEFAULT_255_2_778
10
-18.3176559
20
176.7540938
40
177.8865208
50
303.801181
51
304.265939
0
ARC
8
DEFAULT_255_2_778
10
-10.5522942
20
165.1545429
40
163.9276374
50
303.3349635
51
303.8012411
0
ARC
8
DEFAULT_255_2_778
10
-3.0875533
20
153.8053404
40
150.343575
50
302.8656203
51
303.3350302
0
ARC
8
DEFAULT_255_2_778
10
4.2054812
20
142.5146087
40
136.9022591
50
302.357303
51
302.8662041
0
ARC
8
DEFAULT_255_2_778
10
11.330739
20
131.2671208
40
123.5877829
50
301.8244641
51
302.3576411
0
ARC
8
DEFAULT_255_2_778
10
18.0472128
20
120.4437065
40
110.8497564
50
301.2653922
51
301.8247834
0
ARC
8
DEFAULT_255_2_778
10
24.1929151
20
110.3221624
40
99.0085016
50
300.6963577
51
301.2653538
0
ARC
8
DEFAULT_255_2_778
10
29.66131
20
101.111152
40
88.2965431
50
300.1170299
51
300.6963081
0
ARC
8
DEFAULT_255_2_778
10
34.494437
20
92.7795215
40
78.6645556
50
299.5268858
51
300.1169413
0
ARC
8
DEFAULT_255_2_778
10
38.7389528
20
85.2858299
40
70.0522779
50
298.9256775
51
299.526782
0
ARC
8
DEFAULT_255_2_778
10
42.4444954
20
78.5806785
40
62.3913313
50
298.3133688
51
298.925534
0
ARC
8
DEFAULT_255_2_778
10
45.6705817
20
72.5928541
40
55.5897378
50
297.6900591
51
298.3132121
0
ARC
8
DEFAULT_255_2_778
10
48.4653888
20
67.2675201
40
49.5755773
50
297.0561447
51
297.6899334
0
ARC
8
DEFAULT_255_2_778
10
50.8834459
20
62.5335546
40
44.2598052
50
296.4119702
51
297.0559889
0
ARC
8
DEFAULT_255_2_778
10
53.446633
20
57.3612735
40
38.4872504
50
295.4197296
51
296.4195735
0
ARC
8
DEFAULT_255_2_778
10
55.9784465
20
52.0351215
40
32.5899649
50
294.3998494
51
295.4188997
0
ARC
8
DEFAULT_255_2_778
10
58.1348689
20
47.2764246
40
27.3654701
50
293.1855228
51
294.4040503
0
ARC
8
DEFAULT_255_2_778
10
60.0336617
20
42.8393312
40
22.5391661
50
291.7791125
51
293.1893105
0
ARC
8
DEFAULT_255_2_778
10
61.5335926
20
39.0871401
40
18.4982838
50
290.3472668
51
291.7769609
0
ARC
8
DEFAULT_255_2_778
10
62.7441111
20
35.8156991
40
15.0100646
50
288.5475247
51
290.356906
0
ARC
8
DEFAULT_255_2_778
10
63.7492187
20
32.8147959
40
11.8453122
50
286.3980409
51
288.5555459
0
ARC
8
DEFAULT_255_2_778
10
64.4909805
20
30.2918422
40
9.2155775
50
283.9637896
51
286.4021573
0
ARC
8
DEFAULT_255_2_778
10
65.0071314
20
28.2099422
40
7.0706493
50
281.0333453
51
283.9758033
0
ARC
8
DEFAULT_255_2_778
10
65.347822
20
26.4516899
40
5.2796955
50
277.3182699
51
281.0561513
0
ARC
8
DEFAULT_255_2_778
10
65.5306789
20
25.0145132
40
3.8309341
50
272.658396
51
277.3437175
0
ARC
8
DEFAULT_255_2_778
10
65.5748213
20
24.179028
40
2.9943054
50
270.0337203
51
272.5561363
0
ARC
8
DEFAULT_255_2_778
10
65.5755972
20
23.7869382
40
2.6022152
50
267.884837
51
270.0217176
0
ARC
8
DEFAULT_255_2_778
10
65.564379
20
23.4848943
40
2.299963
50
265.5667498
51
267.8863968
0
ARC
8
DEFAULT_255_2_778
10
65.5447131
20
23.2298909
40
2.0442023
50
263.2843538
51
265.5638337
0
ARC
8
DEFAULT_255_2_778
10
65.5175412
20
23.0012846
40
1.813987
50
260.4890138
51
263.2923067
0
ARC
8
DEFAULT_255_2_778
10
65.4810546
20
22.7844401
40
1.5940943
50
257.248868
51
260.4945625
0
ARC
8
DEFAULT_255_2_778
10
65.439169
20
22.599163
40
1.4041417
50
253.8652142
51
257.2471909
0
ARC
8
DEFAULT_255_2_778
10
65.3924583
20
22.438602
40
1.2369244
50
249.6726424
51
253.876851
0
ARC
8
DEFAULT_255_2_778
10
65.34058
20
22.2988172
40
1.0878232
50
244.8436152
51
249.6773065
0
ARC
8
DEFAULT_255_2_778
10
65.2870983
20
22.1852891
40
0.9623288
50
238.9677914
51
244.8525035
0
ARC
8
DEFAULT_255_2_778
10
65.2330175
20
22.0959238
40
0.857874
50
230.9109631
51
238.9858925
0
ARC
8
DEFAULT_255_2_778
10
65.2745585
20
22.1451529
40
0.9222774
50
230.718704
51
230.8362637
0
ARC
8
DEFAULT_255_2_778
10
66.8460595
20
23.1251678
40
2.7413754
50
210.6815243
51
218.1630753
0
ARC
8
DEFAULT_255_2_778
10
67.0533466
20
23.2335462
40
2.974974
50
194.3714669
51
210.4395468
0
ARC
8
DEFAULT_255_2_778
10
67.7409057
20
23.4257289
40
3.6887509
50
188.763613
51
194.6123991
0
ARC
8
DEFAULT_255_2_778
10
68.4016096
20
23.5294717
40
4.3575478
50
184.5526174
51
188.788174
0
ARC
8
DEFAULT_255_2_778
10
69.1936033
20
23.5930788
40
5.1520916
50
181.0176513
51
184.5586474
0
ARC
8
DEFAULT_255_2_778
10
69.8357672
20
23.6089973
40
5.7944387
50
179.9948617
51
181.0622559
0
ARC
8
DEFAULT_255_2_778
10
70.6601459
20
23.6029519
40
6.6188205
50
176.7446888
51
179.943169
0
ARC
8
DEFAULT_255_2_778
10
72.2107338
20
23.5162527
40
8.1718297
50
174.2485868
51
176.7551459
0
ARC
8
DEFAULT_255_2_778
10
74.3024861
20
23.3049091
40
10.2742316
50
172.0075278
51
174.2449074
0
ARC
8
DEFAULT_255_2_778
10
77.35994
20
22.8763985
40
13.3615678
50
170.2261105
51
172.0108268
0
ARC
8
DEFAULT_255_2_778
10
82.2135779
20
22.039449
40
18.2868377
50
168.779702
51
170.22346
0
ARC
8
DEFAULT_255_2_778
10
91.9387757
20
20.1069203
40
28.202186
50
167.6995576
51
168.7731118
0
ARC
8
DEFAULT_255_2_778
10
128.0037638
20
12.2184926
40
65.1198026
50
167.0879415
51
167.6783269
0
ARC
8
DEFAULT_255_2_778
10
683.4526057
20
-114.4364742
40
634.8257364
50
167.1276814
51
167.1480123
0
ARC
8
DEFAULT_255_2_778
10
-27.4728561
20
48.097414
40
94.4426025
50
347.0852946
51
347.4442894
0
ARC
8
DEFAULT_255_2_778
10
33.3698816
20
34.5674161
40
32.1136494
50
347.4084273
51
348.7621582
0
ARC
8
DEFAULT_255_2_778
10
46.4487067
20
31.9573525
40
18.7769377
50
348.7963024
51
350.5122087
0
ARC
8
DEFAULT_255_2_778
10
51.2823145
20
31.1442476
40
13.8754209
50
350.5337747
51
352.2508711
0
ARC
8
DEFAULT_255_2_778
10
54.2071275
20
30.7487324
40
10.9239881
50
352.2379354
51
354.6519457
0
ARC
8
DEFAULT_255_2_778
10
56.3710529
20
30.5458353
40
8.7505712
50
354.6540657
51
357.4255218
0
ARC
8
DEFAULT_255_2_778
10
57.7842243
20
30.4801133
40
7.3358746
50
357.4425389
51
359.9683276
0
ARC
8
DEFAULT_255_2_778
10
59.2534866
20
30.4921852
40
5.8666334
50
359.8424967
51
6.4829993
0
ARC
8
DEFAULT_255_2_778
10
60.7290599
20
30.6680095
40
4.3806511
50
6.3771171
51
17.5476098
0
ARC
8
DEFAULT_255_2_778
10
61.5117649
20
30.9104848
40
3.5612652
50
17.6247072
51
32.5762893
0
ARC
8
DEFAULT_255_2_778
10
61.5665105
20
30.9360814
40
3.5013596
50
32.7056728
51
40.989417
0
ARC
8
DEFAULT_255_2_778
10
61.3818671
20
30.7750474
40
3.7463594
50
40.9961791
51
47.4381019
0
ARC
8
DEFAULT_255_2_778
10
61.118104
20
30.4877981
40
4.1363377
50
47.4383454
51
52.9138804
0
ARC
8
DEFAULT_255_2_778
10
60.8104994
20
30.0816728
40
4.6458061
50
52.9078879
51
57.4955788
0
ARC
8
DEFAULT_255_2_778
10
60.4746682
20
29.5549921
40
5.270446
50
57.4933652
51
61.57656
0
ARC
8
DEFAULT_255_2_778
10
60.1174789
20
28.8960816
40
6.0199439
50
61.5717953
51
65.1373134
0
ARC
8
DEFAULT_255_2_778
10
59.766306
20
28.1410399
40
6.8526559
50
65.1275142
51
68.0224255
0
ARC
8
DEFAULT_255_2_778
10
59.4084723
20
27.2532566
40
7.8098414
50
68.0254861
51
70.8858041
0
ARC
8
DEFAULT_255_2_778
10
59.0354136
20
26.1786981
40
8.9473158
50
70.8818032
51
73.4068193
0
ARC
8
DEFAULT_255_2_778
10
58.6827526
20
24.9991083
40
10.1784945
50
73.4005461
51
75.5139303
0
ARC
8
DEFAULT_255_2_778
10
58.3364664
20
23.6573704
40
11.564198
50
75.5156707
51
77.604687
0
ARC
8
DEFAULT_255_2_778
10
57.9928637
20
22.0972799
40
13.1616788
50
77.6015901
51
79.4528535
0
ARC
8
DEFAULT_255_2_778
10
57.6740864
20
20.3887176
40
14.8997249
50
79.4503601
51
81.1047412
0
ARC
8
DEFAULT_255_2_778
10
57.3825958
20
18.530168
40
16.7809938
50
81.1026933
51
82.5882173
0
ARC
8
DEFAULT_255_2_778
10
57.2047254
20
17.1942843
40
18.1286615
50
82.5753987
51
83.0481268
0
ARC
8
DEFAULT_255_2_778
10
67.4063441
20
93.9428496
40
59.2963322
50
259.0694208
51
262.2390391
0
ARC
8
DEFAULT_255_2_778
10
67.2138865
20
92.9498121
40
58.2848171
50
255.7894265
51
259.0700761
0
ARC
8
DEFAULT_255_2_778
10
66.9333369
20
91.84501
40
57.1449508
50
252.420734
51
255.7901795
0
ARC
8
DEFAULT_255_2_778
10
66.5441883
20
90.6194147
40
55.8590583
50
248.9830171
51
252.42157
0
ARC
8
DEFAULT_255_2_778
10
66.0267903
20
89.2750291
40
54.418547
50
245.4934963
51
248.9838814
0
ARC
8
DEFAULT_255_2_778
10
65.3877263
20
87.8726283
40
52.8774011
50
242.1754742
51
245.4932606
0
ARC
8
DEFAULT_255_2_778
10
64.6072177
20
86.3973477
40
51.2083764
50
238.617325
51
242.1773287
0
ARC
8
DEFAULT_255_2_778
10
63.631479
20
84.8007088
40
49.337195
50
234.8609526
51
238.6191182
0
ARC
8
DEFAULT_255_2_778
10
62.4646525
20
83.1450824
40
47.3117121
50
230.9505974
51
234.862484
0
ARC
8
DEFAULT_255_2_778
10
61.1331252
20
81.5050084
40
45.1991763
50
226.9319971
51
230.951659
0
ARC
8
DEFAULT_255_2_778
10
59.6290768
20
79.8993226
40
42.9990892
50
222.5368114
51
226.9350686
0
ARC
8
DEFAULT_255_2_778
10
57.9682089
20
78.3770992
40
40.7461702
50
217.885968
51
222.5385166
0
ARC
8
DEFAULT_255_2_778
10
56.1727865
20
76.9842558
40
38.4738272
50
212.5799756
51
217.8908442
0
ARC
8
DEFAULT_255_2_778
10
54.2066555
20
75.7343034
40
36.1440159
50
206.1196468
51
212.5886218
0
ARC
8
DEFAULT_255_2_778
10
51.8911412
20
74.6233151
40
33.5758673
50
195.5435606
51
206.1569635
0
ARC
8
DEFAULT_255_2_778
10
50.1706312
20
74.1247561
40
31.7846882
50
185.4221855
51
195.5088087
0
ARC
8
DEFAULT_255_2_778
10
49.8483467
20
74.0820025
40
31.4598081
50
179.997515
51
185.4001332
0
ARC
8
DEFAULT_255_2_778
10
49.6834755
20
74.0847098
40
31.2949369
50
173.5370986
51
180.0024586
0
ARC
8
DEFAULT_255_2_778
10
50.8218125
20
73.8854106
40
32.448548
50
155.518181
51
173.4136704
0
ARC
8
DEFAULT_255_2_778
10
53.7625131
20
72.6356651
40
35.6428512
50
148.9657276
51
155.6487984
0
ARC
8
DEFAULT_255_2_778
10
55.8416868
20
71.3909928
40
38.0661021
50
143.4288152
51
148.9738717
0
ARC
8
DEFAULT_255_2_778
10
57.7963796
20
69.9452075
40
40.497379
50
138.5565627
51
143.4337841
0
ARC
8
DEFAULT_255_2_778
10
59.5745242
20
68.3797441
40
42.8664428
50
134.2479131
51
138.5611509
0
ARC
8
DEFAULT_255_2_778
10
61.1282513
20
66.7890492
40
45.0900366
50
130.4147629
51
134.251785
0
ARC
8
DEFAULT_255_2_778
10
62.5375774
20
65.1331712
40
47.2644633
50
126.4741324
51
130.4141423
0
ARC
8
DEFAULT_255_2_778
10
63.7926625
20
63.4392576
40
49.37268
50
122.8391286
51
126.4767809
0
ARC
8
DEFAULT_255_2_778
10
64.8732487
20
61.7647862
40
51.3655474
50
119.0848038
51
122.8389821
0
ARC
8
DEFAULT_255_2_778
10
65.7859384
20
60.1269353
40
53.240529
50
115.4588472
51
119.0863485
0
ARC
8
DEFAULT_255_2_778
10
66.4783618
20
58.6784207
40
54.8460315
50
112.2198339
51
115.4614826
0
ARC
8
DEFAULT_255_2_778
10
67.0156706
20
57.3619896
40
56.2678934
50
108.7135083
51
112.2194112
0
ARC
8
DEFAULT_255_2_778
10
67.4356522
20
56.1244076
40
57.5747956
50
105.1928513
51
108.7142227
0
ARC
8
DEFAULT_255_2_778
10
67.7268128
20
55.0572442
40
58.6809651
50
101.8710122
51
105.1941344
0
ARC
8
DEFAULT_255_2_778
10
67.9192194
20
54.14434
40
59.613925
50
98.5386067
51
101.8714917
0
ARC
8
DEFAULT_255_2_778
10
68.0393928
20
53.3486656
40
60.418623
50
95.3429246
51
98.5392733
0
ARC
8
DEFAULT_255_2_778
10
68.1070523
20
52.6246166
40
61.1458264
50
92.0051756
51
95.3428727
0
ARC
8
DEFAULT_255_2_778
10
68.1290129
20
52.0618123
40
61.7090545
50
89.9988619
51
92.0072691
0
ARC
8
DEFAULT_255_2_778
10
68.1329185
20
52.1273857
40
61.6434813
50
86.670924
51
90.0024908
0
ARC
8
DEFAULT_255_2_778
10
68.1678174
20
52.7225108
40
61.0473339
50
83.3657778
51
86.6711875
0
ARC
8
DEFAULT_255_2_778
10
68.2505511
20
53.4277213
40
60.3372874
50
79.9619746
51
83.3664486
0
ARC
8
DEFAULT_255_2_778
10
68.3917424
20
54.2278688
40
59.5247785
50
76.978375
51
79.9615539
0
ARC
8
DEFAULT_255_2_778
10
68.6101255
20
55.1651638
40
58.5623801
50
73.6530452
51
76.9799181
0
ARC
8
DEFAULT_255_2_778
10
68.9532173
20
56.3312246
40
57.3468929
50
70.2622862
51
73.6540751
0
ARC
8
DEFAULT_255_2_778
10
69.4421505
20
57.6907612
40
55.9021114
50
66.8208445
51
70.2633847
0
ARC
8
DEFAULT_255_2_778
10
70.0775361
20
59.1747278
40
54.2878401
50
63.5460747
51
66.8208404
0
ARC
8
DEFAULT_255_2_778
10
70.8828964
20
60.7888747
40
52.4839357
50
60.0287961
51
63.5482213
0
ARC
8
DEFAULT_255_2_778
10
71.9113144
20
62.5690328
40
50.4280651
50
56.3529948
51
60.0306031
0
ARC
8
DEFAULT_255_2_778
10
73.1056831
20
64.3642544
40
48.2718331
50
52.8182223
51
56.3525029
0
ARC
8
DEFAULT_255_2_778
10
74.4670177
20
66.1549768
40
46.022408
50
48.9526369
51
52.8211977
0
ARC
8
DEFAULT_255_2_778
10
76.046265
20
67.9659083
40
43.6195989
50
44.8235381
51
48.9550129
0
ARC
8
DEFAULT_255_2_778
10
77.8016316
20
69.7076595
40
41.1467454
50
40.3598329
51
44.8263391
0
ARC
8
DEFAULT_255_2_778
10
79.7040841
20
71.3213642
40
38.6520786
50
35.4410873
51
40.3633468
0
ARC
8
DEFAULT_255_2_778
10
81.6962946
20
72.7365177
40
36.2084017
50
29.9641548
51
35.4446816
0
ARC
8
DEFAULT_255_2_778
10
83.7936246
20
73.9376454
40
33.7914927
50
22.997039
51
29.975932
0
ARC
8
DEFAULT_255_2_778
10
86.5231078
20
75.0339931
40
30.8506629
50
6.0402413
51
23.1031754
0
ARC
8
DEFAULT_255_2_778
10
87.4389671
20
75.1861486
40
29.9239279
50
359.9970182
51
5.9350513
0
ARC
8
DEFAULT_255_2_778
10
87.3121057
20
75.1845897
40
30.0507893
50
359.4762762
51
0.0000031
0
ARC
8
DEFAULT_255_2_778
10
87.256356
20
75.1851015
40
30.1065413
50
358.7397124
51
359.4762719
0
ARC
8
DEFAULT_255_2_778
10
87.1906464
20
75.186576
40
30.1722673
50
358.1135734
51
358.7396575
0
ARC
8
DEFAULT_255_2_778
10
87.1414821
20
75.188244
40
30.2214599
50
357.9048363
51
358.1134811
0
LINE
8
DEFAULT_255_2_778
10
117.3427386
20
74.0833669
11
117.3427386
21
74.0833669
0
LINE
8
DEFAULT_255_2_778
10
98.2927675
20
73.8187997
11
89.2968675
21
73.8187997
0
LINE
8
DEFAULT_255_2_778
10
98.2927675
20
83.3437997
11
88.7677675
21
83.3437997
0
LINE
8
DEFAULT_255_2_778
10
88.7677675
20
83.3437997
11
88.7677675
21
64.2937997
0
LINE
8
DEFAULT_255_2_778
10
88.7677675
20
64.2937997
11
98.2927675
21
64.2937997
0
LINE
8
DEFAULT_255_2_778
10
65.7489675
20
64.2937997
11
65.7489675
21
83.3437997
0
LINE
8
DEFAULT_255_2_778
10
65.7489675
20
83.3437997
11
80.0364675
21
64.2937997
0
LINE
8
DEFAULT_255_2_778
10
80.0364675
20
64.2937997
11
80.0364675
21
83.3437997
0
LINE
8
DEFAULT_255_2_778
10
56.4885675
20
64.2937997
11
56.4885675
21
83.3437997
0
LINE
8
DEFAULT_255_2_778
10
39.0260675
20
83.3437997
11
39.0260675
21
64.2937997
0
LINE
8
DEFAULT_255_2_778
10
39.0260675
20
64.2937997
11
48.8156675
21
64.2937997
0
ENDSEC
0
EOF