0
SECTION
2
HEADER
9
$MEASUREMENT
70
1
0
ENDSEC
0
SECTION
2
TABLES
0
TABLE
2
LTYPE
0
LTYPE
72
65
70
64
2
CONTINUOUS
3
______
73
0
40
0
0
ENDTAB
0
TABLE
2
LAYER
0
LAYER
2
DEFAULT_255_2_778
70
0
62
255
6
CONTINUOUS
0
ENDTAB
0
ENDSEC
0
SECTION
2
ENTITIES
0
ARC
8
DEFAULT_255_2_778
10
4.2044799
20
5.1954907
40
0.5910433
50
0.0526668
51
89.9764374
0
ARC
8
DEFAULT_255_2_778
10
4.4119611
20
5.1956186
40
0.3835621
50
359.9793167
51
0.0620543
0
ARC
8
DEFAULT_255_2_778
10
4.205077
20
5.1958804
40
0.5904463
50
269.9850521
51
359.9611596
0
ARC
8
DEFAULT_255_2_778
10
4.204847
20
5.1958582
40
0.5904242
50
179.9829383
51
270.0073665
0
ARC
8
DEFAULT_255_2_778
10
4.2052324
20
5.1957252
40
0.5908095
50
90.078498
51
179.9700469
0
ARC
8
DEFAULT_255_2_778
10
6.9621963
20
3.3404797
40
0.785036
50
149.2116256
51
152.2227653
0
ARC
8
DEFAULT_255_2_778
10
7.0902078
20
3.2567524
40
0.9378853
50
130.3812631
51
148.8205246
0
ARC
8
DEFAULT_255_2_778
10
7.1767121
20
3.1596253
40
1.0679195
50
111.3671739
51
130.540547
0
ARC
8
DEFAULT_255_2_778
10
7.215882
20
3.0572835
40
1.1774985
50
94.4493569
51
111.327761
0
ARC
8
DEFAULT_255_2_778
10
7.2307576
20
2.9216398
40
1.3138944
50
89.9753454
51
94.6372098
0
ARC
8
DEFAULT_255_2_778
10
7.242324
20
2.3513112
40
1.8842549
50
80.9708857
51
90.3345176
0
ARC
8
DEFAULT_255_2_778
10
7.3502837
20
3.0092973
40
1.2174838
50
66.6741219
51
81.129013
0
ARC
8
DEFAULT_255_2_778
10
7.4606817
20
3.2882357
40
0.9176752
50
17.8045508
51
66.1075908
0
ARC
8
DEFAULT_255_2_778
10
6.5636993
20
2.9501704
40
1.8756713
50
6.3403227
51
19.2588142
0
ARC
8
DEFAULT_255_2_778
10
4.4866848
20
2.7052264
40
3.9670568
50
359.5567085
51
6.54358
0
ARC
8
DEFAULT_255_2_778
10
2.4691486
20
2.4972792
40
4.9664396
50
359.7064476
51
1.8658413
0
ARC
8
DEFAULT_255_2_778
10
4.8576882
20
2.5622397
40
2.5770832
50
2.1513823
51
2.7575454
0
ARC
8
DEFAULT_255_2_778
10
6.3107749
20
2.6704481
40
1.1211234
50
0.8061787
51
20.5027301
0
ARC
8
DEFAULT_255_2_778
10
6.9694709
20
2.9148169
40
0.4185654
50
20.751904
51
72.860064
0
ARC
8
DEFAULT_255_2_778
10
6.9157761
20
2.7231529
40
0.6175631
50
73.3401443
51
90.3035782
0
ARC
8
DEFAULT_255_2_778
10
6.9057869
20
2.4989669
40
0.8417671
50
89.5427866
51
89.9975438
0
ARC
8
DEFAULT_255_2_778
10
6.8955159
20
2.5886885
40
0.7521161
50
89.2147931
51
105.8780267
0
ARC
8
DEFAULT_255_2_778
10
6.83089
20
2.8376011
40
0.4950551
50
106.5655021
51
165.296695
0
ARC
8
DEFAULT_255_2_778
10
7.7108928
20
2.5682785
40
1.415086
50
163.7924926
51
180.3043934
0
ARC
8
DEFAULT_255_2_778
10
9.3097195
20
2.5004189
40
3.0144967
50
178.853024
51
180.0206207
0
ARC
8
DEFAULT_255_2_778
10
13.8954653
20
2.9110456
40
0.6376784
50
358.8847424
51
359.9988296
0
ARC
8
DEFAULT_255_2_778
10
13.9249689
20
2.9136887
40
0.6081805
50
359.7497712
51
85.3062336
0
ARC
8
DEFAULT_255_2_778
10
13.9082917
20
2.832606
40
0.6904281
50
84.4774885
51
90.022303
0
ARC
8
DEFAULT_255_2_778
10
13.8999155
20
2.7000296
40
0.8230444
50
89.4355963
51
109.380385
0
ARC
8
DEFAULT_255_2_778
10
13.844798
20
2.8599985
40
0.6538507
50
109.4758474
51
144.6426606
0
ARC
8
DEFAULT_255_2_778
10
13.8749286
20
2.8430243
40
0.6882558
50
144.941722
51
175.3655649
0
ARC
8
DEFAULT_255_2_778
10
14.0136861
20
2.5812854
40
1.789636
50
270.8840624
51
320.5206235
0
ARC
8
DEFAULT_255_2_778
10
14.0022005
20
2.5758212
40
1.7843872
50
270.0007201
51
271.2555255
0
ARC
8
DEFAULT_255_2_778
10
13.9930044
20
2.896209
40
2.1047952
50
252.1738603
51
270.2509436
0
ARC
8
DEFAULT_255_2_778
10
13.8657302
20
2.5354923
40
1.7224677
50
219.1228861
51
252.5310392
0
ARC
8
DEFAULT_255_2_778
10
13.7982146
20
2.4589184
40
1.6218592
50
193.2108139
51
218.529228
0
ARC
8
DEFAULT_255_2_778
10
14.0350417
20
2.5167168
40
1.8656291
50
179.8090605
51
193.2767078
0
ARC
8
DEFAULT_255_2_778
10
14.0079654
20
2.5313132
40
1.8385615
50
164.2381882
51
180.2611255
0
ARC
8
DEFAULT_255_2_778
10
13.7827343
20
2.5942629
40
1.6046999
50
133.3755042
51
164.2168085
0
ARC
8
DEFAULT_255_2_778
10
13.8918799
20
2.4605599
40
1.7768869
50
105.372909
51
132.9727715
0
ARC
8
DEFAULT_255_2_778
10
13.9949638
20
2.1237206
40
2.1290257
50
89.8046424
51
105.6447045
0
ARC
8
DEFAULT_255_2_778
10
14.0126685
20
2.5163373
40
1.7364282
50
75.0702955
51
90.3446669
0
ARC
8
DEFAULT_255_2_778
10
14.1070044
20
2.8599688
40
1.3800949
50
25.1996298
51
75.1790795
0
ARC
8
DEFAULT_255_2_778
10
13.6893455
20
2.6438506
40
1.8501076
50
10.394015
51
25.7484714
0
ARC
8
DEFAULT_255_2_778
10
13.1126122
20
2.53273
40
2.4374305
50
359.7697278
51
10.5173072
0
ARC
8
DEFAULT_255_2_778
10
14.0162265
20
2.3657637
40
0.8445722
50
191.0537524
51
219.4771924
0
ARC
8
DEFAULT_255_2_778
10
13.928394
20
2.3075766
40
0.7398635
50
220.3235004
51
265.8097298
0
ARC
8
DEFAULT_255_2_778
10
13.9541353
20
2.4631731
40
0.8970391
50
264.8961128
51
270.0311486
0
ARC
8
DEFAULT_255_2_778
10
13.9627737
20
2.3955537
40
0.8294597
50
269.436969
51
291.8992101
0
ARC
8
DEFAULT_255_2_778
10
13.8818419
20
2.5096837
40
0.9660875
50
293.8284916
51
325.805161
0
ARC
8
DEFAULT_255_2_778
10
17.6613595
20
2.4244686
40
0.9367227
50
89.3660936
51
109.4906362
0
ARC
8
DEFAULT_255_2_778
10
17.6012198
20
2.61894
40
0.7333752
50
110.130692
51
171.3196779
0
ARC
8
DEFAULT_255_2_778
10
17.9365878
20
2.5299955
40
1.078971
50
169.3379565
51
180.194433
0
ARC
8
DEFAULT_255_2_778
10
17.8458198
20
2.5148632
40
0.9882634
50
179.334951
51
200.4652078
0
ARC
8
DEFAULT_255_2_778
10
17.5963356
20
2.4217342
40
0.7219641
50
200.4634749
51
259.8698122
0
ARC
8
DEFAULT_255_2_778
10
17.6676299
20
2.6990133
40
1.0076876
50
258.6521774
51
270.2327268
0
ARC
8
DEFAULT_255_2_778
10
17.6820757
20
2.6304458
40
0.9391689
50
269.3684002
51
289.437714
0
ARC
8
DEFAULT_255_2_778
10
17.74345
20
2.4332445
40
0.7328241
50
290.0435654
51
351.1766261
0
ARC
8
DEFAULT_255_2_778
10
17.4078611
20
2.5225578
40
1.0787684
50
349.22274
51
0.2005626
0
ARC
8
DEFAULT_255_2_778
10
17.4948642
20
2.5378175
40
0.9918253
50
359.3366057
51
20.2056053
0
ARC
8
DEFAULT_255_2_778
10
17.7490664
20
2.6316084
40
0.7208727
50
20.1881194
51
79.9275314
0
ARC
8
DEFAULT_255_2_778
10
17.6758982
20
2.3473551
40
1.0137875
50
78.6656221
51
90.2359724
0
ARC
8
DEFAULT_255_2_778
10
17.8222545
20
1.7425705
40
0.781793
50
321.2823295
51
326.5056229
0
ARC
8
DEFAULT_255_2_778
10
17.7106932
20
1.8305813
40
0.9238873
50
318.5245129
51
321.3511917
0
ARC
8
DEFAULT_255_2_778
10
17.5150143
20
2.0140955
40
1.1920652
50
305.0226329
51
318.1449028
0
ARC
8
DEFAULT_255_2_778
10
17.4158529
20
2.1441445
40
1.3554903
50
287.8102846
51
305.3003691
0
ARC
8
DEFAULT_255_2_778
10
17.4586914
20
2.0058483
40
1.2107201
50
270.176591
51
287.8819675
0
ARC
8
DEFAULT_255_2_778
10
17.4529509
20
2.6002871
40
1.805178
50
254.4607684
51
270.3006409
0
ARC
8
DEFAULT_255_2_778
10
17.3640801
20
2.2934575
40
1.4857594
50
222.7649547
51
254.5927814
0
ARC
8
DEFAULT_255_2_778
10
17.4510836
20
2.354758
40
1.5913175
50
197.0647434
51
222.2583074
0
ARC
8
DEFAULT_255_2_778
10
17.8346833
20
2.4788389
40
1.9944496
50
181.7612633
51
197.2385443
0
ARC
8
DEFAULT_255_2_778
10
18.1178166
20
2.4988912
40
2.2780936
50
179.9938925
51
182.0464921
0
ARC
8
DEFAULT_255_2_778
10
17.9316188
20
2.5083234
40
2.091916
50
156.8399464
51
180.2516895
0
ARC
8
DEFAULT_255_2_778
10
17.4621846
20
2.7287554
40
1.573721
50
122.1551158
51
157.4967028
0
ARC
8
DEFAULT_255_2_778
10
17.3258565
20
2.8991033
40
1.357173
50
95.6126298
51
121.1099576
0
ARC
8
DEFAULT_255_2_778
10
17.3458924
20
2.7506902
40
1.506844
50
89.9646175
51
95.8188988
0
ARC
8
DEFAULT_255_2_778
10
17.3746055
20
2.5589805
40
1.6987807
50
71.4338281
51
90.9370811
0
ARC
8
DEFAULT_255_2_778
10
17.6070431
20
3.2452792
40
0.9741932
50
36.3744458
51
71.5410735
0
LINE
8
DEFAULT_255_2_778
10
3.227023
20
1.854834
11
3.227023
21
0.877234
0
LINE
8
DEFAULT_255_2_778
10
3.227023
20
0.877234
11
0.206323
21
0.877234
0
LINE
8
DEFAULT_255_2_778
10
0.206323
20
0.877234
11
0.206323
21
5.713734
0
LINE
8
DEFAULT_255_2_778
10
0.206323
20
5.713734
11
1.266023
21
5.713734
0
LINE
8
DEFAULT_255_2_778
10
1.266023
20
5.713734
11
1.266023
21
1.854834
0
LINE
8
DEFAULT_255_2_778
10
1.266023
20
1.854834
11
3.227023
21
1.854834
0
LINE
8
DEFAULT_255_2_778
10
3.695423
20
4.157234
11
4.714023
21
4.157234
0
LINE
8
DEFAULT_255_2_778
10
4.714023
20
4.157234
11
4.714023
21
0.877234
0
LINE
8
DEFAULT_255_2_778
10
4.714023
20
0.877234
11
3.695423
21
0.877234
0
LINE
8
DEFAULT_255_2_778
10
3.695423
20
0.877234
11
3.695423
21
4.157234
0
LINE
8
DEFAULT_255_2_778
10
11.141823
20
4.157534
11
12.388523
21
4.157534
0
LINE
8
DEFAULT_255_2_778
10
12.388523
20
4.157534
11
11.051823
21
2.641434
0
LINE
8
DEFAULT_255_2_778
10
11.051823
20
2.641434
11
12.360723
21
0.877734
0
LINE
8
DEFAULT_255_2_778
10
12.360723
20
0.877734
11
11.082323
21
0.877734
0
LINE
8
DEFAULT_255_2_778
10
11.082323
20
0.877734
11
10.001223
21
2.497734
0
LINE
8
DEFAULT_255_2_778
10
10.001223
20
2.497734
11
9.987923
21
2.497734
0
LINE
8
DEFAULT_255_2_778
10
9.987923
20
2.497734
11
9.987923
21
0.877434
0
LINE
8
DEFAULT_255_2_778
10
9.987923
20
0.877434
11
8.969823
21
0.877434
0
LINE
8
DEFAULT_255_2_778
10
8.969823
20
0.877434
11
8.969823
21
5.713734
0
LINE
8
DEFAULT_255_2_778
10
8.969823
20
5.713734
11
9.987923
21
5.713734
0
LINE
8
DEFAULT_255_2_778
10
9.987923
20
5.713734
11
9.987923
21
2.823234
0
LINE
8
DEFAULT_255_2_778
10
9.987923
20
2.823234
11
11.141823
21
4.157534
0
LINE
8
DEFAULT_255_2_778
10
5.277023
20
4.155634
11
6.254423
21
4.155634
0
LINE
8
DEFAULT_255_2_778
10
6.254423
20
4.155634
11
6.254423
21
3.706334
0
LINE
8
DEFAULT_255_2_778
10
6.254423
20
3.706334
11
6.267623
21
3.706334
0
LINE
8
DEFAULT_255_2_778
10
8.453623
20
2.674534
11
8.453623
21
0.877234
0
LINE
8
DEFAULT_255_2_778
10
8.453623
20
0.877234
11
7.435523
21
0.877234
0
LINE
8
DEFAULT_255_2_778
10
7.435523
20
0.877234
11
7.435523
21
2.471834
0
LINE
8
DEFAULT_255_2_778
10
6.295223
20
2.499334
11
6.295223
21
0.878534
0
LINE
8
DEFAULT_255_2_778
10
6.295223
20
0.878534
11
5.276523
21
0.878534
0
LINE
8
DEFAULT_255_2_778
10
5.276523
20
0.878534
11
5.276523
21
4.155334
0
LINE
8
DEFAULT_255_2_778
10
5.276523
20
4.155334
11
5.277023
21
4.155634
0
LINE
8
DEFAULT_255_2_778
10
13.188923
20
2.898634
11
14.533023
21
2.898634
0
LINE
8
DEFAULT_255_2_778
10
15.550023
20
2.522934
11
15.550023
21
2.203834
0
LINE
8
DEFAULT_255_2_778
10
15.550023
20
2.203834
11
13.187323
21
2.203834
0
LINE
8
DEFAULT_255_2_778
10
14.680923
20
1.966734
11
15.395023
21
1.443434
0
LINE
8
DEFAULT_255_2_778
10
19.424123
20
0.876634
11
18.487423
21
0.876634
0
LINE
8
DEFAULT_255_2_778
10
18.487423
20
0.876634
11
18.487423
21
1.311134
0
LINE
8
DEFAULT_255_2_778
10
18.487423
20
1.311134
11
18.474223
21
1.311134
0
LINE
8
DEFAULT_255_2_778
10
18.391423
20
3.823034
11
18.404623
21
3.823034
0
LINE
8
DEFAULT_255_2_778
10
18.404623
20
3.823034
11
18.404623
21
5.713734
0
LINE
8
DEFAULT_255_2_778
10
18.404623
20
5.713734
11
19.423223
21
5.713734
0
LINE
8
DEFAULT_255_2_778
10
19.423223
20
5.713734
11
19.424123
21
0.876634
0
ARC
8
DEFAULT_255_2_778
10
20.9434877
20
6.229048
40
0.5007846
50
89.2962614
51
179.3196012
0
ARC
8
DEFAULT_255_2_778
10
20.9442195
20
0.3634848
40
0.5015192
50
180.7071867
51
270.6190982
0
ARC
8
DEFAULT_255_2_778
10
26.8081231
20
0.3641222
40
0.5021619
50
269.3285555
51
359.2209845
0
ARC
8
DEFAULT_255_2_778
10
26.8082913
20
6.2273331
40
0.5019982
50
0.817431
51
90.6908614
0
LINE
8
DEFAULT_255_2_778
10
26.8022384
20
6.7297948
11
20.9496384
21
6.7297948
0
LINE
8
DEFAULT_255_2_778
10
20.4427384
20
6.2349948
11
20.4427384
21
0.3572948
0
LINE
8
DEFAULT_255_2_778
10
20.9496384
20
-0.1380052
11
26.8022384
21
-0.1380052
0
LINE
8
DEFAULT_255_2_778
10
27.3102384
20
0.3572948
11
27.3102384
21
6.2344948
0
LINE
8
DEFAULT_255_2_778
10
26.8022384
20
6.7292948
11
26.8022384
21
6.7297948
0
ARC
8
DEFAULT_255_2_778
10
21.97054
20
5.1940449
40
0.5899017
50
44.96955
51
90.0053354
0
ARC
8
DEFAULT_255_2_778
10
21.9708069
20
5.1940934
40
0.5896786
50
0.0103887
51
44.9845456
0
ARC
8
DEFAULT_255_2_778
10
21.8505124
20
5.1943887
40
0.7099732
50
359.9239701
51
359.9847936
0
ARC
8
DEFAULT_255_2_778
10
21.9690122
20
5.1940179
40
0.5914731
50
270.142676
51
359.9446577
0
ARC
8
DEFAULT_255_2_778
10
21.9693844
20
4.9871906
40
0.3846455
50
269.9453958
51
270.1639625
0
ARC
8
DEFAULT_255_2_778
10
21.9706292
20
5.1934868
40
0.5909442
50
180.0038961
51
269.8437609
0
ARC
8
DEFAULT_255_2_778
10
21.9703441
20
5.1932877
40
0.590659
50
89.9863194
51
179.9845792
0
ARC
8
DEFAULT_255_2_778
10
24.7974336
20
3.3471546
40
0.7772173
50
149.1671316
51
152.3325702
0
ARC
8
DEFAULT_255_2_778
10
24.9289008
20
3.2610481
40
0.9342594
50
130.2892275
51
148.7651188
0
ARC
8
DEFAULT_255_2_778
10
25.0183445
20
3.1603056
40
1.0689477
50
111.3202093
51
130.4544249
0
ARC
8
DEFAULT_255_2_778
10
25.0575919
20
3.0577915
40
1.1787159
50
94.4470023
51
111.2856665
0
ARC
8
DEFAULT_255_2_778
10
25.0722338
20
2.9240226
40
1.3132241
50
89.9759461
51
94.6313719
0
ARC
8
DEFAULT_255_2_778
10
25.0837819
20
2.3539887
40
1.88329
50
80.9660897
51
90.3345589
0
ARC
8
DEFAULT_255_2_778
10
25.1916907
20
3.0113379
40
1.2171557
50
66.6646405
51
81.1239761
0
ARC
8
DEFAULT_255_2_778
10
25.3018418
20
3.2896972
40
0.9179788
50
17.8018899
51
66.0953642
0
ARC
8
DEFAULT_255_2_778
10
24.4047656
20
2.9515962
40
1.876074
50
6.3415231
51
19.2573618
0
ARC
8
DEFAULT_255_2_778
10
22.3293938
20
2.7068088
40
3.9658098
50
359.5570059
51
6.5445854
0
ARC
8
DEFAULT_255_2_778
10
20.3102415
20
2.4987177
40
4.9671089
50
359.706189
51
1.8680269
0
ARC
8
DEFAULT_255_2_778
10
22.6997472
20
2.5637829
40
2.5767842
50
2.154001
51
2.7610364
0
ARC
8
DEFAULT_255_2_778
10
24.1517032
20
2.6720043
40
1.1219495
50
0.8121971
51
20.4903578
0
ARC
8
DEFAULT_255_2_778
10
24.8113641
20
2.916671
40
0.4183826
50
20.726889
51
72.8697086
0
ARC
8
DEFAULT_255_2_778
10
24.7579911
20
2.7257927
40
0.6165358
50
73.354552
51
90.3014984
0
ARC
8
DEFAULT_255_2_778
10
24.7481238
20
2.517845
40
0.8245016
50
89.539752
51
90.0026913
0
ARC
8
DEFAULT_255_2_778
10
24.7377927
20
2.5871259
40
0.7552908
50
89.2192031
51
105.7939079
0
ARC
8
DEFAULT_255_2_778
10
24.6709579
20
2.8411838
40
0.4926573
50
106.3564972
51
164.5731836
0
ARC
8
DEFAULT_255_2_778
10
25.5046827
20
2.5777161
40
1.3668074
50
163.223323
51
179.9409142
0
ARC
8
DEFAULT_255_2_778
10
27.0776034
20
2.502768
40
2.9407188
50
178.5121122
51
180.0335385
0
LINE
8
DEFAULT_255_2_778
10
21.4608851
20
4.1546466
11
22.4795851
21
4.1546466
0
LINE
8
DEFAULT_255_2_778
10
22.4795851
20
4.1546466
11
22.4795851
21
0.8772466
0
LINE
8
DEFAULT_255_2_778
10
22.4795851
20
0.8772466
11
21.4608851
21
0.8772466
0
LINE
8
DEFAULT_255_2_778
10
21.4608851
20
0.8772466
11
21.4608851
21
4.1546466
0
LINE
8
DEFAULT_255_2_778
10
23.1187851
20
4.1546466
11
24.0958851
21
4.1546466
0
LINE
8
DEFAULT_255_2_778
10
24.0958851
20
4.1546466
11
24.0958851
21
3.7080466
0
LINE
8
DEFAULT_255_2_778
10
24.0958851
20
3.7080466
11
24.1090851
21
3.7080466
0
LINE
8
DEFAULT_255_2_778
10
26.2950851
20
2.6761466
11
26.2950851
21
0.8783466
0
LINE
8
DEFAULT_255_2_778
10
26.2950851
20
0.8783466
11
25.2772851
21
0.8783466
0
LINE
8
DEFAULT_255_2_778
10
25.2772851
20
0.8783466
11
25.2772851
21
2.4732466
0
LINE
8
DEFAULT_255_2_778
10
24.1368851
20
2.5010466
11
24.1368851
21
0.8796466
0
LINE
8
DEFAULT_255_2_778
10
24.1368851
20
0.8796466
11
23.1192851
21
0.8796466
0
LINE
8
DEFAULT_255_2_778
10
23.1192851
20
0.8796466
11
23.1192851
21
4.1570466
0
LINE
8
DEFAULT_255_2_778
10
23.1192851
20
4.1570466
11
23.1187851
21
4.1546466
0
ENDSEC
0
EOF