0
SECTION
2
HEADER
9
$MEASUREMENT
70
1
0
ENDSEC
0
SECTION
2
TABLES
0
TABLE
2
LTYPE
0
LTYPE
72
65
70
64
2
CONTINUOUS
3
______
73
0
40
0
0
ENDTAB
0
TABLE
2
LAYER
0
LAYER
2
DEFAULT_255_2_778
70
0
62
255
6
CONTINUOUS
0
ENDTAB
0
ENDSEC
0
SECTION
2
ENTITIES
0
ARC
8
DEFAULT_255_2_778
10
8.3974628
20
7.6758941
40
7.9218175
50
234.9502993
51
252.4774062
0
ARC
8
DEFAULT_255_2_778
10
8.5231564
20
8.0532197
40
8.319481
50
252.434326
51
265.0052054
0
ARC
8
DEFAULT_255_2_778
10
8.5477699
20
8.2692482
40
8.5368338
50
264.9668728
51
268.4682166
0
ARC
8
DEFAULT_255_2_778
10
8.5046714
20
7.9266349
40
3.2107102
50
242.7738055
51
266.6949531
0
ARC
8
DEFAULT_255_2_778
10
8.2605262
20
7.3385919
40
2.5766439
50
234.582069
51
241.6188329
0
LINE
8
DEFAULT_255_2_778
10
6.7645677
20
5.238765
11
3.8480677
21
1.190665
0
LINE
8
DEFAULT_255_2_778
10
8.3195677
20
-0.264535
11
8.3195677
21
4.721265
0
LINE
8
DEFAULT_255_2_778
10
6.7672677
20
5.238765
11
6.7645677
21
5.238765
0
ARC
8
DEFAULT_255_2_778
10
8.5538972
20
8.2038833
40
8.4682052
50
91.6053024
51
103.6908109
0
ARC
8
DEFAULT_255_2_778
10
8.4655418
20
8.5477679
40
8.1131805
50
103.6593593
51
118.8621802
0
ARC
8
DEFAULT_255_2_778
10
8.3140692
20
8.8392847
40
7.7847627
50
118.9214968
51
125.0336565
0
ARC
8
DEFAULT_255_2_778
10
8.5104868
20
8.1745436
40
3.4645245
50
94.9929319
51
120.3109344
0
ARC
8
DEFAULT_255_2_778
10
8.7131017
20
6.8491928
40
4.8032592
50
94.7629836
51
96.0247685
0
LINE
8
DEFAULT_255_2_778
10
8.3166677
20
11.635865
11
8.3166677
21
16.668765
0
LINE
8
DEFAULT_255_2_778
10
3.8451677
20
15.213565
11
6.7619677
21
11.165465
0
LINE
8
DEFAULT_255_2_778
10
8.3142677
20
11.635865
11
8.3166677
21
11.635865
0
ARC
8
DEFAULT_255_2_778
10
8.737606
20
8.6801772
40
7.9702622
50
55.0568306
51
72.4704534
0
ARC
8
DEFAULT_255_2_778
10
8.6098945
20
8.3027753
40
8.3686085
50
72.4149398
51
85.3948533
0
ARC
8
DEFAULT_255_2_778
10
8.5926764
20
8.1485644
40
8.5237053
50
85.3627148
51
88.3568933
0
ARC
8
DEFAULT_255_2_778
10
8.5212422
20
8.1698053
40
3.5273284
50
61.7823353
51
84.8628017
0
ARC
8
DEFAULT_255_2_778
10
8.236482
20
7.5653244
40
4.1947577
50
59.1203829
51
62.2589469
0
LINE
8
DEFAULT_255_2_778
10
8.8370825
20
16.668765
11
8.8370825
21
11.682965
0
LINE
8
DEFAULT_255_2_778
10
10.3893825
20
11.165465
11
13.3026825
21
15.213565
0
ARC
8
DEFAULT_255_2_778
10
9.0371773
20
8.3477544
40
8.8725181
50
199.8860414
51
210.5778416
0
ARC
8
DEFAULT_255_2_778
10
8.1548381
20
7.8007863
40
7.8346617
50
210.416568
51
233.2924398
0
ARC
8
DEFAULT_255_2_778
10
8.3960562
20
8.1419404
40
3.2646114
50
207.6858427
51
232.0435881
0
ARC
8
DEFAULT_255_2_778
10
8.8305417
20
8.3954041
40
3.7671847
50
204.4217164
51
208.0291481
0
LINE
8
DEFAULT_255_2_778
10
5.3975184
20
6.8378632
11
0.6937184
21
5.3297632
0
LINE
8
DEFAULT_255_2_778
10
3.4718184
20
1.5197632
11
6.3881184
21
5.5678632
0
LINE
8
DEFAULT_255_2_778
10
5.4004184
20
6.8378632
11
5.3975184
21
6.8378632
0
ARC
8
DEFAULT_255_2_778
10
8.6496507
20
8.2373854
40
8.4231625
50
127.9309734
51
155.2061132
0
ARC
8
DEFAULT_255_2_778
10
9.3784804
20
7.8596824
40
9.2432771
50
154.9752218
51
159.9801998
0
ARC
8
DEFAULT_255_2_778
10
7.8942691
20
8.629582
40
2.6350468
50
143.5564229
51
161.3537409
0
ARC
8
DEFAULT_255_2_778
10
9.9935515
20
7.0518578
40
5.2610618
50
134.2354751
51
143.3152031
0
ARC
8
DEFAULT_255_2_778
10
15.5205641
20
1.6561424
40
12.9841481
50
135.006557
51
135.0999154
0
LINE
8
DEFAULT_255_2_778
10
6.3412343
20
10.8362708
11
3.4718343
21
14.8811708
0
LINE
8
DEFAULT_255_2_778
10
0.6937343
20
11.0240708
11
5.3975343
21
9.4720708
0
LINE
8
DEFAULT_255_2_778
10
6.3383343
20
10.8362708
11
6.3412343
21
10.8362708
0
ARC
8
DEFAULT_255_2_778
10
8.8195502
20
8.1584048
40
3.6546637
50
169.6146623
51
179.3151783
0
ARC
8
DEFAULT_255_2_778
10
12.1518885
20
7.6137771
40
7.0308896
50
168.6149499
51
170.1444194
0
ARC
8
DEFAULT_255_2_778
10
8.0613185
20
8.3075033
40
7.8355802
50
163.3172069
51
180.7708639
0
ARC
8
DEFAULT_255_2_778
10
10.0711369
20
8.1857184
40
9.8447029
50
179.9047428
51
184.0720389
0
ARC
8
DEFAULT_255_2_778
10
8.2570434
20
8.0575817
40
8.0260899
50
184.0792259
51
190.4903341
0
ARC
8
DEFAULT_255_2_778
10
8.1235226
20
8.0419583
40
7.8919615
50
190.5552955
51
194.9717153
0
ARC
8
DEFAULT_255_2_778
10
8.5978538
20
8.1655944
40
8.3821319
50
194.9505211
51
196.3706839
0
ARC
8
DEFAULT_255_2_778
10
6.8421889
20
7.8853896
40
1.6692186
50
191.4910823
51
198.5127788
0
ARC
8
DEFAULT_255_2_778
10
6.8737887
20
7.8908108
40
1.7012652
50
188.879014
51
191.4579896
0
ARC
8
DEFAULT_255_2_778
10
7.6873835
20
7.9920018
40
2.520859
50
180.4762363
51
188.2971782
0
ARC
8
DEFAULT_255_2_778
10
16.828292
20
8.160468
40
11.6632186
50
179.7955517
51
180.9305655
0
LINE
8
DEFAULT_255_2_778
10
5.2593476
20
9.0016857
11
0.5555476
21
10.5568857
0
LINE
8
DEFAULT_255_2_778
10
0.5555476
20
5.8030857
11
5.2593476
21
7.3553857
0
LINE
8
DEFAULT_255_2_778
10
5.1651476
20
8.2020857
11
5.1651476
21
8.2020857
0
ARC
8
DEFAULT_255_2_778
10
8.5488389
20
8.1165486
40
8.4226465
50
307.928251
51
335.2049519
0
ARC
8
DEFAULT_255_2_778
10
7.8210613
20
8.493736
40
9.2415903
50
334.9742875
51
339.9801942
0
ARC
8
DEFAULT_255_2_778
10
8.0506802
20
8.560136
40
4.1069334
50
312.2627531
51
335.927112
0
LINE
8
DEFAULT_255_2_778
10
10.8098224
20
5.5210242
11
13.7260224
21
1.4729242
0
LINE
8
DEFAULT_255_2_778
10
16.5042224
20
5.3299242
11
11.8004224
21
6.8849242
0
LINE
8
DEFAULT_255_2_778
10
10.8127224
20
5.5207242
11
10.8098224
21
5.5210242
0
ARC
8
DEFAULT_255_2_778
10
8.6441043
20
8.2006386
40
8.4684972
50
271.6052783
51
283.689842
0
ARC
8
DEFAULT_255_2_778
10
8.7328244
20
7.855292
40
8.1119657
50
283.6582845
51
298.863204
0
ARC
8
DEFAULT_255_2_778
10
8.8846691
20
7.5630481
40
7.7827315
50
298.922764
51
305.0366577
0
ARC
8
DEFAULT_255_2_778
10
8.5562327
20
8.2824569
40
3.5759736
50
275.2113604
51
301.6629665
0
LINE
8
DEFAULT_255_2_778
10
8.8813385
20
4.721265
11
8.8813385
21
-0.264535
0
LINE
8
DEFAULT_255_2_778
10
13.3527385
20
1.190665
11
10.4333385
21
5.238765
0
LINE
8
DEFAULT_255_2_778
10
8.8810385
20
4.721265
11
8.8813385
21
4.721265
0
ARC
8
DEFAULT_255_2_778
10
1.573747
20
7.2023918
40
10.5203094
50
7.5311364
51
9.8637712
0
ARC
8
DEFAULT_255_2_778
10
8.6232274
20
8.1335038
40
3.4096034
50
0.4097231
51
7.5455852
0
ARC
8
DEFAULT_255_2_778
10
8.3513964
20
8.202909
40
3.6816224
50
349.6516232
51
359.2993016
0
ARC
8
DEFAULT_255_2_778
10
4.6109555
20
8.8130156
40
7.4711598
50
348.7493827
51
350.201675
0
ARC
8
DEFAULT_255_2_778
10
9.2955755
20
8.0229077
40
7.6748036
50
343.1878367
51
359.8846724
0
ARC
8
DEFAULT_255_2_778
10
6.5633901
20
8.1574081
40
10.4080535
50
359.1745122
51
0.0026291
0
ARC
8
DEFAULT_255_2_778
10
7.4419621
20
8.1902853
40
9.5295365
50
359.8051991
51
6.7364453
0
ARC
8
DEFAULT_255_2_778
10
9.9279007
20
8.48865
40
7.0257628
50
6.6981313
51
17.1202922
0
LINE
8
DEFAULT_255_2_778
10
16.6423435
20
10.5568857
11
11.9385435
21
9.0045857
0
LINE
8
DEFAULT_255_2_778
10
11.9385435
20
7.3553857
11
16.6423435
21
5.8030857
0
LINE
8
DEFAULT_255_2_778
10
16.6423435
20
10.5568857
11
16.6423435
21
10.5568857
0
ARC
8
DEFAULT_255_2_778
10
8.1623998
20
8.0539831
40
8.8707869
50
19.886199
51
30.5800318
0
ARC
8
DEFAULT_255_2_778
10
9.0417224
20
8.5990636
40
7.8364865
50
30.4197468
51
53.290711
0
ARC
8
DEFAULT_255_2_778
10
8.2659061
20
7.8967221
40
3.8852348
50
24.6346748
51
49.0981543
0
LINE
8
DEFAULT_255_2_778
10
11.8004224
20
9.5191083
11
16.5042224
21
11.0714083
0
LINE
8
DEFAULT_255_2_778
10
13.7260224
20
14.8814083
11
10.8098224
21
10.8333083
0
LINE
8
DEFAULT_255_2_778
10
11.7975224
20
9.5162083
11
11.8004224
21
9.5191083
0
ENDSEC
0
EOF