0
SECTION
2
HEADER
9
$MEASUREMENT
70
1
0
ENDSEC
0
SECTION
2
TABLES
0
TABLE
2
LTYPE
0
LTYPE
72
65
70
64
2
CONTINUOUS
3
______
73
0
40
0
0
ENDTAB
0
TABLE
2
LAYER
0
LAYER
2
DEFAULT_255_2_778
70
0
62
255
6
CONTINUOUS
0
ENDTAB
0
ENDSEC
0
SECTION
2
ENTITIES
0
ARC
8
DEFAULT_255_2_778
10
10.1609017
20
2.2250407
40
5.0659948
50
116.0051742
51
118.2966664
0
ARC
8
DEFAULT_255_2_778
10
10.8158199
20
1.0064809
40
6.4493983
50
118.2879273
51
120.7629699
0
ARC
8
DEFAULT_255_2_778
10
10.921953
20
0.8122163
40
6.6706186
50
120.6928409
51
124.9351413
0
ARC
8
DEFAULT_255_2_778
10
10.3475554
20
1.6514573
40
5.6536884
50
125.0334303
51
125.1897179
0
ARC
8
DEFAULT_255_2_778
10
9.879454
20
2.306344
40
4.8487259
50
125.1288235
51
127.6685149
0
ARC
8
DEFAULT_255_2_778
10
8.9909646
20
3.4560152
40
3.3957439
50
127.6560776
51
130.4767861
0
ARC
8
DEFAULT_255_2_778
10
8.4463054
20
4.1000702
40
2.5522739
50
130.5615618
51
131.7225782
0
ARC
8
DEFAULT_255_2_778
10
5.3851141
20
4.3297156
40
2.1594716
50
50.8772991
51
51.2528875
0
ARC
8
DEFAULT_255_2_778
10
5.924154
20
5.0515343
40
1.2595278
50
49.825765
51
71.148621
0
ARC
8
DEFAULT_255_2_778
10
6.1000625
20
5.5121206
40
0.767012
50
72.467239
51
89.7652883
0
ARC
8
DEFAULT_255_2_778
10
6.0940892
20
5.5718051
40
0.7073798
50
89.2616642
51
101.2419569
0
ARC
8
DEFAULT_255_2_778
10
6.0087655
20
5.9769763
40
0.2933862
50
100.3245587
51
123.8260295
0
ARC
8
DEFAULT_255_2_778
10
5.9171718
20
6.1111469
40
0.1309463
50
123.2131977
51
176.3427327
0
ARC
8
DEFAULT_255_2_778
10
5.9187568
20
6.1124489
40
0.1324523
50
176.9485422
51
180.0098456
0
ARC
8
DEFAULT_255_2_778
10
5.8392462
20
6.1159081
40
0.0530561
50
183.7629171
51
241.9727614
0
ARC
8
DEFAULT_255_2_778
10
3.3477049
20
2.7265694
40
4.154095
50
53.4107398
51
53.5744258
0
ARC
8
DEFAULT_255_2_778
10
5.7835991
20
5.9954494
40
0.07779
50
3.8350756
51
58.8361025
0
ARC
8
DEFAULT_255_2_778
10
5.761345
20
5.9944952
40
0.1000595
50
359.9604155
51
3.5279272
0
ARC
8
DEFAULT_255_2_778
10
5.7810876
20
5.9998232
40
0.0804981
50
269.7273629
51
356.1556421
0
ARC
8
DEFAULT_255_2_778
10
5.789914
20
6.0324052
40
0.1134535
50
195.8225949
51
265.3439338
0
ARC
8
DEFAULT_255_2_778
10
5.883535
20
6.0754406
40
0.215846
50
179.3136683
51
200.0412136
0
ARC
8
DEFAULT_255_2_778
10
6.1735129
20
6.0702682
40
0.5058678
50
158.8180287
51
179.121285
0
ARC
8
DEFAULT_255_2_778
10
6.6058081
20
5.9103005
40
0.9667831
50
148.3072222
51
159.2353651
0
ARC
8
DEFAULT_255_2_778
10
7.331409
20
5.4706271
40
1.8151832
50
141.8404952
51
148.5312299
0
ARC
8
DEFAULT_255_2_778
10
8.387296
20
4.6500558
40
3.1524211
50
137.7233043
51
141.9708584
0
ARC
8
DEFAULT_255_2_778
10
5.8871638
20
7.783662
40
0.0987261
50
286.1377875
51
10.6019551
0
ARC
8
DEFAULT_255_2_778
10
5.8357944
20
8.2765703
40
0.1484321
50
0.986608
51
58.2032068
0
ARC
8
DEFAULT_255_2_778
10
0.9107985
20
18.5687978
40
11.2973521
50
296.2868464
51
297.5580507
0
ARC
8
DEFAULT_255_2_778
10
1.2468124
20
17.9221807
40
10.5686427
50
297.5649084
51
298.0280955
0
ARC
8
DEFAULT_255_2_778
10
2.3332611
20
15.9196789
40
8.2904924
50
297.9034032
51
301.3557368
0
ARC
8
DEFAULT_255_2_778
10
3.5741721
20
13.8504118
40
5.8777522
50
301.522071
51
302.1894053
0
ARC
8
DEFAULT_255_2_778
10
4.2627359
20
12.768074
40
4.5949711
50
302.1128054
51
304.7467976
0
ARC
8
DEFAULT_255_2_778
10
5.1936888
20
11.4287171
40
2.9638529
50
304.7163201
51
308.1493585
0
ARC
8
DEFAULT_255_2_778
10
5.7352525
20
10.7324722
40
2.0817967
50
308.2647456
51
310.0215206
0
ARC
8
DEFAULT_255_2_778
10
7.3271762
20
9.3722528
40
0.3447672
50
222.7496545
51
231.2173592
0
ARC
8
DEFAULT_255_2_778
10
7.4484301
20
9.5183969
40
0.5346485
50
230.8979132
51
235.0258183
0
ARC
8
DEFAULT_255_2_778
10
7.5805512
20
9.7157734
40
0.772129
50
235.3876609
51
248.5241065
0
ARC
8
DEFAULT_255_2_778
10
7.562976
20
9.6442165
40
0.699175
50
247.7174956
51
269.1090686
0
ARC
8
DEFAULT_255_2_778
10
7.5620486
20
9.4077992
40
0.46278
50
268.7687523
51
282.0258084
0
ARC
8
DEFAULT_255_2_778
10
7.6415565
20
9.0665016
40
0.1126036
50
278.6386697
51
322.1560906
0
ARC
8
DEFAULT_255_2_778
10
7.6397658
20
9.0515528
40
0.1056373
50
329.1721943
51
3.5131929
0
ARC
8
DEFAULT_255_2_778
10
7.6748184
20
9.0563301
40
0.0704065
50
1.3803189
51
35.6858722
0
ARC
8
DEFAULT_255_2_778
10
7.9734038
20
9.2548613
40
0.2882141
50
210.3060026
51
213.1156508
0
ARC
8
DEFAULT_255_2_778
10
7.7568235
20
9.1296093
40
0.0380441
50
182.0836621
51
212.0457281
0
ARC
8
DEFAULT_255_2_778
10
7.7748309
20
9.1362213
40
0.056594
50
86.7853785
51
188.1214914
0
ARC
8
DEFAULT_255_2_778
10
7.7772068
20
9.1061601
40
0.0865697
50
6.2631397
51
89.4720414
0
ARC
8
DEFAULT_255_2_778
10
7.6262094
20
9.0616469
40
0.2431138
50
359.2880483
51
12.8231877
0
ARC
8
DEFAULT_255_2_778
10
7.3558232
20
9.060019
40
0.5134832
50
346.8313589
51
359.8445774
0
ARC
8
DEFAULT_255_2_778
10
7.2993981
20
9.0739147
40
0.5715906
50
311.7269525
51
346.7636371
0
ARC
8
DEFAULT_255_2_778
10
7.2782827
20
9.1010119
40
0.6058723
50
285.2640272
51
311.5116758
0
ARC
8
DEFAULT_255_2_778
10
7.235133
20
9.2549531
40
0.7657436
50
269.623749
51
285.3463189
0
ARC
8
DEFAULT_255_2_778
10
7.2197787
20
9.4982337
40
1.0090605
50
257.1998351
51
270.5863251
0
ARC
8
DEFAULT_255_2_778
10
7.1344549
20
9.1323047
40
0.6333253
50
232.5967241
51
257.3926509
0
ARC
8
DEFAULT_255_2_778
10
7.1342982
20
9.1222374
40
0.6252616
50
220.0120612
51
232.0477695
0
ARC
8
DEFAULT_255_2_778
10
7.9789384
20
7.4599324
40
0.1049534
50
112.6004803
51
182.7340295
0
ARC
8
DEFAULT_255_2_778
10
7.9996662
20
6.9194841
40
0.1258797
50
175.926478
51
215.9255576
0
ARC
8
DEFAULT_255_2_778
10
7.9839583
20
6.919568
40
0.1135891
50
220.613919
51
246.4668785
0
ARC
8
DEFAULT_255_2_778
10
6.4441502
20
5.9328637
40
0.7885585
50
101.8639545
51
116.5562417
0
ARC
8
DEFAULT_255_2_778
10
6.5952724
20
5.2551624
40
1.4828769
50
93.2284266
51
102.1949474
0
ARC
8
DEFAULT_255_2_778
10
6.6518773
20
4.4773531
40
2.2626754
50
89.9182805
51
93.5503059
0
ARC
8
DEFAULT_255_2_778
10
6.6182516
20
5.8889448
40
0.8518788
50
45.1535357
51
87.520566
0
ARC
8
DEFAULT_255_2_778
10
6.8364784
20
3.6174201
40
3.3378014
50
112.4155341
51
114.6941074
0
ARC
8
DEFAULT_255_2_778
10
7.6387594
20
1.8721797
40
5.2586135
50
114.6919064
51
116.836806
0
ARC
8
DEFAULT_255_2_778
10
8.5644506
20
0.0377102
40
7.3134077
50
116.819709
51
118.9806733
0
ARC
8
DEFAULT_255_2_778
10
8.797404
20
-0.3952279
40
7.8050062
50
118.9367672
51
121.1436199
0
ARC
8
DEFAULT_255_2_778
10
7.9999563
20
0.9212192
40
6.2658662
50
121.1283705
51
123.0238345
0
ARC
8
DEFAULT_255_2_778
10
6.954397
20
2.5279914
40
4.3488608
50
123.0110355
51
125.0841169
0
ARC
8
DEFAULT_255_2_778
10
5.9847085
20
3.9052968
40
2.6644438
50
125.0441313
51
127.8256986
0
ARC
8
DEFAULT_255_2_778
10
5.5315825
20
4.4967657
40
1.9193757
50
127.9692801
51
128.2045545
0
ARC
8
DEFAULT_255_2_778
10
3.2677342
20
6.8588145
40
0.1339012
50
292.7449897
51
8.9423878
0
ARC
8
DEFAULT_255_2_778
10
2.8908115
20
6.8937815
40
0.5093931
50
358.4078564
51
0.027513
0
ARC
8
DEFAULT_255_2_778
10
2.976454
20
8.2320853
40
0.4239579
50
358.2077904
51
13.1600303
0
ARC
8
DEFAULT_255_2_778
10
3.2937235
20
8.3105973
40
0.0972371
50
10.6745333
51
80.9583662
0
ARC
8
DEFAULT_255_2_778
10
1.4750807
20
13.0543574
40
4.9664355
50
291.6702076
51
307.9338672
0
ARC
8
DEFAULT_255_2_778
10
7.2228836
20
12.5342125
40
4.3359903
50
231.576588
51
233.4810475
0
ARC
8
DEFAULT_255_2_778
10
9.1686985
20
15.1559359
40
7.600898
50
233.4537904
51
234.8008321
0
ARC
8
DEFAULT_255_2_778
10
11.5741211
20
18.5585595
40
11.7678984
50
234.7801052
51
235.7120348
0
ARC
8
DEFAULT_255_2_778
10
13.6109721
20
21.5365063
40
15.3757936
50
235.6924849
51
236.14923
0
ARC
8
DEFAULT_255_2_778
10
15.9221896
20
24.9931029
40
19.5338891
50
236.1667942
51
237.1029749
0
ARC
8
DEFAULT_255_2_778
10
16.9021678
20
26.4971074
40
21.3289809
50
237.0869498
51
237.4763933
0
ARC
8
DEFAULT_255_2_778
10
15.7843907
20
24.741736
40
19.2479349
50
237.4725408
51
237.8544446
0
ARC
8
DEFAULT_255_2_778
10
5.5981401
20
8.2976727
40
0.1270882
50
115.6613144
51
191.2743276
0
ARC
8
DEFAULT_255_2_778
10
5.620884
20
6.8648509
40
0.1474505
50
178.2218987
51
179.9952322
0
ARC
8
DEFAULT_255_2_778
10
5.6190293
20
6.8648476
40
0.1455958
50
179.9938719
51
248.1342035
0
ARC
8
DEFAULT_255_2_778
10
9.1598477
20
15.3057467
40
8.3345633
50
232.4195224
51
238.6864964
0
ARC
8
DEFAULT_255_2_778
10
2.4419216
20
4.086858
40
3.285872
50
57.7184513
51
60.8092177
0
ARC
8
DEFAULT_255_2_778
10
1.2185915
20
2.1386856
40
5.5862828
50
55.8053504
51
57.7824055
0
ARC
8
DEFAULT_255_2_778
10
-0.100719
20
0.1872332
40
7.941856
50
54.6748407
51
55.8449064
0
ARC
8
DEFAULT_255_2_778
10
-1.3879657
20
-1.6291832
40
10.1681472
50
53.5062067
51
54.6750507
0
ARC
8
DEFAULT_255_2_778
10
-2.2024701
20
-2.7350541
40
11.5415955
50
52.7095919
51
53.5206203
0
ARC
8
DEFAULT_255_2_778
10
-2.1643501
20
-2.6853704
40
11.4789732
50
52.6043755
51
52.7107209
0
ARC
8
DEFAULT_255_2_778
10
1.9786336
20
5.1471498
40
1.1257666
50
49.644146
51
68.1893963
0
ARC
8
DEFAULT_255_2_778
10
1.8797308
20
4.9026903
40
1.3894737
50
68.1483001
51
82.7184877
0
ARC
8
DEFAULT_255_2_778
10
1.8356082
20
4.6006224
40
1.6947066
50
82.5331723
51
90.101551
0
ARC
8
DEFAULT_255_2_778
10
1.8387947
20
2.3929325
40
3.9023986
50
90.0908856
51
93.5987879
0
ARC
8
DEFAULT_255_2_778
10
1.8849012
20
1.5822137
40
4.7144152
50
93.5395683
51
95.3269392
0
ARC
8
DEFAULT_255_2_778
10
1.9367335
20
1.0427312
40
5.25638
50
95.3435457
51
100.6637618
0
ARC
8
DEFAULT_255_2_778
10
1.7432805
20
2.0497191
40
4.2309868
50
100.6126563
51
104.1390042
0
ARC
8
DEFAULT_255_2_778
10
1.3610179
20
3.5585607
40
2.6744777
50
104.0938073
51
108.0251866
0
ARC
8
DEFAULT_255_2_778
10
0.9785982
20
4.7312679
40
1.4409924
50
107.9944059
51
112.6732097
0
ARC
8
DEFAULT_255_2_778
10
0.7427756
20
5.3026151
40
0.8229004
50
112.857167
51
116.1182694
0
ARC
8
DEFAULT_255_2_778
10
0.6108064
20
5.5707675
40
0.5240337
50
116.0695122
51
120.4589493
0
ARC
8
DEFAULT_255_2_778
10
0.53369
20
5.7039709
40
0.3701228
50
120.6214639
51
122.5585042
0
ARC
8
DEFAULT_255_2_778
10
-0.1569667
20
6.5711973
40
0.6388412
50
311.2683676
51
314.7267529
0
ARC
8
DEFAULT_255_2_778
10
-0.2150158
20
6.6308027
40
0.7220402
50
314.6709081
51
314.7725818
0
ARC
8
DEFAULT_255_2_778
10
-0.4180695
20
6.8165247
40
0.9969845
50
315.5396103
51
328.1118643
0
ARC
8
DEFAULT_255_2_778
10
-0.9648864
20
7.1655727
40
1.6456824
50
327.8504955
51
337.6373417
0
ARC
8
DEFAULT_255_2_778
10
-1.4374123
20
7.3640781
40
2.1582
50
337.5365735
51
347.5947173
0
ARC
8
DEFAULT_255_2_778
10
-1.637595
20
7.4119532
40
2.3639966
50
347.5037559
51
359.1845333
0
ARC
8
DEFAULT_255_2_778
10
-1.6335276
20
7.4121322
40
2.3599321
50
359.1787829
51
359.9998533
0
ARC
8
DEFAULT_255_2_778
10
-0.9059591
20
7.4136306
40
1.6323643
50
359.9471934
51
8.0141727
0
ARC
8
DEFAULT_255_2_778
10
-1.0560429
20
7.386409
40
1.7847879
50
8.2077936
51
16.9374271
0
ARC
8
DEFAULT_255_2_778
10
-3.2295587
20
6.6916973
40
4.0665336
50
17.3794685
51
21.9985336
0
ARC
8
DEFAULT_255_2_778
10
113.8601552
20
52.3004298
40
121.592689
50
201.2544123
51
201.2579192
0
ARC
8
DEFAULT_255_2_778
10
3.4771052
20
9.4359543
40
3.1797933
50
194.8173146
51
202.4456511
0
ARC
8
DEFAULT_255_2_778
10
1.9906078
20
9.0156641
40
1.6354528
50
184.9035897
51
193.9007906
0
ARC
8
DEFAULT_255_2_778
10
1.9767051
20
9.0121304
40
1.6213007
50
179.9754133
51
184.8211648
0
ARC
8
DEFAULT_255_2_778
10
2.1346704
20
9.0248584
40
1.7793066
50
169.3012637
51
180.387457
0
ARC
8
DEFAULT_255_2_778
10
1.5824633
20
9.1330944
40
1.2166112
50
148.3546007
51
169.4821121
0
ARC
8
DEFAULT_255_2_778
10
1.6627977
20
9.0535531
40
1.3269792
50
123.7976547
51
147.2506456
0
ARC
8
DEFAULT_255_2_778
10
2.2122984
20
8.2844289
40
2.2719756
50
116.4984045
51
124.5240881
0
ARC
8
DEFAULT_255_2_778
10
1.777416
20
9.6036521
40
0.8326304
50
128.1392426
51
176.317762
0
ARC
8
DEFAULT_255_2_778
10
3.0604385
20
11.6475236
40
1.6834189
50
226.0268228
51
228.601726
0
ARC
8
DEFAULT_255_2_778
10
2.8052357
20
11.3026421
40
1.2564838
50
226.931117
51
254.8394901
0
ARC
8
DEFAULT_255_2_778
10
2.6351413
20
10.8362931
40
0.7630499
50
258.0108044
51
258.1848975
0
ARC
8
DEFAULT_255_2_778
10
2.6035705
20
10.6719532
40
0.5957339
50
257.9206603
51
269.7243543
0
ARC
8
DEFAULT_255_2_778
10
2.6129554
20
10.9124103
40
0.8362739
50
269.1606245
51
279.6287098
0
ARC
8
DEFAULT_255_2_778
10
2.7210079
20
10.3201957
40
0.2344483
50
277.8016608
51
305.2276381
0
ARC
8
DEFAULT_255_2_778
10
2.8036319
20
10.1983278
40
0.0872838
50
307.0684573
51
0.9179405
0
ARC
8
DEFAULT_255_2_778
10
2.8131495
20
10.1985755
40
0.0777635
50
0.8478309
51
40.8130529
0
ARC
8
DEFAULT_255_2_778
10
3.1830212
20
10.4947501
40
0.3961408
50
215.6923182
51
218.2685453
0
ARC
8
DEFAULT_255_2_778
10
2.8917715
20
10.2874858
40
0.0387071
50
182.6056335
51
218.0499329
0
ARC
8
DEFAULT_255_2_778
10
2.9158855
20
10.287934
40
0.0628198
50
83.3094383
51
182.0141731
0
ARC
8
DEFAULT_255_2_778
10
2.90829
20
10.2540064
40
0.0974675
50
2.7313363
51
81.1980231
0
ARC
8
DEFAULT_255_2_778
10
2.813149
20
10.2214707
40
0.1960556
50
359.9285327
51
10.9318912
0
ARC
8
DEFAULT_255_2_778
10
2.3633817
20
10.2512726
40
0.6465213
50
300.3454071
51
357.3362708
0
ARC
8
DEFAULT_255_2_778
10
2.2608633
20
10.3546679
40
0.7883778
50
270.5480674
51
302.9798332
0
ARC
8
DEFAULT_255_2_778
10
2.2500875
20
10.8893194
40
1.3231201
50
259.889819
51
270.7932171
0
ARC
8
DEFAULT_255_2_778
10
2.1680281
20
10.369582
40
0.7971167
50
253.7973689
51
259.1386347
0
ARC
8
DEFAULT_255_2_778
10
2.0810358
20
5.3831999
40
1.5338593
50
78.910943
51
89.6238889
0
ARC
8
DEFAULT_255_2_778
10
1.9387911
20
4.6196805
40
2.3104933
50
74.397413
51
79.0910333
0
ARC
8
DEFAULT_255_2_778
10
1.7364827
20
3.8604395
40
3.0961843
50
74.3558722
51
74.5705221
0
ARC
8
DEFAULT_255_2_778
10
1.7224206
20
3.8096138
40
3.1489191
50
74.2700326
51
74.3588677
0
ARC
8
DEFAULT_255_2_778
10
1.6635593
20
3.6007153
40
3.3659519
50
74.1879492
51
74.2696274
0
ARC
8
DEFAULT_255_2_778
10
1.6709479
20
3.6268958
40
3.3387486
50
74.1065989
51
74.1875247
0
ARC
8
DEFAULT_255_2_778
10
1.7071675
20
3.7536983
40
3.2068747
50
74.0257701
51
74.1085707
0
ARC
8
DEFAULT_255_2_778
10
1.5957861
20
3.3641343
40
3.6120487
50
73.955582
51
74.027825
0
ARC
8
DEFAULT_255_2_778
10
1.5971862
20
3.368953
40
3.6070307
50
73.8847084
51
73.9558006
0
ARC
8
DEFAULT_255_2_778
10
1.6369673
20
3.5059916
40
3.464335
50
73.8149449
51
73.8876835
0
ARC
8
DEFAULT_255_2_778
10
1.4760254
20
2.9519342
40
4.0412941
50
73.7519013
51
73.813174
0
ARC
8
DEFAULT_255_2_778
10
1.5261057
20
3.1230153
40
3.863034
50
73.681597
51
73.7550468
0
ARC
8
DEFAULT_255_2_778
10
1.5387188
20
3.1656426
40
3.8185798
50
73.6107154
51
73.6835138
0
ARC
8
DEFAULT_255_2_778
10
1.4432159
20
2.8397091
40
4.1582168
50
73.5499573
51
73.6154524
0
ARC
8
DEFAULT_255_2_778
10
1.3651065
20
2.5752314
40
4.4339875
50
73.485275
51
73.5497305
0
ARC
8
DEFAULT_255_2_778
10
1.3777255
20
2.617835
40
4.3895542
50
73.421428
51
73.4851165
0
ARC
8
DEFAULT_255_2_778
10
1.0471594
20
1.5077395
40
5.5478228
50
73.369665
51
73.4205935
0
ARC
8
DEFAULT_255_2_778
10
1.1828331
20
1.9629926
40
5.0727832
50
73.3101678
51
73.3663572
0
ARC
8
DEFAULT_255_2_778
10
0.9092181
20
1.0510921
40
6.0248481
50
73.2620654
51
73.3082718
0
ARC
8
DEFAULT_255_2_778
10
0.9006413
20
1.023561
40
6.0536829
50
73.2144602
51
73.2593725
0
ARC
8
DEFAULT_255_2_778
10
0.8859954
20
0.9759507
40
6.1034941
50
73.1683974
51
73.2119018
0
ARC
8
DEFAULT_255_2_778
10
0.8626687
20
0.8973769
40
6.1854565
50
73.1304054
51
73.1723289
0
ARC
8
DEFAULT_255_2_778
10
0.8305791
20
0.7898663
40
6.2976528
50
73.0946533
51
73.1348657
0
ARC
8
DEFAULT_255_2_778
10
0.1106466
20
-1.5802463
40
8.7746947
50
73.0689956
51
73.0971799
0
ARC
8
DEFAULT_255_2_778
10
6.0405609
20
17.7578284
40
11.4521766
50
252.8625869
51
253.3187409
0
ARC
8
DEFAULT_255_2_778
10
2.9872281
20
7.5491295
40
0.7966647
50
252.9202449
51
257.8355607
0
ARC
8
DEFAULT_255_2_778
10
2.8525222
20
6.9220295
40
0.1552607
50
257.6658165
51
268.4433692
0
ARC
8
DEFAULT_255_2_778
10
2.8509978
20
6.9516577
40
0.1848512
50
269.165184
51
330.1490606
0
ARC
8
DEFAULT_255_2_778
10
2.6264904
20
7.1356656
40
0.4735839
50
324.3504861
51
324.9125247
0
ARC
8
DEFAULT_255_2_778
10
2.2968814
20
7.3546661
40
0.8692426
50
325.5891745
51
331.5748206
0
ARC
8
DEFAULT_255_2_778
10
-0.5891698
20
8.9413754
40
4.1626968
50
331.2771912
51
332.684163
0
ARC
8
DEFAULT_255_2_778
10
-176.6396932
20
100.78719
40
202.7311403
50
332.4537161
51
332.4583354
0
ARC
8
DEFAULT_255_2_778
10
2.2687236
20
10.5683051
40
1.0138026
50
221.3674004
51
245.1827267
0
ARC
8
DEFAULT_255_2_778
10
2.7167399
20
11.0148199
40
1.6455906
50
221.6455638
51
222.7259916
0
ARC
8
DEFAULT_255_2_778
10
2.829476
20
11.1151344
40
1.7964959
50
220.7006785
51
221.6470499
0
ARC
8
DEFAULT_255_2_778
10
3.0928211
20
9.5175198
40
2.1519175
50
179.9465822
51
186.4694679
0
ARC
8
DEFAULT_255_2_778
10
3.0727914
20
9.5179476
40
2.1320654
50
186.5415375
51
193.6719262
0
ARC
8
DEFAULT_255_2_778
10
3.7490064
20
9.6922585
40
2.8303364
50
193.8650534
51
199.9241168
0
ARC
8
DEFAULT_255_2_778
10
7.3685043
20
10.9836731
40
6.6732987
50
199.7582493
51
201.2207748
0
ARC
8
DEFAULT_255_2_778
10
-15.2706382
20
2.1778421
40
17.61813
50
20.6748819
51
21.2669802
0
ARC
8
DEFAULT_255_2_778
10
-0.8432704
20
7.5816943
40
2.2123167
50
9.7192442
51
21.6579443
0
ARC
8
DEFAULT_255_2_778
10
-0.1160753
20
7.7308418
40
1.4705797
50
0.0032832
51
8.7747227
0
ARC
8
DEFAULT_255_2_778
10
0.3561276
20
7.7313649
40
0.998377
50
355.979733
51
359.9748196
0
ARC
8
DEFAULT_255_2_778
10
-0.2695343
20
7.8474312
40
1.6322219
50
323.8483412
51
353.4544534
0
ARC
8
DEFAULT_255_2_778
10
-0.7789842
20
8.1421341
40
2.2183167
50
320.6929881
51
325.4648193
0
ARC
8
DEFAULT_255_2_778
10
-0.6499319
20
8.0362492
40
2.0513855
50
317.6398236
51
320.6979668
0
ARC
8
DEFAULT_255_2_778
10
-0.4350605
20
7.8394926
40
1.7600396
50
314.4043623
51
317.6596861
0
LINE
8
DEFAULT_255_2_778
10
0.7964705
20
6.5820861
11
0.7962045
21
6.5818261
0
ARC
8
DEFAULT_255_2_778
10
1.9600951
20
4.523175
40
2.3496489
50
107.3112149
51
119.085298
0
ARC
8
DEFAULT_255_2_778
10
2.3162046
20
3.4644494
40
3.4664713
50
102.1476773
51
107.7234807
0
ARC
8
DEFAULT_255_2_778
10
2.3576633
20
3.2967722
40
3.639122
50
98.8340137
51
102.2302684
0
ARC
8
DEFAULT_255_2_778
10
2.3064447
20
3.6162134
40
3.3156049
50
98.0278733
51
98.8071662
0
ARC
8
DEFAULT_255_2_778
10
27.1176057
20
0.627132
40
7.4979894
50
128.0211226
51
134.4645587
0
ARC
8
DEFAULT_255_2_778
10
21.2350875
20
6.6580183
40
0.1309839
50
292.6381422
51
352.2202852
0
ARC
8
DEFAULT_255_2_778
10
21.0847573
20
6.7016708
40
0.2867554
50
347.6395664
51
0.4306563
0
ARC
8
DEFAULT_255_2_778
10
21.087693
20
9.4335032
40
0.1854178
50
46.4666272
51
80.4032572
0
ARC
8
DEFAULT_255_2_778
10
21.144123
20
9.3889723
40
0.2287815
50
96.4041597
51
142.8722441
0
ARC
8
DEFAULT_255_2_778
10
21.6550945
20
8.874106
40
0.9524312
50
136.7196137
51
136.8877357
0
ARC
8
DEFAULT_255_2_778
10
17.0581324
20
14.6328971
40
6.3330927
50
307.2930779
51
315.0447879
0
ARC
8
DEFAULT_255_2_778
10
22.1812635
20
9.4893044
40
0.1592508
50
112.506381
51
162.94607
0
ARC
8
DEFAULT_255_2_778
10
22.259481
20
9.4483411
40
0.2465767
50
159.1736557
51
179.9337617
0
ARC
8
DEFAULT_255_2_778
10
22.2968301
20
6.7145062
40
0.1929839
50
228.5195877
51
270.0155435
0
ARC
8
DEFAULT_255_2_778
10
22.2968483
20
6.7290416
40
0.2075193
50
270.0094333
51
270.3468436
0
ARC
8
DEFAULT_255_2_778
10
22.294561
20
6.6712334
40
0.1497492
50
271.355904
51
292.9423517
0
ARC
8
DEFAULT_255_2_778
10
22.2526329
20
6.7735993
40
0.2603647
50
292.6582176
51
317.1787723
0
ARC
8
DEFAULT_255_2_778
10
19.858267
20
1.716689
40
6.0424511
50
127.1333879
51
135.1128134
0
ARC
8
DEFAULT_255_2_778
10
14.9570857
20
6.6449146
40
0.1224473
50
289.1256928
51
349.8436761
0
ARC
8
DEFAULT_255_2_778
10
14.7042661
20
6.7144903
40
0.3843182
50
346.2775566
51
1.1682737
0
ARC
8
DEFAULT_255_2_778
10
14.6110878
20
6.6718808
40
0.1450615
50
228.14958
51
271.1096244
0
ARC
8
DEFAULT_255_2_778
10
14.6124987
20
6.7241335
40
0.1972919
50
270.406094
51
289.0189229
0
ARC
8
DEFAULT_255_2_778
10
14.5888346
20
6.7883929
40
0.2657588
50
289.3275149
51
313.6588127
0
ARC
8
DEFAULT_255_2_778
10
16.7934398
20
3.8945041
40
3.2944001
50
126.6635437
51
128.9339299
0
ARC
8
DEFAULT_255_2_778
10
18.6582529
20
1.580405
40
6.2663652
50
128.9005499
51
130.704374
0
ARC
8
DEFAULT_255_2_778
10
19.8634421
20
0.1656348
40
8.1248573
50
130.6407946
51
131.1308501
0
ARC
8
DEFAULT_255_2_778
10
20.2019386
20
-0.2220627
40
8.6395312
50
131.1304434
51
131.7743776
0
ARC
8
DEFAULT_255_2_778
10
19.8951627
20
0.1176128
40
8.1818365
50
131.7569122
51
133.0444151
0
ARC
8
DEFAULT_255_2_778
10
18.2168648
20
1.9106262
40
5.7259109
50
133.0174642
51
134.4623525
0
ARC
8
DEFAULT_255_2_778
10
17.0551927
20
3.1011704
40
4.0625272
50
134.5301538
51
134.7938896
0
ARC
8
DEFAULT_255_2_778
10
13.5541131
20
6.6707979
40
0.1504355
50
293.0047759
51
4.4940137
0
ARC
8
DEFAULT_255_2_778
10
13.3998894
20
6.6910734
40
0.3043151
50
358.4016494
51
0.0099189
0
ARC
8
DEFAULT_255_2_778
10
13.2548043
20
8.1761408
40
0.4537282
50
49.7275655
51
56.7955986
0
ARC
8
DEFAULT_255_2_778
10
13.4540385
20
8.482373
40
0.0883963
50
56.1490999
51
88.2068877
0
ARC
8
DEFAULT_255_2_778
10
13.4679965
20
8.3261584
40
0.2448237
50
92.620153
51
134.1027455
0
ARC
8
DEFAULT_255_2_778
10
14.4815496
20
7.0463311
40
1.8763201
50
129.1231347
51
129.4192652
0
ARC
8
DEFAULT_255_2_778
10
11.6688378
20
10.7517383
40
2.6834653
50
305.4572737
51
308.1377392
0
ARC
8
DEFAULT_255_2_778
10
10.0396595
20
12.8320945
40
5.3258314
50
308.1018355
51
310.2948787
0
ARC
8
DEFAULT_255_2_778
10
8.399051
20
14.7758208
40
7.8693812
50
310.2532704
51
312.4505895
0
ARC
8
DEFAULT_255_2_778
10
8.4129082
20
14.7682626
40
7.8544531
50
312.4132168
51
313.9567628
0
ARC
8
DEFAULT_255_2_778
10
15.8703868
20
8.2469112
40
0.1524819
50
103.2628815
51
136.1468427
0
ARC
8
DEFAULT_255_2_778
10
15.8510783
20
8.2688311
40
0.1233957
50
137.2750547
51
154.2146054
0
ARC
8
DEFAULT_255_2_778
10
15.846135
20
8.2706874
40
0.118138
50
153.9823753
51
179.3507446
0
ARC
8
DEFAULT_255_2_778
10
15.9672498
20
6.6144585
40
0.086106
50
231.1222866
51
261.6013762
0
ARC
8
DEFAULT_255_2_778
10
15.9817369
20
6.6763508
40
0.1495442
50
259.5734764
51
270.1977822
0
ARC
8
DEFAULT_255_2_778
10
15.9788618
20
6.7367907
40
0.2100105
50
270.9252721
51
295.8729159
0
ARC
8
DEFAULT_255_2_778
10
15.9314157
20
6.8374505
40
0.3212875
50
295.6526256
51
314.100171
0
ARC
8
DEFAULT_255_2_778
10
28.9494421
20
2.1859889
40
5.083184
50
116.0102393
51
118.2949828
0
ARC
8
DEFAULT_255_2_778
10
29.5976649
20
0.9797278
40
6.4525846
50
118.2860252
51
120.7610336
0
ARC
8
DEFAULT_255_2_778
10
29.6845751
20
0.8171911
40
6.63671
50
120.6880992
51
124.9821893
0
ARC
8
DEFAULT_255_2_778
10
29.0630231
20
1.7227407
40
5.5384253
50
125.0847609
51
125.2453409
0
ARC
8
DEFAULT_255_2_778
10
28.6294293
20
2.3273544
40
4.7944294
50
125.1831815
51
127.7286078
0
ARC
8
DEFAULT_255_2_778
10
27.751966
20
3.4603481
40
3.3613851
50
127.7167135
51
130.5426008
0
ARC
8
DEFAULT_255_2_778
10
27.2144491
20
4.0944499
40
2.5301263
50
130.6264619
51
131.7888609
0
ARC
8
DEFAULT_255_2_778
10
24.1673817
20
4.3066144
40
2.1577078
50
50.8928563
51
51.2805211
0
ARC
8
DEFAULT_255_2_778
10
24.705478
20
5.0285579
40
1.2582516
50
49.8346438
51
71.2653476
0
ARC
8
DEFAULT_255_2_778
10
24.8808216
20
5.4896423
40
0.7654899
50
72.6097046
51
89.7692453
0
ARC
8
DEFAULT_255_2_778
10
24.8748157
20
5.5507671
40
0.7044176
50
89.2607172
51
101.2890672
0
ARC
8
DEFAULT_255_2_778
10
24.7896961
20
5.953309
40
0.2930384
50
100.3756475
51
123.909979
0
ARC
8
DEFAULT_255_2_778
10
24.6981624
20
6.0869697
40
0.1310529
50
123.299062
51
176.0353621
0
ARC
8
DEFAULT_255_2_778
10
24.6991401
20
6.0884391
40
0.1319356
50
176.7013365
51
180.0056499
0
ARC
8
DEFAULT_255_2_778
10
24.6208149
20
6.0917643
40
0.0537142
50
183.563042
51
242.2230503
0
ARC
8
DEFAULT_255_2_778
10
22.3258457
20
2.9495711
40
3.8379142
50
53.5736964
51
53.7399859
0
ARC
8
DEFAULT_255_2_778
10
24.5652374
20
5.9714944
40
0.0770497
50
3.8306355
51
59.144247
0
ARC
8
DEFAULT_255_2_778
10
24.5426209
20
5.9704962
40
0.0996837
50
359.9597069
51
3.5346225
0
ARC
8
DEFAULT_255_2_778
10
24.5619695
20
5.9757356
40
0.0805103
50
269.7402715
51
356.218726
0
ARC
8
DEFAULT_255_2_778
10
24.5708182
20
6.0082968
40
0.1134455
50
195.8007354
51
265.3414633
0
ARC
8
DEFAULT_255_2_778
10
24.6647464
20
6.0514313
40
0.2161575
50
179.3121788
51
200.0266943
0
ARC
8
DEFAULT_255_2_778
10
24.95433
20
6.0462336
40
0.5057856
50
158.8161095
51
179.1172283
0
ARC
8
DEFAULT_255_2_778
10
25.3885402
20
5.8855743
40
0.9687365
50
148.3263678
51
159.2362989
0
ARC
8
DEFAULT_255_2_778
10
26.1180255
20
5.4438854
40
1.8215031
50
141.8785494
51
148.5508842
0
ARC
8
DEFAULT_255_2_778
10
27.1806222
20
4.6192202
40
3.1665514
50
137.7763504
51
142.008934
0
ARC
8
DEFAULT_255_2_778
10
24.6697334
20
7.7609192
40
0.0986656
50
286.1058446
51
10.6338372
0
ARC
8
DEFAULT_255_2_778
10
24.6503261
20
8.2730016
40
0.1174427
50
352.280423
51
66.5275534
0
ARC
8
DEFAULT_255_2_778
10
19.536424
20
18.8519
40
11.6398379
50
296.31869
51
297.5476046
0
ARC
8
DEFAULT_255_2_778
10
19.9431585
20
18.0687946
40
10.7574071
50
297.5558765
51
298.0089955
0
ARC
8
DEFAULT_255_2_778
10
21.0980269
20
15.9373003
40
8.3332493
50
297.8808923
51
301.3001721
0
ARC
8
DEFAULT_255_2_778
10
22.3752281
20
13.8036088
40
5.8465925
50
301.4685842
51
302.184296
0
ARC
8
DEFAULT_255_2_778
10
23.0783268
20
12.6979728
40
4.5363521
50
302.1066284
51
304.7693317
0
ARC
8
DEFAULT_255_2_778
10
24.0051643
20
11.365673
40
2.9133774
50
304.7382784
51
308.2220774
0
ARC
8
DEFAULT_255_2_778
10
24.5412446
20
10.6781856
40
2.0416002
50
308.3399892
51
310.1263131
0
ARC
8
DEFAULT_255_2_778
10
26.1074467
20
9.3463336
40
0.3394957
50
222.4650918
51
231.0396736
0
ARC
8
DEFAULT_255_2_778
10
26.2239334
20
9.4856212
40
0.5210565
50
230.7101916
51
234.6396358
0
ARC
8
DEFAULT_255_2_778
10
26.3583264
20
9.6845725
40
0.7611026
50
235.0563335
51
248.4520417
0
ARC
8
DEFAULT_255_2_778
10
26.3459137
20
9.625714
40
0.701871
50
247.629777
51
269.1175805
0
ARC
8
DEFAULT_255_2_778
10
26.3450464
20
9.3867033
40
0.4628839
50
268.7692985
51
282.0254892
0
ARC
8
DEFAULT_255_2_778
10
26.4245495
20
9.0454162
40
0.1127187
50
278.6420755
51
322.1443207
0
ARC
8
DEFAULT_255_2_778
10
26.4227818
20
9.030452
40
0.1057212
50
329.1529167
51
3.510854
0
ARC
8
DEFAULT_255_2_778
10
26.4572498
20
9.0353895
40
0.0710713
50
1.2388953
51
35.5770943
0
ARC
8
DEFAULT_255_2_778
10
26.717126
20
9.2104468
40
0.2423031
50
209.71415
51
213.4921215
0
ARC
8
DEFAULT_255_2_778
10
26.5366381
20
9.108159
40
0.034852
50
181.8627382
51
210.7417779
0
ARC
8
DEFAULT_255_2_778
10
26.5578822
20
9.1150666
40
0.0566512
50
86.739273
51
188.1595585
0
ARC
8
DEFAULT_255_2_778
10
26.5606962
20
9.0851477
40
0.0864794
50
5.9045744
51
89.7295072
0
ARC
8
DEFAULT_255_2_778
10
26.4064191
20
9.0404399
40
0.2462039
50
359.2986306
51
12.5753003
0
ARC
8
DEFAULT_255_2_778
10
26.1992499
20
9.0396759
40
0.4533602
50
345.0609105
51
359.7156684
0
ARC
8
DEFAULT_255_2_778
10
26.061621
20
9.0823459
40
0.5973649
50
312.3045902
51
344.5095714
0
ARC
8
DEFAULT_255_2_778
10
26.0274591
20
9.1131124
40
0.6431286
50
282.1763415
51
312.7106067
0
ARC
8
DEFAULT_255_2_778
10
26.0152942
20
9.1667689
40
0.698144
50
269.8859536
51
282.2234444
0
ARC
8
DEFAULT_255_2_778
10
26.003569
20
9.478448
40
1.0098748
50
257.2108979
51
270.5864036
0
ARC
8
DEFAULT_255_2_778
10
25.9180906
20
9.1116043
40
0.633214
50
232.6077319
51
257.4056288
0
ARC
8
DEFAULT_255_2_778
10
25.9177014
20
9.101203
40
0.6247428
50
220.0119675
51
232.0568021
0
ARC
8
DEFAULT_255_2_778
10
26.7663381
20
7.4426279
40
0.1079752
50
113.6613023
51
181.5930883
0
ARC
8
DEFAULT_255_2_778
10
26.7944901
20
6.8979287
40
0.1364451
50
175.8402589
51
213.3605203
0
ARC
8
DEFAULT_255_2_778
10
26.743721
20
6.8723478
40
0.0802422
50
218.0443351
51
255.0382086
0
ARC
8
DEFAULT_255_2_778
10
25.224913
20
5.9087389
40
0.7883852
50
101.8727026
51
116.575767
0
ARC
8
DEFAULT_255_2_778
10
25.3759235
20
5.2319051
40
1.4818327
50
93.2288407
51
102.2025028
0
ARC
8
DEFAULT_255_2_778
10
25.4325688
20
4.453625
40
2.2621034
50
89.9180433
51
93.5510077
0
ARC
8
DEFAULT_255_2_778
10
25.3999443
20
5.8671531
40
0.8493304
50
45.0864746
51
87.5801556
0
ARC
8
DEFAULT_255_2_778
10
22.8362379
20
5.4859005
40
1.4079142
50
66.7752701
51
70.5692672
0
ARC
8
DEFAULT_255_2_778
10
22.0685479
20
3.675055
40
3.374759
50
64.7492415
51
66.9213778
0
ARC
8
DEFAULT_255_2_778
10
21.1076096
20
1.6232723
40
5.6404139
50
63.3658864
51
64.8115192
0
ARC
8
DEFAULT_255_2_778
10
20.6362596
20
0.6752197
40
6.6991693
50
62.6640031
51
63.3972739
0
ARC
8
DEFAULT_255_2_778
10
20.847554
20
1.0780136
40
6.2443284
50
61.2836358
51
62.6890786
0
ARC
8
DEFAULT_255_2_778
10
21.8999079
20
2.9959671
40
4.0566376
50
59.8967109
51
61.3033674
0
ARC
8
DEFAULT_255_2_778
10
22.6503334
20
4.2958971
40
2.5556566
50
59.1878522
51
59.8343111
0
ARC
8
DEFAULT_255_2_778
10
26.309538
20
6.3196733
40
2.0874845
50
166.7250712
51
166.9332027
0
ARC
8
DEFAULT_255_2_778
10
24.5410321
20
6.7681122
40
0.265007
50
134.6360979
51
173.3046174
0
ARC
8
DEFAULT_255_2_778
10
24.4186097
20
6.8660104
40
0.1108561
50
88.4519516
51
125.1183717
0
ARC
8
DEFAULT_255_2_778
10
24.42053
20
6.906348
40
0.0704863
50
0.8447639
51
89.1265134
0
ARC
8
DEFAULT_255_2_778
10
24.4089906
20
6.9017165
40
0.0822138
50
0.0067285
51
3.9551303
0
ARC
8
DEFAULT_255_2_778
10
24.3484893
20
6.9020246
40
0.1427155
50
314.2666373
51
359.8801679
0
ARC
8
DEFAULT_255_2_778
10
21.9188181
20
3.2961837
40
3.1867161
50
57.5902352
51
59.4748852
0
ARC
8
DEFAULT_255_2_778
10
20.4514587
20
0.8148472
40
6.0694524
50
59.4401221
51
60.7604436
0
ARC
8
DEFAULT_255_2_778
10
18.4066707
20
-2.8384751
40
10.2560886
50
60.7618873
51
62.0528749
0
ARC
8
DEFAULT_255_2_778
10
17.3131576
20
-4.8799498
40
12.5719728
50
62.0107747
51
62.1680672
0
ARC
8
DEFAULT_255_2_778
10
16.9474099
20
-5.5738617
40
13.3563738
50
62.1703622
51
62.6725642
0
ARC
8
DEFAULT_255_2_778
10
17.1454571
20
-5.1814199
40
12.9168117
50
62.653865
51
63.9212699
0
ARC
8
DEFAULT_255_2_778
10
18.8590434
20
-1.6818198
40
9.0202004
50
63.9256088
51
64.8488431
0
ARC
8
DEFAULT_255_2_778
10
20.461463
20
1.7382897
40
5.2433125
50
64.815192
51
66.1733949
0
ARC
8
DEFAULT_255_2_778
10
22.5084422
20
6.7012931
40
0.1519595
50
297.9238808
51
2.0489511
0
ARC
8
DEFAULT_255_2_778
10
22.4749858
20
8.2504986
40
0.1853187
50
0.0085039
51
2.9441281
0
ARC
8
DEFAULT_255_2_778
10
22.5206549
20
8.2641377
40
0.1394658
50
358.30687
51
62.2858221
0
ARC
8
DEFAULT_255_2_778
10
22.564874
20
8.3246381
40
0.0662626
50
71.8501769
51
81.8178584
0
ARC
8
DEFAULT_255_2_778
10
19.4129908
20
15.040161
40
7.3339619
50
295.5342963
51
297.396306
0
ARC
8
DEFAULT_255_2_778
10
17.3399691
20
19.041609
40
11.8405131
50
297.3928489
51
299.0633935
0
ARC
8
DEFAULT_255_2_778
10
15.6214222
20
22.1604442
40
15.4014694
50
299.0153803
51
299.6231521
0
ARC
8
DEFAULT_255_2_778
10
14.6605975
20
23.8489053
40
17.3441697
50
299.6252848
51
300.468277
0
ARC
8
DEFAULT_255_2_778
10
14.2949412
20
24.474129
40
18.0684664
50
300.4623666
51
301.1229729
0
ARC
8
DEFAULT_255_2_778
10
14.8394624
20
23.5746918
40
17.0170441
50
301.118782
51
301.7897483
0
ARC
8
DEFAULT_255_2_778
10
19.2852097
20
5.4921538
40
1.3998582
50
66.7839558
51
70.5992928
0
ARC
8
DEFAULT_255_2_778
10
18.5209311
20
3.6884924
40
3.3587572
50
64.7484356
51
66.9308467
0
ARC
8
DEFAULT_255_2_778
10
17.5609453
20
1.6387701
40
5.6221422
50
63.3606956
51
64.8110608
0
ARC
8
DEFAULT_255_2_778
10
17.085162
20
0.6820586
40
6.690625
50
62.6574157
51
63.3922581
0
ARC
8
DEFAULT_255_2_778
10
17.29209
20
1.0763424
40
6.2453487
50
61.277344
51
62.6822838
0
ARC
8
DEFAULT_255_2_778
10
18.3403697
20
2.9863438
40
4.0665892
50
59.8942245
51
61.297146
0
ARC
8
DEFAULT_255_2_778
10
19.0923114
20
4.2887623
40
2.5626948
50
59.1874139
51
59.8319577
0
ARC
8
DEFAULT_255_2_778
10
21.0157095
20
6.7554607
40
0.2961006
50
139.8143337
51
173.1793482
0
ARC
8
DEFAULT_255_2_778
10
20.8675434
20
6.857666
40
0.1182642
50
87.595758
51
131.2920075
0
ARC
8
DEFAULT_255_2_778
10
20.8710325
20
6.9098067
40
0.0660359
50
356.7341603
51
88.7227426
0
ARC
8
DEFAULT_255_2_778
10
20.8346036
20
6.9006247
40
0.102501
50
0.0007835
51
3.0310613
0
ARC
8
DEFAULT_255_2_778
10
20.7916154
20
6.901998
40
0.1454956
50
314.8377227
51
359.4597471
0
ARC
8
DEFAULT_255_2_778
10
14.877824
20
-2.5833435
40
10.0210219
50
58.7751273
51
65.5500652
0
ARC
8
DEFAULT_255_2_778
10
18.9542279
20
6.7055591
40
0.1520714
50
297.9502647
51
2.0225395
0
ARC
8
DEFAULT_255_2_778
10
18.9208858
20
8.2573986
40
0.1853187
50
0.0085039
51
2.9441281
0
ARC
8
DEFAULT_255_2_778
10
18.9665549
20
8.2710377
40
0.1394658
50
358.30687
51
62.2858221
0
ARC
8
DEFAULT_255_2_778
10
19.010774
20
8.3315381
40
0.0662626
50
71.8501769
51
81.8178584
0
ARC
8
DEFAULT_255_2_778
10
15.7717505
20
15.2655933
40
7.5687274
50
295.4164338
51
297.2139277
0
ARC
8
DEFAULT_255_2_778
10
13.7502134
20
19.1988168
40
11.9910412
50
297.2093639
51
298.8550307
0
ARC
8
DEFAULT_255_2_778
10
12.2140386
20
22.0110087
40
15.1954364
50
298.8109101
51
299.4257827
0
ARC
8
DEFAULT_255_2_778
10
11.5000126
20
23.2762304
40
16.6482333
50
299.4268613
51
300.3383258
0
ARC
8
DEFAULT_255_2_778
10
11.5122137
20
23.2587526
40
16.6269862
50
300.3324607
51
301.0456775
0
ARC
8
DEFAULT_255_2_778
10
12.3640751
20
21.8461532
40
14.9774095
50
301.0405888
51
301.796834
0
ARC
8
DEFAULT_255_2_778
10
15.474099
20
6.7700561
40
3.3668927
50
346.7801455
51
350.4166108
0
ARC
8
DEFAULT_255_2_778
10
16.4061252
20
6.5495183
40
2.4091315
50
341.9940441
51
346.8170116
0
ARC
8
DEFAULT_255_2_778
10
17.1002192
20
6.3222609
40
1.6787832
50
335.5094393
51
342.0476917
0
ARC
8
DEFAULT_255_2_778
10
17.5768343
20
6.1035287
40
1.1543761
50
326.4768396
51
335.5826546
0
ARC
8
DEFAULT_255_2_778
10
17.8645293
20
5.9112885
40
0.8083676
50
312.9536641
51
326.5744393
0
ARC
8
DEFAULT_255_2_778
10
17.9407079
20
5.8485787
40
0.7106808
50
271.6061472
51
311.9035446
0
ARC
8
DEFAULT_255_2_778
10
17.8824565
20
6.3496551
40
1.2139971
50
269.9349579
51
273.6919114
0
ARC
8
DEFAULT_255_2_778
10
17.8902251
20
6.9000639
40
1.7644289
50
263.6076824
51
269.7029796
0
ARC
8
DEFAULT_255_2_778
10
18.0876407
20
8.6691772
40
3.5445229
50
260.1253965
51
263.6202456
0
ARC
8
DEFAULT_255_2_778
10
20.1228459
20
20.4054737
40
15.4559754
50
259.2832845
51
260.1536866
0
ARC
8
DEFAULT_255_2_778
10
15.9703196
20
-1.4102323
40
6.7514502
50
79.0847147
51
82.1321974
0
ARC
8
DEFAULT_255_2_778
10
16.5211352
20
2.5320922
40
2.7708431
50
82.2557276
51
88.5323278
0
ARC
8
DEFAULT_255_2_778
10
16.584118
20
4.3884593
40
0.9136017
50
89.499126
51
102.2794038
0
ARC
8
DEFAULT_255_2_778
10
16.5102223
20
4.7197861
40
0.5741417
50
102.1058773
51
120.3986064
0
ARC
8
DEFAULT_255_2_778
10
16.4250381
20
4.8672801
40
0.4038216
50
120.5632318
51
140.3741237
0
ARC
8
DEFAULT_255_2_778
10
17.1609812
20
4.9637018
40
1.1385583
50
149.087495
51
168.8524671
0
ARC
8
DEFAULT_255_2_778
10
16.8739577
20
5.1430781
40
0.8001808
50
89.9540771
51
149.5489317
0
ARC
8
DEFAULT_255_2_778
10
16.8926897
20
4.967003
40
0.9764233
50
89.9991318
51
91.0616047
0
ARC
8
DEFAULT_255_2_778
10
16.8899075
20
4.755092
40
1.1883374
50
77.3062139
51
89.8651417
0
ARC
8
DEFAULT_255_2_778
10
16.5989887
20
3.6209849
40
2.3589054
50
67.7631415
51
76.4658019
0
ARC
8
DEFAULT_255_2_778
10
4.7436584
20
-27.2645951
40
35.441135
50
68.843888
51
68.9184875
0
ARC
8
DEFAULT_255_2_778
10
18.5046498
20
8.1213644
40
2.5270825
50
247.4300984
51
256.810407
0
ARC
8
DEFAULT_255_2_778
10
18.1997552
20
6.9307
40
1.2985025
50
257.9212162
51
269.1117973
0
ARC
8
DEFAULT_255_2_778
10
18.1976189
20
6.9047999
40
1.2725737
50
269.189894
51
269.9993509
0
ARC
8
DEFAULT_255_2_778
10
18.2080574
20
6.1746208
40
0.5424954
50
268.8959508
51
292.2149827
0
ARC
8
DEFAULT_255_2_778
10
18.2421297
20
6.060857
40
0.424449
50
293.763352
51
340.9794689
0
ARC
8
DEFAULT_255_2_778
10
18.4096336
20
6.6027653
40
0.707542
50
269.9432233
51
288.8388753
0
ARC
8
DEFAULT_255_2_778
10
18.4089325
20
6.5913739
40
0.6961501
50
269.8495512
51
269.9999993
0
ARC
8
DEFAULT_255_2_778
10
18.4024988
20
6.444836
40
0.5496292
50
198.3849637
51
270.4801293
0
ARC
8
DEFAULT_255_2_778
10
18.485492
20
6.4784069
40
0.6389999
50
188.9109688
51
198.8943864
0
ARC
8
DEFAULT_255_2_778
10
12.2772647
20
-2.063148
40
9.5150261
50
57.7878439
51
64.8682694
0
ARC
8
DEFAULT_255_2_778
10
16.2726653
20
6.7069211
40
0.1316585
50
290.28245
51
2.4399333
0
ARC
8
DEFAULT_255_2_778
10
16.2239762
20
8.2586673
40
0.1805975
50
356.3359976
51
33.1277394
0
ARC
8
DEFAULT_255_2_778
10
16.2901893
20
8.2921746
40
0.1071435
50
37.4768461
51
80.7539569
0
ARC
8
DEFAULT_255_2_778
10
14.9237466
20
12.0093982
40
3.8422584
50
291.1073071
51
294.6618121
0
ARC
8
DEFAULT_255_2_778
10
14.6267758
20
12.6700681
40
4.5665844
50
294.5891792
51
295.6134168
0
ARC
8
DEFAULT_255_2_778
10
14.1449456
20
13.6375146
40
5.6472783
50
295.778358
51
302.2902191
0
ARC
8
DEFAULT_255_2_778
10
14.1014818
20
13.7191804
40
5.7395377
50
302.2214964
51
303.0987813
0
ARC
8
DEFAULT_255_2_778
10
14.3495679
20
13.3420565
40
5.288134
50
303.0783269
51
305.1582403
0
ARC
8
DEFAULT_255_2_778
10
14.8947201
20
12.5698119
40
4.3428555
50
305.1449075
51
307.3398905
0
ARC
8
DEFAULT_255_2_778
10
15.2396536
20
12.1123134
40
3.7699054
50
307.3893179
51
307.5493996
0
ARC
8
DEFAULT_255_2_778
10
21.5412685
20
14.1904091
40
6.4580837
50
231.6832768
51
232.6557173
0
ARC
8
DEFAULT_255_2_778
10
23.1145721
20
16.2545294
40
9.0534402
50
232.6640558
51
233.8134503
0
ARC
8
DEFAULT_255_2_778
10
24.4135896
20
18.0253148
40
11.2496007
50
233.7985004
51
234.7906157
0
ARC
8
DEFAULT_255_2_778
10
24.6790186
20
18.3981117
40
11.7072322
50
234.781186
51
235.6108961
0
ARC
8
DEFAULT_255_2_778
10
23.6469641
20
16.8773431
40
9.8693501
50
235.5686762
51
237.332363
0
ARC
8
DEFAULT_255_2_778
10
21.6973499
20
13.8364491
40
6.2571442
50
237.3309732
51
239.0597349
0
ARC
8
DEFAULT_255_2_778
10
20.5769707
20
11.9749344
40
4.0844814
50
239.1139731
51
240.1953863
0
ARC
8
DEFAULT_255_2_778
10
18.5960368
20
8.2961056
40
0.1188929
50
114.4620197
51
168.6615248
0
ARC
8
DEFAULT_255_2_778
10
18.7278413
20
8.2568235
40
0.2561581
50
165.8416437
51
180.7375548
0
ARC
8
DEFAULT_255_2_778
10
19.1762229
20
6.5561154
40
0.7046699
50
178.8119333
51
192.4030779
0
ARC
8
DEFAULT_255_2_778
10
18.6645406
20
6.4255373
40
0.1777594
50
186.7120457
51
272.5097666
0
ARC
8
DEFAULT_255_2_778
10
18.6759948
20
6.548601
40
0.300675
50
269.3006084
51
270.0018522
0
ARC
8
DEFAULT_255_2_778
10
18.673851
20
5.0984338
40
1.1494943
50
89.3147213
51
89.8926611
0
ARC
8
DEFAULT_255_2_778
10
18.7014938
20
7.4318553
40
1.184091
50
269.3276454
51
269.9142286
0
ARC
8
DEFAULT_255_2_778
10
18.7051097
20
6.4906414
40
0.2429356
50
268.729041
51
282.2377602
0
ARC
8
DEFAULT_255_2_778
10
14.0660002
20
0.9777818
40
6.5765072
50
55.8720314
51
63.0544257
0
ARC
8
DEFAULT_255_2_778
10
11.5533809
20
7.5726551
40
2.2038875
50
321.6016054
51
330.5453077
0
ARC
8
DEFAULT_255_2_778
10
12.6468506
20
6.6952767
40
0.8020054
50
301.1042164
51
322.2037693
0
ARC
8
DEFAULT_255_2_778
10
12.8326624
20
6.4026873
40
0.4555615
50
270.0681856
51
300.1046991
0
ARC
8
DEFAULT_255_2_778
10
12.8230442
20
6.3785295
40
0.431523
50
203.9634409
51
271.3491733
0
ARC
8
DEFAULT_255_2_778
10
13.1005254
20
6.5440079
40
0.7532817
50
198.7698729
51
206.8942236
0
ARC
8
DEFAULT_255_2_778
10
10.3734892
20
5.8805784
40
0.8821531
50
68.8267077
51
84.6066927
0
ARC
8
DEFAULT_255_2_778
10
10.1496769
20
5.2343477
40
1.565792
50
67.8583736
51
69.7308961
0
ARC
8
DEFAULT_255_2_778
10
10.0225697
20
4.9182738
40
1.9064639
50
67.7587031
51
67.9002594
0
ARC
8
DEFAULT_255_2_778
10
9.9911876
20
4.8418767
40
1.9890553
50
67.6222549
51
67.7549485
0
ARC
8
DEFAULT_255_2_778
10
9.9756696
20
4.8043754
40
2.0296403
50
67.4930479
51
67.6202164
0
ARC
8
DEFAULT_255_2_778
10
9.9667
20
4.7827861
40
2.0530187
50
67.3694972
51
67.4924309
0
ARC
8
DEFAULT_255_2_778
10
9.943141
20
4.7261738
40
2.1143373
50
67.2538288
51
67.3705421
0
ARC
8
DEFAULT_255_2_778
10
9.8797681
20
4.575162
40
2.2781075
50
67.1465265
51
67.2524318
0
ARC
8
DEFAULT_255_2_778
10
9.7946627
20
4.3734359
40
2.4970513
50
67.050253
51
67.1447089
0
ARC
8
DEFAULT_255_2_778
10
9.8000652
20
4.3867069
40
2.4827242
50
66.9527757
51
67.045643
0
ARC
8
DEFAULT_255_2_778
10
9.7330464
20
4.2293032
40
2.6538017
50
66.8668247
51
66.951748
0
ARC
8
DEFAULT_255_2_778
10
9.7304782
20
4.2233084
40
2.6603235
50
66.7838826
51
66.8666838
0
ARC
8
DEFAULT_255_2_778
10
9.633311
20
3.9962491
40
2.9073
50
66.7139281
51
66.7879788
0
ARC
8
DEFAULT_255_2_778
10
9.6174525
20
3.9597412
40
2.9471032
50
66.6399259
51
66.7113173
0
ARC
8
DEFAULT_255_2_778
10
9.3494796
20
3.3395871
40
3.6226775
50
66.5814104
51
66.638166
0
ARC
8
DEFAULT_255_2_778
10
9.4090815
20
3.4772933
40
3.4726264
50
66.4941503
51
66.5807747
0
ARC
8
DEFAULT_255_2_778
10
9.2513154
20
3.1140622
40
3.8686402
50
66.4219839
51
66.4970751
0
ARC
8
DEFAULT_255_2_778
10
8.8875031
20
2.2800722
40
4.7785295
50
66.365128
51
66.4238303
0
ARC
8
DEFAULT_255_2_778
10
12.1072936
20
9.5680931
40
3.1891217
50
245.8639661
51
247.3948173
0
ARC
8
DEFAULT_255_2_778
10
10.9696861
20
6.8230318
40
0.2177321
50
246.0968371
51
259.020735
0
ARC
8
DEFAULT_255_2_778
10
10.9348285
20
6.6565622
40
0.0477371
50
262.040462
51
269.6110881
0
ARC
8
DEFAULT_255_2_778
10
10.9334743
20
6.7302607
40
0.1214389
50
270.4860791
51
305.676373
0
ARC
8
DEFAULT_255_2_778
10
10.8357274
20
6.8642179
40
0.287265
50
305.9311673
51
323.7590051
0
ARC
8
DEFAULT_255_2_778
10
10.425979
20
7.1830611
40
0.8063751
50
322.6986255
51
328.9899536
0
ARC
8
DEFAULT_255_2_778
10
10.1634108
20
5.3231002
40
0.881432
50
48.5659982
51
89.7858969
0
ARC
8
DEFAULT_255_2_778
10
10.1581146
20
4.575709
40
1.6288397
50
89.6978402
51
99.1403809
0
ARC
8
DEFAULT_255_2_778
10
10.0805392
20
5.0521974
40
1.1460789
50
99.0954754
51
112.056417
0
ARC
8
DEFAULT_255_2_778
10
10.014725
20
5.2239938
40
0.9621473
50
112.2657526
51
127.7332261
0
ARC
8
DEFAULT_255_2_778
10
10.2530545
20
5.8302167
40
0.9033425
50
124.9947195
51
168.7386192
0
ARC
8
DEFAULT_255_2_778
10
10.3293598
20
5.7128409
40
1.0432696
50
104.4746886
51
124.7308019
0
ARC
8
DEFAULT_255_2_778
10
10.4085614
20
5.4284971
40
1.3383962
50
93.8796398
51
104.7150726
0
ARC
8
DEFAULT_255_2_778
10
10.7037996
20
9.495745
40
0.563387
50
17.4005769
51
39.6895956
0
ARC
8
DEFAULT_255_2_778
10
10.8977258
20
9.6637635
40
0.3069047
50
38.6728112
51
89.051824
0
ARC
8
DEFAULT_255_2_778
10
10.8952036
20
9.610486
40
0.3602204
50
88.7909345
51
90.0008201
0
ARC
8
DEFAULT_255_2_778
10
10.8952028
20
9.6109329
40
0.3597735
50
90.0006797
51
137.7944138
0
ARC
8
DEFAULT_255_2_778
10
11.0830766
20
9.7954032
40
0.5041836
50
163.6335656
51
169.772322
0
ARC
8
DEFAULT_255_2_778
10
11.1610919
20
9.7687472
40
0.5865598
50
124.6444373
51
163.2826213
0
ARC
8
DEFAULT_255_2_778
10
11.1357255
20
9.8018882
40
0.5448784
50
90.7655616
51
124.431106
0
ARC
8
DEFAULT_255_2_778
10
11.1398015
20
9.7519316
40
0.5948947
50
89.9997072
51
91.0938055
0
ARC
8
DEFAULT_255_2_778
10
11.1465642
20
9.6743815
40
0.6724786
50
68.1700057
51
90.5759426
0
ARC
8
DEFAULT_255_2_778
10
11.174288
20
9.754432
40
0.587873
50
34.8159181
51
67.7770957
0
ARC
8
DEFAULT_255_2_778
10
11.1646359
20
9.7464105
40
0.600378
50
32.3906148
51
34.9184844
0
ARC
8
DEFAULT_255_2_778
10
12.0788737
20
9.9274172
40
0.4208531
50
127.9124835
51
160.4819102
0
ARC
8
DEFAULT_255_2_778
10
11.9304343
20
10.1115367
40
0.1844252
50
98.9306016
51
126.676594
0
ARC
8
DEFAULT_255_2_778
10
11.9693231
20
10.2033188
40
0.08215
50
128.9281391
51
144.9554129
0
ARC
8
DEFAULT_255_2_778
10
12.1427761
20
10.0897834
40
0.2894269
50
146.271406
51
164.9174472
0
ARC
8
DEFAULT_255_2_778
10
12.3594453
20
10.0202381
40
0.5168409
50
163.7234194
51
180.0124132
0
ARC
8
DEFAULT_255_2_778
10
12.3840425
20
10.0324743
40
0.5415788
50
181.3064744
51
199.9006543
0
ARC
8
DEFAULT_255_2_778
10
13.1601924
20
6.5547387
40
0.1628216
50
194.8438636
51
249.8839281
0
ARC
8
DEFAULT_255_2_778
10
13.1478527
20
6.53809
40
0.1430647
50
252.2318738
51
270.1809444
0
ARC
8
DEFAULT_255_2_778
10
13.1465881
20
6.5935924
40
0.1985737
50
270.4952538
51
320.7002715
0
ARC
8
DEFAULT_255_2_778
10
12.8376149
20
6.8968364
40
0.6309428
50
317.1594562
51
324.3695865
0
ARC
8
DEFAULT_255_2_778
10
12.33335
20
7.2713499
40
1.2590246
50
323.8853934
51
325.2564404
0
ARC
8
DEFAULT_255_2_778
10
20.519088
20
-5.2755295
40
7.3953495
50
128.1038157
51
134.5925609
0
ARC
8
DEFAULT_255_2_778
10
14.6985349
20
0.6792937
40
0.1445557
50
290.9853367
51
9.0549379
0
ARC
8
DEFAULT_255_2_778
10
14.2605115
20
0.7211862
40
0.5810931
50
358.1122503
51
0.0433768
0
ARC
8
DEFAULT_255_2_778
10
16.1510598
20
3.9328783
40
2.224658
50
231.4452746
51
233.9415906
0
ARC
8
DEFAULT_255_2_778
10
18.1560113
20
6.4630776
40
5.4529247
50
230.1485489
51
231.5406616
0
ARC
8
DEFAULT_255_2_778
10
20.8735313
20
9.7294263
40
9.7019154
50
229.3200833
51
230.1887733
0
ARC
8
DEFAULT_255_2_778
10
22.4687499
20
11.5937422
40
12.15556
50
229.1425632
51
229.3458539
0
ARC
8
DEFAULT_255_2_778
10
23.2359909
20
12.4793409
40
13.3272867
50
228.4199049
51
229.1384593
0
ARC
8
DEFAULT_255_2_778
10
21.9780354
20
11.0648682
40
11.434358
50
227.8706801
51
228.4311735
0
ARC
8
DEFAULT_255_2_778
10
20.0115108
20
8.8876386
40
8.5004967
50
227.6337518
51
227.8567934
0
ARC
8
DEFAULT_255_2_778
10
15.5724156
20
2.089776
40
2.0028527
50
228.3362884
51
229.0724347
0
ARC
8
DEFAULT_255_2_778
10
14.361545
20
0.6777672
40
0.14314
50
225.0046293
51
266.9803238
0
ARC
8
DEFAULT_255_2_778
10
14.3571477
20
0.7244297
40
0.1896296
50
269.0502625
51
295.2615496
0
ARC
8
DEFAULT_255_2_778
10
14.2816938
20
0.8647856
40
0.3488629
50
296.631595
51
310.7464662
0
ARC
8
DEFAULT_255_2_778
10
13.9823219
20
1.2430156
40
0.8310583
50
309.362644
51
310.378011
0
ARC
8
DEFAULT_255_2_778
10
17.674148
20
-3.6409389
40
5.205804
50
126.4714264
51
135.7376355
0
ARC
8
DEFAULT_255_2_778
10
13.3290729
20
0.6676674
40
0.1277942
50
286.7976827
51
3.2529015
0
ARC
8
DEFAULT_255_2_778
10
13.1196758
20
0.6957579
40
0.337629
50
356.461362
51
0.0794514
0
ARC
8
DEFAULT_255_2_778
10
13.234176
20
1.0240124
40
0.5726821
50
227.272544
51
234.7254587
0
ARC
8
DEFAULT_255_2_778
10
12.9758262
20
0.6574514
40
0.1242304
50
234.3695159
51
269.4826798
0
ARC
8
DEFAULT_255_2_778
10
12.9827372
20
0.7249755
40
0.1919176
50
267.6012004
51
290.1881569
0
ARC
8
DEFAULT_255_2_778
10
12.9680617
20
0.7329941
40
0.2048041
50
293.2688347
51
313.9280928
0
ARC
8
DEFAULT_255_2_778
10
12.793093
20
0.9331963
40
0.4705534
50
312.3599707
51
316.3382124
0
ARC
8
DEFAULT_255_2_778
10
11.9473641
20
0.6552466
40
0.120398
50
285.1375361
51
2.0976895
0
ARC
8
DEFAULT_255_2_778
10
11.6678522
20
0.703781
40
0.4022569
50
353.7019924
51
0.2770526
0
ARC
8
DEFAULT_255_2_778
10
11.7950951
20
2.3965662
40
0.1830091
50
46.9153879
51
84.4783602
0
ARC
8
DEFAULT_255_2_778
10
11.8249724
20
2.3779832
40
0.2011174
50
93.4971239
51
129.3516288
0
ARC
8
DEFAULT_255_2_778
10
12.0007442
20
2.1167608
40
0.515423
50
126.0464394
51
132.2930077
0
ARC
8
DEFAULT_255_2_778
10
10.5036823
20
4.1670609
40
1.9315687
50
304.3909998
51
308.0099011
0
ARC
8
DEFAULT_255_2_778
10
9.0198109
20
6.069059
40
4.3439261
50
307.9822394
51
310.6264746
0
ARC
8
DEFAULT_255_2_778
10
7.0552577
20
8.382905
40
7.3792532
50
310.5056212
51
311.518215
0
ARC
8
DEFAULT_255_2_778
10
5.6336973
20
9.992565
40
9.5267713
50
311.5026385
51
312.1080447
0
ARC
8
DEFAULT_255_2_778
10
4.2024163
20
11.5748021
40
11.6603221
50
312.1124794
51
312.8470186
0
ARC
8
DEFAULT_255_2_778
10
2.9812006
20
12.8934849
40
13.4576228
50
312.841058
51
313.4359846
0
ARC
8
DEFAULT_255_2_778
10
15.6329768
20
2.2644425
40
0.1489952
50
106.6024508
51
179.8515275
0
ARC
8
DEFAULT_255_2_778
10
15.7749554
20
2.240953
40
0.2919512
50
175.3091405
51
180.0837721
0
ARC
8
DEFAULT_255_2_778
10
16.7208753
20
1.8016065
40
1.632826
50
226.6976504
51
227.1564564
0
ARC
8
DEFAULT_255_2_778
10
15.7719449
20
0.743169
40
0.212848
50
220.6909405
51
261.5600136
0
ARC
8
DEFAULT_255_2_778
10
15.7323039
20
0.7483935
40
0.2159309
50
272.2296056
51
311.7441059
0
ARC
8
DEFAULT_255_2_778
10
15.4292988
20
1.1566474
40
0.7237287
50
308.1207692
51
311.3467649
0
ARC
8
DEFAULT_255_2_778
10
10.5524183
20
4.6421346
40
1.331451
50
303.3352079
51
312.5216577
0
ARC
8
DEFAULT_255_2_778
10
10.944726
20
4.0349967
40
0.6086465
50
284.9365697
51
303.8890314
0
ARC
8
DEFAULT_255_2_778
10
11.0055383
20
3.8323851
40
0.3972602
50
270.1393539
51
283.9940694
0
ARC
8
DEFAULT_255_2_778
10
11.0076548
20
3.7745702
40
0.339446
50
250.3058325
51
269.80584
0
ARC
8
DEFAULT_255_2_778
10
11.0820198
20
3.962734
40
0.5417043
50
232.1416933
51
249.607324
0
ARC
8
DEFAULT_255_2_778
10
11.3186701
20
4.2932651
40
0.9480391
50
229.2720215
51
233.1091853
0
ARC
8
DEFAULT_255_2_778
10
6.5230349
20
-1.2011994
40
6.3449452
50
48.8273453
51
48.9437736
0
ARC
8
DEFAULT_255_2_778
10
10.5618016
20
3.4659762
40
0.174072
50
42.3781406
51
85.1547627
0
ARC
8
DEFAULT_255_2_778
10
10.5801588
20
3.4391061
40
0.2003534
50
91.0450894
51
133.6527193
0
ARC
8
DEFAULT_255_2_778
10
10.7091707
20
3.2735459
40
0.4097328
50
130.7234187
51
134.810749
0
ARC
8
DEFAULT_255_2_778
10
11.4641461
20
4.0554319
40
0.2116069
50
228.3455971
51
268.2284909
0
ARC
8
DEFAULT_255_2_778
10
11.4467607
20
4.0529352
40
0.2092902
50
272.9699622
51
320.2212393
0
ARC
8
DEFAULT_255_2_778
10
10.5353631
20
0.6625386
40
0.1375318
50
289.1610872
51
7.2900654
0
ARC
8
DEFAULT_255_2_778
10
10.3780258
20
0.6835363
40
0.2937788
50
359.3084101
51
359.9980046
0
ARC
8
DEFAULT_255_2_778
10
10.05681
20
1.944395
40
0.749933
50
50.1248649
51
53.7478504
0
ARC
8
DEFAULT_255_2_778
10
10.4274254
20
2.4521027
40
0.121354
50
53.1079728
51
91.2847604
0
ARC
8
DEFAULT_255_2_778
10
10.4316535
20
2.3356553
40
0.2378723
50
91.6740324
51
136.8871791
0
ARC
8
DEFAULT_255_2_778
10
6.8335439
20
7.0971879
40
5.6423407
50
306.6171628
51
315.2075053
0
ARC
8
DEFAULT_255_2_778
10
11.4630169
20
2.4489076
40
0.1532993
50
107.2315062
51
179.9899514
0
ARC
8
DEFAULT_255_2_778
10
11.464109
20
2.4489356
40
0.1543915
50
180.0004051
51
183.4940792
0
ARC
8
DEFAULT_255_2_778
10
11.5943132
20
0.7232749
40
0.1954182
50
226.5841541
51
268.4726578
0
ARC
8
DEFAULT_255_2_778
10
11.5762944
20
0.74223
40
0.2146864
50
273.4208044
51
319.1785777
0
ARC
8
DEFAULT_255_2_778
10
11.4159831
20
0.9283079
40
0.459057
50
314.6784067
51
314.8799336
0
ARC
8
DEFAULT_255_2_778
10
22.5256984
20
-3.8435364
40
5.1228079
50
116.0149673
51
118.2802499
0
ARC
8
DEFAULT_255_2_778
10
23.1659981
20
-5.0358445
40
6.4761672
50
118.2711962
51
120.7346354
0
ARC
8
DEFAULT_255_2_778
10
23.2318928
20
-5.1637026
40
6.6197489
50
120.6592986
51
124.9878588
0
ARC
8
DEFAULT_255_2_778
10
22.6175424
20
-4.2678895
40
5.5335724
50
125.0949294
51
125.2564492
0
ARC
8
DEFAULT_255_2_778
10
22.1623753
20
-3.6328418
40
4.7522706
50
125.1948921
51
127.7474338
0
ARC
8
DEFAULT_255_2_778
10
21.2919336
20
-2.5096611
40
3.3312839
50
127.7357005
51
130.57095
0
ARC
8
DEFAULT_255_2_778
10
20.7610137
20
-1.8839212
40
2.5106693
50
130.6550933
51
131.8204125
0
ARC
8
DEFAULT_255_2_778
10
17.6508211
20
-1.7925229
40
2.2868069
50
51.098291
51
51.4766072
0
ARC
8
DEFAULT_255_2_778
10
18.2669409
20
-0.9624813
40
1.2541674
50
49.8795254
51
71.911099
0
ARC
8
DEFAULT_255_2_778
10
18.4397265
20
-0.4986765
40
0.759907
50
73.4371995
51
89.8056246
0
ARC
8
DEFAULT_255_2_778
10
18.4332329
20
-0.4461089
40
0.7073932
50
89.2652192
51
101.2228976
0
ARC
8
DEFAULT_255_2_778
10
18.3482255
20
-0.0417139
40
0.2942237
50
100.3122954
51
123.724807
0
ARC
8
DEFAULT_255_2_778
10
18.2564431
20
0.0931198
40
0.1311308
50
123.0797056
51
176.059683
0
ARC
8
DEFAULT_255_2_778
10
18.2575793
20
0.0945496
40
0.1321747
50
176.711859
51
180.0101829
0
ARC
8
DEFAULT_255_2_778
10
18.1790149
20
0.0978643
40
0.0537142
50
183.563042
51
242.2230503
0
ARC
8
DEFAULT_255_2_778
10
15.8840457
20
-3.0443289
40
3.8379142
50
53.5736964
51
53.7399859
0
ARC
8
DEFAULT_255_2_778
10
18.1234374
20
-0.0224056
40
0.0770497
50
3.8306355
51
59.144247
0
ARC
8
DEFAULT_255_2_778
10
18.1008209
20
-0.0234038
40
0.0996837
50
359.9597069
51
3.5346225
0
ARC
8
DEFAULT_255_2_778
10
18.1201004
20
-0.0180904
40
0.0805841
50
269.7895906
51
356.1694422
0
ARC
8
DEFAULT_255_2_778
10
18.1198343
20
-0.0099609
40
0.088713
50
269.59597
51
269.9807582
0
ARC
8
DEFAULT_255_2_778
10
18.1294623
20
0.0146386
40
0.1137733
50
196.3275296
51
264.829311
0
ARC
8
DEFAULT_255_2_778
10
18.2212702
20
0.057515
40
0.2144814
50
179.3024468
51
200.4282117
0
ARC
8
DEFAULT_255_2_778
10
18.5126129
20
0.0523682
40
0.5058678
50
158.8180287
51
179.121285
0
ARC
8
DEFAULT_255_2_778
10
18.9449081
20
-0.1075995
40
0.9667831
50
148.3072222
51
159.2353651
0
ARC
8
DEFAULT_255_2_778
10
19.670509
20
-0.5472729
40
1.8151832
50
141.8404952
51
148.5312299
0
ARC
8
DEFAULT_255_2_778
10
20.726396
20
-1.3678442
40
3.1524211
50
137.7233043
51
141.9708584
0
ARC
8
DEFAULT_255_2_778
10
18.2205704
20
1.7651957
40
0.1044637
50
288.4926554
51
10.4405431
0
ARC
8
DEFAULT_255_2_778
10
18.174989
20
2.2589872
40
0.1483356
50
0.9420899
51
58.1776376
0
ARC
8
DEFAULT_255_2_778
10
13.165487
20
12.715106
40
11.4818275
50
296.3025076
51
297.5597229
0
ARC
8
DEFAULT_255_2_778
10
13.5459301
20
11.9830381
40
10.6568073
50
297.5674337
51
298.0292533
0
ARC
8
DEFAULT_255_2_778
10
14.6711585
20
9.9084428
40
8.2967962
50
297.9025372
51
301.3348594
0
ARC
8
DEFAULT_255_2_778
10
15.926952
20
7.8127708
40
5.8537575
50
301.5032524
51
302.1817832
0
ARC
8
DEFAULT_255_2_778
10
16.6229182
20
6.7184868
40
4.5569243
50
302.1036243
51
304.7598843
0
ARC
8
DEFAULT_255_2_778
10
17.5353615
20
5.4054406
40
2.9579742
50
304.740548
51
308.0371258
0
ARC
8
DEFAULT_255_2_778
10
18.0772709
20
4.7071029
40
2.0740486
50
308.1333145
51
310.0960248
0
ARC
8
DEFAULT_255_2_778
10
19.6610924
20
3.3466114
40
0.335578
50
222.3547593
51
231.0005682
0
ARC
8
DEFAULT_255_2_778
10
19.7773389
20
3.485361
40
0.5165717
50
230.6651245
51
234.6172026
0
ARC
8
DEFAULT_255_2_778
10
19.9132837
20
3.6865452
40
0.7593355
50
235.0440543
51
248.4747732
0
ARC
8
DEFAULT_255_2_778
10
19.9020449
20
3.6303786
40
0.703036
50
247.64728
51
269.1164963
0
ARC
8
DEFAULT_255_2_778
10
19.9011523
20
3.389979
40
0.4626598
50
268.7679737
51
282.0285087
0
ARC
8
DEFAULT_255_2_778
10
19.9806575
20
3.0487628
40
0.1125632
50
278.6412533
51
322.1816834
0
ARC
8
DEFAULT_255_2_778
10
19.9786667
20
3.0339348
40
0.1058371
50
329.2012617
51
3.5163424
0
ARC
8
DEFAULT_255_2_778
10
20.0219174
20
3.0394622
40
0.0623945
50
0.8851653
51
37.970858
0
ARC
8
DEFAULT_255_2_778
10
20.9070838
20
3.6433356
40
1.009274
50
213.7476647
51
214.07574
0
ARC
8
DEFAULT_255_2_778
10
20.105334
20
3.1118008
40
0.0474628
50
182.1428298
51
217.8968003
0
ARC
8
DEFAULT_255_2_778
10
20.1138027
20
3.1181153
40
0.0564804
50
87.1565294
51
188.2342706
0
ARC
8
DEFAULT_255_2_778
10
20.1158068
20
3.0879601
40
0.0865697
50
6.2631397
51
89.4720414
0
ARC
8
DEFAULT_255_2_778
10
19.9648094
20
3.0434469
40
0.2431138
50
359.2880483
51
12.8231877
0
ARC
8
DEFAULT_255_2_778
10
19.746
20
3.0426313
40
0.4619098
50
345.1639911
51
359.7264634
0
ARC
8
DEFAULT_255_2_778
10
19.6181867
20
3.0815741
40
0.595454
50
312.3311062
51
344.6908138
0
ARC
8
DEFAULT_255_2_778
10
19.5868935
20
3.1108239
40
0.6381599
50
282.8366948
51
312.6396684
0
ARC
8
DEFAULT_255_2_778
10
19.5705175
20
3.1787899
40
0.7080662
50
269.8532927
51
282.9068098
0
ARC
8
DEFAULT_255_2_778
10
19.5583787
20
3.4797337
40
1.0090605
50
257.1998351
51
270.5863251
0
ARC
8
DEFAULT_255_2_778
10
19.4730549
20
3.1138047
40
0.6333253
50
232.5967241
51
257.3926509
0
ARC
8
DEFAULT_255_2_778
10
19.4728982
20
3.1037374
40
0.6252616
50
220.0120612
51
232.0477695
0
ARC
8
DEFAULT_255_2_778
10
20.3213541
20
1.4491994
40
0.1084837
50
113.841248
51
179.9695989
0
ARC
8
DEFAULT_255_2_778
10
20.3227632
20
1.4492676
40
0.1098929
50
180.005556
51
181.429523
0
ARC
8
DEFAULT_255_2_778
10
20.3378618
20
0.8957881
40
0.1252766
50
175.9086875
51
216.495169
0
ARC
8
DEFAULT_255_2_778
10
20.3226867
20
0.8957476
40
0.1134102
50
221.043242
51
246.5220634
0
ARC
8
DEFAULT_255_2_778
10
18.7830969
20
-0.0830327
40
0.7873241
50
101.8691403
51
116.5886798
0
ARC
8
DEFAULT_255_2_778
10
18.934386
20
-0.7609554
40
1.4818944
50
93.2296137
51
102.2024737
0
ARC
8
DEFAULT_255_2_778
10
18.9909775
20
-1.5382027
40
2.261131
50
89.9182292
51
93.5517666
0
ARC
8
DEFAULT_255_2_778
10
18.957148
20
-0.1286198
40
0.8523518
50
45.1658592
51
87.508245
0
ARC
8
DEFAULT_255_2_778
10
16.3566367
20
-0.5073655
40
1.4083209
50
66.7798997
51
70.5793677
0
ARC
8
DEFAULT_255_2_778
10
15.5868512
20
-2.3235798
40
3.3809266
50
64.754351
51
66.9262841
0
ARC
8
DEFAULT_255_2_778
10
14.6172075
20
-4.3943837
40
5.6674994
50
63.3755194
51
64.8166993
0
ARC
8
DEFAULT_255_2_778
10
14.1346289
20
-5.3653413
40
6.7517638
50
62.6832245
51
63.4070762
0
ARC
8
DEFAULT_255_2_778
10
14.3326293
20
-4.9878115
40
6.3254713
50
61.3187588
51
62.7073898
0
ARC
8
DEFAULT_255_2_778
10
15.3832857
20
-3.0701881
40
4.1388861
50
59.9574929
51
61.338241
0
ARC
8
DEFAULT_255_2_778
10
16.1429372
20
-1.7511696
40
2.61676
50
59.2643665
51
59.8970376
0
ARC
8
DEFAULT_255_2_778
10
18.031579
20
0.7855545
40
0.2349496
50
130.2673398
51
176.7618061
0
ARC
8
DEFAULT_255_2_778
10
17.9400145
20
0.8637848
40
0.1176678
50
88.7874287
51
120.8257054
0
ARC
8
DEFAULT_255_2_778
10
17.941403
20
0.9103281
40
0.0711065
50
1.4511164
51
89.1123828
0
ARC
8
DEFAULT_255_2_778
10
17.932322
20
0.9062128
40
0.0803826
50
0.0094617
51
4.2206563
0
ARC
8
DEFAULT_255_2_778
10
17.8731322
20
0.9114154
40
0.1396688
50
316.2209355
51
357.8707176
0
ARC
8
DEFAULT_255_2_778
10
17.8070344
20
0.9625042
40
0.222915
50
314.8349764
51
318.4949427
0
ARC
8
DEFAULT_255_2_778
10
15.4540113
20
-2.6731405
40
3.1593048
50
57.5687838
51
59.4653216
0
ARC
8
DEFAULT_255_2_778
10
14.0006764
20
-5.1297674
40
6.0136332
50
59.4303004
51
60.7598689
0
ARC
8
DEFAULT_255_2_778
10
11.9809536
20
-8.7382417
40
10.1488921
50
60.761364
51
62.0632988
0
ARC
8
DEFAULT_255_2_778
10
10.9034705
20
-10.7504555
40
12.4314137
50
62.0208707
51
62.1796414
0
ARC
8
DEFAULT_255_2_778
10
10.5454525
20
-11.4301155
40
13.1996027
50
62.1820783
51
62.6956014
0
ARC
8
DEFAULT_255_2_778
10
10.7584486
20
-11.0081229
40
12.7269231
50
62.6761936
51
63.962113
0
ARC
8
DEFAULT_255_2_778
10
12.4594331
20
-7.5281023
40
8.8534373
50
63.9668553
51
64.9070019
0
ARC
8
DEFAULT_255_2_778
10
14.0347934
20
-4.1567376
40
5.1321682
50
64.8726269
51
66.2591806
0
ARC
8
DEFAULT_255_2_778
10
16.0399827
20
0.7018351
40
0.1421708
50
295.417743
51
4.5551318
0
ARC
8
DEFAULT_255_2_778
10
15.9970422
20
2.2588019
40
0.1846624
50
0.0075011
51
3.1101754
0
ARC
8
DEFAULT_255_2_778
10
16.0427889
20
2.2726756
40
0.1386972
50
358.4074729
51
62.4756282
0
ARC
8
DEFAULT_255_2_778
10
16.0867211
20
2.3331075
40
0.0657353
50
72.1375116
51
82.1454
0
ARC
8
DEFAULT_255_2_778
10
13.0289796
20
8.8626921
40
7.1258375
50
295.4908494
51
297.4306448
0
ARC
8
DEFAULT_255_2_778
10
10.8462595
20
13.0665267
40
11.8625549
50
297.4340995
51
299.1993305
0
ARC
8
DEFAULT_255_2_778
10
8.9151667
20
16.5548594
40
15.8497081
50
299.1412142
51
299.6787952
0
ARC
8
DEFAULT_255_2_778
10
7.7274639
20
18.635944
40
18.2458611
50
299.6834159
51
300.4599931
0
ARC
8
DEFAULT_255_2_778
10
6.8774672
20
20.0851539
40
19.9259503
50
300.4543153
51
301.0524807
0
ARC
8
DEFAULT_255_2_778
10
6.8958727
20
20.0567311
40
19.8921067
50
301.049293
51
301.6238385
0
LINE
8
DEFAULT_255_2_778
10
6.0548045
20
6.7707261
11
6.5538045
21
7.3237261
0
LINE
8
DEFAULT_255_2_778
10
6.5538045
20
7.3237261
11
5.9146045
21
7.6518261
0
LINE
8
DEFAULT_255_2_778
10
5.9146045
20
7.6518261
11
5.9146045
21
7.6888261
0
LINE
8
DEFAULT_255_2_778
10
5.9842045
20
7.8018261
11
5.9842045
21
8.2791261
0
LINE
8
DEFAULT_255_2_778
10
5.9140045
20
8.4027261
11
5.9140045
21
8.4397261
0
LINE
8
DEFAULT_255_2_778
10
6.6554045
20
8.7202261
11
6.6289045
21
8.7043261
0
LINE
8
DEFAULT_255_2_778
10
6.6289045
20
8.7043261
11
6.6289045
21
8.0013261
0
LINE
8
DEFAULT_255_2_778
10
6.6289045
20
8.0013261
11
7.0205045
21
7.8135261
0
LINE
8
DEFAULT_255_2_778
10
7.0205045
20
7.8135261
11
7.1872045
21
7.9801261
0
LINE
8
DEFAULT_255_2_778
10
7.1872045
20
7.9801261
11
7.9386045
21
7.5997261
0
LINE
8
DEFAULT_255_2_778
10
7.9386045
20
7.5997261
11
7.9386045
21
7.5568261
0
LINE
8
DEFAULT_255_2_778
10
7.8741045
20
7.4549261
11
7.8741045
21
6.9284261
0
LINE
8
DEFAULT_255_2_778
10
7.9386045
20
6.8154261
11
7.9386045
21
6.7776261
0
LINE
8
DEFAULT_255_2_778
10
7.9386045
20
6.7776261
11
7.9397045
21
6.7781261
0
LINE
8
DEFAULT_255_2_778
10
7.2306045
20
6.4987261
11
7.2306045
21
7.2986261
0
LINE
8
DEFAULT_255_2_778
10
7.2306045
20
7.2986261
11
6.8597045
21
7.4705261
0
LINE
8
DEFAULT_255_2_778
10
6.8597045
20
7.4705261
11
6.0810045
21
6.6435261
0
LINE
8
DEFAULT_255_2_778
10
6.0810045
20
6.6435261
11
6.0916045
21
6.6382261
0
LINE
8
DEFAULT_255_2_778
10
7.2190045
20
6.4929261
11
7.2296045
21
6.4982261
0
LINE
8
DEFAULT_255_2_778
10
7.2296045
20
6.4982261
11
7.2306045
21
6.4987261
0
LINE
8
DEFAULT_255_2_778
10
4.3445045
20
6.0050261
11
3.3195045
21
6.6974261
0
LINE
8
DEFAULT_255_2_778
10
3.3195045
20
6.6974261
11
3.3195045
21
6.7353261
0
LINE
8
DEFAULT_255_2_778
10
3.4002045
20
6.8940261
11
3.4002045
21
8.2188261
0
LINE
8
DEFAULT_255_2_778
10
3.3090045
20
8.4066261
11
3.3090045
21
8.4389261
0
LINE
8
DEFAULT_255_2_778
10
5.5431045
20
8.4445261
11
5.5431045
21
8.4122261
0
LINE
8
DEFAULT_255_2_778
10
5.4735045
20
8.2728261
11
5.4735045
21
6.8694261
0
LINE
8
DEFAULT_255_2_778
10
5.5648045
20
6.7297261
11
5.5648045
21
6.6974261
0
LINE
8
DEFAULT_255_2_778
10
5.5648045
20
6.6974261
11
5.5637045
21
6.7030261
0
LINE
8
DEFAULT_255_2_778
10
4.8282045
20
6.4508261
11
4.8282045
21
8.1852261
0
LINE
8
DEFAULT_255_2_778
10
4.0768045
20
8.7006261
11
4.0445045
21
8.6794261
0
LINE
8
DEFAULT_255_2_778
10
4.0445045
20
8.6794261
11
4.0445045
21
6.9554261
0
LINE
8
DEFAULT_255_2_778
10
4.8070045
20
6.4342261
11
4.8282045
21
6.4501261
0
LINE
8
DEFAULT_255_2_778
10
4.8282045
20
6.4501261
11
4.8282045
21
6.4508261
0
LINE
8
DEFAULT_255_2_778
10
3.2230045
20
6.9932261
11
2.7076045
21
6.0050261
0
LINE
8
DEFAULT_255_2_778
10
0.3345045
20
6.0159261
11
0.2644045
21
6.0910261
0
LINE
8
DEFAULT_255_2_778
10
1.1986045
20
10.3177261
11
1.2632045
21
10.2585261
0
LINE
8
DEFAULT_255_2_778
10
0.9465045
20
9.6571261
11
1.8916045
21
10.4360261
0
LINE
8
DEFAULT_255_2_778
10
1.9456045
20
9.6041261
11
1.9456045
21
6.9065261
0
LINE
8
DEFAULT_255_2_778
10
1.9456045
20
6.9065261
11
2.0911045
21
6.9170261
0
LINE
8
DEFAULT_255_2_778
10
3.1169045
20
7.0456261
11
3.2246045
21
6.9922261
0
LINE
8
DEFAULT_255_2_778
10
3.2246045
20
6.9922261
11
3.2230045
21
6.9932261
0
LINE
8
DEFAULT_255_2_778
10
1.8432045
20
6.8964261
11
1.8432045
21
9.6481261
0
LINE
8
DEFAULT_255_2_778
10
1.4675045
20
9.9436261
11
0.9409045
21
9.5195261
0
LINE
8
DEFAULT_255_2_778
10
0.7962045
20
6.5818261
11
0.8179045
21
6.5765261
0
LINE
8
DEFAULT_255_2_778
10
1.8434045
20
6.8993261
11
1.8432045
21
6.8964261
0
LINE
8
DEFAULT_255_2_778
10
21.8655045
20
5.9783261
11
21.2855045
21
6.5048261
0
LINE
8
DEFAULT_255_2_778
10
21.2855045
20
6.5048261
11
21.2855045
21
6.5371261
0
LINE
8
DEFAULT_255_2_778
10
21.3715045
20
6.7038261
11
21.3715045
21
9.4499261
0
LINE
8
DEFAULT_255_2_778
10
21.3715045
20
9.4499261
11
21.2154045
21
9.5679261
0
LINE
8
DEFAULT_255_2_778
10
20.9598045
20
9.5250261
11
20.8953045
21
9.5946261
0
LINE
8
DEFAULT_255_2_778
10
21.5398045
20
10.1582261
11
22.1203045
21
9.6581261
0
LINE
8
DEFAULT_255_2_778
10
22.1203045
20
9.6581261
11
22.1203045
21
9.6364261
0
LINE
8
DEFAULT_255_2_778
10
22.0129045
20
9.4486261
11
22.0129045
21
6.7096261
0
LINE
8
DEFAULT_255_2_778
10
22.0129045
20
6.7096261
11
22.1690045
21
6.5699261
0
LINE
8
DEFAULT_255_2_778
10
22.4436045
20
6.5966261
11
22.5029045
21
6.5321261
0
LINE
8
DEFAULT_255_2_778
10
22.5029045
20
6.5321261
11
22.4992045
21
6.5339261
0
LINE
8
DEFAULT_255_2_778
10
15.5772045
20
5.9809261
11
14.9972045
21
6.4969261
0
LINE
8
DEFAULT_255_2_778
10
14.9972045
20
6.4969261
11
14.9972045
21
6.5292261
0
LINE
8
DEFAULT_255_2_778
10
15.0885045
20
6.7223261
11
15.0885045
21
8.1188261
0
LINE
8
DEFAULT_255_2_778
10
15.0885045
20
8.1188261
11
14.5302045
21
8.5969261
0
LINE
8
DEFAULT_255_2_778
10
14.5302045
20
8.5969261
11
14.3424045
21
8.4381261
0
LINE
8
DEFAULT_255_2_778
10
14.3424045
20
8.4381261
11
14.3424045
21
6.7141261
0
LINE
8
DEFAULT_255_2_778
10
14.3424045
20
6.7141261
11
14.5143045
21
6.5638261
0
LINE
8
DEFAULT_255_2_778
10
14.7723045
20
6.5961261
11
14.8263045
21
6.5371261
0
LINE
8
DEFAULT_255_2_778
10
14.1929045
20
5.9841261
11
13.6129045
21
6.5001261
0
LINE
8
DEFAULT_255_2_778
10
13.6129045
20
6.5001261
11
13.6129045
21
6.5323261
0
LINE
8
DEFAULT_255_2_778
10
13.7042045
20
6.6911261
11
13.7042045
21
8.4093261
0
LINE
8
DEFAULT_255_2_778
10
13.7042045
20
8.4093261
11
13.5481045
21
8.5223261
0
LINE
8
DEFAULT_255_2_778
10
13.2901045
20
8.4958261
11
13.2255045
21
8.5659261
0
LINE
8
DEFAULT_255_2_778
10
13.8648045
20
9.1141261
11
14.3749045
21
8.6360261
0
LINE
8
DEFAULT_255_2_778
10
14.3749045
20
8.6360261
11
14.9226045
21
9.1144261
0
LINE
8
DEFAULT_255_2_778
10
14.9226045
20
9.1144261
11
15.8354045
21
8.4217261
0
LINE
8
DEFAULT_255_2_778
10
15.8354045
20
8.4217261
11
15.8354045
21
8.3953261
0
LINE
8
DEFAULT_255_2_778
10
15.7280045
20
8.2720261
11
15.7280045
21
6.7141261
0
LINE
8
DEFAULT_255_2_778
10
15.7280045
20
6.7141261
11
15.9132045
21
6.5474261
0
LINE
8
DEFAULT_255_2_778
10
16.1550045
20
6.6067261
11
16.2143045
21
6.5371261
0
LINE
8
DEFAULT_255_2_778
10
16.2143045
20
6.5371261
11
16.2106045
21
6.5339261
0
LINE
8
DEFAULT_255_2_778
10
24.8357045
20
6.7472261
11
25.3358045
21
7.3002261
0
LINE
8
DEFAULT_255_2_778
10
25.3358045
20
7.3002261
11
24.6971045
21
7.6282261
0
LINE
8
DEFAULT_255_2_778
10
24.6971045
20
7.6282261
11
24.6971045
21
7.6661261
0
LINE
8
DEFAULT_255_2_778
10
24.7667045
20
7.7791261
11
24.7667045
21
8.2572261
0
LINE
8
DEFAULT_255_2_778
10
24.6971045
20
8.3807261
11
24.6971045
21
8.4186261
0
LINE
8
DEFAULT_255_2_778
10
25.4392045
20
8.6995261
11
25.4128045
21
8.6837261
0
LINE
8
DEFAULT_255_2_778
10
25.4128045
20
8.6837261
11
25.4128045
21
7.9807261
0
LINE
8
DEFAULT_255_2_778
10
25.4128045
20
7.9807261
11
25.8049045
21
7.7928261
0
LINE
8
DEFAULT_255_2_778
10
25.8049045
20
7.7928261
11
25.9716045
21
7.9595261
0
LINE
8
DEFAULT_255_2_778
10
25.9716045
20
7.9595261
11
26.7230045
21
7.5785261
0
LINE
8
DEFAULT_255_2_778
10
26.7230045
20
7.5785261
11
26.7230045
21
7.5415261
0
LINE
8
DEFAULT_255_2_778
10
26.6584045
20
7.4396261
11
26.6584045
21
6.9078261
0
LINE
8
DEFAULT_255_2_778
10
26.7230045
20
6.7948261
11
26.7230045
21
6.7567261
0
LINE
8
DEFAULT_255_2_778
10
26.7230045
20
6.7567261
11
26.7203045
21
6.7543261
0
LINE
8
DEFAULT_255_2_778
10
26.0113045
20
6.4749261
11
26.0113045
21
7.2742261
0
LINE
8
DEFAULT_255_2_778
10
26.0113045
20
7.2742261
11
25.6403045
21
7.4462261
0
LINE
8
DEFAULT_255_2_778
10
25.6403045
20
7.4462261
11
24.8617045
21
6.6191261
0
LINE
8
DEFAULT_255_2_778
10
24.8617045
20
6.6191261
11
24.8722045
21
6.6138261
0
LINE
8
DEFAULT_255_2_778
10
25.9996045
20
6.4686261
11
26.0110045
21
6.4739261
0
LINE
8
DEFAULT_255_2_778
10
26.0110045
20
6.4739261
11
26.0113045
21
6.4749261
0
LINE
8
DEFAULT_255_2_778
10
24.5561045
20
8.0974261
11
23.3046045
21
7.3078261
0
LINE
8
DEFAULT_255_2_778
10
23.3046045
20
7.3078261
11
23.3046045
21
6.8136261
0
LINE
8
DEFAULT_255_2_778
10
23.9594045
20
6.4908261
11
24.2761045
21
6.7916261
0
LINE
8
DEFAULT_255_2_778
10
24.4481045
20
6.7998261
11
23.6268045
21
5.9865261
0
LINE
8
DEFAULT_255_2_778
10
22.5796045
20
6.5347261
11
22.5796045
21
6.5670261
0
LINE
8
DEFAULT_255_2_778
10
22.6603045
20
6.7067261
11
22.6603045
21
8.2505261
0
LINE
8
DEFAULT_255_2_778
10
22.5743045
20
8.3902261
11
22.5743045
21
8.4225261
0
LINE
8
DEFAULT_255_2_778
10
23.8041045
20
9.1104261
11
24.5555045
21
8.0955261
0
LINE
8
DEFAULT_255_2_778
10
24.5555045
20
8.0955261
11
24.5561045
21
8.0974261
0
LINE
8
DEFAULT_255_2_778
10
23.9496045
20
7.8555261
11
23.3160045
21
8.7146261
0
LINE
8
DEFAULT_255_2_778
10
23.3160045
20
8.7146261
11
23.3054045
21
8.7093261
0
LINE
8
DEFAULT_255_2_778
10
23.3054045
20
8.7093261
11
23.3054045
21
7.4420261
0
LINE
8
DEFAULT_255_2_778
10
23.3054045
20
7.4420261
11
23.9499045
21
7.8553261
0
LINE
8
DEFAULT_255_2_778
10
23.9499045
20
7.8553261
11
23.9496045
21
7.8555261
0
LINE
8
DEFAULT_255_2_778
10
21.0069045
20
8.0971261
11
19.7502045
21
7.3068261
0
LINE
8
DEFAULT_255_2_778
10
19.7502045
20
7.3068261
11
19.7502045
21
6.8125261
0
LINE
8
DEFAULT_255_2_778
10
20.4050045
20
6.4897261
11
20.7217045
21
6.7906261
0
LINE
8
DEFAULT_255_2_778
10
20.8942045
20
6.7988261
11
20.0727045
21
5.9860261
0
LINE
8
DEFAULT_255_2_778
10
19.0255045
20
6.5390261
11
19.0255045
21
6.5712261
0
LINE
8
DEFAULT_255_2_778
10
19.1062045
20
6.7109261
11
19.1062045
21
8.2574261
0
LINE
8
DEFAULT_255_2_778
10
19.0202045
20
8.3971261
11
19.0202045
21
8.4294261
0
LINE
8
DEFAULT_255_2_778
10
20.2558045
20
9.1165261
11
21.0072045
21
8.1016261
0
LINE
8
DEFAULT_255_2_778
10
21.0072045
20
8.1016261
11
21.0069045
21
8.0971261
0
LINE
8
DEFAULT_255_2_778
10
20.3947045
20
7.8553261
11
19.7613045
21
8.7144261
0
LINE
8
DEFAULT_255_2_778
10
19.7613045
20
8.7144261
11
19.7507045
21
8.7091261
0
LINE
8
DEFAULT_255_2_778
10
19.7507045
20
8.7091261
11
19.7507045
21
7.4417261
0
LINE
8
DEFAULT_255_2_778
10
19.7507045
20
7.4417261
11
20.3947045
21
7.8553261
0
LINE
8
DEFAULT_255_2_778
10
16.1140045
20
5.1248261
11
16.0439045
21
5.1838261
0
LINE
8
DEFAULT_255_2_778
10
18.6434045
20
5.9225261
11
18.6381045
21
5.9331261
0
LINE
8
DEFAULT_255_2_778
10
17.8542045
20
6.3794261
11
17.3493045
21
5.9873261
0
LINE
8
DEFAULT_255_2_778
10
16.3183045
20
6.5511261
11
16.3183045
21
6.5834261
0
LINE
8
DEFAULT_255_2_778
10
16.4042045
20
6.7125261
11
16.4042045
21
8.2471261
0
LINE
8
DEFAULT_255_2_778
10
16.3074045
20
8.3979261
11
16.3074045
21
8.4249261
0
LINE
8
DEFAULT_255_2_778
10
18.5468045
20
8.4307261
11
18.5468045
21
8.4043261
0
LINE
8
DEFAULT_255_2_778
10
18.4717045
20
8.2535261
11
18.4717045
21
6.5707261
0
LINE
8
DEFAULT_255_2_778
10
18.7566045
20
6.2532261
11
18.7945045
21
6.2154261
0
LINE
8
DEFAULT_255_2_778
10
18.7945045
20
6.2154261
11
18.7940045
21
6.2095261
0
LINE
8
DEFAULT_255_2_778
10
17.8327045
20
6.4837261
11
17.8327045
21
8.1272261
0
LINE
8
DEFAULT_255_2_778
10
17.8327045
20
8.1272261
11
17.0726045
21
8.6765261
0
LINE
8
DEFAULT_255_2_778
10
17.0726045
20
8.6765261
11
17.0461045
21
8.6554261
0
LINE
8
DEFAULT_255_2_778
10
17.0461045
20
8.6554261
11
17.0461045
21
6.8403261
0
LINE
8
DEFAULT_255_2_778
10
17.7557045
20
6.4217261
11
17.8364045
21
6.4805261
0
LINE
8
DEFAULT_255_2_778
10
17.8364045
20
6.4805261
11
17.8327045
21
6.4837261
0
LINE
8
DEFAULT_255_2_778
10
12.3873045
20
6.3016261
11
12.0328045
21
7.3330261
0
LINE
8
DEFAULT_255_2_778
10
12.0328045
20
7.3330261
11
10.6549045
21
7.3330261
0
LINE
8
DEFAULT_255_2_778
10
10.6549045
20
7.3330261
11
10.4564045
21
6.7588261
0
LINE
8
DEFAULT_255_2_778
10
11.1171045
20
6.7676261
11
11.2031045
21
6.7141261
0
LINE
8
DEFAULT_255_2_778
10
11.2031045
20
6.7141261
11
10.7467045
21
5.9839261
0
LINE
8
DEFAULT_255_2_778
10
9.4259045
20
5.9849261
11
9.3671045
21
6.0066261
0
LINE
8
DEFAULT_255_2_778
10
10.3180045
20
6.7638261
11
11.2737045
21
9.5674261
0
LINE
8
DEFAULT_255_2_778
10
11.2737045
20
9.5674261
11
11.2414045
21
9.6642261
0
LINE
8
DEFAULT_255_2_778
10
10.6287045
20
9.8526261
11
10.5869045
21
9.8849261
0
LINE
8
DEFAULT_255_2_778
10
11.6716045
20
10.0680261
11
11.6822045
21
10.0680261
0
LINE
8
DEFAULT_255_2_778
10
11.9018045
20
10.2937261
11
11.9177045
21
10.2672261
0
LINE
8
DEFAULT_255_2_778
10
11.8748045
20
9.8481261
11
13.0028045
21
6.5130261
0
LINE
8
DEFAULT_255_2_778
10
13.3679045
20
6.5538261
11
13.4700045
21
6.4837261
0
LINE
8
DEFAULT_255_2_778
10
13.4700045
20
6.4837261
11
13.4724045
21
6.4889261
0
LINE
8
DEFAULT_255_2_778
10
11.8981045
20
7.7404261
11
11.3504045
21
9.3512261
0
LINE
8
DEFAULT_255_2_778
10
11.3504045
20
9.3512261
11
11.3399045
21
9.3512261
0
LINE
8
DEFAULT_255_2_778
10
11.3399045
20
9.3512261
11
10.7922045
21
7.7399261
0
LINE
8
DEFAULT_255_2_778
10
10.7922045
20
7.7399261
11
11.8981045
21
7.7399261
0
LINE
8
DEFAULT_255_2_778
10
11.8981045
20
7.7399261
11
11.8981045
21
7.7404261
0
LINE
8
DEFAULT_255_2_778
10
15.3271045
20
-0.0091739
11
14.7503045
21
0.5120261
0
LINE
8
DEFAULT_255_2_778
10
14.7503045
20
0.5120261
11
14.7503045
21
0.5443261
0
LINE
8
DEFAULT_255_2_778
10
14.8416045
20
0.7216261
11
14.8416045
21
2.1344261
0
LINE
8
DEFAULT_255_2_778
10
14.2833045
20
2.6070261
11
14.0955045
21
2.4403261
0
LINE
8
DEFAULT_255_2_778
10
14.0955045
20
2.4403261
11
14.0955045
21
0.7218261
0
LINE
8
DEFAULT_255_2_778
10
14.0955045
20
0.7218261
11
14.2410045
21
0.5935261
0
LINE
8
DEFAULT_255_2_778
10
14.5207045
20
0.6099261
11
14.5797045
21
0.5453261
0
LINE
8
DEFAULT_255_2_778
10
13.9460045
20
-0.0075739
11
13.3660045
21
0.5189261
0
LINE
8
DEFAULT_255_2_778
10
13.3660045
20
0.5189261
11
13.3660045
21
0.5453261
0
LINE
8
DEFAULT_255_2_778
10
13.4573045
20
0.6962261
11
13.4573045
21
2.1260261
0
LINE
8
DEFAULT_255_2_778
10
13.4573045
20
2.1260261
11
12.8990045
21
2.6041261
0
LINE
8
DEFAULT_255_2_778
10
12.8990045
20
2.6041261
11
12.7112045
21
2.4453261
0
LINE
8
DEFAULT_255_2_778
10
12.7112045
20
2.4453261
11
12.7112045
21
0.7213261
0
LINE
8
DEFAULT_255_2_778
10
12.7112045
20
0.7213261
11
12.8456045
21
0.6033261
0
LINE
8
DEFAULT_255_2_778
10
13.1335045
20
0.6083261
11
13.1927045
21
0.5438261
0
LINE
8
DEFAULT_255_2_778
10
13.1927045
20
0.5438261
11
12.5593045
21
-0.0091739
0
LINE
8
DEFAULT_255_2_778
10
12.5593045
20
-0.0091739
11
11.9788045
21
0.5067261
0
LINE
8
DEFAULT_255_2_778
10
11.9788045
20
0.5067261
11
11.9788045
21
0.5390261
0
LINE
8
DEFAULT_255_2_778
10
12.0701045
20
0.7057261
11
12.0701045
21
2.4122261
0
LINE
8
DEFAULT_255_2_778
10
12.0701045
20
2.4122261
11
11.9201045
21
2.5302261
0
LINE
8
DEFAULT_255_2_778
10
11.6539045
20
2.4980261
11
11.5947045
21
2.5731261
0
LINE
8
DEFAULT_255_2_778
10
12.2339045
20
3.1213261
11
12.7435045
21
2.6432261
0
LINE
8
DEFAULT_255_2_778
10
12.7435045
20
2.6432261
11
13.2917045
21
3.1216261
0
LINE
8
DEFAULT_255_2_778
10
13.2917045
20
3.1216261
11
14.0278045
21
2.5527261
0
LINE
8
DEFAULT_255_2_778
10
14.0278045
20
2.5527261
11
14.6776045
21
3.1216261
0
LINE
8
DEFAULT_255_2_778
10
14.6776045
20
3.1216261
11
15.5904045
21
2.4337261
0
LINE
8
DEFAULT_255_2_778
10
15.5904045
20
2.4337261
11
15.5904045
21
2.4072261
0
LINE
8
DEFAULT_255_2_778
10
15.4830045
20
2.2405261
11
15.4830045
21
0.7263261
0
LINE
8
DEFAULT_255_2_778
10
15.4830045
20
0.7263261
11
15.6010045
21
0.6133261
0
LINE
8
DEFAULT_255_2_778
10
15.9074045
20
0.6133261
11
15.9613045
21
0.5432261
0
LINE
8
DEFAULT_255_2_778
10
15.9613045
20
0.5432261
11
15.9555045
21
0.5438261
0
LINE
8
DEFAULT_255_2_778
10
11.6671045
20
3.8540261
11
11.4523045
21
3.6608261
0
LINE
8
DEFAULT_255_2_778
10
10.4204045
20
3.5642261
11
10.3614045
21
3.6288261
0
LINE
8
DEFAULT_255_2_778
10
10.3614045
20
3.6288261
11
11.0007045
21
4.1818261
0
LINE
8
DEFAULT_255_2_778
10
11.0007045
20
4.1818261
11
11.3235045
21
3.8973261
0
LINE
8
DEFAULT_255_2_778
10
11.6076045
20
3.9190261
11
11.6669045
21
3.8545261
0
LINE
8
DEFAULT_255_2_778
10
11.6669045
20
3.8545261
11
11.6671045
21
3.8540261
0
LINE
8
DEFAULT_255_2_778
10
11.7963045
20
0.5406261
11
11.1626045
21
-0.0176739
0
LINE
8
DEFAULT_255_2_778
10
11.1626045
20
-0.0176739
11
10.5805045
21
0.5004261
0
LINE
8
DEFAULT_255_2_778
10
10.5805045
20
0.5004261
11
10.5805045
21
0.5326261
0
LINE
8
DEFAULT_255_2_778
10
10.6718045
20
0.6835261
11
10.6718045
21
2.4122261
0
LINE
8
DEFAULT_255_2_778
10
10.6718045
20
2.4122261
11
10.5376045
21
2.5199261
0
LINE
8
DEFAULT_255_2_778
10
10.2580045
20
2.4982261
11
10.1990045
21
2.5684261
0
LINE
8
DEFAULT_255_2_778
10
10.8377045
20
3.1219261
11
11.4176045
21
2.6218261
0
LINE
8
DEFAULT_255_2_778
10
11.4176045
20
2.6218261
11
11.4176045
21
2.5953261
0
LINE
8
DEFAULT_255_2_778
10
11.3100045
20
2.4395261
11
11.3100045
21
0.7155261
0
LINE
8
DEFAULT_255_2_778
10
11.3100045
20
0.7155261
11
11.4600045
21
0.5813261
0
LINE
8
DEFAULT_255_2_778
10
11.7399045
20
0.6030261
11
11.7986045
21
0.5385261
0
LINE
8
DEFAULT_255_2_778
10
11.7986045
20
0.5385261
11
11.7963045
21
0.5406261
0
LINE
8
DEFAULT_255_2_778
10
18.3939045
20
0.7528261
11
18.8929045
21
1.3058261
0
LINE
8
DEFAULT_255_2_778
10
18.8929045
20
1.3058261
11
18.2537045
21
1.6338261
0
LINE
8
DEFAULT_255_2_778
10
18.2537045
20
1.6338261
11
18.2537045
21
1.6661261
0
LINE
8
DEFAULT_255_2_778
10
18.3233045
20
1.7841261
11
18.3233045
21
2.2614261
0
LINE
8
DEFAULT_255_2_778
10
18.2532045
20
2.3850261
11
18.2532045
21
2.4220261
0
LINE
8
DEFAULT_255_2_778
10
18.9940045
20
2.7017261
11
18.9675045
21
2.6858261
0
LINE
8
DEFAULT_255_2_778
10
18.9675045
20
2.6858261
11
18.9675045
21
1.9828261
0
LINE
8
DEFAULT_255_2_778
10
18.9675045
20
1.9828261
11
19.3591045
21
1.7950261
0
LINE
8
DEFAULT_255_2_778
10
19.3591045
20
1.7950261
11
19.5253045
21
1.9617261
0
LINE
8
DEFAULT_255_2_778
10
19.5253045
20
1.9617261
11
20.2775045
21
1.5807261
0
LINE
8
DEFAULT_255_2_778
10
20.2775045
20
1.5807261
11
20.2775045
21
1.5484261
0
LINE
8
DEFAULT_255_2_778
10
20.2129045
20
1.4465261
11
20.2129045
21
0.9047261
0
LINE
8
DEFAULT_255_2_778
10
20.2775045
20
0.7917261
11
20.2775045
21
0.7594261
0
LINE
8
DEFAULT_255_2_778
10
20.2775045
20
0.7594261
11
20.2788045
21
0.7602261
0
LINE
8
DEFAULT_255_2_778
10
19.5697045
20
0.4813261
11
19.5697045
21
1.2814261
0
LINE
8
DEFAULT_255_2_778
10
19.5697045
20
1.2814261
11
19.1988045
21
1.4534261
0
LINE
8
DEFAULT_255_2_778
10
19.1988045
20
1.4534261
11
18.4201045
21
0.6263261
0
LINE
8
DEFAULT_255_2_778
10
18.4201045
20
0.6263261
11
18.4307045
21
0.6210261
0
LINE
8
DEFAULT_255_2_778
10
19.5581045
20
0.4758261
11
19.5687045
21
0.4811261
0
LINE
8
DEFAULT_255_2_778
10
19.5687045
20
0.4811261
11
19.5697045
21
0.4813261
0
LINE
8
DEFAULT_255_2_778
10
18.0764045
20
2.1037261
11
16.8249045
21
1.3142261
0
LINE
8
DEFAULT_255_2_778
10
16.8249045
20
1.3142261
11
16.8249045
21
0.8208261
0
LINE
8
DEFAULT_255_2_778
10
17.4803045
20
0.4980261
11
17.7970045
21
0.7988261
0
LINE
8
DEFAULT_255_2_778
10
17.9642045
20
0.8044261
11
17.1483045
21
-0.0065739
0
LINE
8
DEFAULT_255_2_778
10
16.1010045
20
0.5411261
11
16.1010045
21
0.5734261
0
LINE
8
DEFAULT_255_2_778
10
16.1817045
20
0.7131261
11
16.1817045
21
2.2588261
0
LINE
8
DEFAULT_255_2_778
10
16.0957045
20
2.3982261
11
16.0957045
21
2.4305261
0
LINE
8
DEFAULT_255_2_778
10
17.3261045
20
3.1184261
11
18.0775045
21
2.1035261
0
LINE
8
DEFAULT_255_2_778
10
18.0775045
20
2.1035261
11
18.0764045
21
2.1037261
0
LINE
8
DEFAULT_255_2_778
10
17.4695045
20
1.8619261
11
16.8358045
21
2.7210261
0
LINE
8
DEFAULT_255_2_778
10
16.8358045
20
2.7210261
11
16.8252045
21
2.7157261
0
LINE
8
DEFAULT_255_2_778
10
16.8252045
20
2.7157261
11
16.8252045
21
1.4484261
0
LINE
8
DEFAULT_255_2_778
10
16.8252045
20
1.4484261
11
17.4697045
21
1.8622261
0
LINE
8
DEFAULT_255_2_778
10
17.4697045
20
1.8622261
11
17.4695045
21
1.8619261
0
ARC
8
DEFAULT_255_2_778
10
9.545422
20
4.0313021
40
0.750004
50
340.5885732
51
0.7412519
0
ARC
8
DEFAULT_255_2_778
10
9.6389185
20
4.0281533
40
0.6613731
50
279.8005124
51
338.15318
0
ARC
8
DEFAULT_255_2_778
10
9.4939337
20
4.4575663
40
1.1113911
50
278.6801649
51
283.4000048
0
ARC
8
DEFAULT_255_2_778
10
8.8977791
20
1.7423611
40
1.3181598
50
305.4159448
51
330.9657528
0
ARC
8
DEFAULT_255_2_778
10
9.1484348
20
1.5893045
40
1.024793
50
331.6462232
51
337.6676286
0
ARC
8
DEFAULT_255_2_778
10
9.9808483
20
1.2505644
40
0.1261352
50
336.3199866
51
358.9735969
0
ARC
8
DEFAULT_255_2_778
10
10.0452176
20
1.2456437
40
0.061803
50
2.4679189
51
30.8148324
0
ARC
8
DEFAULT_255_2_778
10
9.6161467
20
1.0216965
40
0.5457128
50
27.9298689
51
28.9944865
0
ARC
8
DEFAULT_255_2_778
10
10.1658233
20
1.3325714
40
0.0859341
50
182.3786314
51
212.6437249
0
ARC
8
DEFAULT_255_2_778
10
10.2933026
20
1.3277452
40
0.213343
50
175.7208922
51
179.6616945
0
ARC
8
DEFAULT_255_2_778
10
10.1390096
20
1.3508137
40
0.0588912
50
90.0451015
51
186.9733321
0
ARC
8
DEFAULT_255_2_778
10
10.1406379
20
1.335878
40
0.0738459
50
354.6595784
51
91.2994191
0
ARC
8
DEFAULT_255_2_778
10
8.8429797
20
1.3300026
40
1.3711839
50
351.8617828
51
359.9583102
0
ARC
8
DEFAULT_255_2_778
10
8.8026963
20
1.3351466
40
1.4117899
50
345.0992529
51
351.8865543
0
ARC
8
DEFAULT_255_2_778
10
8.8191063
20
1.3292615
40
1.3944191
50
324.9481339
51
345.1595477
0
ARC
8
DEFAULT_255_2_778
10
8.8217668
20
1.3307483
40
1.3930978
50
307.3322572
51
324.8352333
0
ARC
8
DEFAULT_255_2_778
10
8.7243369
20
1.4611021
40
1.5558322
50
293.6854019
51
307.2740105
0
ARC
8
DEFAULT_255_2_778
10
8.5935497
20
1.7582007
40
1.8804438
50
283.1579069
51
293.6982479
0
ARC
8
DEFAULT_255_2_778
10
8.4828184
20
2.2280842
40
2.3631976
50
274.6214988
51
283.1788062
0
ARC
8
DEFAULT_255_2_778
10
8.4341883
20
2.7631183
40
2.9004153
50
269.9343168
51
274.7274363
0
ARC
8
DEFAULT_255_2_778
10
8.4247647
20
1.6394681
40
1.7767737
50
245.5921511
51
270.196662
0
ARC
8
DEFAULT_255_2_778
10
8.3687137
20
1.52224
40
1.6468627
50
195.8807606
51
245.682587
0
ARC
8
DEFAULT_255_2_778
10
8.4912
20
1.5546486
40
1.773544
50
179.8366511
51
195.8050025
0
ARC
8
DEFAULT_255_2_778
10
8.8570398
20
1.5660579
40
2.139386
50
170.7131461
51
180.1701435
0
ARC
8
DEFAULT_255_2_778
10
8.5035697
20
1.6239568
40
1.7812054
50
158.4735736
51
170.7162948
0
ARC
8
DEFAULT_255_2_778
10
8.3773944
20
1.670426
40
1.646783
50
141.6115337
51
158.3667739
0
ARC
8
DEFAULT_255_2_778
10
8.6264711
20
1.4460114
40
1.9814869
50
118.963731
51
140.9977555
0
ARC
8
DEFAULT_255_2_778
10
9.0044615
20
0.8202739
40
2.7121468
50
112.5200373
51
119.5488519
0
ARC
8
DEFAULT_255_2_778
10
9.2030972
20
0.3490655
40
3.2235036
50
107.9071385
51
112.5735906
0
ARC
8
DEFAULT_255_2_778
10
9.3317456
20
-0.0436607
40
3.636761
50
104.7097283
51
107.9333327
0
ARC
8
DEFAULT_255_2_778
10
9.406637
20
-0.325274
40
3.9281611
50
102.5383093
51
104.723278
0
ARC
8
DEFAULT_255_2_778
10
-2.836106
20
-64.0572805
40
68.519788
50
80.4313686
51
80.50818
0
ARC
8
DEFAULT_255_2_778
10
5.9562828
20
-11.4770754
40
15.2095256
50
80.5126268
51
80.8843269
0
ARC
8
DEFAULT_255_2_778
10
7.1960531
20
-3.6540574
40
7.28891
50
80.7642645
51
83.1461809
0
ARC
8
DEFAULT_255_2_778
10
7.5481587
20
-0.7473537
40
4.3609599
50
83.1818274
51
86.4553339
0
ARC
8
DEFAULT_255_2_778
10
7.6303483
20
0.5508624
40
3.0601464
50
86.4884379
51
89.9079764
0
ARC
8
DEFAULT_255_2_778
10
7.6283314
20
1.9845615
40
1.6264582
50
89.7558076
51
97.7741365
0
ARC
8
DEFAULT_255_2_778
10
7.5580468
20
2.4879346
40
1.1182054
50
97.6948126
51
108.4352506
0
ARC
8
DEFAULT_255_2_778
10
7.4517836
20
2.8033699
40
0.7853546
50
108.3579927
51
123.0337849
0
ARC
8
DEFAULT_255_2_778
10
7.3559383
20
2.9516943
40
0.6087585
50
123.0812884
51
142.674756
0
ARC
8
DEFAULT_255_2_778
10
7.3278736
20
2.9757468
40
0.5718612
50
142.8861583
51
151.167992
0
ARC
8
DEFAULT_255_2_778
10
7.3332527
20
2.9729773
40
0.577909
50
151.1846391
51
161.1964635
0
ARC
8
DEFAULT_255_2_778
10
7.3396067
20
2.9706455
40
0.5846755
50
161.1808482
51
166.5937458
0
ARC
8
DEFAULT_255_2_778
10
7.5064927
20
3.1034237
40
0.800998
50
171.3282224
51
177.4898233
0
ARC
8
DEFAULT_255_2_778
10
7.9160354
20
3.0432009
40
1.2149409
50
165.9442221
51
171.4326312
0
ARC
8
DEFAULT_255_2_778
10
8.1599549
20
2.9836577
40
1.4660194
50
159.9687745
51
166.0020401
0
ARC
8
DEFAULT_255_2_778
10
8.1827617
20
2.9768621
40
1.489775
50
153.4472709
51
160.0236787
0
ARC
8
DEFAULT_255_2_778
10
7.9801294
20
3.0869152
40
1.2593442
50
136.1962836
51
153.8050628
0
ARC
8
DEFAULT_255_2_778
10
7.7712006
20
3.284677
40
0.9716702
50
113.5037059
51
136.0847949
0
ARC
8
DEFAULT_255_2_778
10
7.7641523
20
3.2855981
40
0.9680339
50
96.9365954
51
113.1428852
0
ARC
8
DEFAULT_255_2_778
10
7.784275
20
3.1409086
40
1.1140974
50
89.9234594
51
97.065221
0
ARC
8
DEFAULT_255_2_778
10
7.7850736
20
1.3820351
40
2.8729699
50
83.9917528
51
89.9862454
0
ARC
8
DEFAULT_255_2_778
10
7.7311568
20
0.9220532
40
3.3360732
50
78.1483584
51
83.8977475
0
ARC
8
DEFAULT_255_2_778
10
7.0980419
20
-1.9865804
40
6.3127697
50
74.4314027
51
77.946426
0
ARC
8
DEFAULT_255_2_778
10
3.0356097
20
-17.1228652
40
21.9845306
50
74.7884272
51
74.8199235
0
ARC
8
DEFAULT_255_2_778
10
12.5845926
20
17.6769698
40
14.1017889
50
254.4491754
51
255.7214317
0
ARC
8
DEFAULT_255_2_778
10
10.1470748
20
8.1941857
40
4.3108289
50
256.0326734
51
257.3903851
0
ARC
8
DEFAULT_255_2_778
10
9.7146562
20
6.125141
40
2.1974898
50
256.6160298
51
269.3222632
0
ARC
8
DEFAULT_255_2_778
10
9.6984603
20
4.8948938
40
0.9671385
50
269.4195905
51
280.213966
0
ARC
8
DEFAULT_255_2_778
10
9.7883074
20
4.4190043
40
0.4828756
50
279.7350214
51
299.5670145
0
ARC
8
DEFAULT_255_2_778
10
9.8055054
20
4.3321392
40
0.399811
50
303.5691721
51
355.0078641
0
ARC
8
DEFAULT_255_2_778
10
9.009889
20
4.5300058
40
1.2163686
50
348.9729483
51
349.0380566
0
ARC
8
DEFAULT_255_2_778
10
7.8152816
20
3.9868866
40
2.4753798
50
1.2596813
51
6.6187618
0
ARC
8
DEFAULT_255_2_778
10
9.4651481
20
4.4388571
40
1.0955544
50
263.9902936
51
269.8857345
0
ARC
8
DEFAULT_255_2_778
10
9.6559119
20
5.9741479
40
2.6425388
50
258.6985804
51
263.3620398
0
ARC
8
DEFAULT_255_2_778
10
6.0686918
20
-13.0201774
40
16.6877271
50
79.4012898
51
79.6746329
0
ARC
8
DEFAULT_255_2_778
10
9.3474967
20
2.8044105
40
0.6590253
50
115.8874397
51
179.9795522
0
ARC
8
DEFAULT_255_2_778
10
9.3506221
20
2.8046539
40
0.6621505
50
180.0007074
51
181.700473
0
ARC
8
DEFAULT_255_2_778
10
10.0923709
20
2.7817176
40
1.4036115
50
179.8658099
51
187.0146367
0
ARC
8
DEFAULT_255_2_778
10
9.9270411
20
2.7631126
40
1.2372485
50
187.0945121
51
195.8949858
0
ARC
8
DEFAULT_255_2_778
10
10.5333734
20
2.9603548
40
1.8745667
50
196.6176001
51
205.107472
0
ARC
8
DEFAULT_255_2_778
10
20.2091859
20
7.2724439
40
12.4674599
50
204.1838865
51
204.3725881
0
ARC
8
DEFAULT_255_2_778
10
51.2961108
20
21.3296531
40
46.5849316
50
204.3428818
51
204.3500485
0
ARC
8
DEFAULT_255_2_778
10
6.8029483
20
1.1439928
40
2.2734754
50
18.119942
51
25.4848027
0
ARC
8
DEFAULT_255_2_778
10
7.7554373
20
1.4759382
40
1.2651318
50
8.5378517
51
17.247996
0
ARC
8
DEFAULT_255_2_778
10
7.6345565
20
1.4603138
40
1.3869948
50
1.1641434
51
8.4347836
0
ARC
8
DEFAULT_255_2_778
10
7.4361644
20
1.4529606
40
1.5854989
50
359.9943726
51
1.2841561
0
ARC
8
DEFAULT_255_2_778
10
8.1068459
20
1.4665188
40
0.9149202
50
321.7443808
51
359.141149
0
ARC
8
DEFAULT_255_2_778
10
7.6843325
20
1.7789233
40
1.4402253
50
302.4914978
51
322.3924703
0
ARC
8
DEFAULT_255_2_778
10
7.6086438
20
1.8763452
40
1.5630982
50
298.3151876
51
302.9133563
0
ARC
8
DEFAULT_255_2_778
10
7.6533702
20
1.7941442
40
1.4695178
50
296.1909767
51
298.3001655
0
ARC
8
DEFAULT_255_2_778
10
8.8411386
20
2.017074
40
1.6331397
50
250.7223329
51
271.0428942
0
ARC
8
DEFAULT_255_2_778
10
8.8624676
20
1.3289388
40
0.9447712
50
270.5091611
51
279.9136135
0
ARC
8
DEFAULT_255_2_778
10
8.7948093
20
1.7608362
40
1.3818895
50
279.593992
51
283.8750908
0
ARC
8
DEFAULT_255_2_778
10
8.733158
20
2.0127976
40
1.6412832
50
283.8552111
51
294.7754156
0
ARC
8
DEFAULT_255_2_778
10
8.9781505
20
1.4835325
40
1.0580661
50
294.7403501
51
301.5501628
0
ARC
8
DEFAULT_255_2_778
10
9.1757026
20
1.1544914
40
0.6743059
50
301.8746344
51
304.5339902
0
ARC
8
DEFAULT_255_2_778
10
9.1042859
20
1.8613057
40
1.6170442
50
100.5518873
51
106.1110683
0
ARC
8
DEFAULT_255_2_778
10
9.1322648
20
1.7608486
40
1.7213204
50
106.077885
51
108.8901845
0
ARC
8
DEFAULT_255_2_778
10
9.1738506
20
1.6492295
40
1.8403942
50
108.990083
51
127.6917717
0
ARC
8
DEFAULT_255_2_778
10
9.0732806
20
1.765565
40
1.6868678
50
127.4046538
51
152.176868
0
ARC
8
DEFAULT_255_2_778
10
8.9867537
20
1.8211244
40
1.5844363
50
152.4932962
51
171.0264608
0
ARC
8
DEFAULT_255_2_778
10
9.1177758
20
1.7995878
40
1.7172142
50
170.9985556
51
180.0761699
0
ARC
8
DEFAULT_255_2_778
10
8.9584698
20
1.7885103
40
1.5579313
50
179.6765608
51
195.1527864
0
ARC
8
DEFAULT_255_2_778
10
8.705231
20
1.7202312
40
1.2956495
50
195.1656037
51
221.4891793
0
ARC
8
DEFAULT_255_2_778
10
8.7706573
20
1.7919472
40
1.392208
50
221.9162697
51
246.0706184
0
ARC
8
DEFAULT_255_2_778
10
7.7666902
20
1.1433835
40
0.7630925
50
305.1450586
51
308.8627863
0
ARC
8
DEFAULT_255_2_778
10
7.8211124
20
1.0806411
40
0.680097
50
308.6093996
51
328.7861456
0
ARC
8
DEFAULT_255_2_778
10
7.8213811
20
1.0751334
40
0.6770286
50
329.1729997
51
349.3882715
0
ARC
8
DEFAULT_255_2_778
10
7.6650098
20
1.1062594
40
0.8364594
50
349.2651476
51
0.215462
0
ARC
8
DEFAULT_255_2_778
10
7.2228611
20
1.1095995
40
1.2786022
50
359.9912815
51
10.7663376
0
ARC
8
DEFAULT_255_2_778
10
6.7660344
20
1.0045933
40
1.7470938
50
11.350773
51
22.5142044
0
ARC
8
DEFAULT_255_2_778
10
3.1607896
20
-0.4289066
40
5.6267497
50
21.9414361
51
23.4819612
0
ARC
8
DEFAULT_255_2_778
10
29.8052697
20
11.0777434
40
23.3962114
50
203.1436799
51
203.3275928
0
ARC
8
DEFAULT_255_2_778
10
9.9050559
20
2.6334136
40
1.7794866
50
190.2602561
51
204.9727297
0
ARC
8
DEFAULT_255_2_778
10
9.2187329
20
2.4791686
40
1.0770696
50
180.0140298
51
188.6891429
0
ARC
8
DEFAULT_255_2_778
10
8.9842049
20
2.4776516
40
0.8425426
50
139.5599951
51
179.9147729
0
ARC
8
DEFAULT_255_2_778
10
9.2927385
20
2.2288928
40
1.2387679
50
124.545742
51
140.0597113
0
ARC
8
DEFAULT_255_2_778
10
9.6508155
20
1.7181226
40
1.862536
50
114.2395104
51
124.7087576
0
ARC
8
DEFAULT_255_2_778
10
9.8479886
20
1.3132963
40
2.3126613
50
113.7989658
51
114.5761425
0
LINE
8
DEFAULT_255_2_778
10
9.6616633
20
3.3589049
11
9.6616633
21
0.6681049
0
LINE
8
DEFAULT_255_2_778
10
6.7708633
20
3.1062049
11
6.7062633
21
3.1385049
0
LINE
8
DEFAULT_255_2_778
10
10.2040633
20
4.2987049
11
10.2741633
21
4.2722049
0
LINE
8
DEFAULT_255_2_778
10
10.2900633
20
4.0413049
11
10.2953633
21
4.0410049
0
LINE
8
DEFAULT_255_2_778
10
9.5597633
20
0.5988049
11
9.5597633
21
3.3486049
0
LINE
8
DEFAULT_255_2_778
10
9.5597633
20
3.3486049
11
9.4629633
21
3.3433049
0
LINE
8
DEFAULT_255_2_778
10
9.5579633
20
0.5990049
11
9.5597633
21
0.5988049
0
LINE
8
DEFAULT_255_2_778
10
8.9155633
20
3.4293049
11
8.8081633
21
3.4510049
0
LINE
8
DEFAULT_255_2_778
10
8.9147633
20
3.4293049
11
8.9155633
21
3.4293049
0
ENDSEC
0
EOF