0
SECTION
2
HEADER
9
$MEASUREMENT
70
1
0
ENDSEC
0
SECTION
2
TABLES
0
TABLE
2
LTYPE
0
LTYPE
72
65
70
64
2
CONTINUOUS
3
______
73
0
40
0
0
ENDTAB
0
TABLE
2
LAYER
0
LAYER
2
DEFAULT_255_2_778
70
0
62
255
6
CONTINUOUS
0
ENDTAB
0
ENDSEC
0
SECTION
2
ENTITIES
0
LINE
8
DEFAULT_255_2_778
10
19.6548878
20
14.8413396
11
19.6548878
21
11.0255396
0
LINE
8
DEFAULT_255_2_778
10
19.6548878
20
11.0255396
11
27.4386878
21
11.0255396
0
LINE
8
DEFAULT_255_2_778
10
27.4386878
20
11.0255396
11
27.4386878
21
39.2391396
0
LINE
8
DEFAULT_255_2_778
10
27.4386878
20
39.2391396
11
19.6548878
21
39.2391396
0
LINE
8
DEFAULT_255_2_778
10
19.6548878
20
39.2391396
11
19.6548878
21
35.4233396
0
LINE
8
DEFAULT_255_2_778
10
19.6548878
20
35.4233396
11
17.5842878
21
35.4233396
0
LINE
8
DEFAULT_255_2_778
10
17.5842878
20
35.4233396
11
17.5842878
21
33.2111396
0
LINE
8
DEFAULT_255_2_778
10
17.5842878
20
33.2111396
11
19.6548878
21
33.2111396
0
LINE
8
DEFAULT_255_2_778
10
19.6548878
20
33.2111396
11
19.6548878
21
17.0538396
0
LINE
8
DEFAULT_255_2_778
10
19.6548878
20
17.0538396
11
17.5842878
21
17.0538396
0
LINE
8
DEFAULT_255_2_778
10
17.5842878
20
17.0538396
11
17.5842878
21
14.8416396
0
LINE
8
DEFAULT_255_2_778
10
17.5842878
20
14.8416396
11
19.6548878
21
14.8416396
0
LINE
8
DEFAULT_255_2_778
10
7.9330878
20
82.1752396
11
7.5478878
21
84.1508396
0
LINE
8
DEFAULT_255_2_778
10
7.5478878
20
84.1508396
11
7.9544878
21
86.2246396
0
LINE
8
DEFAULT_255_2_778
10
7.9544878
20
86.2246396
11
4.3024878
21
84.1799396
0
LINE
8
DEFAULT_255_2_778
10
4.3024878
20
84.1799396
11
7.9327878
21
82.1749396
0
ARC
8
DEFAULT_255_2_778
10
5.8705754
20
78.1070823
40
1.3892821
50
89.5685228
51
100.8563721
0
ARC
8
DEFAULT_255_2_778
10
5.7674469
20
78.6268093
40
0.8594396
50
100.6301479
51
118.1465513
0
ARC
8
DEFAULT_255_2_778
10
5.6540214
20
78.8508598
40
0.6084049
50
118.6813504
51
180.5569374
0
ARC
8
DEFAULT_255_2_778
10
5.952858
20
78.8091021
40
0.9079205
50
177.7374294
51
180.0111774
0
ARC
8
DEFAULT_255_2_778
10
5.8578631
20
78.7937868
40
0.8130665
50
178.9331681
51
202.0082746
0
ARC
8
DEFAULT_255_2_778
10
5.6498996
20
78.7209224
40
0.5930428
50
203.010937
51
247.3444581
0
ARC
8
DEFAULT_255_2_778
10
5.7986238
20
79.0493459
40
0.9534719
50
246.6988955
51
262.7720872
0
ARC
8
DEFAULT_255_2_778
10
5.8751645
20
79.566476
40
1.4761627
50
262.3502129
51
270.227955
0
ARC
8
DEFAULT_255_2_778
10
5.8939413
20
79.3883954
40
1.6838007
50
259.6361607
51
270.3435523
0
ARC
8
DEFAULT_255_2_778
10
5.7924758
20
78.8525846
40
1.1384831
50
243.2062373
51
259.808207
0
ARC
8
DEFAULT_255_2_778
10
5.7077001
20
78.6520838
40
0.9214112
50
189.541507
51
242.2916138
0
ARC
8
DEFAULT_255_2_778
10
6.3309375
20
78.8122352
40
1.5635283
50
179.6559082
51
191.5437211
0
ARC
8
DEFAULT_255_2_778
10
6.1345232
20
78.8400634
40
1.36721
50
162.8755489
51
180.772723
0
ARC
8
DEFAULT_255_2_778
10
5.6333113
20
79.0006635
40
0.8409505
50
115.1488937
51
163.2774917
0
ARC
8
DEFAULT_255_2_778
10
5.7708484
20
78.7087035
40
1.1636841
50
99.9673025
51
115.1697969
0
ARC
8
DEFAULT_255_2_778
10
5.8783895
20
78.1271014
40
1.7551296
50
90.2514343
51
100.1387124
0
ARC
8
DEFAULT_255_2_778
10
5.8927149
20
77.6926871
40
2.1896379
50
89.9994076
51
90.5763979
0
LINE
8
DEFAULT_255_2_778
10
5.8927375
20
79.882625
11
7.4439375
21
79.882625
0
LINE
8
DEFAULT_255_2_778
10
7.4439375
20
79.882625
11
7.4439375
21
79.496325
0
LINE
8
DEFAULT_255_2_778
10
7.4439375
20
79.496325
11
5.8810375
21
79.496325
0
LINE
8
DEFAULT_255_2_778
10
5.8810375
20
78.090325
11
7.4439375
21
78.090325
0
LINE
8
DEFAULT_255_2_778
10
7.4439375
20
78.090325
11
7.4439375
21
77.704625
0
LINE
8
DEFAULT_255_2_778
10
7.4439375
20
77.704625
11
5.9040375
21
77.704625
0
ARC
8
DEFAULT_255_2_778
10
6.103269
20
46.6963241
40
1.2510699
50
89.4655548
51
106.9686422
0
ARC
8
DEFAULT_255_2_778
10
6.0053073
20
47.0138971
40
0.9187332
50
106.9054204
51
162.5478628
0
ARC
8
DEFAULT_255_2_778
10
6.4372757
20
46.8531097
40
1.3792448
50
161.5576798
51
176.7928295
0
ARC
8
DEFAULT_255_2_778
10
6.8203484
20
46.8183809
40
1.7637101
50
176.3626193
51
180.0338278
0
ARC
8
DEFAULT_255_2_778
10
7.0678205
20
46.8173396
40
2.0111819
50
180
51
180.0722747
0
ARC
8
DEFAULT_255_2_778
10
7.025437
20
46.8157088
40
1.9687969
50
180.026374
51
192.3918197
0
ARC
8
DEFAULT_255_2_778
10
6.2611631
20
46.6436274
40
1.1854074
50
192.195466
51
202.4556471
0
ARC
8
DEFAULT_255_2_778
10
5.7156747
20
46.4830279
40
0.9013412
50
195.3221577
51
204.0125146
0
ARC
8
DEFAULT_255_2_778
10
6.6047342
20
46.7350952
40
1.8254255
50
189.0604025
51
195.5788209
0
ARC
8
DEFAULT_255_2_778
10
7.4176445
20
46.8697301
40
2.6493994
50
183.0610676
51
189.1672668
0
ARC
8
DEFAULT_255_2_778
10
7.790984
20
46.8947334
40
3.0235456
50
179.9866176
51
183.1564072
0
ARC
8
DEFAULT_255_2_778
10
6.6782543
20
46.9076847
40
1.9108549
50
165.3620377
51
180.3671647
0
ARC
8
DEFAULT_255_2_778
10
6.1572479
20
47.0512438
40
1.3704996
50
141.0888716
51
165.6645381
0
ARC
8
DEFAULT_255_2_778
10
5.988674
20
47.1707683
40
1.1643248
50
107.2990804
51
140.4550845
0
ARC
8
DEFAULT_255_2_778
10
6.0834545
20
46.8737575
40
1.476086
50
91.6428297
51
107.383472
0
ARC
8
DEFAULT_255_2_778
10
6.1035714
20
46.5824638
40
1.7678758
50
89.9913422
51
92.0238898
0
ARC
8
DEFAULT_255_2_778
10
6.1138506
20
46.9078601
40
1.4425142
50
70.9557973
51
90.3976757
0
ARC
8
DEFAULT_255_2_778
10
6.1524961
20
47.0587221
40
1.287362
50
22.5138549
51
70.3907541
0
ARC
8
DEFAULT_255_2_778
10
5.7556487
20
46.869108
40
1.7267249
50
7.1828568
51
23.2839413
0
ARC
8
DEFAULT_255_2_778
10
5.3762902
20
46.8121246
40
2.110251
50
359.9108075
51
7.4300042
0
ARC
8
DEFAULT_255_2_778
10
4.9077647
20
46.8053259
40
2.5787763
50
354.9661656
51
0.0780673
0
ARC
8
DEFAULT_255_2_778
10
5.389628
20
46.762277
40
2.0949942
50
349.7686335
51
354.9826366
0
ARC
8
DEFAULT_255_2_778
10
5.8844625
20
46.6721574
40
1.5920211
50
344.5127068
51
349.7971465
0
ARC
8
DEFAULT_255_2_778
10
6.2304763
20
46.5792086
40
1.2337548
50
342.4888041
51
344.3817297
0
ARC
8
DEFAULT_255_2_778
10
6.4752427
20
46.5007804
40
0.9767336
50
339.0664202
51
342.5559917
0
ARC
8
DEFAULT_255_2_778
10
6.7835728
20
46.3821214
40
0.6463601
50
334.9297279
51
339.1253728
0
ARC
8
DEFAULT_255_2_778
10
6.0503533
20
46.6582552
40
1.1362233
50
336.436876
51
347.1391965
0
ARC
8
DEFAULT_255_2_778
10
5.5542016
20
46.7761513
40
1.6461761
50
346.9824521
51
356.9507655
0
ARC
8
DEFAULT_255_2_778
10
5.3169874
20
46.7947124
40
1.8840511
50
356.7708405
51
0.0129893
0
ARC
8
DEFAULT_255_2_778
10
5.6818619
20
46.8069767
40
1.5192228
50
359.5535708
51
14.7299519
0
ARC
8
DEFAULT_255_2_778
10
6.1372733
20
46.9330925
40
1.0467301
50
14.3918606
51
41.0977975
0
ARC
8
DEFAULT_255_2_778
10
6.2229994
20
46.9867627
40
0.9469815
50
42.0602447
51
75.2434665
0
ARC
8
DEFAULT_255_2_778
10
6.1250173
20
46.642874
40
1.3045045
50
74.9290866
51
90.4426752
0
LINE
8
DEFAULT_255_2_778
10
5.1656386
20
46.1908396
11
4.8923386
21
46.1162396
0
LINE
8
DEFAULT_255_2_778
10
7.3690386
20
46.1082396
11
7.0918386
21
46.2040396
0
LINE
8
DEFAULT_255_2_778
10
4.8108334
20
48.6705469
11
4.8108334
21
50.3350469
0
LINE
8
DEFAULT_255_2_778
10
4.8108334
20
50.3350469
11
7.4439334
21
50.3350469
0
LINE
8
DEFAULT_255_2_778
10
7.4439334
20
50.3350469
11
7.4439334
21
48.7361469
0
LINE
8
DEFAULT_255_2_778
10
7.4439334
20
48.7361469
11
7.1584334
21
48.7361469
0
LINE
8
DEFAULT_255_2_778
10
7.1584334
20
48.7361469
11
7.1584334
21
49.9503469
0
LINE
8
DEFAULT_255_2_778
10
7.1584334
20
49.9503469
11
6.3266334
21
49.9503469
0
LINE
8
DEFAULT_255_2_778
10
6.3266334
20
49.9503469
11
6.3266334
21
48.8065469
0
LINE
8
DEFAULT_255_2_778
10
6.3266334
20
48.8065469
11
6.0451334
21
48.8065469
0
LINE
8
DEFAULT_255_2_778
10
6.0451334
20
48.8065469
11
6.0451334
21
49.9503469
0
LINE
8
DEFAULT_255_2_778
10
6.0451334
20
49.9503469
11
5.0955334
21
49.9503469
0
LINE
8
DEFAULT_255_2_778
10
5.0955334
20
49.9503469
11
5.0955334
21
48.6708469
0
LINE
8
DEFAULT_255_2_778
10
5.0955334
20
48.6708469
11
4.8108334
21
48.6708469
0
LINE
8
DEFAULT_255_2_778
10
4.8108334
20
45.073226
11
7.1545334
21
45.073226
0
LINE
8
DEFAULT_255_2_778
10
7.1545334
20
45.073226
11
7.1545334
21
45.971526
0
LINE
8
DEFAULT_255_2_778
10
7.1545334
20
45.971526
11
7.4439334
21
45.971526
0
LINE
8
DEFAULT_255_2_778
10
7.4439334
20
45.971526
11
7.4439334
21
43.785226
0
LINE
8
DEFAULT_255_2_778
10
7.4439334
20
43.785226
11
7.1545334
21
43.785226
0
LINE
8
DEFAULT_255_2_778
10
7.1545334
20
43.785226
11
7.1545334
21
44.688526
0
LINE
8
DEFAULT_255_2_778
10
7.1545334
20
44.688526
11
4.8108334
21
44.688526
0
LINE
8
DEFAULT_255_2_778
10
4.8108334
20
44.688526
11
4.8108334
21
45.073526
0
LINE
8
DEFAULT_255_2_778
10
4.8108334
20
53.3543844
11
4.8108334
21
53.7393844
0
LINE
8
DEFAULT_255_2_778
10
4.8108334
20
53.7393844
11
7.4439334
21
53.7393844
0
LINE
8
DEFAULT_255_2_778
10
7.4439334
20
53.7393844
11
7.4439334
21
53.3543844
0
LINE
8
DEFAULT_255_2_778
10
7.4439334
20
53.3543844
11
4.8108334
21
53.3543844
0
ARC
8
DEFAULT_255_2_778
10
6.0521125
20
50.0511052
40
7.9503096
50
93.7115133
51
95.7192391
0
ARC
8
DEFAULT_255_2_778
10
6.1619037
20
48.0855717
40
9.9188437
50
90.8192466
51
93.6094225
0
ARC
8
DEFAULT_255_2_778
10
6.3197659
20
38.8710924
40
19.1346559
50
89.9453007
51
90.8973894
0
ARC
8
DEFAULT_255_2_778
10
13.3424802
20
48.7723516
40
12.4805661
50
123.6716255
51
125.2114909
0
ARC
8
DEFAULT_255_2_778
10
10.1751416
20
53.565337
40
6.7356648
50
119.3260175
51
123.8539655
0
ARC
8
DEFAULT_255_2_778
10
8.9188958
20
55.7647708
40
4.2028517
50
116.7738996
51
119.0803715
0
ARC
8
DEFAULT_255_2_778
10
-0.3182827
20
67.6980801
40
11.2215966
50
302.5757985
51
304.9568326
0
ARC
8
DEFAULT_255_2_778
10
2.9481879
20
62.560806
40
5.1338201
50
296.7603006
51
302.7253013
0
ARC
8
DEFAULT_255_2_778
10
3.5842547
20
61.3472469
40
3.7639023
50
296.3713726
51
296.4326073
0
LINE
8
DEFAULT_255_2_778
10
5.2561334
20
57.9753396
11
5.2598334
21
57.9618396
0
LINE
8
DEFAULT_255_2_778
10
6.3380334
20
58.0057396
11
7.4439334
21
58.0057396
0
LINE
8
DEFAULT_255_2_778
10
7.4439334
20
58.0057396
11
7.4439334
21
57.6472396
0
LINE
8
DEFAULT_255_2_778
10
7.4439334
20
57.6472396
11
4.8108334
21
57.6472396
0
LINE
8
DEFAULT_255_2_778
10
4.8108334
20
57.6472396
11
4.8108334
21
58.0319396
0
LINE
8
DEFAULT_255_2_778
10
4.8108334
20
58.0319396
11
6.1462334
21
58.9693396
0
LINE
8
DEFAULT_255_2_778
10
7.0256334
20
59.5170396
11
7.0217334
21
59.5303396
0
LINE
8
DEFAULT_255_2_778
10
7.0217334
20
59.5303396
11
5.9355334
21
59.5043396
0
LINE
8
DEFAULT_255_2_778
10
5.9355334
20
59.5043396
11
4.8108334
21
59.5043396
0
LINE
8
DEFAULT_255_2_778
10
4.8108334
20
59.5043396
11
4.8108334
21
59.8639396
0
LINE
8
DEFAULT_255_2_778
10
4.8108334
20
59.8639396
11
7.4439334
21
59.8639396
0
LINE
8
DEFAULT_255_2_778
10
7.4439334
20
59.8639396
11
7.4439334
21
59.4427396
0
LINE
8
DEFAULT_255_2_778
10
7.4439334
20
59.4427396
11
6.1112334
21
58.5010396
0
ARC
8
DEFAULT_255_2_778
10
3.0713329
20
63.1322561
40
7.7316245
50
70.1389477
51
73.375522
0
ARC
8
DEFAULT_255_2_778
10
0.6230155
20
56.3106658
40
14.9792613
50
68.522195
51
70.195861
0
ARC
8
DEFAULT_255_2_778
10
-2.4495998
20
48.3959182
40
23.4694463
50
68.4534126
51
68.6165769
0
LINE
8
DEFAULT_255_2_778
10
5.2833334
20
70.549102
11
5.2833334
21
70.540702
0
LINE
8
DEFAULT_255_2_778
10
6.1697334
20
70.225302
11
7.4436334
21
69.699602
0
LINE
8
DEFAULT_255_2_778
10
7.4436334
20
69.699602
11
7.4436334
21
69.213502
0
LINE
8
DEFAULT_255_2_778
10
7.4436334
20
69.213502
11
4.8105334
21
69.029902
0
LINE
8
DEFAULT_255_2_778
10
4.8105334
20
69.029902
11
4.8105334
21
69.405902
0
LINE
8
DEFAULT_255_2_778
10
4.8105334
20
69.405902
11
5.9667334
21
69.475702
0
LINE
8
DEFAULT_255_2_778
10
5.9667334
20
69.475702
11
7.1034334
21
69.524102
0
LINE
8
DEFAULT_255_2_778
10
7.1034334
20
69.524102
11
7.1034334
21
69.532902
0
LINE
8
DEFAULT_255_2_778
10
7.1034334
20
69.532902
11
6.1035334
21
69.905102
0
LINE
8
DEFAULT_255_2_778
10
6.1035334
20
69.905102
11
4.8258334
21
70.426602
0
LINE
8
DEFAULT_255_2_778
10
4.8258334
20
70.426602
11
4.8258334
21
70.715802
0
LINE
8
DEFAULT_255_2_778
10
4.8258334
20
70.715802
11
6.0800334
21
71.197902
0
LINE
8
DEFAULT_255_2_778
10
6.0800334
20
71.197902
11
7.1034334
21
71.535002
0
LINE
8
DEFAULT_255_2_778
10
7.1034334
20
71.535002
11
7.1034334
21
71.543702
0
LINE
8
DEFAULT_255_2_778
10
7.1034334
20
71.543702
11
5.9392334
21
71.600602
0
LINE
8
DEFAULT_255_2_778
10
5.9392334
20
71.600602
11
4.8105334
21
71.680002
0
LINE
8
DEFAULT_255_2_778
10
4.8105334
20
71.680002
11
4.8105334
21
72.043502
0
LINE
8
DEFAULT_255_2_778
10
4.8105334
20
72.043502
11
7.4436334
21
71.837402
0
LINE
8
DEFAULT_255_2_778
10
7.4436334
20
71.837402
11
7.4436334
21
71.351102
0
LINE
8
DEFAULT_255_2_778
10
7.4436334
20
71.351102
11
6.1697334
21
70.846802
0
LINE
8
DEFAULT_255_2_778
10
6.1697334
20
70.846802
11
5.2833334
21
70.548602
0
LINE
8
DEFAULT_255_2_778
10
4.8108334
20
76.4826583
11
7.1545334
21
76.4826583
0
LINE
8
DEFAULT_255_2_778
10
7.1545334
20
76.4826583
11
7.1545334
21
77.3809583
0
LINE
8
DEFAULT_255_2_778
10
7.1545334
20
77.3809583
11
7.4439334
21
77.3809583
0
LINE
8
DEFAULT_255_2_778
10
7.4439334
20
77.3809583
11
7.4439334
21
75.1944583
0
LINE
8
DEFAULT_255_2_778
10
7.4439334
20
75.1944583
11
7.1545334
21
75.1944583
0
LINE
8
DEFAULT_255_2_778
10
7.1545334
20
75.1944583
11
7.1545334
21
76.0969583
0
LINE
8
DEFAULT_255_2_778
10
7.1545334
20
76.0969583
11
4.8108334
21
76.0969583
0
LINE
8
DEFAULT_255_2_778
10
4.8108334
20
76.0969583
11
4.8108334
21
76.4824583
0
LINE
8
DEFAULT_255_2_778
10
7.4439334
20
63.9334844
11
7.4439334
21
63.5484844
0
LINE
8
DEFAULT_255_2_778
10
7.4439334
20
63.5484844
11
4.8108334
21
63.5484844
0
LINE
8
DEFAULT_255_2_778
10
4.8108334
20
63.5484844
11
4.8108334
21
63.9334844
0
LINE
8
DEFAULT_255_2_778
10
4.8108334
20
63.9334844
11
7.4439334
21
63.9334844
0
LINE
8
DEFAULT_255_2_778
10
7.1545334
20
65.160626
11
4.8108334
21
65.160626
0
LINE
8
DEFAULT_255_2_778
10
4.8108334
20
65.160626
11
4.8108334
21
65.545826
0
LINE
8
DEFAULT_255_2_778
10
4.8108334
20
65.545826
11
7.1545334
21
65.545826
0
LINE
8
DEFAULT_255_2_778
10
7.1545334
20
65.545826
11
7.1545334
21
66.444126
0
LINE
8
DEFAULT_255_2_778
10
7.1545334
20
66.444126
11
7.4439334
21
66.444126
0
LINE
8
DEFAULT_255_2_778
10
7.4439334
20
66.444126
11
7.4439334
21
64.257826
0
LINE
8
DEFAULT_255_2_778
10
7.4439334
20
64.257826
11
7.1545334
21
64.257826
0
LINE
8
DEFAULT_255_2_778
10
7.1545334
20
64.257826
11
7.1545334
21
65.160326
0
LINE
8
DEFAULT_255_2_778
10
6.910224
20
81.6558677
11
6.001624
21
82.0006677
0
LINE
8
DEFAULT_255_2_778
10
6.001624
20
82.0006677
11
6.001624
21
80.9398677
0
LINE
8
DEFAULT_255_2_778
10
6.001624
20
80.9398677
11
6.905424
21
81.2899677
0
LINE
8
DEFAULT_255_2_778
10
6.905424
20
81.2899677
11
7.478224
21
81.4677677
0
LINE
8
DEFAULT_255_2_778
10
7.478224
20
81.4677677
11
7.478224
21
81.4833677
0
LINE
8
DEFAULT_255_2_778
10
7.478224
20
81.4833677
11
6.910224
21
81.6555677
0
LINE
8
DEFAULT_255_2_778
10
6.910224
20
81.6555677
11
6.910224
21
81.6558677
0
LINE
8
DEFAULT_255_2_778
10
4.698024
20
80.4699677
11
4.698024
21
79.9842677
0
LINE
8
DEFAULT_255_2_778
10
4.698024
20
79.9842677
11
7.836824
21
81.1854677
0
LINE
8
DEFAULT_255_2_778
10
7.836824
20
81.1854677
11
7.836824
21
81.7344677
0
LINE
8
DEFAULT_255_2_778
10
7.836824
20
81.7344677
11
4.698024
21
82.9303677
0
LINE
8
DEFAULT_255_2_778
10
4.698024
20
82.9303677
11
4.698024
21
82.4601677
0
LINE
8
DEFAULT_255_2_778
10
4.698024
20
82.4601677
11
5.684924
21
82.0942677
0
LINE
8
DEFAULT_255_2_778
10
5.684924
20
82.0942677
11
5.684924
21
80.8462677
0
LINE
8
DEFAULT_255_2_778
10
5.684924
20
80.8462677
11
4.698024
21
80.4699677
0
ARC
8
DEFAULT_255_2_778
10
6.243738
20
73.8188823
40
0.9655422
50
359.467408
51
19.7042008
0
ARC
8
DEFAULT_255_2_778
10
6.284962
20
73.7988146
40
0.9340742
50
21.7160559
51
76.9227183
0
ARC
8
DEFAULT_255_2_778
10
6.1163833
20
73.3289364
40
1.4310813
50
74.6043753
51
90.2179896
0
ARC
8
DEFAULT_255_2_778
10
6.0979869
20
73.5414427
40
1.2186334
50
89.3910451
51
120.6132466
0
ARC
8
DEFAULT_255_2_778
10
5.9197794
20
73.8364766
40
0.8739751
50
120.4082814
51
169.7576505
0
ARC
8
DEFAULT_255_2_778
10
6.0226925
20
73.8207071
40
0.9780561
50
169.9205673
51
180.1230143
0
ARC
8
DEFAULT_255_2_778
10
5.9863295
20
73.8051045
40
0.941734
50
179.4522587
51
201.7645343
0
ARC
8
DEFAULT_255_2_778
10
5.9602378
20
73.8230175
40
0.9245186
50
203.3953244
51
253.3903187
0
ARC
8
DEFAULT_255_2_778
10
6.1292283
20
74.2588492
40
1.3909725
50
251.8513709
51
270.379387
0
ARC
8
DEFAULT_255_2_778
10
6.1384082
20
74.2119038
40
1.3439966
50
270.0012949
51
272.8176205
0
ARC
8
DEFAULT_255_2_778
10
6.1811542
20
73.9940902
40
1.1247999
50
271.1880141
51
316.8312397
0
ARC
8
DEFAULT_255_2_778
10
6.3666059
20
73.773229
40
0.8391378
50
319.1674921
51
349.0614723
0
ARC
8
DEFAULT_255_2_778
10
6.209097
20
73.8067323
40
1.0001467
50
348.8892454
51
0.1818873
0
ARC
8
DEFAULT_255_2_778
10
6.1450715
20
74.1701867
40
1.7105046
50
257.0580554
51
270.3104159
0
ARC
8
DEFAULT_255_2_778
10
6.0571094
20
73.795619
40
1.3257528
50
237.4557713
51
257.1374914
0
ARC
8
DEFAULT_255_2_778
10
6.0515327
20
73.7408805
40
1.2768494
50
186.2618289
51
236.3452999
0
ARC
8
DEFAULT_255_2_778
10
6.4249268
20
73.8253216
40
1.657789
50
179.9382858
51
187.7554176
0
ARC
8
DEFAULT_255_2_778
10
6.2718801
20
73.8412778
40
1.5047726
50
162.538049
51
180.3682169
0
ARC
8
DEFAULT_255_2_778
10
5.9885641
20
73.9356463
40
1.2062058
50
106.5461843
51
162.7757642
0
ARC
8
DEFAULT_255_2_778
10
6.0933324
20
73.6214239
40
1.5372921
50
89.7633808
51
106.9540418
0
ARC
8
DEFAULT_255_2_778
10
6.10345
20
73.4686379
40
1.6900693
50
89.9969969
51
90.127772
0
ARC
8
DEFAULT_255_2_778
10
6.1128967
20
73.5620368
40
1.5966979
50
73.9592156
51
90.3358078
0
ARC
8
DEFAULT_255_2_778
10
6.2019288
20
73.8613921
40
1.2843994
50
46.0680033
51
74.0862311
0
ARC
8
DEFAULT_255_2_778
10
6.1879805
20
73.8682039
40
1.2892558
50
12.3250015
51
45.4115467
0
ARC
8
DEFAULT_255_2_778
10
5.9151022
20
73.7967318
40
1.5711437
50
359.8240609
51
12.7471967
0
ARC
8
DEFAULT_255_2_778
10
5.9289597
20
73.7821999
40
1.5573092
50
344.266186
51
0.3571501
0
ARC
8
DEFAULT_255_2_778
10
6.2495119
20
73.6883075
40
1.2233116
50
315.9940108
51
344.4278094
0
ARC
8
DEFAULT_255_2_778
10
6.2505688
20
73.7093097
40
1.2372438
50
283.7263459
51
315.2604343
0
ARC
8
DEFAULT_255_2_778
10
6.1611369
20
74.0308107
40
1.5708194
50
269.7410879
51
284.1126342
0
LINE
8
DEFAULT_255_2_778
10
5.0446386
20
73.8186073
11
5.0446386
21
73.8141073
0
LINE
8
DEFAULT_255_2_778
10
7.2092386
20
73.8099073
11
7.2092386
21
73.8099073
0
LINE
8
DEFAULT_255_2_778
10
4.7671386
20
73.8271073
11
4.7671386
21
73.8316073
0
LINE
8
DEFAULT_255_2_778
10
6.1540386
20
72.4600073
11
6.1543386
21
72.4597073
0
LINE
8
DEFAULT_255_2_778
10
5.6387334
20
66.9180718
11
5.6387334
21
67.9655718
0
LINE
8
DEFAULT_255_2_778
10
5.6387334
20
67.9655718
11
4.8108334
21
68.2718718
0
LINE
8
DEFAULT_255_2_778
10
4.8108334
20
68.2718718
11
4.8108334
21
68.6666718
0
LINE
8
DEFAULT_255_2_778
10
4.8108334
20
68.6666718
11
7.4439334
21
67.6630718
0
LINE
8
DEFAULT_255_2_778
10
7.4439334
20
67.6630718
11
7.4439334
21
67.2032718
0
LINE
8
DEFAULT_255_2_778
10
7.4439334
20
67.2032718
11
4.8108334
21
66.1957718
0
LINE
8
DEFAULT_255_2_778
10
4.8108334
20
66.1957718
11
4.8108334
21
66.6029718
0
LINE
8
DEFAULT_255_2_778
10
4.8108334
20
66.6029718
11
5.6387334
21
66.9180718
0
LINE
8
DEFAULT_255_2_778
10
7.1428334
20
67.4524718
11
6.6663334
21
67.5974718
0
LINE
8
DEFAULT_255_2_778
10
6.6663334
20
67.5974718
11
5.9041334
21
67.8861718
0
LINE
8
DEFAULT_255_2_778
10
5.9041334
20
67.8861718
11
5.9041334
21
66.9973718
0
LINE
8
DEFAULT_255_2_778
10
5.9041334
20
66.9973718
11
6.6621334
21
67.2910718
0
LINE
8
DEFAULT_255_2_778
10
6.6621334
20
67.2910718
11
7.1428334
21
67.4395718
0
LINE
8
DEFAULT_255_2_778
10
7.1428334
20
67.4395718
11
7.1428334
21
67.4524718
0
ARC
8
DEFAULT_255_2_778
10
5.9866092
20
61.7033964
40
0.9417454
50
179.4558914
51
201.7643072
0
ARC
8
DEFAULT_255_2_778
10
5.9613759
20
61.7215579
40
0.9254164
50
203.3880871
51
253.3506591
0
ARC
8
DEFAULT_255_2_778
10
6.1295568
20
62.1544755
40
1.388866
50
251.8202407
51
270.3774511
0
ARC
8
DEFAULT_255_2_778
10
6.1386759
20
62.1096361
40
1.3439966
50
270.0012949
51
272.8176205
0
ARC
8
DEFAULT_255_2_778
10
6.1813771
20
61.8920213
40
1.1249996
50
271.1900852
51
316.8062549
0
ARC
8
DEFAULT_255_2_778
10
6.3670104
20
61.6708885
40
0.8390021
50
319.1393862
51
349.0519768
0
ARC
8
DEFAULT_255_2_778
10
6.2096939
20
61.704363
40
0.9998174
50
348.8807476
51
0.1820354
0
ARC
8
DEFAULT_255_2_778
10
6.2412904
20
61.7165124
40
0.9682575
50
359.469034
51
19.6280441
0
ARC
8
DEFAULT_255_2_778
10
6.285006
20
61.6976404
40
0.9339856
50
21.619721
51
76.8933867
0
ARC
8
DEFAULT_255_2_778
10
6.1166646
20
61.2288437
40
1.4299064
50
74.5827463
51
90.2187124
0
ARC
8
DEFAULT_255_2_778
10
6.0983435
20
61.4409923
40
1.2178152
50
89.3948206
51
120.6408911
0
ARC
8
DEFAULT_255_2_778
10
5.9207709
20
61.7345955
40
0.87471
50
120.4350039
51
169.7578556
0
ARC
8
DEFAULT_255_2_778
10
6.0231999
20
61.7189326
40
0.9782958
50
169.9218129
51
180.1225852
0
ARC
8
DEFAULT_255_2_778
10
5.9297359
20
61.6806408
40
1.5571006
50
344.2651292
51
0.3568806
0
ARC
8
DEFAULT_255_2_778
10
6.2499916
20
61.5868291
40
1.2234103
50
315.9951596
51
344.4265815
0
ARC
8
DEFAULT_255_2_778
10
6.2510693
20
61.6077873
40
1.2372965
50
283.7289533
51
315.2623931
0
ARC
8
DEFAULT_255_2_778
10
6.1617005
20
61.9290259
40
1.5706024
50
269.7412013
51
284.1147783
0
ARC
8
DEFAULT_255_2_778
10
6.1453248
20
62.0704951
40
1.7120807
50
257.0706704
51
270.3106117
0
ARC
8
DEFAULT_255_2_778
10
6.0571254
20
61.6946268
40
1.3260086
50
237.475731
51
257.1511747
0
ARC
8
DEFAULT_255_2_778
10
6.0509617
20
61.6389443
40
1.2759852
50
186.2535151
51
236.3647096
0
ARC
8
DEFAULT_255_2_778
10
6.4262954
20
61.7237384
40
1.6588899
50
179.9377917
51
187.7528438
0
ARC
8
DEFAULT_255_2_778
10
6.2739421
20
61.7395232
40
1.5065669
50
162.5485267
51
180.3682793
0
ARC
8
DEFAULT_255_2_778
10
5.9892514
20
61.8344283
40
1.2065294
50
106.5624063
51
162.7935009
0
ARC
8
DEFAULT_255_2_778
10
6.0936025
20
61.5212675
40
1.5364809
50
89.7633431
51
106.9633555
0
ARC
8
DEFAULT_255_2_778
10
6.1037177
20
61.3676702
40
1.6900693
50
89.9969969
51
90.127772
0
ARC
8
DEFAULT_255_2_778
10
6.1131524
20
61.4622057
40
1.5955612
50
73.9470296
51
90.3356148
0
ARC
8
DEFAULT_255_2_778
10
6.2018981
20
61.7604657
40
1.2843939
50
46.0492796
51
74.0723183
0
ARC
8
DEFAULT_255_2_778
10
6.1872962
20
61.7665748
40
1.2902145
50
12.3217793
51
45.3941431
0
ARC
8
DEFAULT_255_2_778
10
5.9146191
20
61.6951526
40
1.5718946
50
359.8245635
51
12.7441362
0
LINE
8
DEFAULT_255_2_778
10
5.0449063
20
61.7168395
11
5.0449063
21
61.7123395
0
LINE
8
DEFAULT_255_2_778
10
4.7674063
20
61.7255395
11
4.7674063
21
61.7298395
0
LINE
8
DEFAULT_255_2_778
10
7.4865063
20
61.6903395
11
7.4868063
21
61.6903395
0
ARC
8
DEFAULT_255_2_778
10
6.4702097
20
56.3734393
40
1.5313386
50
171.6189186
51
178.7358507
0
ARC
8
DEFAULT_255_2_778
10
12.8431181
20
56.1907112
40
7.9068392
50
178.4308799
51
180.3483316
0
ARC
8
DEFAULT_255_2_778
10
7.7685047
20
56.1293478
40
2.8321108
50
179.7310554
51
179.9997157
0
ARC
8
DEFAULT_255_2_778
10
7.2861573
20
56.1176112
40
2.3497928
50
179.7134771
51
189.3866343
0
ARC
8
DEFAULT_255_2_778
10
6.5674313
20
55.9954567
40
1.6207708
50
189.2700575
51
203.0196412
0
ARC
8
DEFAULT_255_2_778
10
6.1214741
20
55.7992342
40
1.1336096
50
202.7059051
51
230.0442729
0
ARC
8
DEFAULT_255_2_778
10
6.1191527
20
55.8266259
40
1.1532783
50
231.0066512
51
257.1387924
0
ARC
8
DEFAULT_255_2_778
10
6.2416921
20
56.3228854
40
1.664388
50
256.8288738
51
270.4176731
0
ARC
8
DEFAULT_255_2_778
10
6.2651738
20
56.408457
40
1.7499521
50
269.6284247
51
269.9996314
0
ARC
8
DEFAULT_255_2_778
10
6.2787539
20
56.0612913
40
1.4028523
50
269.4448873
51
285.7039321
0
ARC
8
DEFAULT_255_2_778
10
6.3915061
20
55.6662795
40
0.992068
50
285.6099661
51
336.1089854
0
ARC
8
DEFAULT_255_2_778
10
5.938152
20
55.8916422
40
1.4980173
50
335.2504648
51
348.7640751
0
ARC
8
DEFAULT_255_2_778
10
5.2442401
20
56.0343382
40
2.2064384
50
348.6406611
51
358.0327321
0
ARC
8
DEFAULT_255_2_778
10
4.6344769
20
56.0685563
40
2.8170483
50
357.7629217
51
0.0200411
0
ARC
8
DEFAULT_255_2_778
10
3.6821869
20
56.0749369
40
3.769342
50
359.9179888
51
3.5294747
0
ARC
8
DEFAULT_255_2_778
10
4.7632023
20
56.1437288
40
2.686143
50
3.4844276
51
7.6957507
0
ARC
8
DEFAULT_255_2_778
10
5.6184488
20
56.2569587
40
1.823438
50
7.7685949
51
10.7265853
0
ARC
8
DEFAULT_255_2_778
10
0.2699759
20
56.0632348
40
7.5004339
50
4.564136
51
7.5709202
0
ARC
8
DEFAULT_255_2_778
10
0.5637262
20
56.0855763
40
7.2058375
50
0.6332652
51
4.5729179
0
ARC
8
DEFAULT_255_2_778
10
0.7958505
20
56.0903772
40
6.9736745
50
0.0005295
51
0.6149019
0
ARC
8
DEFAULT_255_2_778
10
3.7400075
20
56.0784111
40
4.0295355
50
354.5128353
51
0.1710617
0
ARC
8
DEFAULT_255_2_778
10
5.0335635
20
55.9503041
40
2.7296596
50
346.5374793
51
354.5931543
0
ARC
8
DEFAULT_255_2_778
10
5.9063555
20
55.7380752
40
1.8314439
50
334.9294155
51
346.6376965
0
ARC
8
DEFAULT_255_2_778
10
6.3571943
20
55.5290269
40
1.3345001
50
320.5200941
51
334.857163
0
ARC
8
DEFAULT_255_2_778
10
6.3890398
20
55.4687499
40
1.2718672
50
284.5576419
51
321.7039243
0
ARC
8
DEFAULT_255_2_778
10
6.2890859
20
55.8428925
40
1.6591241
50
271.326151
51
284.6509742
0
ARC
8
DEFAULT_255_2_778
10
6.2680953
20
56.2079691
40
2.0246275
50
269.9923515
51
271.6809085
0
ARC
8
DEFAULT_255_2_778
10
6.2571657
20
56.0382252
40
1.8549142
50
255.152545
51
270.3292533
0
ARC
8
DEFAULT_255_2_778
10
6.1531787
20
55.6664486
40
1.4689136
50
221.9219409
51
255.357273
0
ARC
8
DEFAULT_255_2_778
10
6.1731346
20
55.6432161
40
1.4685591
50
203.9041244
51
220.7272481
0
ARC
8
DEFAULT_255_2_778
10
6.8001861
20
55.9297643
40
2.1579511
50
193.2267987
51
204.1134426
0
ARC
8
DEFAULT_255_2_778
10
7.6726519
20
56.1386509
40
3.0550689
50
184.7278751
51
193.2965575
0
ARC
8
DEFAULT_255_2_778
10
8.5921572
20
56.2245322
40
3.9785362
50
179.9192167
51
184.8690121
0
LINE
8
DEFAULT_255_2_778
10
7.410025
20
56.5966416
11
4.955225
21
56.5966416
0
LINE
8
DEFAULT_255_2_778
10
7.410025
20
56.5963416
11
7.410025
21
56.5966416
0
LINE
8
DEFAULT_255_2_778
10
4.650425
20
57.0514416
11
7.705025
21
57.0514416
0
LINE
8
DEFAULT_255_2_778
10
4.613625
20
56.2301416
11
4.650425
21
57.0514416
0
LINE
8
DEFAULT_255_2_778
10
4.650425
20
57.0514416
11
4.650425
21
57.0514416
0
ARC
8
DEFAULT_255_2_778
10
4.4030375
20
52.1555707
40
3.0485393
50
6.3962457
51
10.0525204
0
ARC
8
DEFAULT_255_2_778
10
2.618525
20
51.9521317
40
4.8446086
50
1.9627631
51
6.4361152
0
ARC
8
DEFAULT_255_2_778
10
2.832501
20
51.9546153
40
4.6306756
50
0.0282169
51
2.0227301
0
ARC
8
DEFAULT_255_2_778
10
4.7614207
20
51.9448373
40
2.7017823
50
354.2968111
51
0.2557207
0
ARC
8
DEFAULT_255_2_778
10
5.9099202
20
51.8250163
40
1.5470689
50
344.3470057
51
354.4855273
0
ARC
8
DEFAULT_255_2_778
10
6.5328825
20
51.6453495
40
0.8987478
50
325.0744539
51
344.6607736
0
ARC
8
DEFAULT_255_2_778
10
6.6546323
20
51.5704415
40
0.7560851
50
321.2602668
51
324.4465073
0
ARC
8
DEFAULT_255_2_778
10
6.7624734
20
51.4851096
40
0.6185707
50
273.6300709
51
321.1744371
0
ARC
8
DEFAULT_255_2_778
10
6.7442755
20
51.5868894
40
0.7213936
50
269.9841603
51
274.5607438
0
ARC
8
DEFAULT_255_2_778
10
6.7381164
20
51.4902671
40
0.6247997
50
233.4111379
51
270.5465233
0
ARC
8
DEFAULT_255_2_778
10
6.8812768
20
51.6458233
40
0.8353303
50
195.5637344
51
231.886463
0
ARC
8
DEFAULT_255_2_778
10
5.4967703
20
51.6097503
40
0.5979472
50
292.0923869
51
341.6693621
0
ARC
8
DEFAULT_255_2_778
10
5.2364168
20
52.1157142
40
1.1657954
50
284.7421492
51
294.5969662
0
ARC
8
DEFAULT_255_2_778
10
5.0569208
20
50.7421859
40
0.4839777
50
109.6445675
51
120.5697531
0
ARC
8
DEFAULT_255_2_778
10
5.6179679
20
49.264031
40
2.0649533
50
106.3992772
51
110.5175055
0
ARC
8
DEFAULT_255_2_778
10
6.6083646
20
45.9672071
40
5.5073064
50
104.639721
51
106.60022
0
ARC
8
DEFAULT_255_2_778
10
8.1395743
20
40.1471231
40
11.5254396
50
103.5492781
51
104.6920619
0
ARC
8
DEFAULT_255_2_778
10
5.1937888
20
52.4263053
40
1.1022177
50
282.8742464
51
294.4296771
0
ARC
8
DEFAULT_255_2_778
10
5.4588923
20
51.8676978
40
0.4840925
50
293.2055395
51
328.2504089
0
ARC
8
DEFAULT_255_2_778
10
5.3620929
20
51.8999667
40
0.5838596
50
330.5568199
51
353.7971092
0
ARC
8
DEFAULT_255_2_778
10
4.848518
20
51.9801688
40
1.10336
50
352.5382042
51
358.2719203
0
ARC
8
DEFAULT_255_2_778
10
7.206125
20
51.9063675
40
0.9971025
50
179.406503
51
195.6560167
0
ARC
8
DEFAULT_255_2_778
10
6.8268916
20
51.7945388
40
0.6017843
50
195.1476521
51
222.156333
0
ARC
8
DEFAULT_255_2_778
10
6.7011875
20
51.6897421
40
0.4383138
50
223.0295033
51
271.0050888
0
ARC
8
DEFAULT_255_2_778
10
6.7202615
20
51.7115355
40
0.4601806
50
268.5822836
51
299.3318449
0
ARC
8
DEFAULT_255_2_778
10
6.6972272
20
51.7062218
40
0.4673826
50
302.1137699
51
342.8922908
0
ARC
8
DEFAULT_255_2_778
10
6.212396
20
51.8827317
40
0.9830314
50
341.3721806
51
356.9356336
0
ARC
8
DEFAULT_255_2_778
10
5.7070209
20
51.9286241
40
1.4902561
50
356.2124042
51
0.0604258
0
ARC
8
DEFAULT_255_2_778
10
4.4546341
20
51.9354944
40
2.7426471
50
359.8893082
51
3.6451416
0
ARC
8
DEFAULT_255_2_778
10
5.5303787
20
52.0072026
40
1.6645229
50
3.5360017
51
8.2663789
0
ARC
8
DEFAULT_255_2_778
10
6.3668072
20
52.1275328
40
0.8194849
50
8.3487343
51
12.3781835
0
ARC
8
DEFAULT_255_2_778
10
6.6435291
20
52.1856732
40
0.5367385
50
12.6482772
51
13.0638493
0
LINE
8
DEFAULT_255_2_778
10
4.8107761
20
52.6876958
11
7.4047761
21
52.6876958
0
LINE
8
DEFAULT_255_2_778
10
6.0765761
20
51.4216958
11
6.0643761
21
51.4216958
0
LINE
8
DEFAULT_255_2_778
10
5.5330761
20
50.9882958
11
4.8107761
21
50.7646958
0
LINE
8
DEFAULT_255_2_778
10
4.8107761
20
50.7646958
11
4.8107761
21
51.1588958
0
LINE
8
DEFAULT_255_2_778
10
5.9513761
20
51.9468958
11
5.9513761
21
52.3063958
0
LINE
8
DEFAULT_255_2_778
10
5.9513761
20
52.3063958
11
4.8110761
21
52.3063958
0
LINE
8
DEFAULT_255_2_778
10
4.8110761
20
52.3063958
11
4.8107761
21
52.6876958
0
LINE
8
DEFAULT_255_2_778
10
7.1663761
20
52.3066958
11
6.2090761
21
52.3066958
0
LINE
8
DEFAULT_255_2_778
10
6.2090761
20
52.3066958
11
6.2090761
21
51.9166958
0
LINE
8
DEFAULT_255_2_778
10
7.1663761
20
52.3069958
11
7.1663761
21
52.3066958
0
ARC
8
DEFAULT_255_2_778
10
4.8718617
20
42.8436432
40
0.0861921
50
173.51631
51
266.9135312
0
ARC
8
DEFAULT_255_2_778
10
4.8659586
20
42.8444591
40
0.0869208
50
271.689195
51
5.8881643
0
ARC
8
DEFAULT_255_2_778
10
4.8657439
20
42.8628887
40
0.0871974
50
353.736921
51
87.1227699
0
ARC
8
DEFAULT_255_2_778
10
4.8741853
20
42.8617111
40
0.0883585
50
92.6365369
51
185.412902
0
LINE
8
DEFAULT_255_2_778
10
4.8672208
20
42.757576
11
4.8685208
21
42.757576
0
ARC
8
DEFAULT_255_2_778
10
7.2652604
20
43.2491503
40
0.2928929
50
129.0964069
51
153.1887752
0
ARC
8
DEFAULT_255_2_778
10
7.220873
20
43.3153332
40
0.2136617
50
87.966585
51
131.0512196
0
ARC
8
DEFAULT_255_2_778
10
7.2281824
20
43.3311518
40
0.1977088
50
69.0817965
51
89.9212244
0
ARC
8
DEFAULT_255_2_778
10
7.2242307
20
43.3251034
40
0.2047751
50
31.3952718
51
68.6532247
0
ARC
8
DEFAULT_255_2_778
10
7.1205971
20
43.2619913
40
0.3261138
50
9.9689376
51
31.3751157
0
ARC
8
DEFAULT_255_2_778
10
6.8753914
20
43.2127105
40
0.5761807
50
359.5475343
51
10.574365
0
ARC
8
DEFAULT_255_2_778
10
6.9686763
20
43.2037352
40
0.363182
50
358.0789394
51
21.0208309
0
ARC
8
DEFAULT_255_2_778
10
7.1883694
20
43.2917034
40
0.1265977
50
19.5233174
51
91.4552819
0
ARC
8
DEFAULT_255_2_778
10
7.1971575
20
43.2540851
40
0.1646135
50
94.1816325
51
164.4695751
0
ARC
8
DEFAULT_255_2_778
10
7.3070454
20
43.2246904
40
0.2783619
50
164.6962132
51
178.7093321
0
ARC
8
DEFAULT_255_2_778
10
6.6482461
20
43.2290104
40
0.2612146
50
357.2242096
51
31.2919006
0
ARC
8
DEFAULT_255_2_778
10
6.7714342
20
43.2981828
40
0.1201171
50
33.6172816
51
91.4693492
0
ARC
8
DEFAULT_255_2_778
10
6.7850039
20
43.2459241
40
0.1731387
50
95.5183271
51
167.0718003
0
ARC
8
DEFAULT_255_2_778
10
6.801678
20
43.2243192
40
0.1949951
50
161.9739179
51
179.9988039
0
ARC
8
DEFAULT_255_2_778
10
6.8012793
20
43.224324
40
0.1945963
50
180.0002218
51
181.5499789
0
ARC
8
DEFAULT_255_2_778
10
6.8121763
20
43.2925368
40
0.23655
50
99.3754345
51
154.9055622
0
ARC
8
DEFAULT_255_2_778
10
6.810702
20
43.2665223
40
0.2620387
50
89.8792622
51
98.1306708
0
ARC
8
DEFAULT_255_2_778
10
6.8059943
20
43.326096
40
0.2025327
50
15.7173211
51
88.5118185
0
LINE
8
DEFAULT_255_2_778
10
7.4515542
20
43.2081604
11
7.4515542
21
42.7739604
0
LINE
8
DEFAULT_255_2_778
10
7.4515542
20
42.7739604
11
7.3316542
21
42.7739604
0
LINE
8
DEFAULT_255_2_778
10
7.3316542
20
42.7739604
11
7.3316542
21
43.1915604
0
LINE
8
DEFAULT_255_2_778
10
7.0287542
20
43.2309604
11
7.0287542
21
42.7739604
0
LINE
8
DEFAULT_255_2_778
10
7.0287542
20
42.7739604
11
6.9091542
21
42.7739604
0
LINE
8
DEFAULT_255_2_778
10
6.9091542
20
42.7739604
11
6.9091542
21
43.2163604
0
LINE
8
DEFAULT_255_2_778
10
6.6067542
20
43.2190604
11
6.6067542
21
42.7737604
0
LINE
8
DEFAULT_255_2_778
10
6.6067542
20
42.7737604
11
6.4863542
21
42.7737604
0
LINE
8
DEFAULT_255_2_778
10
6.4863542
20
42.7737604
11
6.4863542
21
43.3113604
0
LINE
8
DEFAULT_255_2_778
10
6.4863542
20
43.3113604
11
6.4810542
21
43.5108604
0
LINE
8
DEFAULT_255_2_778
10
6.4810542
20
43.5108604
11
6.5879542
21
43.5108604
0
LINE
8
DEFAULT_255_2_778
10
6.5879542
20
43.5108604
11
6.5937542
21
43.3928604
0
LINE
8
DEFAULT_255_2_778
10
6.5937542
20
43.3928604
11
6.5979542
21
43.3928604
0
LINE
8
DEFAULT_255_2_778
10
7.0009542
20
43.3809604
11
7.0041542
21
43.3809604
0
ARC
8
DEFAULT_255_2_778
10
5.3924868
20
43.2270545
40
0.4694245
50
269.9524064
51
285.6504796
0
ARC
8
DEFAULT_255_2_778
10
5.4105896
20
43.1609204
40
0.4008589
50
285.7089713
51
291.1902347
0
ARC
8
DEFAULT_255_2_778
10
5.4556307
20
43.0474122
40
0.2787463
50
290.9916017
51
297.8843028
0
ARC
8
DEFAULT_255_2_778
10
5.3051992
20
43.4437337
40
0.6020904
50
294.4078323
51
295.5517818
0
ARC
8
DEFAULT_255_2_778
10
5.4179367
20
43.1860833
40
0.3209031
50
275.265658
51
295.087529
0
ARC
8
DEFAULT_255_2_778
10
5.4143915
20
43.2276217
40
0.3625918
50
269.9376445
51
275.2211207
0
ARC
8
DEFAULT_255_2_778
10
5.4148603
20
43.0946279
40
0.2295993
50
187.2329077
51
269.7845269
0
ARC
8
DEFAULT_255_2_778
10
5.5618856
20
43.1395076
40
0.3819918
50
179.7716216
51
191.1374692
0
ARC
8
DEFAULT_255_2_778
10
5.4767131
20
43.155793
40
0.2971832
50
134.6122319
51
182.8473847
0
ARC
8
DEFAULT_255_2_778
10
5.4127505
20
43.2001565
40
0.2211483
50
88.5110304
51
130.8848234
0
ARC
8
DEFAULT_255_2_778
10
5.4258428
20
43.1408032
40
0.2805232
50
89.9991492
51
91.500548
0
ARC
8
DEFAULT_255_2_778
10
5.4261115
20
43.1440402
40
0.2772863
50
60.9871703
51
90.0546562
0
ARC
8
DEFAULT_255_2_778
10
5.5054042
20
43.3472742
40
0.1637462
50
59.54661
51
61.4850054
0
ARC
8
DEFAULT_255_2_778
10
5.4327626
20
43.1929762
40
0.3341496
50
63.1708581
51
81.8038998
0
ARC
8
DEFAULT_255_2_778
10
5.4180836
20
43.1313393
40
0.3972911
50
80.9757806
51
89.9403991
0
ARC
8
DEFAULT_255_2_778
10
5.4102025
20
43.1790501
40
0.3496785
50
88.6408097
51
172.9379409
0
ARC
8
DEFAULT_255_2_778
10
5.5575385
20
43.1362962
40
0.5017428
50
170.1601876
51
180.1217252
0
ARC
8
DEFAULT_255_2_778
10
5.4911457
20
43.1244389
40
0.4354826
50
178.5800563
51
209.692248
0
ARC
8
DEFAULT_255_2_778
10
5.380964
20
43.0700247
40
0.3128997
50
211.0305552
51
272.0756401
0
LINE
8
DEFAULT_255_2_778
10
5.5859969
20
42.8010302
11
5.5648969
21
42.9005302
0
LINE
8
DEFAULT_255_2_778
10
5.5605969
20
43.3865302
11
5.5883969
21
43.4884302
0
ARC
8
DEFAULT_255_2_778
10
5.9966035
20
43.0853221
40
0.3277919
50
270.0044796
51
276.10071
0
ARC
8
DEFAULT_255_2_778
10
5.9991698
20
43.0757205
40
0.3179757
50
275.8247928
51
328.195382
0
ARC
8
DEFAULT_255_2_778
10
5.9132235
20
43.1238944
40
0.4164287
50
328.7946126
51
354.8667209
0
ARC
8
DEFAULT_255_2_778
10
5.7401391
20
43.1494636
40
0.5911909
50
353.8994169
51
0.0936739
0
ARC
8
DEFAULT_255_2_778
10
5.8910673
20
43.1607696
40
0.4403832
50
358.6546797
51
30.0716965
0
ARC
8
DEFAULT_255_2_778
10
6.0129823
20
43.2273817
40
0.3015197
50
30.7260474
51
91.2453385
0
ARC
8
DEFAULT_255_2_778
10
6.0048734
20
43.2073045
40
0.3215295
50
89.7227546
51
165.1885935
0
ARC
8
DEFAULT_255_2_778
10
6.1811362
20
43.1413888
40
0.5091283
50
163.0875102
51
180.5242726
0
ARC
8
DEFAULT_255_2_778
10
6.1170317
20
43.1275324
40
0.4450975
50
178.8159104
51
207.8161958
0
ARC
8
DEFAULT_255_2_778
10
5.9927323
20
43.0621831
40
0.3046667
50
207.8546681
51
270.5448013
0
ARC
8
DEFAULT_255_2_778
10
6.009459
20
43.0539818
40
0.1961733
50
195.6420077
51
266.7183478
0
ARC
8
DEFAULT_255_2_778
10
6.190666
20
43.1369322
40
0.3942571
50
179.4189772
51
200.1547169
0
ARC
8
DEFAULT_255_2_778
10
6.2678499
20
43.1409349
40
0.4714207
50
178.1072767
51
180.0005756
0
ARC
8
DEFAULT_255_2_778
10
6.109636
20
43.1650904
40
0.3130673
50
134.2307779
51
181.5714196
0
ARC
8
DEFAULT_255_2_778
10
5.999456
20
43.2550211
40
0.1725363
50
88.979407
51
128.837563
0
ARC
8
DEFAULT_255_2_778
10
5.9877231
20
43.2205836
40
0.2074756
50
5.4272153
51
85.9077265
0
ARC
8
DEFAULT_255_2_778
10
5.7921025
20
43.1478682
40
0.4126305
50
8.6122714
51
12.9311835
0
ARC
8
DEFAULT_255_2_778
10
5.7768521
20
43.1454082
40
0.4280774
50
0.0430939
51
8.6321467
0
ARC
8
DEFAULT_255_2_778
10
5.8393649
20
43.1367438
40
0.3656747
50
330.0381666
51
1.4081687
0
ARC
8
DEFAULT_255_2_778
10
5.9945105
20
43.0421081
40
0.184055
50
271.6559096
51
331.4407356
0
LINE
8
DEFAULT_255_2_778
10
5.9956292
20
42.7575302
11
5.9966292
21
42.7575302
0
LINE
8
DEFAULT_255_2_778
10
5.9956292
20
42.7575302
11
5.9956292
21
42.7575302
0
LINE
8
DEFAULT_255_2_778
10
5.9998292
20
42.8581302
11
5.9982292
21
42.8581302
0
ARC
8
DEFAULT_255_2_778
10
-26.706413
20
30.5550907
40
82.014901
50
57.214915
51
57.7420252
0
ARC
8
DEFAULT_255_2_778
10
-18.8675068
20
42.7271698
40
67.5370571
50
56.6784971
51
57.2142163
0
ARC
8
DEFAULT_255_2_778
10
-11.904703
20
53.3110941
40
54.8681949
50
55.9904466
51
56.6826659
0
ARC
8
DEFAULT_255_2_778
10
-5.9481285
20
62.1423212
40
44.2159018
50
55.3218658
51
55.9879695
0
ARC
8
DEFAULT_255_2_778
10
-1.1741424
20
69.0403193
40
35.8270211
50
54.5574026
51
55.3238114
0
ARC
8
DEFAULT_255_2_778
10
35.0129671
20
62.1871374
40
39.1981172
50
113.1518282
51
114.2654476
0
ARC
8
DEFAULT_255_2_778
10
37.4692535
20
56.7417754
40
45.1718353
50
114.2672554
51
115.4070563
0
ARC
8
DEFAULT_255_2_778
10
40.2142508
20
50.952023
40
51.5793486
50
115.401986
51
116.2714006
0
ARC
8
DEFAULT_255_2_778
10
43.0287023
20
45.2487102
40
57.9392945
50
116.2707268
51
117.0753077
0
ARC
8
DEFAULT_255_2_778
10
-8954.944984
20
4295.8513346
40
9905.4049623
50
334.9196317
51
334.9230045
0
ARC
8
DEFAULT_255_2_778
10
-7121.6493503
20
3437.9758257
40
7881.3191764
50
334.9229683
51
334.9262485
0
ARC
8
DEFAULT_255_2_778
10
-5800.8060615
20
2819.9879078
40
6423.0544334
50
334.9262277
51
334.9299711
0
ARC
8
DEFAULT_255_2_778
10
10.8549256
20
96.8899753
40
6.4542916
50
13.3009011
51
14.5161402
0
ARC
8
DEFAULT_255_2_778
10
1.4442326
20
94.4667989
40
16.1719488
50
14.4701024
51
15.1383529
0
ARC
8
DEFAULT_255_2_778
10
-12.8466136
20
90.6138631
40
30.9730741
50
15.1146129
51
15.4681617
0
ARC
8
DEFAULT_255_2_778
10
-32.7103688
20
85.1188627
40
51.5828728
50
15.4662119
51
15.7493184
0
ARC
8
DEFAULT_255_2_778
10
-59.026558
20
77.7050826
40
78.9234273
50
15.7438581
51
15.921464
0
ARC
8
DEFAULT_255_2_778
10
-89.701002
20
68.9571401
40
110.8208883
50
15.9203067
51
16.0619511
0
LINE
8
DEFAULT_255_2_778
10
12.1370825
20
98.9600822
11
10.9043825
21
98.9600822
0
ARC
8
DEFAULT_255_2_778
10
21.4116225
20
97.5264891
40
10.6045877
50
169.3426099
51
172.2306177
0
ARC
8
DEFAULT_255_2_778
10
24.4724433
20
96.952909
40
13.718687
50
166.9200896
51
169.3525047
0
LINE
8
DEFAULT_255_2_778
10
11.1096825
20
100.0575822
11
12.2053825
21
100.0575822
0
ARC
8
DEFAULT_255_2_778
10
12.2123937
20
99.7671512
40
0.2905156
50
16.7074551
51
91.3828907
0
ARC
8
DEFAULT_255_2_778
10
11.7589094
20
99.5732327
40
0.7825654
50
6.2891607
51
20.7642109
0
ARC
8
DEFAULT_255_2_778
10
11.0017707
20
99.4753595
40
1.5459357
50
359.6821039
51
6.8207303
0
ARC
8
DEFAULT_255_2_778
10
11.9413977
20
99.4535971
40
0.6064281
50
338.4770636
51
1.2458365
0
ARC
8
DEFAULT_255_2_778
10
12.1052706
20
99.4028614
40
0.4355602
50
286.2545448
51
336.7768939
0
ARC
8
DEFAULT_255_2_778
10
11.9894852
20
99.6878444
40
0.7422248
50
281.4465545
51
288.6783339
0
LINE
8
DEFAULT_255_2_778
10
7.9254825
20
97.1310822
11
6.5900825
21
97.1310822
0
ARC
8
DEFAULT_255_2_778
10
15.0694472
20
95.7902812
40
8.5847174
50
167.6696325
51
171.0144922
0
ARC
8
DEFAULT_255_2_778
10
17.6144362
20
95.2363222
40
11.1892972
50
164.8782664
51
167.6813959
0
LINE
8
DEFAULT_255_2_778
10
6.8125825
20
98.1552822
11
7.9995825
21
98.1552822
0
ARC
8
DEFAULT_255_2_778
10
8.0179301
20
97.8398355
40
0.3159798
50
20.5062808
51
93.3288034
0
ARC
8
DEFAULT_255_2_778
10
7.6639857
20
97.685549
40
0.7018445
50
5.5636134
51
22.1816638
0
ARC
8
DEFAULT_255_2_778
10
7.0608144
20
97.6093278
40
1.3096794
50
359.7617667
51
6.3241584
0
ARC
8
DEFAULT_255_2_778
10
7.8883893
20
97.5900965
40
0.4822903
50
331.6938746
51
1.6379572
0
ARC
8
DEFAULT_255_2_778
10
7.9424885
20
97.5826028
40
0.4315275
50
290.3993222
51
329.1630008
0
ARC
8
DEFAULT_255_2_778
10
7.7917675
20
97.9281857
40
0.8082411
50
279.5227644
51
291.8748343
0
LINE
8
DEFAULT_255_2_778
10
8.1651825
20
99.1063822
11
6.9324825
21
99.1063822
0
ARC
8
DEFAULT_255_2_778
10
14.897796
20
97.8524821
40
8.063404
50
167.747631
51
171.0539109
0
ARC
8
DEFAULT_255_2_778
10
17.2891661
20
97.3353508
40
10.5100492
50
164.9885402
51
167.7592961
0
LINE
8
DEFAULT_255_2_778
10
7.1377825
20
100.0575822
11
8.2333825
21
100.0575822
0
ARC
8
DEFAULT_255_2_778
10
8.2495094
20
99.7648876
40
0.2931385
50
18.4180294
51
93.153703
0
ARC
8
DEFAULT_255_2_778
10
7.8811811
20
99.6128804
40
0.6911875
50
4.650708
51
20.7271434
0
ARC
8
DEFAULT_255_2_778
10
7.3176386
20
99.5493401
40
1.2581501
50
359.819756
51
5.4539833
0
ARC
8
DEFAULT_255_2_778
10
8.1334053
20
99.5313527
40
0.4425996
50
329.8636045
51
1.8164603
0
ARC
8
DEFAULT_255_2_778
10
8.1723029
20
99.5319529
40
0.4097517
50
288.9383267
51
327.0591553
0
ARC
8
DEFAULT_255_2_778
10
8.0367087
20
99.8583669
40
0.7628299
50
279.6729572
51
290.6147554
0
ARC
8
DEFAULT_255_2_778
10
7.8465699
20
97.9615746
40
1.7852921
50
273.6390131
51
289.4734014
0
ARC
8
DEFAULT_255_2_778
10
7.9340114
20
97.6788799
40
1.4896649
50
289.9273423
51
326.2328669
0
ARC
8
DEFAULT_255_2_778
10
7.4079272
20
98.0555307
40
2.1364504
50
325.677627
51
337.7825023
0
ARC
8
DEFAULT_255_2_778
10
6.9865698
20
98.2447045
40
2.5981033
50
337.433987
51
338.1413159
0
ARC
8
DEFAULT_255_2_778
10
-12.7784455
20
100.7477702
40
22.4462272
50
350.491011
51
351.1058817
0
ARC
8
DEFAULT_255_2_778
10
-25.6702491
20
102.9057153
40
35.5173911
50
349.9839603
51
350.4933692
0
ARC
8
DEFAULT_255_2_778
10
-42.2360299
20
105.8233592
40
52.3381431
50
349.664974
51
349.992727
0
ARC
8
DEFAULT_255_2_778
10
-61.1906039
20
109.277581
40
71.6048896
50
349.4009096
51
349.666847
0
LINE
8
DEFAULT_255_2_778
10
9.1925825
20
96.1068822
11
10.4252825
21
96.1068822
0
ARC
8
DEFAULT_255_2_778
10
18.6773224
20
94.9956437
40
8.3265247
50
171.3450779
51
172.3305568
0
ARC
8
DEFAULT_255_2_778
10
25.6369886
20
93.9351987
40
15.3665173
50
170.4813924
51
171.3411356
0
ARC
8
DEFAULT_255_2_778
10
37.4619958
20
91.9591301
40
27.3554963
50
169.9009554
51
170.4952468
0
ARC
8
DEFAULT_255_2_778
10
52.607785
20
89.271243
40
42.7379411
50
169.5534458
51
169.9137953
0
ARC
8
DEFAULT_255_2_778
10
71.5230293
20
85.7841998
40
61.9719197
50
169.2374298
51
169.5538486
0
ARC
8
DEFAULT_255_2_778
10
94.6190504
20
81.4004118
40
85.4802962
50
169.0288536
51
169.24163
0
ARC
8
DEFAULT_255_2_778
10
120.0907099
20
76.4642292
40
111.4258419
50
168.8514043
51
169.0297096
0
ARC
8
DEFAULT_255_2_778
10
11.1857302
20
99.6262898
40
1.6705852
50
255.5047253
51
262.4257132
0
ARC
8
DEFAULT_255_2_778
10
11.4030449
20
101.1893263
40
3.2486422
50
262.2600622
51
266.5330972
0
ARC
8
DEFAULT_255_2_778
10
11.5508916
20
103.5115434
40
5.5755547
50
266.4596516
51
269.3331628
0
ARC
8
DEFAULT_255_2_778
10
11.5881124
20
105.5543619
40
7.6186798
50
269.2320621
51
270.0095516
0
ARC
8
DEFAULT_255_2_778
10
11.7319388
20
97.1473609
40
0.8011072
50
94.3418593
51
100.2503222
0
ARC
8
DEFAULT_255_2_778
10
11.717574
20
97.3229626
40
0.6249227
50
90.0650182
51
94.2474984
0
ARC
8
DEFAULT_255_2_778
10
11.7280908
20
97.563605
40
0.3844439
50
63.3517855
51
91.6733037
0
ARC
8
DEFAULT_255_2_778
10
11.7461894
20
97.6325394
40
0.3150595
50
16.4538816
51
60.6699031
0
ARC
8
DEFAULT_255_2_778
10
11.5173261
20
97.5420078
40
0.5606246
50
10.376199
51
18.7028777
0
ARC
8
DEFAULT_255_2_778
10
10.7036608
20
97.6553005
40
1.3651773
50
355.1578992
51
359.4830012
0
ARC
8
DEFAULT_255_2_778
10
8.135084
20
97.8605739
40
3.9419335
50
353.0290336
51
355.3362838
0
ARC
8
DEFAULT_255_2_778
10
3.9714922
20
98.3541733
40
8.1346681
50
352.0710996
51
353.1372868
0
ARC
8
DEFAULT_255_2_778
10
-2.3133675
20
99.2308962
40
14.4803833
50
351.1127445
51
352.0656322
0
ARC
8
DEFAULT_255_2_778
10
-12.4664583
20
100.8111719
40
24.7557176
50
350.4870676
51
351.1295336
0
ARC
8
DEFAULT_255_2_778
10
-21.2077737
20
102.2627838
40
33.6167359
50
350.3346863
51
350.5092745
0
ARC
8
DEFAULT_255_2_778
10
14.1079276
20
96.2751504
40
2.2031092
50
171.0266051
51
174.1802225
0
ARC
8
DEFAULT_255_2_778
10
13.321085
20
96.3539766
40
1.4123299
50
174.1248191
51
178.5567907
0
ARC
8
DEFAULT_255_2_778
10
12.9479186
20
96.3665832
40
1.0389693
50
178.7334817
51
179.9878024
0
ARC
8
DEFAULT_255_2_778
10
12.5600026
20
96.3588043
40
0.6511025
50
179.295987
51
190.2327782
0
ARC
8
DEFAULT_255_2_778
10
12.1690245
20
96.2837147
40
0.2530426
50
189.2276543
51
212.7795927
0
ARC
8
DEFAULT_255_2_778
10
12.0608648
20
96.217204
40
0.1261245
50
213.978533
51
241.2925521
0
LINE
8
DEFAULT_255_2_778
10
12.0002825
20
96.1065822
11
12.6850825
21
96.1065822
0
ARC
8
DEFAULT_255_2_778
10
244.3826865
20
-121.0028522
40
317.5221035
50
136.8617051
51
136.9024012
0
ARC
8
DEFAULT_255_2_778
10
436.661522
20
-300.9307708
40
580.8568836
50
136.9015599
51
136.9287441
0
LINE
8
DEFAULT_255_2_778
10
12.3426825
20
95.7406822
11
13.7121825
21
95.7406822
0
ARC
8
DEFAULT_255_2_778
10
28.6359608
20
84.9818748
40
18.397584
50
137.2945571
51
144.2115207
0
ARC
8
DEFAULT_255_2_778
10
29.238187
20
84.4459406
40
19.2036221
50
136.8901503
51
137.3381658
0
ARC
8
DEFAULT_255_2_778
10
20.7668691
20
99.0686276
40
5.7471047
50
195.1185747
51
200.4958629
0
ARC
8
DEFAULT_255_2_778
10
22.4982628
20
99.7112227
40
7.5938962
50
200.463325
51
204.6224252
0
ARC
8
DEFAULT_255_2_778
10
23.630766
20
100.2153489
40
8.8334724
50
204.534506
51
205.0714448
0
ARC
8
DEFAULT_255_2_778
10
16.0001755
20
96.8404956
40
0.5224882
50
224.8232445
51
238.6156909
0
ARC
8
DEFAULT_255_2_778
10
16.5352203
20
97.6798822
40
1.5178324
50
237.8745931
51
244.2080395
0
ARC
8
DEFAULT_255_2_778
10
17.328147
20
99.2937331
40
3.3159382
50
244.0051675
51
247.6224313
0
ARC
8
DEFAULT_255_2_778
10
18.3942856
20
101.8616813
40
6.0964008
50
247.5452358
51
249.8683923
0
ARC
8
DEFAULT_255_2_778
10
19.2695765
20
104.2100466
40
8.6025578
50
249.778081
51
250.3932659
0
LINE
8
DEFAULT_255_2_778
10
16.3828825
20
96.1062822
11
16.9307825
21
96.1062822
0
ARC
8
DEFAULT_255_2_778
10
-2339.2200904
20
-1005.7453393
40
2601.0620776
50
25.0630948
51
25.0706009
0
ARC
8
DEFAULT_255_2_778
10
-1549.482164
20
-636.2981142
40
1729.1806382
50
25.0705718
51
25.0788308
0
ARC
8
DEFAULT_255_2_778
10
-1047.3078529
20
-401.2856336
40
1174.735055
50
25.0786957
51
25.0893139
0
LINE
8
DEFAULT_255_2_778
10
16.5884825
20
96.8378822
11
16.3830825
21
96.8378822
0
ARC
8
DEFAULT_255_2_778
10
17.3956277
20
96.3762934
40
1.1127947
50
146.1979138
51
155.49319
0
ARC
8
DEFAULT_255_2_778
10
16.9150631
20
96.6938127
40
0.5368298
50
137.3561516
51
145.824002
0
ARC
8
DEFAULT_255_2_778
10
238.645947
20
191.5605538
40
241.3932182
50
202.8969451
51
203.0472538
0
ARC
8
DEFAULT_255_2_778
10
197.5632431
20
174.2071573
40
196.7958089
50
202.7528982
51
202.8964183
0
ARC
8
DEFAULT_255_2_778
10
164.8404726
20
160.4845148
40
161.3121418
50
202.5893939
51
202.7532585
0
ARC
8
DEFAULT_255_2_778
10
10.9785448
20
103.1095868
40
6.7319314
50
317.0251495
51
319.3754074
0
ARC
8
DEFAULT_255_2_778
10
7.687316
20
105.9431655
40
11.0748933
50
319.3353436
51
320.9159958
0
ARC
8
DEFAULT_255_2_778
10
3.0469909
20
109.7152873
40
17.0549865
50
320.9076969
51
322.1910805
0
ARC
8
DEFAULT_255_2_778
10
-3.3145518
20
114.65847
40
25.1113045
50
322.1783212
51
323.137377
0
ARC
8
DEFAULT_255_2_778
10
-6.9901488
20
117.4324448
40
29.7161688
50
323.1096002
51
323.1670615
0
ARC
8
DEFAULT_255_2_778
10
22.5740895
20
101.4112725
40
6.0515867
50
194.8926912
51
197.2365507
0
ARC
8
DEFAULT_255_2_778
10
25.4513327
20
102.1797282
40
9.029681
50
193.1179618
51
194.912764
0
ARC
8
DEFAULT_255_2_778
10
17.6764201
20
101.5376311
40
1.7375244
50
234.0877318
51
247.57143
0
ARC
8
DEFAULT_255_2_778
10
17.5437071
20
101.2435601
40
1.4151027
50
247.9956233
51
250.3601876
0
ARC
8
DEFAULT_255_2_778
10
20.9813591
20
97.4514862
40
4.6218904
50
145.3229757
51
147.8527203
0
ARC
8
DEFAULT_255_2_778
10
24.5488106
20
94.9975637
40
8.9518298
50
143.9277896
51
145.3976243
0
ARC
8
DEFAULT_255_2_778
10
29.6924732
20
91.255098
40
15.3129074
50
142.8284086
51
143.9415126
0
ARC
8
DEFAULT_255_2_778
10
36.0383401
20
86.4566465
40
23.2687285
50
142.2232178
51
142.8546341
0
ARC
8
DEFAULT_255_2_778
10
44.1010785
20
80.2038867
40
33.4719022
50
141.5675684
51
142.2179543
0
ARC
8
DEFAULT_255_2_778
10
55.4699893
20
71.1887264
40
47.9813899
50
141.0801188
51
141.5733772
0
ARC
8
DEFAULT_255_2_778
10
64.4397829
20
63.9616924
40
59.5003783
50
140.9495658
51
141.0919692
0
LINE
8
DEFAULT_255_2_778
10
18.2322825
20
101.4471822
11
16.9310825
21
101.4471822
0
ARC
8
DEFAULT_255_2_778
10
-16.3603585
20
127.4251075
40
42.227629
50
320.8742692
51
322.0344272
0
ARC
8
DEFAULT_255_2_778
10
-20.7967962
20
131.0285601
40
47.9431197
50
319.9908062
51
320.8791382
0
ARC
8
DEFAULT_255_2_778
10
-25.131631
20
134.6663243
40
53.6021056
50
319.1667777
51
319.9914445
0
ARC
8
DEFAULT_255_2_778
10
69.0476413
20
121.1293244
40
57.7768637
50
201.4705385
51
201.8585129
0
ARC
8
DEFAULT_255_2_778
10
53.6459392
20
115.0706129
40
41.2263224
50
201.0644199
51
201.4692888
0
ARC
8
DEFAULT_255_2_778
10
42.4488551
20
110.7598146
40
29.2280862
50
200.5584868
51
201.0677313
0
ARC
8
DEFAULT_255_2_778
10
14.4761253
20
100.2567892
40
0.6515509
50
21.5376971
51
48.5220124
0
ARC
8
DEFAULT_255_2_778
10
14.1255951
20
99.877954
40
1.1676044
50
47.9475725
51
61.2008214
0
ARC
8
DEFAULT_255_2_778
10
13.7008357
20
99.121324
40
2.0352883
50
60.9834185
51
69.4017093
0
ARC
8
DEFAULT_255_2_778
10
13.3518454
20
98.2351492
40
2.9876267
50
69.1157506
51
72.2959766
0
LINE
8
DEFAULT_255_2_778
10
14.2603825
20
101.0812822
11
13.7123825
21
101.0812822
0
ARC
8
DEFAULT_255_2_778
10
-12.9543118
20
87.853733
40
29.7671067
50
24.5962941
51
26.3829096
0
ARC
8
DEFAULT_255_2_778
10
-8.7752927
20
89.7664768
40
25.171153
50
22.6896159
51
24.5967775
0
ARC
8
DEFAULT_255_2_778
10
-5.1480969
20
91.2817097
40
21.240189
50
20.5570371
51
22.6928105
0
ARC
8
DEFAULT_255_2_778
10
-8.985958
20
115.7086119
40
29.1690875
50
323.0004464
51
324.4274533
0
ARC
8
DEFAULT_255_2_778
10
-4.3866917
20
112.2418895
40
23.4096245
50
321.4204615
51
323.0023675
0
ARC
8
DEFAULT_255_2_778
10
-0.5805315
20
109.2025114
40
18.5388273
50
319.5222401
51
321.4281567
0
ARC
8
DEFAULT_255_2_778
10
2.5619766
20
106.518359
40
14.4060283
50
317.2930616
51
319.529216
0
ARC
8
DEFAULT_255_2_778
10
4.0492894
20
105.1599887
40
12.3917943
50
316.891017
51
317.2440817
0
ARC
8
DEFAULT_255_2_778
10
15.1537506
20
96.6767793
40
2.0578213
50
174.9181172
51
179.5878407
0
ARC
8
DEFAULT_255_2_778
10
17.7278259
20
96.4605252
40
4.6409512
50
172.4211634
51
175.0737462
0
ARC
8
DEFAULT_255_2_778
10
21.7420886
20
95.9356543
40
8.6893769
50
170.801621
51
172.481538
0
ARC
8
DEFAULT_255_2_778
10
27.3526563
20
95.0338004
40
14.3719631
50
169.6700226
51
170.8279756
0
ARC
8
DEFAULT_255_2_778
10
32.1302522
20
94.1758774
40
19.225965
50
169.3901081
51
169.7078307
0
ARC
8
DEFAULT_255_2_778
10
11.8540364
20
98.0052508
40
1.4090012
50
348.1446
51
352.7387089
0
ARC
8
DEFAULT_255_2_778
10
12.1791331
20
97.9645538
40
1.0813682
50
352.70057
51
358.7568558
0
ARC
8
DEFAULT_255_2_778
10
12.337581
20
97.9588996
40
0.9228376
50
358.8943991
51
359.9953122
0
ARC
8
DEFAULT_255_2_778
10
12.5883821
20
97.9694648
40
0.6721206
50
359.092881
51
19.0241656
0
ARC
8
DEFAULT_255_2_778
10
12.7589097
20
98.0188388
40
0.494893
50
20.0556627
51
67.5599008
0
ARC
8
DEFAULT_255_2_778
10
12.6170024
20
97.7383194
40
0.8086983
50
65.8533928
51
75.3097793
0
ARC
8
DEFAULT_255_2_778
10
12.6243605
20
99.4472601
40
0.9475368
50
282.0443916
51
326.1233814
0
ARC
8
DEFAULT_255_2_778
10
12.1495923
20
99.7971673
40
1.5369665
50
325.159014
51
338.372812
0
ARC
8
DEFAULT_255_2_778
10
11.357248
20
100.119476
40
2.3923349
50
338.1910864
51
346.6135174
0
ARC
8
DEFAULT_255_2_778
10
10.6062362
20
100.3129025
40
3.1677564
50
346.3549025
51
348.6813575
0
ARC
8
DEFAULT_255_2_778
10
11.2613087
20
100.0979393
40
2.4845954
50
350.5776032
51
353.7376939
0
ARC
8
DEFAULT_255_2_778
10
11.6617409
20
100.0542494
40
2.0817869
50
353.7308099
51
357.3723535
0
ARC
8
DEFAULT_255_2_778
10
11.9438984
20
100.0403277
40
1.7992881
50
357.4032891
51
359.9757243
0
ARC
8
DEFAULT_255_2_778
10
12.3840456
20
100.0504604
40
1.3591846
50
359.5407206
51
12.4566062
0
ARC
8
DEFAULT_255_2_778
10
12.8427932
20
100.1579028
40
0.8880808
50
12.0720043
51
38.7719097
0
ARC
8
DEFAULT_255_2_778
10
12.8476074
20
100.1392824
40
0.8961593
50
39.8928927
51
65.6617904
0
ARC
8
DEFAULT_255_2_778
10
12.6443841
20
99.7115301
40
1.3696782
50
65.2904748
51
77.9969908
0
ARC
8
DEFAULT_255_2_778
10
12.51618
20
99.1634014
40
1.9325183
50
77.658683
51
82.9436069
0
LINE
8
DEFAULT_255_2_778
10
12.7535825
20
101.0812822
11
10.0828825
21
101.0812822
0
ARC
8
DEFAULT_255_2_778
10
-78.6971336
20
115.7462544
40
89.9830688
50
350.3059541
51
350.6203936
0
ARC
8
DEFAULT_255_2_778
10
-104.5364786
20
120.1598434
40
116.1966439
50
350.0188988
51
350.3061716
0
ARC
8
DEFAULT_255_2_778
10
-132.0820546
20
124.9996256
40
144.1641643
50
349.835407
51
350.0219825
0
ARC
8
DEFAULT_255_2_778
10
-163.2750804
20
130.5962812
40
175.8552893
50
349.6195816
51
349.8341106
0
ARC
8
DEFAULT_255_2_778
10
-203.2308815
20
137.9123243
40
216.4753646
50
349.4403041
51
349.6203897
0
ARC
8
DEFAULT_255_2_778
10
-232.3326685
20
143.3258777
40
246.0763858
50
349.3878213
51
349.4429392
0
ARC
8
DEFAULT_255_2_778
10
8.3777296
20
98.0210919
40
1.1572227
50
359.3707085
51
12.5795401
0
ARC
8
DEFAULT_255_2_778
10
8.8929253
20
98.1426644
40
0.6279496
50
11.9912732
51
38.5626902
0
ARC
8
DEFAULT_255_2_778
10
8.9655031
20
98.1769885
40
0.5501104
50
40.4798779
51
78.2929339
0
ARC
8
DEFAULT_255_2_778
10
8.8598997
20
97.7599
40
0.9801302
50
77.1952768
51
90.5680536
0
ARC
8
DEFAULT_255_2_778
10
8.6471662
20
99.7081127
40
0.9891877
50
281.8432791
51
328.9182489
0
ARC
8
DEFAULT_255_2_778
10
8.1243514
20
100.0600192
40
1.6189243
50
327.8042332
51
340.5972481
0
ARC
8
DEFAULT_255_2_778
10
7.3392692
20
100.3462217
40
2.4545145
50
340.3839202
51
348.0377677
0
ARC
8
DEFAULT_255_2_778
10
7.4211653
20
100.2463279
40
2.3550769
50
350.0026957
51
353.1814731
0
ARC
8
DEFAULT_255_2_778
10
7.825033
20
100.1982326
40
1.9483555
50
353.1757652
51
356.7926953
0
ARC
8
DEFAULT_255_2_778
10
8.1273485
20
100.1807151
40
1.6455335
50
356.8127474
51
359.9611156
0
ARC
8
DEFAULT_255_2_778
10
8.5718993
20
100.190274
40
1.2010298
50
359.4907047
51
12.7984704
0
ARC
8
DEFAULT_255_2_778
10
9.0062431
20
100.2953369
40
0.7542292
50
12.3247572
51
40.9129248
0
ARC
8
DEFAULT_255_2_778
10
9.0054476
20
100.2715005
40
0.7706396
50
42.2135664
51
68.6742847
0
ARC
8
DEFAULT_255_2_778
10
8.8303495
20
99.8475785
40
1.2292453
50
68.2575172
51
81.3394815
0
ARC
8
DEFAULT_255_2_778
10
8.7344312
20
99.2973384
40
1.7876951
50
80.9558497
51
86.2875638
0
ARC
8
DEFAULT_255_2_778
10
5.2801717
20
144.1595232
40
48.0532418
50
270.0103863
51
271.5824188
0
ARC
8
DEFAULT_255_2_778
10
5.1715918
20
148.1033741
40
51.9985871
50
271.5820104
51
273.0734822
0
ARC
8
DEFAULT_255_2_778
10
10.4743339
20
93.9624599
40
0.7397405
50
151.7861679
51
180.8890284
0
ARC
8
DEFAULT_255_2_778
10
10.3662129
20
94.019175
40
0.6176536
50
118.924301
51
151.6805209
0
ARC
8
DEFAULT_255_2_778
10
10.4124389
20
93.9212606
40
0.7257442
50
88.9464951
51
118.3797967
0
ARC
8
DEFAULT_255_2_778
10
10.4396734
20
93.8908355
40
0.7561743
50
66.1258909
51
91.0525844
0
ARC
8
DEFAULT_255_2_778
10
10.483051
20
94.0132006
40
0.6268005
50
44.6477337
51
65.2246817
0
ARC
8
DEFAULT_255_2_778
10
10.4543521
20
93.9898541
40
0.6636343
50
4.2575147
51
44.3405126
0
ARC
8
DEFAULT_255_2_778
10
10.1438009
20
93.9410967
40
0.9772828
50
359.91121
51
5.7566663
0
ARC
8
DEFAULT_255_2_778
10
10.377763
20
93.9110422
40
0.7434186
50
332.2836542
51
0.9356789
0
ARC
8
DEFAULT_255_2_778
10
10.5007531
20
93.8497552
40
0.6060432
50
298.7423913
51
332.005036
0
ARC
8
DEFAULT_255_2_778
10
10.4426451
20
93.9640744
40
0.7342308
50
268.8869433
51
298.4283417
0
ARC
8
DEFAULT_255_2_778
10
10.4141553
20
93.9780068
40
0.7481599
50
245.3786733
51
271.0896194
0
ARC
8
DEFAULT_255_2_778
10
10.3734735
20
93.8646665
40
0.6282589
50
224.6448947
51
244.4450714
0
ARC
8
DEFAULT_255_2_778
10
10.4013556
20
93.8877501
40
0.6643251
50
183.6732702
51
224.3715176
0
ARC
8
DEFAULT_255_2_778
10
10.7050499
20
93.9333681
40
0.9706681
50
179.9283343
51
185.21215
0
ARC
8
DEFAULT_255_2_778
10
10.6216187
20
93.9098078
40
0.6251793
50
178.7741834
51
202.4057334
0
ARC
8
DEFAULT_255_2_778
10
10.4568266
20
93.8503097
40
0.4502168
50
203.3992249
51
220.4222393
0
ARC
8
DEFAULT_255_2_778
10
10.4129216
20
93.8131883
40
0.3927225
50
220.4526772
51
272.3000326
0
ARC
8
DEFAULT_255_2_778
10
10.4446767
20
93.8105607
40
0.3901065
50
267.6502418
51
320.1297007
0
ARC
8
DEFAULT_255_2_778
10
10.3519931
20
93.8745874
40
0.5023904
50
321.3015706
51
352.0004629
0
ARC
8
DEFAULT_255_2_778
10
9.982231
20
93.9463802
40
0.8787651
50
350.7200637
51
0.3196101
0
ARC
8
DEFAULT_255_2_778
10
10.2534124
20
93.9648917
40
0.6077225
50
358.7167913
51
24.0205381
0
ARC
8
DEFAULT_255_2_778
10
10.3926698
20
94.017576
40
0.4591589
50
25.0893609
51
40.4682073
0
ARC
8
DEFAULT_255_2_778
10
10.4405874
20
94.0605089
40
0.3948435
50
40.2415293
51
92.1198026
0
ARC
8
DEFAULT_255_2_778
10
10.4125434
20
94.0649834
40
0.3903302
50
88.0269199
51
139.6928381
0
ARC
8
DEFAULT_255_2_778
10
10.4921744
20
94.008095
40
0.4879238
50
140.6475358
51
171.2471125
0
ARC
8
DEFAULT_255_2_778
10
10.8779154
20
93.9294075
40
0.8813528
50
170.0071906
51
180.3852012
0
LINE
8
DEFAULT_255_2_778
10
12.1367825
20
98.9603822
11
12.1370825
21
98.9600822
0
LINE
8
DEFAULT_255_2_778
10
7.9254825
20
97.1310822
11
7.9254825
21
97.1310822
0
LINE
8
DEFAULT_255_2_778
10
8.1648825
20
99.1063822
11
8.1651825
21
99.1063822
0
LINE
8
DEFAULT_255_2_778
10
8.8501825
20
101.0812822
11
6.1106825
21
101.0812822
0
LINE
8
DEFAULT_255_2_778
10
6.1106825
20
101.0812822
11
5.2888825
21
96.1062822
0
LINE
8
DEFAULT_255_2_778
10
7.9595825
20
96.1795822
11
7.9598825
21
96.1798822
0
LINE
8
DEFAULT_255_2_778
10
7.6677825
20
95.0939822
11
8.0169825
21
95.0939822
0
LINE
8
DEFAULT_255_2_778
10
8.0169825
20
95.0939822
11
8.6871825
21
93.5935822
0
LINE
8
DEFAULT_255_2_778
10
8.6871825
20
93.5935822
11
9.3573825
21
95.0939822
0
LINE
8
DEFAULT_255_2_778
10
9.3573825
20
95.0939822
11
9.7079825
21
95.0939822
0
LINE
8
DEFAULT_255_2_778
10
9.7079825
20
95.0939822
11
9.7079825
21
93.2551822
0
LINE
8
DEFAULT_255_2_778
10
9.7079825
20
93.2551822
11
9.4375825
21
93.2551822
0
LINE
8
DEFAULT_255_2_778
10
9.4375825
20
93.2551822
11
9.4375825
21
93.9713822
0
LINE
8
DEFAULT_255_2_778
10
9.4375825
20
93.9713822
11
9.4629825
21
94.7441822
0
LINE
8
DEFAULT_255_2_778
10
9.4629825
20
94.7441822
11
8.7900825
21
93.2551822
0
LINE
8
DEFAULT_255_2_778
10
8.7900825
20
93.2551822
11
8.5831825
21
93.2551822
0
LINE
8
DEFAULT_255_2_778
10
8.5831825
20
93.2551822
11
7.9116825
21
94.7402822
0
LINE
8
DEFAULT_255_2_778
10
7.9116825
20
94.7402822
11
7.9383825
21
93.9710822
0
LINE
8
DEFAULT_255_2_778
10
7.9383825
20
93.9710822
11
7.9383825
21
93.2551822
0
LINE
8
DEFAULT_255_2_778
10
7.9383825
20
93.2551822
11
7.6679825
21
93.2551822
0
LINE
8
DEFAULT_255_2_778
10
7.6679825
20
93.2551822
11
7.6679825
21
95.0939822
0
LINE
8
DEFAULT_255_2_778
10
7.6679825
20
95.0939822
11
7.6677825
21
95.0939822
0
LINE
8
DEFAULT_255_2_778
10
9.7346825
20
93.9345822
11
9.7346825
21
93.9509822
0
LINE
8
DEFAULT_255_2_778
10
11.1210825
20
93.9395822
11
11.1210825
21
93.9231822
0
LINE
8
DEFAULT_255_2_778
10
9.7343825
20
93.9345822
11
9.7346825
21
93.9345822
0
LINE
8
DEFAULT_255_2_778
10
9.9965825
20
93.9234822
11
9.9965825
21
93.9231822
0
ARC
8
DEFAULT_255_2_778
10
12.0087706
20
93.9631955
40
0.8966922
50
161.6477251
51
180.8455802
0
ARC
8
DEFAULT_255_2_778
10
11.7593877
20
94.0402924
40
0.6357412
50
139.1805086
51
161.1660299
0
ARC
8
DEFAULT_255_2_778
10
11.6948461
20
94.0988441
40
0.548628
50
88.0749083
51
139.4020087
0
ARC
8
DEFAULT_255_2_778
10
11.7270877
20
94.0151212
40
0.6321922
50
65.2495851
51
91.2518467
0
ARC
8
DEFAULT_255_2_778
10
11.7739286
20
94.1389014
40
0.5002579
50
43.4378666
51
64.1861535
0
ARC
8
DEFAULT_255_2_778
10
11.7577495
20
93.7624851
40
0.5295047
50
273.9749758
51
317.0589536
0
ARC
8
DEFAULT_255_2_778
10
11.7117537
20
94.0477181
40
0.8176569
50
269.903467
51
275.8050798
0
ARC
8
DEFAULT_255_2_778
10
11.6950696
20
93.772177
40
0.5423306
50
219.8775281
51
271.6173009
0
ARC
8
DEFAULT_255_2_778
10
11.8129918
20
93.8716814
40
0.6966235
50
186.2041385
51
219.9396825
0
ARC
8
DEFAULT_255_2_778
10
12.1491553
20
93.9295042
40
1.0372829
50
179.8476427
51
187.3727217
0
ARC
8
DEFAULT_255_2_778
10
12.0804686
20
93.9106173
40
0.708109
50
178.9605925
51
197.8113017
0
ARC
8
DEFAULT_255_2_778
10
11.8174762
20
93.830606
40
0.433269
50
198.3757966
51
218.7076601
0
ARC
8
DEFAULT_255_2_778
10
11.7577751
20
93.7883215
40
0.3602651
50
219.3974778
51
272.7207279
0
ARC
8
DEFAULT_255_2_778
10
11.7979781
20
93.8147241
40
0.3869518
50
266.5772559
51
331.1414996
0
ARC
8
DEFAULT_255_2_778
10
11.7993798
20
94.0583751
40
0.3908793
50
30.296258
51
93.1536365
0
ARC
8
DEFAULT_255_2_778
10
11.7597272
20
94.0870639
40
0.3620538
50
87.1267004
51
140.7448383
0
ARC
8
DEFAULT_255_2_778
10
11.852754
20
94.0306286
40
0.4700433
50
142.5937187
51
169.8142278
0
ARC
8
DEFAULT_255_2_778
10
12.3084447
20
93.9326465
40
0.9360136
50
168.8437579
51
180.5621889
0
ARC
8
DEFAULT_255_2_778
10
12.9675088
20
93.9104468
40
0.9193595
50
342.4503314
51
0.8111842
0
ARC
8
DEFAULT_255_2_778
10
13.2384583
20
93.8293884
40
0.6365946
50
320.0081255
51
342.053005
0
ARC
8
DEFAULT_255_2_778
10
13.3168425
20
93.7649928
40
0.535157
50
267.7118349
51
319.896777
0
ARC
8
DEFAULT_255_2_778
10
13.2819149
20
93.8893332
40
0.6592102
50
247.1313135
51
271.178768
0
ARC
8
DEFAULT_255_2_778
10
13.226109
20
93.7354307
40
0.4957886
50
220.5120492
51
246.1616473
0
ARC
8
DEFAULT_255_2_778
10
13.2507726
20
94.1124808
40
0.5327703
50
92.79198
51
137.595132
0
ARC
8
DEFAULT_255_2_778
10
13.2914029
20
93.8382902
40
0.8090728
50
89.9381623
51
94.7204119
0
ARC
8
DEFAULT_255_2_778
10
13.3066921
20
94.0548538
40
0.592684
50
61.9584615
51
91.3937532
0
ARC
8
DEFAULT_255_2_778
10
13.335352
20
94.1321342
40
0.5111215
50
39.7933531
51
60.7213623
0
ARC
8
DEFAULT_255_2_778
10
13.2139999
20
94.039834
40
0.6634716
50
9.7710463
51
39.2105832
0
ARC
8
DEFAULT_255_2_778
10
12.7959357
20
93.9510522
40
1.0906641
50
359.6223004
51
10.6401643
0
ARC
8
DEFAULT_255_2_778
10
12.8520247
20
93.9626562
40
0.7745554
50
359.0609694
51
15.7522656
0
ARC
8
DEFAULT_255_2_778
10
13.1789923
20
94.0529331
40
0.4353632
50
15.9994425
51
37.6323323
0
ARC
8
DEFAULT_255_2_778
10
13.251302
20
94.0988822
40
0.3501278
50
38.9027237
51
91.809832
0
ARC
8
DEFAULT_255_2_778
10
13.2283194
20
93.8899428
40
0.5590197
50
88.7776965
51
90.0044358
0
ARC
8
DEFAULT_255_2_778
10
13.2045237
20
94.0633265
40
0.3863668
50
86.4754511
51
153.7251434
0
ARC
8
DEFAULT_255_2_778
10
13.2115503
20
93.8262742
40
0.3979959
50
207.360132
51
272.8264853
0
ARC
8
DEFAULT_255_2_778
10
13.2489097
20
93.7800534
40
0.3517383
50
267.1100981
51
321.0555491
0
ARC
8
DEFAULT_255_2_778
10
13.1566358
20
93.8364539
40
0.4591739
50
322.8195314
51
349.5632833
0
ARC
8
DEFAULT_255_2_778
10
12.6782124
20
93.9402925
40
0.9486183
50
348.6298001
51
0.6142704
0
ARC
8
DEFAULT_255_2_778
10
14.5192555
20
93.7475558
40
0.50957
50
278.9503205
51
315.4951138
0
ARC
8
DEFAULT_255_2_778
10
14.4418729
20
94.1046338
40
0.8745886
50
269.6398943
51
280.3187869
0
ARC
8
DEFAULT_255_2_778
10
14.4234575
20
93.8797899
40
0.6498559
50
250.9180852
51
271.139066
0
ARC
8
DEFAULT_255_2_778
10
14.3449635
20
93.6407359
40
0.3982959
50
225.4156286
51
250.3469096
0
ARC
8
DEFAULT_255_2_778
10
14.3814179
20
93.6598085
40
0.4376501
50
188.4069402
51
223.7690875
0
ARC
8
DEFAULT_255_2_778
10
14.7237662
20
93.7321503
40
0.7871902
50
179.9554446
51
189.9729011
0
ARC
8
DEFAULT_255_2_778
10
14.6228669
20
93.7264104
40
0.4261728
50
178.3256781
51
201.2862232
0
ARC
8
DEFAULT_255_2_778
10
14.4422416
20
93.6648473
40
0.2356639
50
203.2823563
51
271.0451045
0
ARC
8
DEFAULT_255_2_778
10
14.478019
20
93.8960122
40
0.4678499
50
266.1419671
51
270.055975
0
ARC
8
DEFAULT_255_2_778
10
14.4911606
20
94.0319566
40
0.6039274
50
268.796507
51
288.6772791
0
ARC
8
DEFAULT_255_2_778
10
14.5791922
20
93.7723766
40
0.3298267
50
288.6306567
51
333.975331
0
LINE
8
DEFAULT_255_2_778
10
11.1121761
20
93.9322625
11
11.1121761
21
93.9499625
0
LINE
8
DEFAULT_255_2_778
10
12.1371761
20
94.4828625
11
12.1371761
21
95.1950625
0
LINE
8
DEFAULT_255_2_778
10
12.1371761
20
95.1950625
11
12.3974761
21
95.1950625
0
LINE
8
DEFAULT_255_2_778
10
12.3974761
20
95.1950625
11
12.3974761
21
93.2551625
0
LINE
8
DEFAULT_255_2_778
10
12.3974761
20
93.2551625
11
12.1580761
21
93.2551625
0
LINE
8
DEFAULT_255_2_778
10
12.1580761
20
93.2551625
11
12.1453761
21
93.4017625
0
LINE
8
DEFAULT_255_2_778
10
11.1118761
20
93.9322625
11
11.1121761
21
93.9322625
0
LINE
8
DEFAULT_255_2_778
10
12.1368761
20
93.6279625
11
12.1368761
21
94.2555625
0
LINE
8
DEFAULT_255_2_778
10
11.3724761
20
93.9234625
11
11.3724761
21
93.9234625
0
LINE
8
DEFAULT_255_2_778
10
13.8867761
20
93.9436625
11
13.8867761
21
93.9234625
0
LINE
8
DEFAULT_255_2_778
10
12.8491761
20
93.4133625
11
12.8364761
21
93.2554625
0
LINE
8
DEFAULT_255_2_778
10
12.8364761
20
93.2554625
11
12.5969761
21
93.2554625
0
LINE
8
DEFAULT_255_2_778
10
12.5969761
20
93.2554625
11
12.5969761
21
95.1953625
0
LINE
8
DEFAULT_255_2_778
10
12.5969761
20
95.1953625
11
12.8573761
21
95.1953625
0
LINE
8
DEFAULT_255_2_778
10
12.8573761
20
95.1953625
11
12.8573761
21
94.4717625
0
LINE
8
DEFAULT_255_2_778
10
13.8865761
20
93.9438625
11
13.8867761
21
93.9436625
0
LINE
8
DEFAULT_255_2_778
10
12.8580761
20
94.2343625
11
12.8580761
21
93.6433625
0
LINE
8
DEFAULT_255_2_778
10
13.6267761
20
93.9504625
11
13.6264761
21
93.9499625
0
LINE
8
DEFAULT_255_2_778
10
14.8882761
20
93.2551625
11
14.8826761
21
93.3903625
0
LINE
8
DEFAULT_255_2_778
10
13.9365761
20
93.7327625
11
13.9365761
21
94.6217625
0
LINE
8
DEFAULT_255_2_778
10
13.9365761
20
94.6217625
11
14.1968761
21
94.6217625
0
LINE
8
DEFAULT_255_2_778
10
14.1968761
20
94.6217625
11
14.1968761
21
93.7388625
0
LINE
8
DEFAULT_255_2_778
10
14.8755761
20
93.6276625
11
14.8755761
21
94.6214625
0
LINE
8
DEFAULT_255_2_778
10
14.8755761
20
94.6214625
11
15.1358761
21
94.6214625
0
LINE
8
DEFAULT_255_2_778
10
15.1358761
20
94.6214625
11
15.1358761
21
93.2548625
0
LINE
8
DEFAULT_255_2_778
10
15.1358761
20
93.2548625
11
14.8882761
21
93.2548625
0
LINE
8
DEFAULT_255_2_778
10
14.8882761
20
93.2548625
11
14.8882761
21
93.2551625
0
ARC
8
DEFAULT_255_2_778
10
15.9117362
20
93.6227163
40
0.1664419
50
358.2571513
51
58.5810139
0
ARC
8
DEFAULT_255_2_778
10
15.7569888
20
93.3705127
40
0.4623359
50
58.5083717
51
73.3672514
0
ARC
8
DEFAULT_255_2_778
10
15.4745675
20
92.4909505
40
1.3860638
50
72.588349
51
79.4920241
0
ARC
8
DEFAULT_255_2_778
10
15.2927755
20
91.6158715
40
2.2797015
50
79.010646
51
79.167963
0
ARC
8
DEFAULT_255_2_778
10
16.0654878
20
95.7165901
40
1.8932041
50
253.3934488
51
259.5222325
0
ARC
8
DEFAULT_255_2_778
10
15.79671
20
94.8145904
40
0.9520107
50
245.8423596
51
253.3800483
0
ARC
8
DEFAULT_255_2_778
10
15.5967441
20
94.3899413
40
0.482793
50
225.2444174
51
246.8709112
0
ARC
8
DEFAULT_255_2_778
10
15.4729668
20
94.2535602
40
0.2989074
50
217.3654825
51
223.6863344
0
ARC
8
DEFAULT_255_2_778
10
15.4604397
20
94.2398001
40
0.28062
50
178.6208516
51
216.6848209
0
ARC
8
DEFAULT_255_2_778
10
15.5181379
20
94.2430012
40
0.3382555
50
124.5781801
51
179.3981746
0
ARC
8
DEFAULT_255_2_778
10
15.665322
20
94.084375
40
0.5532702
50
126.2329241
51
127.8066882
0
ARC
8
DEFAULT_255_2_778
10
15.6943794
20
94.0270296
40
0.6167897
50
94.7690434
51
125.2615073
0
ARC
8
DEFAULT_255_2_778
10
15.7412994
20
93.7120487
40
0.9348073
50
89.8895722
51
96.0299237
0
ARC
8
DEFAULT_255_2_778
10
15.7561257
20
93.8252021
40
0.8217552
50
72.0095981
51
90.9081632
0
ARC
8
DEFAULT_255_2_778
10
15.8324792
20
94.0785929
40
0.5571991
50
53.57836
51
71.4295102
0
ARC
8
DEFAULT_255_2_778
10
15.9574346
20
94.2231565
40
0.3669796
50
359.5156335
51
55.876726
0
ARC
8
DEFAULT_255_2_778
10
15.8590103
20
94.2159667
40
0.2035318
50
1.1507148
51
56.3804084
0
ARC
8
DEFAULT_255_2_778
10
15.7570302
20
94.0890512
40
0.3659758
50
54.0859377
51
92.2125558
0
ARC
8
DEFAULT_255_2_778
10
15.7303976
20
93.997115
40
0.45781
50
88.4349744
51
110.3905367
0
ARC
8
DEFAULT_255_2_778
10
15.6686351
20
94.1826308
40
0.2624862
50
111.8628955
51
124.3836044
0
ARC
8
DEFAULT_255_2_778
10
15.6097947
20
94.2551286
40
0.1695978
50
121.8092091
51
180.3967808
0
ARC
8
DEFAULT_255_2_778
10
15.578349
20
94.2492101
40
0.1382294
50
178.0332177
51
242.6304202
0
ARC
8
DEFAULT_255_2_778
10
15.7552358
20
94.5758885
40
0.5097059
50
241.8544732
51
254.0673653
0
ARC
8
DEFAULT_255_2_778
10
16.0881469
20
95.6599376
40
1.6436524
50
253.2815046
51
258.4754235
0
ARC
8
DEFAULT_255_2_778
10
16.3228441
20
96.7240421
40
2.7332486
50
258.1113044
51
258.6385665
0
ARC
8
DEFAULT_255_2_778
10
15.4232788
20
92.1808445
40
1.8981774
50
72.3374396
51
79.0328113
0
ARC
8
DEFAULT_255_2_778
10
15.685194
20
93.0151411
40
1.0237479
50
66.0789286
51
72.1378687
0
ARC
8
DEFAULT_255_2_778
10
15.9099858
20
93.4945242
40
0.4945182
50
45.6519956
51
67.3655811
0
ARC
8
DEFAULT_255_2_778
10
16.033247
20
93.6322338
40
0.3099858
50
37.3400955
51
44.1517048
0
ARC
8
DEFAULT_255_2_778
10
16.0411127
20
93.6430052
40
0.2972231
50
358.2742511
51
36.6089234
0
ARC
8
DEFAULT_255_2_778
10
15.9988392
20
93.6304944
40
0.3393806
50
301.2500661
51
0.6009806
0
ARC
8
DEFAULT_255_2_778
10
15.8198174
20
93.8852987
40
0.6504222
50
276.8370888
51
303.0881058
0
ARC
8
DEFAULT_255_2_778
10
15.754983
20
94.2720034
40
1.0422566
50
269.7865969
51
277.8451964
0
ARC
8
DEFAULT_255_2_778
10
15.7377008
20
94.0939408
40
0.8642905
50
250.8555242
51
270.8883682
0
ARC
8
DEFAULT_255_2_778
10
15.6848216
20
93.9114004
40
0.6745765
50
247.5485994
51
250.0138079
0
ARC
8
DEFAULT_255_2_778
10
15.6149321
20
93.7738877
40
0.520936
50
218.4217963
51
248.8769235
0
ARC
8
DEFAULT_255_2_778
10
15.4910824
20
93.6773035
40
0.3638856
50
180.275441
51
218.6259015
0
ARC
8
DEFAULT_255_2_778
10
15.6226534
20
93.6852085
40
0.2353505
50
182.3509946
51
236.3674328
0
ARC
8
DEFAULT_255_2_778
10
15.7158788
20
93.8282134
40
0.4060547
50
236.5911373
51
267.3789478
0
ARC
8
DEFAULT_255_2_778
10
15.7497291
20
94.098306
40
0.6777526
50
265.5641612
51
270.0737161
0
ARC
8
DEFAULT_255_2_778
10
15.7631798
20
93.9497208
40
0.5293162
50
268.6382867
51
289.0648584
0
ARC
8
DEFAULT_255_2_778
10
15.8262034
20
93.7454164
40
0.3157134
50
290.3656318
51
300.8081909
0
ARC
8
DEFAULT_255_2_778
10
15.9153219
20
93.6190696
40
0.1619854
50
296.6192892
51
359.4993289
0
LINE
8
DEFAULT_255_2_778
10
16.3244011
20
94.2200541
11
16.0625011
21
94.2200541
0
LINE
8
DEFAULT_255_2_778
10
15.1272011
20
93.6755541
11
15.3875011
21
93.6755541
0
LINE
8
DEFAULT_255_2_778
10
16.0773011
20
93.6176541
11
16.0781011
21
93.6176541
0
ARC
8
DEFAULT_255_2_778
10
9.1461186
20
92.0098149
40
0.2898233
50
236.1235284
51
269.9705987
0
ARC
8
DEFAULT_255_2_778
10
9.1651556
20
92.0216975
40
0.3104359
50
201.6251811
51
234.4286202
0
ARC
8
DEFAULT_255_2_778
10
9.3965598
20
92.1244654
40
0.5635193
50
181.2276972
51
202.6678561
0
ARC
8
DEFAULT_255_2_778
10
9.4639702
20
92.1396753
40
0.6313901
50
179.9578606
51
182.4766402
0
ARC
8
DEFAULT_255_2_778
10
9.9275465
20
92.127572
40
1.0950383
50
171.0588618
51
179.3424054
0
ARC
8
DEFAULT_255_2_778
10
10.5983853
20
92.0385232
40
1.7716404
50
170.4749658
51
171.5858531
0
ARC
8
DEFAULT_255_2_778
10
9.6413524
20
92.2060926
40
0.8001023
50
153.1718464
51
170.9684275
0
ARC
8
DEFAULT_255_2_778
10
9.3964854
20
92.3348594
40
0.5234956
50
130.1171235
51
153.6528192
0
ARC
8
DEFAULT_255_2_778
10
9.2869684
20
92.4615391
40
0.3560588
50
89.5518104
51
129.7752523
0
ARC
8
DEFAULT_255_2_778
10
9.2897466
20
92.4095293
40
0.4080578
50
88.7610246
51
89.9990208
0
ARC
8
DEFAULT_255_2_778
10
9.3033638
20
92.540029
40
0.277504
50
37.5856327
51
90.9898598
0
ARC
8
DEFAULT_255_2_778
10
9.1767499
20
92.4529822
40
0.4310111
50
6.1758102
51
36.4891147
0
ARC
8
DEFAULT_255_2_778
10
8.8894063
20
92.4013717
40
0.7225273
50
1.8178343
51
7.7936206
0
ARC
8
DEFAULT_255_2_778
10
8.9866732
20
92.4027754
40
0.625267
50
359.9657576
51
1.9720082
0
ARC
8
DEFAULT_255_2_778
10
8.4574405
20
92.4153183
40
1.1545716
50
352.2610204
51
359.3589978
0
ARC
8
DEFAULT_255_2_778
10
7.6534414
20
92.5073683
40
1.9637173
50
351.8385019
51
352.7586492
0
ARC
8
DEFAULT_255_2_778
10
8.744599
20
92.3447666
40
0.8605487
50
336.9542931
51
352.2413191
0
ARC
8
DEFAULT_255_2_778
10
9.0221904
20
92.2211387
40
0.5567384
50
316.3560172
51
337.4785538
0
ARC
8
DEFAULT_255_2_778
10
9.1577329
20
92.0847005
40
0.3645248
50
269.6885012
51
317.1709155
0
ARC
8
DEFAULT_255_2_778
10
9.155771
20
92.1377365
40
0.4175553
50
268.6824343
51
269.9972654
0
ARC
8
DEFAULT_255_2_778
10
8.7284527
20
92.4117033
40
0.7596133
50
358.399845
51
359.9868673
0
ARC
8
DEFAULT_255_2_778
10
9.0351134
20
92.4230176
40
0.4530984
50
358.5470929
51
18.7309595
0
ARC
8
DEFAULT_255_2_778
10
9.2288345
20
92.4823557
40
0.2506547
50
20.1056529
51
31.8408818
0
ARC
8
DEFAULT_255_2_778
10
9.295033
20
92.5253863
40
0.1717244
50
31.2965507
51
90.8552395
0
ARC
8
DEFAULT_255_2_778
10
9.2836296
20
92.4242977
40
0.2729372
50
88.1439005
51
89.9948377
0
ARC
8
DEFAULT_255_2_778
10
9.2818257
20
92.4604709
40
0.2367711
50
89.5575377
51
129.1094107
0
ARC
8
DEFAULT_255_2_778
10
9.3807135
20
92.3500244
40
0.3849146
50
130.1605545
51
158.5353288
0
ARC
8
DEFAULT_255_2_778
10
9.5957223
20
92.2429863
40
0.6245303
50
156.6141934
51
157.9750465
0
ARC
8
DEFAULT_255_2_778
10
9.766599
20
92.1874551
40
0.8038601
50
158.8733036
51
173.2316515
0
ARC
8
DEFAULT_255_2_778
10
10.3188523
20
92.1028048
40
1.3623732
50
172.4336443
51
176.077887
0
ARC
8
DEFAULT_255_2_778
10
9.6993334
20
92.1275757
40
0.7420556
50
178.3925446
51
179.9869339
0
ARC
8
DEFAULT_255_2_778
10
9.4053523
20
92.1162523
40
0.4482218
50
178.5307531
51
199.436734
0
ARC
8
DEFAULT_255_2_778
10
9.2241516
20
92.0591003
40
0.2584089
50
200.856467
51
211.7318239
0
ARC
8
DEFAULT_255_2_778
10
9.1514504
20
92.0091434
40
0.1703538
50
210.301412
51
270.2755988
0
ARC
8
DEFAULT_255_2_778
10
9.1609541
20
92.1347123
40
0.2960481
50
268.319048
51
269.99618
0
ARC
8
DEFAULT_255_2_778
10
9.1630477
20
92.0861052
40
0.24745
50
269.5106506
51
323.4640897
0
ARC
8
DEFAULT_255_2_778
10
8.9567216
20
92.2474648
40
0.509337
50
322.6970473
51
346.6750963
0
ARC
8
DEFAULT_255_2_778
10
8.580763
20
92.3570922
40
0.9006633
50
345.4009147
51
351.9131033
0
ARC
8
DEFAULT_255_2_778
10
8.1085012
20
92.4416168
40
1.380227
50
351.1970592
51
357.8647508
0
ARC
8
DEFAULT_255_2_778
10
10.35525
20
92.1329532
40
0.4355209
50
312.6046849
51
352.3255167
0
ARC
8
DEFAULT_255_2_778
10
10.4093387
20
92.0787794
40
0.3590459
50
268.9672052
51
312.1037022
0
ARC
8
DEFAULT_255_2_778
10
10.4029176
20
92.1724402
40
0.4526483
50
268.2975493
51
269.9936
0
ARC
8
DEFAULT_255_2_778
10
10.3904075
20
92.0027094
40
0.2827194
50
235.8671623
51
269.8099756
0
ARC
8
DEFAULT_255_2_778
10
10.4079259
20
92.0147788
40
0.3026382
50
201.7178728
51
234.4038563
0
ARC
8
DEFAULT_255_2_778
10
10.6241013
20
92.1108961
40
0.539116
50
181.4991559
51
202.7064934
0
ARC
8
DEFAULT_255_2_778
10
10.8010434
20
92.1279096
40
0.7165496
50
180.0074963
51
182.4889979
0
ARC
8
DEFAULT_255_2_778
10
10.7593859
20
92.1283909
40
0.6748923
50
172.6960848
51
180.0488228
0
ARC
8
DEFAULT_255_2_778
10
10.9241023
20
92.2076908
40
0.8281649
50
155.2068476
51
173.4338555
0
ARC
8
DEFAULT_255_2_778
10
10.6706504
20
92.3183817
40
0.551687
50
138.7973121
51
154.6049662
0
ARC
8
DEFAULT_255_2_778
10
10.542977
20
92.4441902
40
0.3729038
50
89.6618877
51
140.419237
0
ARC
8
DEFAULT_255_2_778
10
10.5451593
20
92.3847449
40
0.4323428
50
88.7925439
51
89.9975811
0
ARC
8
DEFAULT_255_2_778
10
10.5599469
20
92.5375624
40
0.2794869
50
40.7206245
51
91.1638921
0
ARC
8
DEFAULT_255_2_778
10
10.4804882
20
92.4865657
40
0.3732104
50
4.927893
51
38.6958436
0
ARC
8
DEFAULT_255_2_778
10
10.2151952
20
92.441239
40
0.6418063
50
1.5403737
51
6.9253267
0
ARC
8
DEFAULT_255_2_778
10
10.342174
20
92.4555787
40
0.3894067
50
0.4285939
51
22.1187972
0
ARC
8
DEFAULT_255_2_778
10
10.5572432
20
92.5443472
40
0.1567467
50
21.6597151
51
84.9760497
0
ARC
8
DEFAULT_255_2_778
10
10.5405125
20
92.4137497
40
0.288466
50
88.3199535
51
89.9951545
0
ARC
8
DEFAULT_255_2_778
10
10.5397856
20
92.4534275
40
0.2487894
50
89.8269649
51
144.1338298
0
ARC
8
DEFAULT_255_2_778
10
10.7505511
20
92.2873916
40
0.516989
50
142.9072054
51
167.9646497
0
ARC
8
DEFAULT_255_2_778
10
11.087902
20
92.1954111
40
0.866326
50
166.6672122
51
172.5598818
0
ARC
8
DEFAULT_255_2_778
10
10.9001214
20
92.1118648
40
0.6903598
50
178.2878384
51
179.986646
0
ARC
8
DEFAULT_255_2_778
10
10.6257688
20
92.1003866
40
0.41617
50
178.3973912
51
201.2138438
0
ARC
8
DEFAULT_255_2_778
10
10.4723397
20
92.048619
40
0.2545094
50
202.8481654
51
210.9069088
0
ARC
8
DEFAULT_255_2_778
10
10.3950608
20
91.9972819
40
0.1618934
50
209.3659613
51
270.3571041
0
ARC
8
DEFAULT_255_2_778
10
10.4083675
20
92.1713455
40
0.3361789
50
267.9036074
51
269.9895798
0
ARC
8
DEFAULT_255_2_778
10
10.4160243
20
92.0666117
40
0.2315739
50
268.0900895
51
309.8363846
0
ARC
8
DEFAULT_255_2_778
10
10.3480724
20
92.1209442
40
0.3173001
50
312.9751273
51
342.2627205
0
ARC
8
DEFAULT_255_2_778
10
10.0743695
20
92.2329001
40
0.6125412
50
340.08748
51
344.8671768
0
LINE
8
DEFAULT_255_2_778
10
8.1701698
20
92.8023916
11
8.0007698
21
91.7345916
0
LINE
8
DEFAULT_255_2_778
10
8.0007698
20
91.7345916
11
7.8756698
21
91.7345916
0
LINE
8
DEFAULT_255_2_778
10
7.8756698
20
91.7345916
11
8.0449698
21
92.8023916
0
LINE
8
DEFAULT_255_2_778
10
8.0449698
20
92.8023916
11
8.1701698
21
92.8023916
0
LINE
8
DEFAULT_255_2_778
10
8.1701698
20
92.8023916
11
8.1701698
21
92.8023916
0
LINE
8
DEFAULT_255_2_778
10
8.8061698
20
92.8023916
11
8.2291698
21
91.6429916
0
LINE
8
DEFAULT_255_2_778
10
8.2291698
20
91.6429916
11
8.1193698
21
91.6429916
0
LINE
8
DEFAULT_255_2_778
10
8.1193698
20
91.6429916
11
8.6971698
21
92.8023916
0
LINE
8
DEFAULT_255_2_778
10
8.6971698
20
92.8023916
11
8.8061698
21
92.8023916
0
LINE
8
DEFAULT_255_2_778
10
8.8061698
20
92.8023916
11
8.8061698
21
92.8023916
0
LINE
8
DEFAULT_255_2_778
10
9.1461698
20
91.7202916
11
9.1459698
21
91.7199916
0
LINE
8
DEFAULT_255_2_778
10
8.9596698
20
92.1959916
11
8.9575698
21
92.1483916
0
LINE
8
DEFAULT_255_2_778
10
9.4877698
20
92.3901916
11
9.4877698
21
92.3904916
0
LINE
8
DEFAULT_255_2_778
10
10.6651698
20
92.0726916
11
10.7868698
21
92.0747916
0
LINE
8
DEFAULT_255_2_778
10
10.0899698
20
92.2141916
11
10.1013698
21
92.3023916
0
LINE
8
DEFAULT_255_2_778
10
10.8567698
20
92.4584916
11
10.7315698
21
92.4584916
0
LINE
8
DEFAULT_255_2_778
10
10.5709698
20
92.7004916
11
10.5489698
21
92.7020916
0
LINE
8
DEFAULT_255_2_778
10
10.2288698
20
92.3075916
11
10.2140698
21
92.1969916
0
LINE
8
DEFAULT_255_2_778
10
10.2140698
20
92.1969916
11
10.2100698
21
92.1324916
0
LINE
8
DEFAULT_255_2_778
10
10.6656698
20
92.0729916
11
10.6651698
21
92.0726916
0
ARC
8
DEFAULT_255_2_778
10
11.3008643
20
92.2962744
40
0.2467085
50
51.249974
51
90.343552
0
ARC
8
DEFAULT_255_2_778
10
11.2565817
20
92.2531552
40
0.3081464
50
16.9863905
51
49.8467723
0
ARC
8
DEFAULT_255_2_778
10
11.1055646
20
92.1961019
40
0.4693594
50
359.5949467
51
18.2615913
0
ARC
8
DEFAULT_255_2_778
10
10.9983053
20
92.1933319
40
0.5766071
50
354.740724
51
359.9455366
0
ARC
8
DEFAULT_255_2_778
10
11.006749
20
92.180144
40
0.5671841
50
332.1384943
51
354.3575649
0
ARC
8
DEFAULT_255_2_778
10
11.1599844
20
92.0949097
40
0.3918966
50
303.8862952
51
332.6855116
0
ARC
8
DEFAULT_255_2_778
10
11.2152498
20
92.0148339
40
0.2946115
50
269.7297798
51
303.6466294
0
ARC
8
DEFAULT_255_2_778
10
11.2138827
20
92.0473775
40
0.3271519
50
268.2487741
51
269.9960852
0
ARC
8
DEFAULT_255_2_778
10
11.2030212
20
91.9683506
40
0.2479736
50
231.3909845
51
270.1995926
0
ARC
8
DEFAULT_255_2_778
10
11.2431456
20
92.0070565
40
0.3033426
50
197.0176341
51
230.0306196
0
ARC
8
DEFAULT_255_2_778
10
11.4091046
20
92.0662348
40
0.4794215
50
179.5278958
51
197.9757419
0
ARC
8
DEFAULT_255_2_778
10
11.5326974
20
92.0696813
40
0.6029983
50
175.348769
51
179.9521276
0
ARC
8
DEFAULT_255_2_778
10
11.5083898
20
92.0792544
40
0.5780439
50
153.1892214
51
176.099181
0
ARC
8
DEFAULT_255_2_778
10
11.352716
20
92.1628529
40
0.4014223
50
124.8754421
51
153.8166455
0
ARC
8
DEFAULT_255_2_778
10
11.2878105
20
92.2528968
40
0.2904433
50
89.7074325
51
124.5279217
0
ARC
8
DEFAULT_255_2_778
10
11.2892764
20
92.2194841
40
0.3238523
50
88.2112997
51
89.996959
0
ARC
8
DEFAULT_255_2_778
10
11.507981
20
92.0707028
40
0.4569961
50
174.125226
51
180.0469347
0
ARC
8
DEFAULT_255_2_778
10
11.5590138
20
92.0708041
40
0.508029
50
180.053635
51
185.5717412
0
ARC
8
DEFAULT_255_2_778
10
11.3018228
20
92.0293393
40
0.2485621
50
181.8122973
51
215.9030957
0
ARC
8
DEFAULT_255_2_778
10
11.2086
20
91.9663243
40
0.1361459
50
217.4286209
51
269.9095161
0
ARC
8
DEFAULT_255_2_778
10
11.2152432
20
92.0257747
40
0.1957164
50
267.9918546
51
269.9970497
0
ARC
8
DEFAULT_255_2_778
10
11.2155073
20
92.0120829
40
0.1820248
50
269.9137035
51
304.8359035
0
ARC
8
DEFAULT_255_2_778
10
11.1595731
20
92.0805826
40
0.2702851
50
306.2735862
51
335.3790978
0
ARC
8
DEFAULT_255_2_778
10
10.9748026
20
92.1756993
40
0.4779781
50
334.2412858
51
353.8000651
0
ARC
8
DEFAULT_255_2_778
10
10.4745422
20
92.2045707
40
0.9787583
50
355.2827188
51
359.7331736
0
ARC
8
DEFAULT_255_2_778
10
10.9018335
20
92.2014187
40
0.551458
50
359.8539081
51
3.7908866
0
ARC
8
DEFAULT_255_2_778
10
11.1948053
20
92.2268522
40
0.2575159
50
2.4540284
51
35.9071623
0
ARC
8
DEFAULT_255_2_778
10
11.2930562
20
92.2927283
40
0.1393664
50
37.6604301
51
89.1247731
0
ARC
8
DEFAULT_255_2_778
10
11.290558
20
92.2262466
40
0.2058839
50
88.7122384
51
89.997539
0
ARC
8
DEFAULT_255_2_778
10
11.2921597
20
92.2405554
40
0.1915816
50
90.4763774
51
144.6574298
0
ARC
8
DEFAULT_255_2_778
10
11.4628602
20
92.1071769
40
0.4081019
50
143.2457596
51
173.8670308
0
ARC
8
DEFAULT_255_2_778
10
11.6864813
20
92.0623735
40
0.6355655
50
172.0045689
51
173.51298
0
LINE
8
DEFAULT_255_2_778
10
11.572485
20
92.1404785
11
11.571185
21
92.1243785
0
LINE
8
DEFAULT_255_2_778
10
11.299385
20
92.5431785
11
11.299385
21
92.5429785
0
LINE
8
DEFAULT_255_2_778
10
11.054685
20
92.1344785
11
11.053385
21
92.1174785
0
LINE
8
DEFAULT_255_2_778
10
11.054985
20
92.1341785
11
11.054685
21
92.1344785
0
ARC
8
DEFAULT_255_2_778
10
12.121198
20
92.2492769
40
0.2968392
50
103.5666554
51
142.8920162
0
ARC
8
DEFAULT_255_2_778
10
12.1001199
20
92.2998514
40
0.2428845
50
89.9158256
51
101.5312997
0
ARC
8
DEFAULT_255_2_778
10
12.10046
20
92.2855361
40
0.2571995
50
88.6613214
51
89.9962724
0
ARC
8
DEFAULT_255_2_778
10
12.1126451
20
92.369217
40
0.1735585
50
33.4427056
51
92.0393684
0
ARC
8
DEFAULT_255_2_778
10
12.0270669
20
92.3268568
40
0.268573
50
0.3944665
51
30.9212692
0
ARC
8
DEFAULT_255_2_778
10
11.8329281
20
92.3080179
40
0.4631677
50
359.9731516
51
2.5600277
0
ARC
8
DEFAULT_255_2_778
10
11.7206855
20
92.3092044
40
0.5754118
50
354.52121
51
359.8602506
0
ARC
8
DEFAULT_255_2_778
10
11.8411289
20
92.2943861
40
0.3343743
50
353.5227307
51
359.8581204
0
ARC
8
DEFAULT_255_2_778
10
11.9123273
20
92.2940851
40
0.2631753
50
359.8852611
51
6.3878745
0
ARC
8
DEFAULT_255_2_778
10
12.0704681
20
92.3248842
40
0.1034119
50
359.1586104
51
93.8254253
0
ARC
8
DEFAULT_255_2_778
10
12.0599362
20
92.2487961
40
0.1793064
50
88.8391602
51
89.998746
0
ARC
8
DEFAULT_255_2_778
10
12.067824
20
92.2255275
40
0.2027282
50
92.2287349
51
145.1191328
0
ARC
8
DEFAULT_255_2_778
10
12.2358893
20
92.0714143
40
0.4298026
50
141.074727
51
147.7811362
0
ARC
8
DEFAULT_255_2_778
10
12.7823353
20
91.9085035
40
0.184741
50
173.2661808
51
179.8288303
0
ARC
8
DEFAULT_255_2_778
10
12.740126
20
91.9088084
40
0.1425311
50
179.9007311
51
185.573428
0
ARC
8
DEFAULT_255_2_778
10
12.6513042
20
91.8909149
40
0.0531899
50
175.6323559
51
274.1666065
0
ARC
8
DEFAULT_255_2_778
10
12.6455104
20
92.150997
40
0.3132803
50
271.7666997
51
282.6034499
0
ARC
8
DEFAULT_255_2_778
10
12.6163321
20
92.0233475
40
0.3021819
50
269.9879916
51
286.9974665
0
ARC
8
DEFAULT_255_2_778
10
12.6123027
20
91.84347
40
0.1223687
50
211.591719
51
271.857306
0
ARC
8
DEFAULT_255_2_778
10
12.698085
20
91.8895645
40
0.2196587
50
177.6296983
51
210.111353
0
ARC
8
DEFAULT_255_2_778
10
12.8836809
20
91.8979614
40
0.4050673
50
175.1419408
51
179.9027352
0
LINE
8
DEFAULT_255_2_778
10
11.7875688
20
92.5280656
11
11.9018688
21
92.5288656
0
LINE
8
DEFAULT_255_2_778
10
11.9018688
20
92.5288656
11
11.8844688
21
92.4283656
0
LINE
8
DEFAULT_255_2_778
10
12.2934688
20
92.2542656
11
12.2146688
21
91.7343656
0
LINE
8
DEFAULT_255_2_778
10
12.2146688
20
91.7343656
11
12.0937688
21
91.7343656
0
LINE
8
DEFAULT_255_2_778
10
12.0937688
20
91.7343656
11
12.1733688
21
92.2566656
0
LINE
8
DEFAULT_255_2_778
10
11.8722688
20
92.3005656
11
11.7825688
21
91.7343656
0
LINE
8
DEFAULT_255_2_778
10
11.7825688
20
91.7343656
11
11.6616688
21
91.7343656
0
LINE
8
DEFAULT_255_2_778
10
11.6616688
20
91.7343656
11
11.7873688
21
92.5278656
0
LINE
8
DEFAULT_255_2_778
10
11.7873688
20
92.5278656
11
11.7875688
21
92.5280656
0
LINE
8
DEFAULT_255_2_778
10
12.6006688
20
92.7204656
11
12.7210688
21
92.7204656
0
LINE
8
DEFAULT_255_2_778
10
12.7210688
20
92.7204656
11
12.6903688
21
92.5283656
0
LINE
8
DEFAULT_255_2_778
10
12.6903688
20
92.5283656
11
12.8221688
21
92.5283656
0
LINE
8
DEFAULT_255_2_778
10
12.8221688
20
92.5283656
11
12.8054688
21
92.4235656
0
LINE
8
DEFAULT_255_2_778
10
12.8054688
20
92.4235656
11
12.6744688
21
92.4235656
0
LINE
8
DEFAULT_255_2_778
10
12.6744688
20
92.4235656
11
12.5988688
21
91.9301656
0
LINE
8
DEFAULT_255_2_778
10
12.7138688
20
91.8452656
11
12.7046688
21
91.7343656
0
LINE
8
DEFAULT_255_2_778
10
12.4800688
20
91.9322656
11
12.5535688
21
92.4235656
0
LINE
8
DEFAULT_255_2_778
10
12.5535688
20
92.4235656
11
12.4257688
21
92.4235656
0
LINE
8
DEFAULT_255_2_778
10
12.4257688
20
92.4235656
11
12.4424688
21
92.5283656
0
LINE
8
DEFAULT_255_2_778
10
12.4424688
20
92.5283656
11
12.5702688
21
92.5283656
0
LINE
8
DEFAULT_255_2_778
10
12.5702688
20
92.5283656
11
12.6009688
21
92.7204656
0
LINE
8
DEFAULT_255_2_778
10
12.6009688
20
92.7204656
11
12.6006688
21
92.7204656
0
ARC
8
DEFAULT_255_2_778
10
13.2359962
20
92.2092751
40
0.2045755
50
90.1599812
51
154.0639577
0
ARC
8
DEFAULT_255_2_778
10
13.270902
20
92.3104447
40
0.2398956
50
109.0805327
51
148.2868678
0
ARC
8
DEFAULT_255_2_778
10
13.2423418
20
92.3672296
40
0.1770949
50
89.8475535
51
106.3526743
0
ARC
8
DEFAULT_255_2_778
10
13.2427965
20
92.3529642
40
0.1913597
50
88.4043605
51
89.9950695
0
ARC
8
DEFAULT_255_2_778
10
13.2386866
20
92.3414794
40
0.20299
50
70.7755451
51
87.3349523
0
LINE
8
DEFAULT_255_2_778
10
13.305725
20
92.5334498
11
13.292325
21
92.4072498
0
LINE
8
DEFAULT_255_2_778
10
13.292325
20
92.4072498
11
13.235425
21
92.4138498
0
LINE
8
DEFAULT_255_2_778
10
13.052025
20
92.2987498
11
12.963125
21
91.7346498
0
LINE
8
DEFAULT_255_2_778
10
12.963125
20
91.7346498
11
12.842225
21
91.7346498
0
LINE
8
DEFAULT_255_2_778
10
12.842225
20
91.7346498
11
12.967925
21
92.5281498
0
LINE
8
DEFAULT_255_2_778
10
12.967925
20
92.5281498
11
13.084825
21
92.5289498
0
LINE
8
DEFAULT_255_2_778
10
13.084825
20
92.5289498
11
13.066825
21
92.4365498
0
LINE
8
DEFAULT_255_2_778
10
13.305525
20
92.5331498
11
13.305725
21
92.5334498
0
ARC
8
DEFAULT_255_2_778
10
13.6884643
20
92.2962744
40
0.2467085
50
51.249974
51
90.343552
0
ARC
8
DEFAULT_255_2_778
10
13.6441817
20
92.2531552
40
0.3081464
50
16.9863905
51
49.8467723
0
ARC
8
DEFAULT_255_2_778
10
13.4931646
20
92.1961019
40
0.4693594
50
359.5949467
51
18.2615913
0
ARC
8
DEFAULT_255_2_778
10
13.3859053
20
92.1933319
40
0.5766071
50
354.740724
51
359.9455366
0
ARC
8
DEFAULT_255_2_778
10
13.394349
20
92.180144
40
0.5671841
50
332.1384943
51
354.3575649
0
ARC
8
DEFAULT_255_2_778
10
13.5475844
20
92.0949097
40
0.3918966
50
303.8862952
51
332.6855116
0
ARC
8
DEFAULT_255_2_778
10
13.6028498
20
92.0148339
40
0.2946115
50
269.7297798
51
303.6466294
0
ARC
8
DEFAULT_255_2_778
10
13.6014827
20
92.0473775
40
0.3271519
50
268.2487741
51
269.9960852
0
ARC
8
DEFAULT_255_2_778
10
13.5906212
20
91.9683506
40
0.2479736
50
231.3909845
51
270.1995926
0
ARC
8
DEFAULT_255_2_778
10
13.6307456
20
92.0070565
40
0.3033426
50
197.0176341
51
230.0306196
0
ARC
8
DEFAULT_255_2_778
10
13.7967046
20
92.0662348
40
0.4794215
50
179.5278958
51
197.9757419
0
ARC
8
DEFAULT_255_2_778
10
13.9202974
20
92.0696813
40
0.6029983
50
175.348769
51
179.9521276
0
ARC
8
DEFAULT_255_2_778
10
13.8959898
20
92.0792544
40
0.5780439
50
153.1892214
51
176.099181
0
ARC
8
DEFAULT_255_2_778
10
13.740316
20
92.1628529
40
0.4014223
50
124.8754421
51
153.8166455
0
ARC
8
DEFAULT_255_2_778
10
13.6754105
20
92.2528968
40
0.2904433
50
89.7074325
51
124.5279217
0
ARC
8
DEFAULT_255_2_778
10
13.6768764
20
92.2194841
40
0.3238523
50
88.2112997
51
89.996959
0
ARC
8
DEFAULT_255_2_778
10
13.895581
20
92.0707028
40
0.4569961
50
174.125226
51
180.0469347
0
ARC
8
DEFAULT_255_2_778
10
13.9466138
20
92.0708041
40
0.508029
50
180.053635
51
185.5717412
0
ARC
8
DEFAULT_255_2_778
10
13.6894228
20
92.0293393
40
0.2485621
50
181.8122973
51
215.9030957
0
ARC
8
DEFAULT_255_2_778
10
13.5962
20
91.9663243
40
0.1361459
50
217.4286209
51
269.9095161
0
ARC
8
DEFAULT_255_2_778
10
13.6028432
20
92.0257747
40
0.1957164
50
267.9918546
51
269.9970497
0
ARC
8
DEFAULT_255_2_778
10
13.6031073
20
92.0120829
40
0.1820248
50
269.9137035
51
304.8359035
0
ARC
8
DEFAULT_255_2_778
10
13.5471731
20
92.0805826
40
0.2702851
50
306.2735862
51
335.3790978
0
ARC
8
DEFAULT_255_2_778
10
13.3624026
20
92.1756993
40
0.4779781
50
334.2412858
51
353.8000651
0
ARC
8
DEFAULT_255_2_778
10
12.8621422
20
92.2045707
40
0.9787583
50
355.2827188
51
359.7331736
0
ARC
8
DEFAULT_255_2_778
10
13.2894335
20
92.2014187
40
0.551458
50
359.8539081
51
3.7908866
0
ARC
8
DEFAULT_255_2_778
10
13.5824053
20
92.2268522
40
0.2575159
50
2.4540284
51
35.9071623
0
ARC
8
DEFAULT_255_2_778
10
13.6806562
20
92.2927283
40
0.1393664
50
37.6604301
51
89.1247731
0
ARC
8
DEFAULT_255_2_778
10
13.678158
20
92.2262466
40
0.2058839
50
88.7122384
51
89.997539
0
ARC
8
DEFAULT_255_2_778
10
13.6797597
20
92.2405554
40
0.1915816
50
90.4763774
51
144.6574298
0
ARC
8
DEFAULT_255_2_778
10
13.8504602
20
92.1071769
40
0.4081019
50
143.2457596
51
173.8670308
0
ARC
8
DEFAULT_255_2_778
10
14.0740813
20
92.0623735
40
0.6355655
50
172.0045689
51
173.51298
0
LINE
8
DEFAULT_255_2_778
10
13.960085
20
92.1404785
11
13.958785
21
92.1243785
0
LINE
8
DEFAULT_255_2_778
10
13.686985
20
92.5431785
11
13.686985
21
92.5429785
0
LINE
8
DEFAULT_255_2_778
10
13.442285
20
92.1344785
11
13.440985
21
92.1174785
0
LINE
8
DEFAULT_255_2_778
10
13.442585
20
92.1341785
11
13.442285
21
92.1344785
0
LINE
8
DEFAULT_255_2_778
10
14.3591104
20
92.8611979
11
14.1805104
21
91.7345979
0
LINE
8
DEFAULT_255_2_778
10
14.1805104
20
91.7345979
11
14.0601104
21
91.7345979
0
LINE
8
DEFAULT_255_2_778
10
14.0601104
20
91.7345979
11
14.2379104
21
92.8611979
0
LINE
8
DEFAULT_255_2_778
10
14.2379104
20
92.8611979
11
14.3588104
21
92.8611979
0
LINE
8
DEFAULT_255_2_778
10
14.3588104
20
92.8611979
11
14.3591104
21
92.8611979
0
LINE
8
DEFAULT_255_2_778
10
14.6880104
20
92.8611979
11
14.5094104
21
91.7345979
0
LINE
8
DEFAULT_255_2_778
10
14.5094104
20
91.7345979
11
14.3890104
21
91.7345979
0
LINE
8
DEFAULT_255_2_778
10
14.3890104
20
91.7345979
11
14.5668104
21
92.8611979
0
LINE
8
DEFAULT_255_2_778
10
14.5668104
20
92.8611979
11
14.6877104
21
92.8611979
0
LINE
8
DEFAULT_255_2_778
10
14.6877104
20
92.8611979
11
14.6880104
21
92.8611979
0
ARC
8
DEFAULT_255_2_778
10
15.0172315
20
91.9729426
40
0.2528318
50
214.611319
51
270.750882
0
ARC
8
DEFAULT_255_2_778
10
15.1213735
20
92.0426272
40
0.3781287
50
179.0040528
51
214.3384005
0
ARC
8
DEFAULT_255_2_778
10
15.2983113
20
92.0576418
40
0.5550737
50
179.996452
51
180.8714433
0
ARC
8
DEFAULT_255_2_778
10
15.352372
20
92.057106
40
0.6091348
50
175.8363488
51
179.9463681
0
ARC
8
DEFAULT_255_2_778
10
15.3116623
20
92.0837309
40
0.5654533
50
152.0760122
51
175.0183947
0
ARC
8
DEFAULT_255_2_778
10
15.1624539
20
92.1727108
40
0.3920456
50
124.5446862
51
153.3542605
0
ARC
8
DEFAULT_255_2_778
10
15.0960122
20
92.2629756
40
0.2800427
50
89.9573347
51
123.8199043
0
ARC
8
DEFAULT_255_2_778
10
15.0962104
20
92.245659
40
0.2973592
50
88.6251726
51
89.9979957
0
ARC
8
DEFAULT_255_2_778
10
15.107212
20
92.3221825
40
0.2207839
50
39.1023309
51
91.003606
0
ARC
8
DEFAULT_255_2_778
10
15.0073099
20
92.2571933
40
0.3395321
50
2.9039554
51
36.9796541
0
ARC
8
DEFAULT_255_2_778
10
14.7800713
20
92.2231314
40
0.5686502
50
2.5803781
51
5.1721789
0
ARC
8
DEFAULT_255_2_778
10
14.6915523
20
92.2197533
40
0.6572318
50
0.0004609
51
2.5271514
0
ARC
8
DEFAULT_255_2_778
10
14.6891348
20
92.2198218
40
0.6596493
50
354.2325195
51
359.9945161
0
ARC
8
DEFAULT_255_2_778
10
15.2644014
20
92.0477452
40
0.4016724
50
173.5837325
51
179.8875446
0
ARC
8
DEFAULT_255_2_778
10
15.1329408
20
92.0424035
40
0.2702807
50
178.7004021
51
209.5191008
0
ARC
8
DEFAULT_255_2_778
10
15.0301353
20
91.9816192
40
0.1508875
50
208.668369
51
270.193514
0
ARC
8
DEFAULT_255_2_778
10
15.0362032
20
92.0355642
40
0.2049071
50
268.4456006
51
270.0004453
0
ARC
8
DEFAULT_255_2_778
10
15.0276599
20
92.0683807
40
0.2378773
50
272.058593
51
319.6610786
0
ARC
8
DEFAULT_255_2_778
10
14.8916081
20
92.2185488
40
0.4395781
50
316.2186093
51
320.0406675
0
ARC
8
DEFAULT_255_2_778
10
15.0180448
20
92.0461602
40
0.3299713
50
299.5228381
51
328.0881098
0
ARC
8
DEFAULT_255_2_778
10
15.0306975
20
92.0255928
40
0.3058408
50
269.3393403
51
299.358941
0
ARC
8
DEFAULT_255_2_778
10
15.0271716
20
92.084535
40
0.3647628
50
268.9590373
51
269.9999051
0
ARC
8
DEFAULT_255_2_778
10
15.0923145
20
92.2458159
40
0.18639
50
88.391996
51
89.9940426
0
ARC
8
DEFAULT_255_2_778
10
15.0924682
20
92.2632488
40
0.1689571
50
90.0455217
51
138.032254
0
ARC
8
DEFAULT_255_2_778
10
15.2421769
20
92.1300765
40
0.3693244
50
138.2022229
51
162.8147961
0
ARC
8
DEFAULT_255_2_778
10
15.5331249
20
92.0167205
40
0.6811415
50
160.9360107
51
164.0381481
0
ARC
8
DEFAULT_255_2_778
10
14.8914393
20
92.2548002
40
0.3436377
50
353.3209465
51
359.8622283
0
ARC
8
DEFAULT_255_2_778
10
15.0198237
20
92.2599905
40
0.2153363
50
358.3989342
51
30.2996579
0
ARC
8
DEFAULT_255_2_778
10
15.0966904
20
92.3067483
40
0.1253896
50
29.5732576
51
89.4724493
0
LINE
8
DEFAULT_255_2_778
10
14.7448449
20
92.1013325
11
14.7483449
21
92.1328325
0
LINE
8
DEFAULT_255_2_778
10
15.3454449
20
92.1535325
11
15.3380449
21
92.0926325
0
LINE
8
DEFAULT_255_2_778
10
15.3380449
20
92.0926325
11
14.8652449
21
92.0926325
0
LINE
8
DEFAULT_255_2_778
10
15.2285449
20
91.9362325
11
15.2981449
21
91.8717325
0
LINE
8
DEFAULT_255_2_778
10
15.0205449
20
91.7198325
11
15.0205449
21
91.7201325
0
LINE
8
DEFAULT_255_2_778
10
14.8782449
20
92.2040325
11
15.2301449
21
92.2032325
0
LINE
8
DEFAULT_255_2_778
10
15.2301449
20
92.2032325
11
15.2327449
21
92.2148325
0
LINE
8
DEFAULT_255_2_778
10
15.0978449
20
92.4321325
11
15.0975449
21
92.4321325
0
ARC
8
DEFAULT_255_2_778
10
15.8113962
20
92.2092751
40
0.2045755
50
90.1599812
51
154.0639577
0
ARC
8
DEFAULT_255_2_778
10
15.846302
20
92.3104447
40
0.2398956
50
109.0805327
51
148.2868678
0
ARC
8
DEFAULT_255_2_778
10
15.8177418
20
92.3672296
40
0.1770949
50
89.8475535
51
106.3526743
0
ARC
8
DEFAULT_255_2_778
10
15.8181965
20
92.3529642
40
0.1913597
50
88.4043605
51
89.9950695
0
ARC
8
DEFAULT_255_2_778
10
15.8140866
20
92.3414794
40
0.20299
50
70.7755451
51
87.3349523
0
LINE
8
DEFAULT_255_2_778
10
15.881125
20
92.5334498
11
15.867725
21
92.4072498
0
LINE
8
DEFAULT_255_2_778
10
15.867725
20
92.4072498
11
15.810825
21
92.4138498
0
LINE
8
DEFAULT_255_2_778
10
15.627425
20
92.2987498
11
15.538525
21
91.7346498
0
LINE
8
DEFAULT_255_2_778
10
15.538525
20
91.7346498
11
15.417625
21
91.7346498
0
LINE
8
DEFAULT_255_2_778
10
15.417625
20
91.7346498
11
15.543325
21
92.5281498
0
LINE
8
DEFAULT_255_2_778
10
15.543325
20
92.5281498
11
15.660225
21
92.5289498
0
LINE
8
DEFAULT_255_2_778
10
15.660225
20
92.5289498
11
15.642225
21
92.4365498
0
LINE
8
DEFAULT_255_2_778
10
15.880925
20
92.5331498
11
15.881125
21
92.5334498
0
ARC
8
DEFAULT_255_2_778
10
6.443365
20
94.1563123
40
0.4195819
50
122.081039
51
180.7894579
0
ARC
8
DEFAULT_255_2_778
10
6.4118724
20
94.1971058
40
0.3683254
50
89.9765819
51
121.3005192
0
ARC
8
DEFAULT_255_2_778
10
6.4003967
20
94.1665137
40
0.3990869
50
1.5428251
51
88.3306214
0
ARC
8
DEFAULT_255_2_778
10
6.3454786
20
94.1505669
40
0.4546444
50
359.995501
51
3.3657263
0
ARC
8
DEFAULT_255_2_778
10
6.3803036
20
94.1447232
40
0.4198595
50
302.771145
51
0.7926112
0
ARC
8
DEFAULT_255_2_778
10
6.4121757
20
94.1041846
40
0.3685533
50
269.9762507
51
302.0161433
0
ARC
8
DEFAULT_255_2_778
10
6.423639
20
94.1346408
40
0.3991787
50
181.5556911
51
268.332466
0
ARC
8
DEFAULT_255_2_778
10
6.4784659
20
94.1505023
40
0.454643
50
179.9963523
51
183.366589
0
LINE
8
DEFAULT_255_2_778
10
6.0238229
20
94.1505312
11
6.0238229
21
94.1505312
0
LINE
8
DEFAULT_255_2_778
10
6.4120229
20
95.3025312
11
6.7342229
21
94.7371312
0
LINE
8
DEFAULT_255_2_778
10
6.7342229
20
94.7371312
11
7.0335229
21
94.8149312
0
LINE
8
DEFAULT_255_2_778
10
7.0335229
20
94.8149312
11
6.9607229
21
94.4950312
0
LINE
8
DEFAULT_255_2_778
10
6.9607229
20
94.4950312
11
7.4902229
21
94.1508312
0
LINE
8
DEFAULT_255_2_778
10
7.4902229
20
94.1508312
11
6.9607229
21
93.8065312
0
LINE
8
DEFAULT_255_2_778
10
6.9607229
20
93.8065312
11
7.0335229
21
93.4867312
0
LINE
8
DEFAULT_255_2_778
10
7.0335229
20
93.4867312
11
6.7342229
21
93.5645312
0
LINE
8
DEFAULT_255_2_778
10
6.7342229
20
93.5645312
11
6.4120229
21
92.9990312
0
LINE
8
DEFAULT_255_2_778
10
6.4120229
20
92.9990312
11
6.0897229
21
93.5645312
0
LINE
8
DEFAULT_255_2_778
10
6.0897229
20
93.5645312
11
5.7905229
21
93.4867312
0
LINE
8
DEFAULT_255_2_778
10
5.7905229
20
93.4867312
11
5.8632229
21
93.8065312
0
LINE
8
DEFAULT_255_2_778
10
5.8632229
20
93.8065312
11
5.3338229
21
94.1508312
0
LINE
8
DEFAULT_255_2_778
10
5.3338229
20
94.1508312
11
5.8632229
21
94.4950312
0
LINE
8
DEFAULT_255_2_778
10
5.8632229
20
94.4950312
11
5.7905229
21
94.8149312
0
LINE
8
DEFAULT_255_2_778
10
5.7905229
20
94.8149312
11
6.0897229
21
94.7371312
0
LINE
8
DEFAULT_255_2_778
10
6.0897229
20
94.7371312
11
6.4120229
21
95.3025312
0
LINE
8
DEFAULT_255_2_778
10
39.2573802
20
88.2326404
11
37.7045802
21
88.2326404
0
LINE
8
DEFAULT_255_2_778
10
37.7045802
20
88.2326404
11
37.7045802
21
85.4674404
0
LINE
8
DEFAULT_255_2_778
10
37.7045802
20
85.4674404
11
39.2573802
21
85.4674404
0
LINE
8
DEFAULT_255_2_778
10
39.2573802
20
85.4674404
11
39.2573802
21
88.2326404
0
LINE
8
DEFAULT_255_2_778
10
39.2573802
20
94.5537404
11
37.7045802
21
94.5537404
0
LINE
8
DEFAULT_255_2_778
10
37.7045802
20
94.5537404
11
37.7045802
21
91.7886404
0
LINE
8
DEFAULT_255_2_778
10
37.7045802
20
91.7886404
11
39.2573802
21
91.7886404
0
LINE
8
DEFAULT_255_2_778
10
39.2573802
20
91.7886404
11
39.2573802
21
94.5537404
0
LINE
8
DEFAULT_255_2_778
10
39.2573802
20
100.8749404
11
37.7045802
21
100.8749404
0
LINE
8
DEFAULT_255_2_778
10
37.7045802
20
100.8749404
11
37.7045802
21
98.1097404
0
LINE
8
DEFAULT_255_2_778
10
37.7045802
20
98.1097404
11
39.2573802
21
98.1097404
0
LINE
8
DEFAULT_255_2_778
10
39.2573802
20
98.1097404
11
39.2573802
21
100.8749404
0
LINE
8
DEFAULT_255_2_778
10
39.2573802
20
47.8470802
11
37.7045802
21
47.8470802
0
LINE
8
DEFAULT_255_2_778
10
37.7045802
20
47.8470802
11
37.7045802
21
45.0818802
0
LINE
8
DEFAULT_255_2_778
10
37.7045802
20
45.0818802
11
39.2573802
21
45.0818802
0
LINE
8
DEFAULT_255_2_778
10
39.2573802
20
45.0818802
11
39.2573802
21
47.8470802
0
LINE
8
DEFAULT_255_2_778
10
39.2573802
20
54.1682802
11
37.7045802
21
54.1682802
0
LINE
8
DEFAULT_255_2_778
10
37.7045802
20
54.1682802
11
37.7045802
21
51.4030802
0
LINE
8
DEFAULT_255_2_778
10
37.7045802
20
51.4030802
11
39.2573802
21
51.4030802
0
LINE
8
DEFAULT_255_2_778
10
39.2573802
20
51.4030802
11
39.2573802
21
54.1682802
0
LINE
8
DEFAULT_255_2_778
10
39.2573802
20
65.0407802
11
37.7045802
21
65.0407802
0
LINE
8
DEFAULT_255_2_778
10
37.7045802
20
65.0407802
11
37.7045802
21
62.2755802
0
LINE
8
DEFAULT_255_2_778
10
37.7045802
20
62.2755802
11
39.2573802
21
62.2755802
0
LINE
8
DEFAULT_255_2_778
10
39.2573802
20
62.2755802
11
39.2573802
21
65.0407802
0
LINE
8
DEFAULT_255_2_778
10
39.2573802
20
71.3619802
11
37.7045802
21
71.3619802
0
LINE
8
DEFAULT_255_2_778
10
37.7045802
20
71.3619802
11
37.7045802
21
68.5967802
0
LINE
8
DEFAULT_255_2_778
10
37.7045802
20
68.5967802
11
39.2573802
21
68.5967802
0
LINE
8
DEFAULT_255_2_778
10
39.2573802
20
68.5967802
11
39.2573802
21
71.3619802
0
LINE
8
DEFAULT_255_2_778
10
40.6427825
20
58.8940391
11
55.4887825
21
58.8940391
0
LINE
8
DEFAULT_255_2_778
10
55.4887825
20
58.8940391
11
55.4887825
21
40.3562391
0
LINE
8
DEFAULT_255_2_778
10
55.4887825
20
40.3562391
11
40.6427825
21
40.3562391
0
LINE
8
DEFAULT_255_2_778
10
40.6427825
20
40.3562391
11
40.6427825
21
58.8940391
0
LINE
8
DEFAULT_255_2_778
10
40.6427825
20
73.8657391
11
40.6427825
21
59.5975391
0
LINE
8
DEFAULT_255_2_778
10
40.6427825
20
59.5975391
11
48.4074825
21
59.5975391
0
LINE
8
DEFAULT_255_2_778
10
48.4074825
20
59.5975391
11
48.4074825
21
73.8657391
0
LINE
8
DEFAULT_255_2_778
10
48.4074825
20
73.8657391
11
40.6427825
21
73.8657391
0
ARC
8
DEFAULT_255_2_778
10
49.4405323
20
6.2518427
40
0.4128129
50
289.6087229
51
316.8223677
0
ARC
8
DEFAULT_255_2_778
10
51.0646834
20
7.8425772
40
0.2153578
50
355.1502979
51
0.0003738
0
ARC
8
DEFAULT_255_2_778
10
51.0692396
20
7.8434046
40
0.2108033
50
359.7754909
51
42.7767908
0
ARC
8
DEFAULT_255_2_778
10
51.0876903
20
7.8611537
40
0.1852067
50
42.622957
51
89.6257496
0
ARC
8
DEFAULT_255_2_778
10
51.0889033
20
7.8678938
40
0.1784627
50
90.0010495
51
95.3800965
0
ARC
8
DEFAULT_255_2_778
10
50.2098441
20
7.821372
40
0.2248939
50
94.5073994
51
179.2361043
0
ARC
8
DEFAULT_255_2_778
10
51.7355918
20
6.3847754
40
0.285626
50
179.6800527
51
222.755955
0
ARC
8
DEFAULT_255_2_778
10
51.7104305
20
6.3606192
40
0.2507533
50
222.6062188
51
269.6663203
0
ARC
8
DEFAULT_255_2_778
10
44.3087506
20
6.2535659
40
0.4120892
50
223.1430274
51
250.3934261
0
ARC
8
DEFAULT_255_2_778
10
42.0602259
20
5.9105253
40
0.26915
50
272.1812928
51
1.6063733
0
ARC
8
DEFAULT_255_2_778
10
43.5811088
20
7.8260826
40
0.23537
50
359.5101503
51
359.9941308
0
ARC
8
DEFAULT_255_2_778
10
43.5883296
20
7.8269488
40
0.2281508
50
359.7764031
51
42.5630723
0
ARC
8
DEFAULT_255_2_778
10
43.6104615
20
7.8469563
40
0.1983169
50
42.630643
51
90.0347825
0
ARC
8
DEFAULT_255_2_778
10
43.6103796
20
7.8403743
40
0.2048989
50
90.0107571
51
90.3102205
0
ARC
8
DEFAULT_255_2_778
10
42.7234004
20
7.8513167
40
0.1940424
50
88.2665241
51
89.9986621
0
ARC
8
DEFAULT_255_2_778
10
42.7233152
20
7.8523867
40
0.1929724
50
89.9733628
51
137.5751127
0
ARC
8
DEFAULT_255_2_778
10
42.7441904
20
7.8322361
40
0.2219772
50
137.3708221
51
180.0043731
0
ARC
8
DEFAULT_255_2_778
10
42.7443648
20
7.8322208
40
0.2221516
50
180.0004082
51
182.1541898
0
ARC
8
DEFAULT_255_2_778
10
46.9646362
20
6.6518044
40
4.059225
50
235.0914439
51
245.9807186
0
ARC
8
DEFAULT_255_2_778
10
46.9120346
20
6.5334672
40
3.9297235
50
245.9789428
51
261.3608746
0
ARC
8
DEFAULT_255_2_778
10
46.9039767
20
6.4908458
40
3.8863755
50
261.3839365
51
269.9984294
0
ARC
8
DEFAULT_255_2_778
10
46.9024703
20
6.50616
40
3.9016899
50
270.0205577
51
289.9310324
0
ARC
8
DEFAULT_255_2_778
10
46.865657
20
6.608879
40
4.0108058
50
289.925212
51
301.6403522
0
ARC
8
DEFAULT_255_2_778
10
46.8105534
20
6.7028005
40
4.1196738
50
301.6075713
51
304.8739319
0
ARC
8
DEFAULT_255_2_778
10
49.6082203
20
36.6037973
40
0.2196888
50
30.1593291
51
89.3222464
0
ARC
8
DEFAULT_255_2_778
10
49.6108265
20
36.6148151
40
0.2086555
50
90.0020617
51
95.0194951
0
ARC
8
DEFAULT_255_2_778
10
50.2072421
20
34.8515069
40
0.2221147
50
177.9453582
51
180.0011327
0
ARC
8
DEFAULT_255_2_778
10
50.2072761
20
34.8515735
40
0.2221489
50
180.018295
51
222.6827229
0
ARC
8
DEFAULT_255_2_778
10
50.1873424
20
34.8332218
40
0.195054
50
222.6895121
51
269.6752607
0
ARC
8
DEFAULT_255_2_778
10
50.1862383
20
34.8273616
40
0.1891907
50
269.9995822
51
271.8573584
0
ARC
8
DEFAULT_255_2_778
10
51.078513
20
34.8280296
40
0.1898587
50
268.1459029
51
270.0003596
0
ARC
8
DEFAULT_255_2_778
10
51.0774781
20
34.8332681
40
0.1950999
50
270.3042573
51
317.3044599
0
ARC
8
DEFAULT_255_2_778
10
51.0575644
20
34.8515735
40
0.2221489
50
317.3172771
51
359.981705
0
ARC
8
DEFAULT_255_2_778
10
51.0575983
20
34.8515069
40
0.2221149
50
359.9988673
51
2.0546418
0
ARC
8
DEFAULT_255_2_778
10
51.7216484
20
36.3060132
40
0.2681143
50
91.9617523
51
181.8259088
0
ARC
8
DEFAULT_255_2_778
10
41.9571689
20
36.6771971
40
0.3826857
50
13.1825688
51
72.6999695
0
ARC
8
DEFAULT_255_2_778
10
42.7449642
20
34.8518066
40
0.2221368
50
177.945467
51
180.00119
0
ARC
8
DEFAULT_255_2_778
10
42.7447824
20
34.8517978
40
0.2219552
50
179.9989334
51
222.7022552
0
ARC
8
DEFAULT_255_2_778
10
42.7249288
20
34.8332262
40
0.19477
50
222.648257
51
269.6227809
0
ARC
8
DEFAULT_255_2_778
10
42.723647
20
34.8263922
40
0.1879318
50
269.9998313
51
271.9586531
0
ARC
8
DEFAULT_255_2_778
10
43.6165042
20
34.8270255
40
0.188565
50
268.0446419
51
269.9998788
0
ARC
8
DEFAULT_255_2_778
10
43.6150632
20
34.8337898
40
0.1953347
50
270.4225597
51
317.2795124
0
ARC
8
DEFAULT_255_2_778
10
43.5949657
20
34.8519893
40
0.222447
50
317.3475002
51
359.9600181
0
ARC
8
DEFAULT_255_2_778
10
43.5958361
20
34.8518277
40
0.2215765
50
0.0016513
51
2.0542665
0
ARC
8
DEFAULT_255_2_778
10
44.1978333
20
36.6136277
40
0.2101268
50
85.0484066
51
89.9981606
0
ARC
8
DEFAULT_255_2_778
10
44.2001933
20
36.6042797
40
0.2194876
50
90.6142985
51
149.8652013
0
ARC
8
DEFAULT_255_2_778
10
61.1446522
20
19.6395493
40
0.2761576
50
359.0291867
51
67.4916812
0
ARC
8
DEFAULT_255_2_778
10
60.2963698
20
20.5794638
40
0.2930693
50
181.2500413
51
245.2708175
0
ARC
8
DEFAULT_255_2_778
10
60.2794882
20
22.0874493
40
0.2761576
50
112.5083188
51
180.9708133
0
ARC
8
DEFAULT_255_2_778
10
61.1444523
20
23.0164225
40
0.2763553
50
292.5361972
51
0.9429255
0
ARC
8
DEFAULT_255_2_778
10
58.8961168
20
6.5576392
40
2.1018955
50
267.1353322
51
269.9987104
0
ARC
8
DEFAULT_255_2_778
10
58.8759081
20
6.6350976
40
2.1794473
50
270.5300325
51
324.1712128
0
ARC
8
DEFAULT_255_2_778
10
58.6865224
20
6.8028427
40
2.4313176
50
323.5786917
51
343.2601285
0
ARC
8
DEFAULT_255_2_778
10
58.5667938
20
6.8441824
40
2.5578846
50
343.1458293
51
343.2982002
0
ARC
8
DEFAULT_255_2_778
10
58.7583081
20
6.7731952
40
2.5862362
50
270.7324822
51
322.2017823
0
ARC
8
DEFAULT_255_2_778
10
58.5456555
20
6.9728059
40
2.8767371
50
321.6561264
51
340.8476718
0
ARC
8
DEFAULT_255_2_778
10
58.4446384
20
7.0135956
40
2.9855501
50
340.7442289
51
342.3640633
0
ARC
8
DEFAULT_255_2_778
10
58.3942287
20
6.990347
40
3.0267785
50
343.0725873
51
359.6097389
0
ARC
8
DEFAULT_255_2_778
10
58.2278489
20
6.9988967
40
3.1932213
50
359.4766691
51
359.9995266
0
LINE
8
DEFAULT_255_2_778
10
58.7913702
20
2.2643703
11
58.7920776
21
2.2643702
0
ARC
8
DEFAULT_255_2_778
10
58.7799815
20
4.7993386
40
2.5349972
50
270.2733946
51
313.7096749
0
ARC
8
DEFAULT_255_2_778
10
58.6717562
20
4.9398834
40
2.7114401
50
313.310582
51
316.863606
0
ARC
8
DEFAULT_255_2_778
10
58.5257725
20
5.0510296
40
2.8940237
50
317.2339898
51
355.9226176
0
ARC
8
DEFAULT_255_2_778
10
58.4213698
20
5.0722257
40
2.9997006
50
355.6605761
51
359.9779326
0
ARC
8
DEFAULT_255_2_778
10
38.1570503
20
36.7647092
40
0.278885
50
94.1289474
51
179.6587244
0
LINE
8
DEFAULT_255_2_778
10
51.2792702
20
6.1098703
11
51.2792702
21
7.8243703
0
LINE
8
DEFAULT_255_2_778
10
51.0721702
20
8.0455703
11
50.1921702
21
8.0455703
0
LINE
8
DEFAULT_255_2_778
10
49.9849702
20
7.8243703
11
49.9849702
21
6.1098703
0
LINE
8
DEFAULT_255_2_778
10
51.2790702
20
5.9693703
11
51.2790702
21
6.1098703
0
LINE
8
DEFAULT_255_2_778
10
51.2790702
20
6.1098703
11
49.9849702
21
6.1098703
0
LINE
8
DEFAULT_255_2_778
10
49.9849702
20
6.1098703
11
49.9849702
21
5.9714703
0
LINE
8
DEFAULT_255_2_778
10
49.5804702
20
5.8651703
11
49.4576702
21
5.8608703
0
LINE
8
DEFAULT_255_2_778
10
44.1704702
20
5.8653703
11
44.2149702
21
5.8611703
0
LINE
8
DEFAULT_255_2_778
10
44.2149702
20
5.8611703
11
44.3501702
21
5.8611703
0
LINE
8
DEFAULT_255_2_778
10
42.3292702
20
5.9180703
11
42.3292702
21
5.9196703
0
LINE
8
DEFAULT_255_2_778
10
42.5223702
20
5.7685703
11
42.5223702
21
5.7732703
0
LINE
8
DEFAULT_255_2_778
10
42.5223702
20
5.7732703
11
42.2906702
21
5.7732703
0
LINE
8
DEFAULT_255_2_778
10
42.5223702
20
5.9693703
11
42.5223702
21
6.1098703
0
LINE
8
DEFAULT_255_2_778
10
43.8085702
20
6.1098703
11
43.8164702
21
6.2627703
0
LINE
8
DEFAULT_255_2_778
10
43.8164702
20
6.2627703
11
43.8164702
21
7.8240703
0
LINE
8
DEFAULT_255_2_778
10
43.6092702
20
8.0452703
11
42.7292702
21
8.0452703
0
LINE
8
DEFAULT_255_2_778
10
42.5223702
20
7.8238703
11
42.5223702
21
6.1093703
0
LINE
8
DEFAULT_255_2_778
10
42.5223702
20
6.1093703
11
43.8085702
21
6.1093703
0
LINE
8
DEFAULT_255_2_778
10
43.8085702
20
6.1093703
11
43.7870702
21
5.9688703
0
LINE
8
DEFAULT_255_2_778
10
42.5223702
20
5.4796703
11
42.5223702
21
5.4748703
0
LINE
8
DEFAULT_255_2_778
10
42.5223702
20
5.4748703
11
42.5223702
21
5.9685703
0
LINE
8
DEFAULT_255_2_778
10
42.5223702
20
5.9685703
11
44.0095702
21
5.9685703
0
LINE
8
DEFAULT_255_2_778
10
44.0045702
20
8.8662703
11
44.5162702
21
4.4149703
0
LINE
8
DEFAULT_255_2_778
10
49.2917702
20
4.4149703
11
49.8034702
21
8.8662703
0
LINE
8
DEFAULT_255_2_778
10
44.0241702
20
8.6987703
11
49.7843702
21
8.6987703
0
LINE
8
DEFAULT_255_2_778
10
49.6835702
20
7.8219703
11
44.1249702
21
7.8219703
0
LINE
8
DEFAULT_255_2_778
10
42.3294702
20
5.9185703
11
42.3294702
21
8.8662703
0
LINE
8
DEFAULT_255_2_778
10
42.3294702
20
8.8662703
11
51.4504702
21
8.8662703
0
LINE
8
DEFAULT_255_2_778
10
51.4504702
20
8.8662703
11
51.4504702
21
6.3855703
0
LINE
8
DEFAULT_255_2_778
10
49.4703702
20
5.9672703
11
44.3379702
21
5.9672703
0
LINE
8
DEFAULT_255_2_778
10
49.1676702
20
3.3354703
11
49.1663702
21
3.3229703
0
LINE
8
DEFAULT_255_2_778
10
49.1663702
20
3.3229703
11
49.2917702
21
4.4149703
0
LINE
8
DEFAULT_255_2_778
10
49.2917702
20
4.4149703
11
44.5162702
21
4.4149703
0
LINE
8
DEFAULT_255_2_778
10
44.5162702
20
4.4149703
11
44.6416702
21
3.3229703
0
LINE
8
DEFAULT_255_2_778
10
49.5925702
20
36.8226703
11
49.4576702
21
36.8226703
0
LINE
8
DEFAULT_255_2_778
10
49.9846702
20
35.1727703
11
49.6478702
21
35.1727703
0
LINE
8
DEFAULT_255_2_778
10
49.9852702
20
36.7120703
11
49.9852702
21
34.8594703
0
LINE
8
DEFAULT_255_2_778
10
50.1923702
20
34.6382703
11
51.0723702
21
34.6382703
0
LINE
8
DEFAULT_255_2_778
10
51.2795702
20
34.8594703
11
51.2795702
21
36.5739703
0
LINE
8
DEFAULT_255_2_778
10
51.2795702
20
36.7144703
11
51.2795702
21
36.5739703
0
LINE
8
DEFAULT_255_2_778
10
51.2795702
20
36.5739703
11
49.9854702
21
36.5739703
0
LINE
8
DEFAULT_255_2_778
10
51.4536702
20
36.2974703
11
51.4536702
21
33.8167703
0
LINE
8
DEFAULT_255_2_778
10
51.4536702
20
33.8167703
11
42.3297702
21
33.8167703
0
LINE
8
DEFAULT_255_2_778
10
42.3297702
20
33.8167703
11
42.3297702
21
36.7644703
0
LINE
8
DEFAULT_255_2_778
10
42.5229702
20
36.5742703
11
42.5229702
21
34.8597703
0
LINE
8
DEFAULT_255_2_778
10
42.7300702
20
34.6385703
11
43.6100702
21
34.6385703
0
LINE
8
DEFAULT_255_2_778
10
43.8172702
20
34.8597703
11
43.8172702
21
36.7123703
0
LINE
8
DEFAULT_255_2_778
10
43.8172702
20
36.7123703
11
43.8172702
21
36.5739703
0
LINE
8
DEFAULT_255_2_778
10
43.8172702
20
36.5739703
11
42.5231702
21
36.5739703
0
LINE
8
DEFAULT_255_2_778
10
42.5231702
20
36.5739703
11
42.5231702
21
36.7144703
0
LINE
8
DEFAULT_255_2_778
10
44.3511702
20
36.8229703
11
44.2159702
21
36.8229703
0
LINE
8
DEFAULT_255_2_778
10
44.0103702
20
36.7144703
11
42.5231702
21
36.7144703
0
LINE
8
DEFAULT_255_2_778
10
42.5231702
20
36.7144703
11
42.5231702
21
37.2081703
0
LINE
8
DEFAULT_255_2_778
10
42.3302702
20
36.7655703
11
42.3302702
21
36.7655703
0
LINE
8
DEFAULT_255_2_778
10
61.1622702
20
21.1447703
11
60.0158702
21
21.1447703
0
LINE
8
DEFAULT_255_2_778
10
60.0158702
20
21.1447703
11
60.0158702
21
21.5162703
0
LINE
8
DEFAULT_255_2_778
10
60.0158702
20
21.5162703
11
61.4210702
21
21.5162703
0
LINE
8
DEFAULT_255_2_778
10
61.4210702
20
21.5162703
11
61.4210702
21
21.1447703
0
LINE
8
DEFAULT_255_2_778
10
61.4210702
20
21.1447703
11
61.1622702
21
21.1447703
0
LINE
8
DEFAULT_255_2_778
10
61.3511702
20
22.8323703
11
61.3622702
21
22.5222703
0
LINE
8
DEFAULT_255_2_778
10
61.3622702
20
22.5222703
11
61.4242702
21
22.2457703
0
LINE
8
DEFAULT_255_2_778
10
61.4242702
20
20.4158703
11
61.3622702
21
20.1393703
0
LINE
8
DEFAULT_255_2_778
10
61.3622702
20
20.1393703
11
61.3509702
21
19.8237703
0
LINE
8
DEFAULT_255_2_778
10
61.2503702
20
19.8946703
11
60.1737702
21
20.3132703
0
LINE
8
DEFAULT_255_2_778
10
60.0033702
20
20.5730703
11
60.0033702
21
22.0827703
0
LINE
8
DEFAULT_255_2_778
10
60.1737702
20
22.3425703
11
61.2503702
21
22.7611703
0
LINE
8
DEFAULT_255_2_778
10
61.4207702
20
23.0209703
11
61.4207702
21
19.6345703
0
LINE
8
DEFAULT_255_2_778
10
61.4175702
20
21.5130703
11
61.4175702
21
21.1416703
0
LINE
8
DEFAULT_255_2_778
10
61.0167702
20
6.1090703
11
51.7102702
21
6.1090703
0
LINE
8
DEFAULT_255_2_778
10
61.4210702
20
6.9988703
11
61.4210702
21
6.9988703
0
LINE
8
DEFAULT_255_2_778
10
50.5400702
20
34.6382703
11
50.5400702
21
33.8164703
0
LINE
8
DEFAULT_255_2_778
10
61.4210702
20
5.8637703
11
61.4210702
21
5.7402703
0
LINE
8
DEFAULT_255_2_778
10
61.4210702
20
36.5522703
11
61.4210702
21
36.7144703
0
LINE
8
DEFAULT_255_2_778
10
44.4932702
20
38.0545703
11
31.5262702
21
38.0545703
0
LINE
8
DEFAULT_255_2_778
10
49.7428702
20
5.9685703
11
60.9704702
21
5.9685703
0
LINE
8
DEFAULT_255_2_778
10
42.5226702
20
37.2089703
11
37.7045702
21
37.2089703
0
LINE
8
DEFAULT_255_2_778
10
37.7045702
20
37.2089703
11
37.7045702
21
36.7152703
0
LINE
8
DEFAULT_255_2_778
10
37.7045702
20
36.7152703
11
32.6640702
21
36.7152703
0
LINE
8
DEFAULT_255_2_778
10
32.6640702
20
36.7152703
11
32.6640702
21
5.9696703
0
LINE
8
DEFAULT_255_2_778
10
32.6640702
20
5.9696703
11
37.7045702
21
5.9696703
0
LINE
8
DEFAULT_255_2_778
10
37.7045702
20
5.9696703
11
37.7045702
21
5.4756703
0
LINE
8
DEFAULT_255_2_778
10
37.7045702
20
5.4756703
11
42.5229702
21
5.4756703
0
LINE
8
DEFAULT_255_2_778
10
61.4202702
20
6.1153703
11
61.4202702
21
5.0716703
0
LINE
8
DEFAULT_255_2_778
10
61.4202702
20
5.0716703
11
61.3723702
21
2.2067703
0
LINE
8
DEFAULT_255_2_778
10
61.4202702
20
6.1302703
11
61.4202702
21
19.6348703
0
LINE
8
DEFAULT_255_2_778
10
61.4202702
20
19.6348703
11
61.4202702
21
6.1302703
0
LINE
8
DEFAULT_255_2_778
10
61.4202702
20
6.1302703
11
61.4168702
21
5.9693703
0
LINE
8
DEFAULT_255_2_778
10
61.4168702
20
5.9693703
11
61.2278702
21
5.9693703
0
LINE
8
DEFAULT_255_2_778
10
51.7124702
20
36.5744703
11
61.4202702
21
36.5744703
0
LINE
8
DEFAULT_255_2_778
10
61.4202702
20
36.5744703
11
61.4202702
21
23.0214703
0
LINE
8
DEFAULT_255_2_778
10
61.4202702
20
23.0214703
11
61.4202702
21
36.5744703
0
LINE
8
DEFAULT_255_2_778
10
42.0709702
20
37.0428703
11
38.1369702
21
37.0428703
0
LINE
8
DEFAULT_255_2_778
10
37.8781702
20
36.7663703
11
37.8781702
21
36.5744703
0
LINE
8
DEFAULT_255_2_778
10
37.8781702
20
36.5744703
11
33.2384702
21
36.5744703
0
LINE
8
DEFAULT_255_2_778
10
33.2384702
20
36.5744703
11
33.2384702
21
6.9776703
0
LINE
8
DEFAULT_255_2_778
10
33.2384702
20
6.9776703
11
33.3770702
21
6.1095703
0
LINE
8
DEFAULT_255_2_778
10
33.3770702
20
6.1095703
11
37.8778702
21
6.1095703
0
LINE
8
DEFAULT_255_2_778
10
37.8778702
20
6.1095703
11
37.8778702
21
5.6412703
0
LINE
8
DEFAULT_255_2_778
10
37.8778702
20
5.6412703
11
42.0707702
21
5.6412703
0
LINE
8
DEFAULT_255_2_778
10
52.4254702
20
9.9087703
11
41.3912702
21
9.9087703
0
LINE
8
DEFAULT_255_2_778
10
41.3912702
20
9.9087703
11
41.3912702
21
7.7428703
0
LINE
8
DEFAULT_255_2_778
10
41.3912702
20
7.7428703
11
34.4753702
21
7.7428703
0
LINE
8
DEFAULT_255_2_778
10
34.4753702
20
7.7428703
11
34.4753702
21
34.9414703
0
LINE
8
DEFAULT_255_2_778
10
34.4753702
20
34.9414703
11
41.3912702
21
34.9414703
0
LINE
8
DEFAULT_255_2_778
10
41.3912702
20
34.9414703
11
41.3912702
21
32.7756703
0
LINE
8
DEFAULT_255_2_778
10
41.3912702
20
32.7756703
11
52.4254702
21
32.7756703
0
LINE
8
DEFAULT_255_2_778
10
52.4254702
20
32.7756703
11
52.4254702
21
34.9414703
0
LINE
8
DEFAULT_255_2_778
10
52.4254702
20
34.9414703
11
59.8671702
21
34.9414703
0
LINE
8
DEFAULT_255_2_778
10
59.8671702
20
34.9414703
11
59.8671702
21
7.7428703
0
LINE
8
DEFAULT_255_2_778
10
59.8671702
20
7.7428703
11
52.4254702
21
7.7428703
0
LINE
8
DEFAULT_255_2_778
10
52.4254702
20
7.7428703
11
52.4254702
21
9.9087703
0
LINE
8
DEFAULT_255_2_778
10
44.5202702
20
38.2990703
11
31.1635702
21
38.2990703
0
ARC
8
DEFAULT_255_2_778
10
5.3607693
20
9.0817456
40
0.8014962
50
75.2679282
51
90.881954
0
ARC
8
DEFAULT_255_2_778
10
5.4589636
20
9.4502386
40
0.4201482
50
49.8212702
51
75.4395714
0
ARC
8
DEFAULT_255_2_778
10
5.4721654
20
9.4892584
40
0.3821163
50
4.5944388
51
47.5583567
0
ARC
8
DEFAULT_255_2_778
10
5.2002698
20
9.4415526
40
0.6574649
50
359.8426364
51
6.8410488
0
ARC
8
DEFAULT_255_2_778
10
5.5040625
20
9.4336142
40
0.353723
50
325.5164314
51
0.9934192
0
ARC
8
DEFAULT_255_2_778
10
5.461212
20
9.4680947
40
0.4085872
50
293.8669792
51
324.932897
0
ARC
8
DEFAULT_255_2_778
10
5.5271556
20
8.7457191
40
0.3626111
50
34.4889963
51
74.0940704
0
ARC
8
DEFAULT_255_2_778
10
5.4674276
20
8.7100691
40
0.4320505
50
358.5116113
51
33.9005925
0
ARC
8
DEFAULT_255_2_778
10
5.3840107
20
8.6849693
40
0.5155085
50
332.7116167
51
1.5425981
0
ARC
8
DEFAULT_255_2_778
10
5.4856963
20
8.6429611
40
0.4059861
50
313.1457148
51
331.4008996
0
ARC
8
DEFAULT_255_2_778
10
5.4445662
20
8.6995603
40
0.4754884
50
277.067807
51
312.0977374
0
ARC
8
DEFAULT_255_2_778
10
5.38268
20
9.0242861
40
0.8056471
50
269.7476989
51
278.5942053
0
ARC
8
DEFAULT_255_2_778
10
5.3977303
20
8.7258118
40
0.328068
50
267.5370986
51
304.8815591
0
ARC
8
DEFAULT_255_2_778
10
5.4288066
20
8.6661326
40
0.2614818
50
306.7743155
51
313.8130656
0
ARC
8
DEFAULT_255_2_778
10
5.40486
20
8.6800013
40
0.28817
50
315.3399308
51
3.0149269
0
ARC
8
DEFAULT_255_2_778
10
5.1990453
20
8.696337
40
0.4935872
50
359.8631283
51
359.9895312
0
ARC
8
DEFAULT_255_2_778
10
5.328202
20
8.7088502
40
0.3646482
50
358.0192897
51
25.2213282
0
ARC
8
DEFAULT_255_2_778
10
5.4434125
20
8.7479784
40
0.2441322
50
28.4371095
51
85.2705874
0
ARC
8
DEFAULT_255_2_778
10
5.3890417
20
8.4870203
40
0.5097327
50
81.5958903
51
90.2820656
0
ARC
8
DEFAULT_255_2_778
10
5.3691845
20
9.4916315
40
0.318708
50
267.4189735
51
306.5126753
0
ARC
8
DEFAULT_255_2_778
10
5.3980379
20
9.4384474
40
0.2589329
50
308.38376
51
311.742799
0
ARC
8
DEFAULT_255_2_778
10
5.402651
20
9.4289109
40
0.2487631
50
312.4124213
51
2.7271103
0
ARC
8
DEFAULT_255_2_778
10
5.3568047
20
9.453428
40
0.2946007
50
357.5329373
51
28.4895424
0
ARC
8
DEFAULT_255_2_778
10
5.4601936
20
9.5012479
40
0.1810683
50
30.796055
51
50.1442847
0
ARC
8
DEFAULT_255_2_778
10
5.4029991
20
9.412521
40
0.2861273
50
52.7393913
51
84.9251359
0
ARC
8
DEFAULT_255_2_778
10
5.351253
20
9.0973752
40
0.6050781
50
82.683568
51
90.2670899
0
ARC
8
DEFAULT_255_2_778
10
6.7306913
20
9.1142049
40
0.7690478
50
73.1187184
51
90.9506136
0
ARC
8
DEFAULT_255_2_778
10
6.8189894
20
9.4122729
40
0.4581877
50
48.4267416
51
72.8607844
0
ARC
8
DEFAULT_255_2_778
10
6.8255177
20
9.437441
40
0.4351879
50
5.4274177
51
46.8707461
0
ARC
8
DEFAULT_255_2_778
10
6.5340559
20
9.384522
40
0.73078
50
359.8216238
51
7.3968281
0
ARC
8
DEFAULT_255_2_778
10
6.7954416
20
9.3715851
40
0.4695118
50
326.3392688
51
1.3011965
0
ARC
8
DEFAULT_255_2_778
10
6.7965652
20
9.3805894
40
0.473637
50
291.146603
51
325.357269
0
ARC
8
DEFAULT_255_2_778
10
6.7386039
20
9.4304088
40
0.3592377
50
267.7551113
51
303.7388621
0
ARC
8
DEFAULT_255_2_778
10
6.770215
20
9.3674259
40
0.2894361
50
305.4601984
51
313.0873296
0
ARC
8
DEFAULT_255_2_778
10
6.7636679
20
9.3689747
40
0.2950631
50
313.8103736
51
2.5780733
0
ARC
8
DEFAULT_255_2_778
10
6.7097718
20
9.3955912
40
0.3489158
50
357.8081767
51
29.9992052
0
ARC
8
DEFAULT_255_2_778
10
6.7991042
20
9.4374084
40
0.2507854
50
31.9301267
51
46.342646
0
ARC
8
DEFAULT_255_2_778
10
6.7598814
20
9.3808658
40
0.3189481
50
48.2574134
51
86.6940066
0
ARC
8
DEFAULT_255_2_778
10
6.7211057
20
9.1310801
40
0.5710719
50
84.2545961
51
89.7565308
0
LINE
8
DEFAULT_255_2_778
10
5.3794324
20
8.2186469
11
4.8391324
21
8.2186469
0
LINE
8
DEFAULT_255_2_778
10
4.8391324
20
8.2186469
11
4.8391324
21
9.8831469
0
LINE
8
DEFAULT_255_2_778
10
4.8391324
20
9.8831469
11
5.3484324
21
9.8831469
0
LINE
8
DEFAULT_255_2_778
10
5.3791324
20
8.2186469
11
5.3794324
21
8.2186469
0
LINE
8
DEFAULT_255_2_778
10
5.3868324
20
8.9970469
11
5.0444324
21
8.9970469
0
LINE
8
DEFAULT_255_2_778
10
5.0444324
20
8.9970469
11
5.0444324
21
8.3980469
0
LINE
8
DEFAULT_255_2_778
10
5.0444324
20
8.3980469
11
5.3836324
21
8.3980469
0
LINE
8
DEFAULT_255_2_778
10
5.3865324
20
8.9967469
11
5.3868324
21
8.9970469
0
LINE
8
DEFAULT_255_2_778
10
5.0444324
20
9.7024469
11
5.0444324
21
9.1732469
0
LINE
8
DEFAULT_255_2_778
10
5.0444324
20
9.1732469
11
5.3548324
21
9.1732469
0
LINE
8
DEFAULT_255_2_778
10
5.3484324
20
9.7024469
11
5.0444324
21
9.7024469
0
LINE
8
DEFAULT_255_2_778
10
5.0444324
20
9.7024469
11
5.0444324
21
9.7024469
0
LINE
8
DEFAULT_255_2_778
10
7.1129324
20
8.2186469
11
6.7748324
21
8.8920469
0
LINE
8
DEFAULT_255_2_778
10
6.7748324
20
8.8920469
11
6.4089324
21
8.8920469
0
LINE
8
DEFAULT_255_2_778
10
6.4089324
20
8.8920469
11
6.4089324
21
8.2186469
0
LINE
8
DEFAULT_255_2_778
10
6.4089324
20
8.2186469
11
6.2022324
21
8.2186469
0
LINE
8
DEFAULT_255_2_778
10
6.2022324
20
8.2186469
11
6.2022324
21
9.8831469
0
LINE
8
DEFAULT_255_2_778
10
6.2022324
20
9.8831469
11
6.7179324
21
9.8831469
0
LINE
8
DEFAULT_255_2_778
10
6.9674324
20
8.9388469
11
7.3333324
21
8.2324469
0
LINE
8
DEFAULT_255_2_778
10
7.3333324
20
8.2324469
11
7.3333324
21
8.2186469
0
LINE
8
DEFAULT_255_2_778
10
7.3333324
20
8.2186469
11
7.1129324
21
8.2186469
0
LINE
8
DEFAULT_255_2_778
10
7.1129324
20
8.2186469
11
7.1129324
21
8.2186469
0
LINE
8
DEFAULT_255_2_778
10
6.4089324
20
9.7024469
11
6.4089324
21
9.0714469
0
LINE
8
DEFAULT_255_2_778
10
6.4089324
20
9.0714469
11
6.7245324
21
9.0714469
0
LINE
8
DEFAULT_255_2_778
10
6.7235324
20
9.7021469
11
6.4089324
21
9.7021469
0
LINE
8
DEFAULT_255_2_778
10
6.4089324
20
9.7021469
11
6.4089324
21
9.7024469
0
LINE
8
DEFAULT_255_2_778
10
7.6852324
20
9.8831469
11
8.0607324
21
9.2452469
0
LINE
8
DEFAULT_255_2_778
10
8.0607324
20
9.2452469
11
8.4340324
21
9.8831469
0
LINE
8
DEFAULT_255_2_778
10
8.4340324
20
9.8831469
11
8.6758324
21
9.8831469
0
LINE
8
DEFAULT_255_2_778
10
8.6758324
20
9.8831469
11
8.1837324
21
9.0579469
0
LINE
8
DEFAULT_255_2_778
10
8.1837324
20
9.0579469
11
8.6877324
21
8.2189469
0
LINE
8
DEFAULT_255_2_778
10
8.6877324
20
8.2189469
11
8.4438324
21
8.2189469
0
LINE
8
DEFAULT_255_2_778
10
8.4438324
20
8.2189469
11
8.0607324
21
8.8682469
0
LINE
8
DEFAULT_255_2_778
10
8.0607324
20
8.8682469
11
7.6754324
21
8.2189469
0
LINE
8
DEFAULT_255_2_778
10
7.6754324
20
8.2189469
11
7.4325324
21
8.2189469
0
LINE
8
DEFAULT_255_2_778
10
7.4325324
20
8.2189469
11
7.9376324
21
9.0579469
0
LINE
8
DEFAULT_255_2_778
10
7.9376324
20
9.0579469
11
7.4445324
21
9.8831469
0
LINE
8
DEFAULT_255_2_778
10
7.4445324
20
9.8831469
11
7.6852324
21
9.8831469
0
LINE
8
DEFAULT_255_2_778
10
7.6852324
20
9.8831469
11
7.6852324
21
9.8831469
0
LINE
8
DEFAULT_255_2_778
10
9.2584324
20
9.0118469
11
9.2584324
21
8.8393469
0
LINE
8
DEFAULT_255_2_778
10
9.2584324
20
8.8393469
11
8.7361324
21
8.8393469
0
LINE
8
DEFAULT_255_2_778
10
8.7361324
20
8.8393469
11
8.7361324
21
9.0118469
0
LINE
8
DEFAULT_255_2_778
10
8.7361324
20
9.0118469
11
9.2584324
21
9.0118469
0
LINE
8
DEFAULT_255_2_778
10
9.2584324
20
9.0118469
11
9.2584324
21
9.0118469
0
LINE
8
DEFAULT_255_2_778
10
9.4819709
20
9.8831469
11
9.7473709
21
9.8831469
0
LINE
8
DEFAULT_255_2_778
10
9.7473709
20
9.8831469
11
10.2566709
21
8.5250469
0
LINE
8
DEFAULT_255_2_778
10
10.2566709
20
8.5250469
11
10.7659709
21
9.8831469
0
LINE
8
DEFAULT_255_2_778
10
10.7659709
20
9.8831469
11
11.0324709
21
9.8831469
0
LINE
8
DEFAULT_255_2_778
10
11.0324709
20
9.8831469
11
11.0324709
21
8.2186469
0
LINE
8
DEFAULT_255_2_778
10
11.0324709
20
8.2186469
11
10.8270709
21
8.2186469
0
LINE
8
DEFAULT_255_2_778
10
10.8270709
20
8.2186469
11
10.8270709
21
8.8668469
0
LINE
8
DEFAULT_255_2_778
10
10.8270709
20
8.8668469
11
10.8464709
21
9.5664469
0
LINE
8
DEFAULT_255_2_778
10
10.8464709
20
9.5664469
11
10.3349709
21
8.2186469
0
LINE
8
DEFAULT_255_2_778
10
10.3349709
20
8.2186469
11
10.1778709
21
8.2186469
0
LINE
8
DEFAULT_255_2_778
10
10.1778709
20
8.2186469
11
9.6674709
21
9.5630469
0
LINE
8
DEFAULT_255_2_778
10
9.6674709
20
9.5630469
11
9.6877709
21
8.8668469
0
LINE
8
DEFAULT_255_2_778
10
9.6877709
20
8.8668469
11
9.6877709
21
8.2186469
0
LINE
8
DEFAULT_255_2_778
10
9.6877709
20
8.2186469
11
9.4824709
21
8.2186469
0
LINE
8
DEFAULT_255_2_778
10
9.4824709
20
8.2186469
11
9.4824709
21
9.8831469
0
LINE
8
DEFAULT_255_2_778
10
9.4824709
20
9.8831469
11
9.4819709
21
9.8831469
0
ARC
8
DEFAULT_255_2_778
10
11.916587
20
9.0816997
40
0.8014962
50
75.2679282
51
90.881954
0
ARC
8
DEFAULT_255_2_778
10
12.0147813
20
9.4501928
40
0.4201482
50
49.8212702
51
75.4395714
0
ARC
8
DEFAULT_255_2_778
10
12.0279831
20
9.4892126
40
0.3821163
50
4.5944388
51
47.5583567
0
ARC
8
DEFAULT_255_2_778
10
11.7560875
20
9.4415068
40
0.6574649
50
359.8426364
51
6.8410488
0
ARC
8
DEFAULT_255_2_778
10
12.0598802
20
9.4335683
40
0.353723
50
325.5164314
51
0.9934192
0
ARC
8
DEFAULT_255_2_778
10
12.0170297
20
9.4680488
40
0.4085872
50
293.8669792
51
324.932897
0
ARC
8
DEFAULT_255_2_778
10
12.0833726
20
8.7462288
40
0.3619675
50
34.4523071
51
74.1307595
0
ARC
8
DEFAULT_255_2_778
10
12.0237103
20
8.7101629
40
0.4315867
50
358.5047483
51
33.9196371
0
ARC
8
DEFAULT_255_2_778
10
11.9395815
20
8.6850401
40
0.5157549
50
332.7183972
51
1.5400128
0
ARC
8
DEFAULT_255_2_778
10
12.0411051
20
8.6431214
40
0.4064161
50
313.1679107
51
331.4101598
0
ARC
8
DEFAULT_255_2_778
10
12.0004317
20
8.6997787
40
0.4756524
50
277.0595513
51
312.0721298
0
ARC
8
DEFAULT_255_2_778
10
11.9384981
20
9.0249703
40
0.8062771
50
269.7478701
51
278.5874132
0
ARC
8
DEFAULT_255_2_778
10
11.953548
20
8.725766
40
0.328068
50
267.5370986
51
304.8815591
0
ARC
8
DEFAULT_255_2_778
10
11.9846243
20
8.6660868
40
0.2614818
50
306.7743155
51
313.8130656
0
ARC
8
DEFAULT_255_2_778
10
11.9602708
20
8.6801494
40
0.2885958
50
315.3693459
51
3.0802018
0
ARC
8
DEFAULT_255_2_778
10
11.8783242
20
8.6960649
40
0.3701257
50
359.9368106
51
0.021069
0
ARC
8
DEFAULT_255_2_778
10
11.8837966
20
8.7088101
40
0.3648714
50
358.0195966
51
25.2135255
0
ARC
8
DEFAULT_255_2_778
10
11.9992078
20
8.7480353
40
0.2441296
50
28.42494
51
85.2652597
0
ARC
8
DEFAULT_255_2_778
10
11.9448569
20
8.487223
40
0.5095843
50
81.5931352
51
90.2818603
0
ARC
8
DEFAULT_255_2_778
10
11.9248525
20
9.4928207
40
0.3198352
50
267.4549192
51
306.1025753
0
ARC
8
DEFAULT_255_2_778
10
11.9540925
20
9.438409
40
0.258781
50
307.9707458
51
311.7025614
0
ARC
8
DEFAULT_255_2_778
10
11.9583516
20
9.4289195
40
0.2488822
50
312.4238778
51
2.7363176
0
ARC
8
DEFAULT_255_2_778
10
11.9126298
20
9.4534444
40
0.2945917
50
357.5401999
51
28.4893247
0
ARC
8
DEFAULT_255_2_778
10
12.0156396
20
9.5010707
40
0.181484
50
30.7870646
51
50.101009
0
ARC
8
DEFAULT_255_2_778
10
11.958857
20
9.4122207
40
0.2863852
50
52.7887341
51
84.9377944
0
ARC
8
DEFAULT_255_2_778
10
11.9070724
20
9.0964047
40
0.6060028
50
82.6949595
51
90.2668471
0
ARC
8
DEFAULT_255_2_778
10
13.3545149
20
8.9842361
40
1.1994063
50
345.3508593
51
0.624123
0
ARC
8
DEFAULT_255_2_778
10
13.6655047
20
8.9115067
40
0.8801718
50
337.1911478
51
344.8116023
0
ARC
8
DEFAULT_255_2_778
10
13.8984358
20
8.7982807
40
0.6217216
50
307.1403556
51
338.4883176
0
ARC
8
DEFAULT_255_2_778
10
13.9530538
20
8.7410746
40
0.5432172
50
304.2207836
51
306.1910493
0
ARC
8
DEFAULT_255_2_778
10
13.9410203
20
8.7682607
40
0.572489
50
268.7818904
51
303.6864611
0
ARC
8
DEFAULT_255_2_778
10
13.9191505
20
8.7622055
40
0.5663876
50
236.0267709
51
270.9812521
0
ARC
8
DEFAULT_255_2_778
10
13.9611608
20
8.8063572
40
0.6265606
50
202.3695941
51
235.0970256
0
ARC
8
DEFAULT_255_2_778
10
14.2989232
20
8.9573267
40
0.9964231
50
182.9249622
51
203.0057571
0
ARC
8
DEFAULT_255_2_778
10
14.6599055
20
8.9936099
40
1.3589033
50
180.4810393
51
183.67615
0
ARC
8
DEFAULT_255_2_778
10
14.4504152
20
9.1157391
40
1.1494425
50
163.6050939
51
180.6648705
0
ARC
8
DEFAULT_255_2_778
10
14.1991661
20
9.1799086
40
0.8903463
50
157.0904091
51
163.0029904
0
ARC
8
DEFAULT_255_2_778
10
13.9683351
20
9.2928273
40
0.6339245
50
127.2613133
51
158.3698122
0
ARC
8
DEFAULT_255_2_778
10
13.9128679
20
9.3509275
40
0.5541734
50
124.3784744
51
126.3340192
0
ARC
8
DEFAULT_255_2_778
10
13.9176762
20
9.3403614
40
0.5656124
50
89.0807908
51
124.1760995
0
ARC
8
DEFAULT_255_2_778
10
13.9376351
20
9.3304603
40
0.5755436
50
56.302654
51
91.0836752
0
ARC
8
DEFAULT_255_2_778
10
13.9076349
20
9.3091335
40
0.6100727
50
21.7115737
51
55.0696961
0
ARC
8
DEFAULT_255_2_778
10
13.703415
20
9.2048923
40
0.8386377
50
22.7424718
51
23.1668197
0
ARC
8
DEFAULT_255_2_778
10
13.5291175
20
9.1442133
40
1.0229055
50
3.4533851
51
22.1027703
0
ARC
8
DEFAULT_255_2_778
10
13.1303702
20
9.1034664
40
1.4234805
50
359.9450429
51
4.123725
0
ARC
8
DEFAULT_255_2_778
10
13.2078308
20
9.1170066
40
1.1417856
50
359.3824851
51
11.5043894
0
ARC
8
DEFAULT_255_2_778
10
13.7556894
20
9.2342479
40
0.5815778
50
10.950776
51
33.94522
0
ARC
8
DEFAULT_255_2_778
10
13.940198
20
9.3583198
40
0.3592331
50
33.9616621
51
92.145379
0
ARC
8
DEFAULT_255_2_778
10
13.9161186
20
9.3616394
40
0.3558205
50
88.2878282
51
146.3122679
0
ARC
8
DEFAULT_255_2_778
10
14.1216348
20
9.2190191
40
0.6059496
50
145.8699755
51
169.6604079
0
ARC
8
DEFAULT_255_2_778
10
14.6071662
20
9.1162972
40
1.1021211
50
168.9372705
51
179.828247
0
ARC
8
DEFAULT_255_2_778
10
14.5676111
20
8.9845952
40
1.062637
50
179.3149034
51
193.0455728
0
ARC
8
DEFAULT_255_2_778
10
14.1145694
20
8.8784031
40
0.5973187
50
192.9316084
51
213.755711
0
ARC
8
DEFAULT_255_2_778
10
13.9187429
20
8.7398142
40
0.3575561
50
212.7279928
51
271.6198106
0
ARC
8
DEFAULT_255_2_778
10
13.9435407
20
8.7375486
40
0.3554513
50
267.631316
51
325.6919014
0
ARC
8
DEFAULT_255_2_778
10
13.7511809
20
8.8642239
40
0.585756
50
326.0622337
51
349.1477233
0
ARC
8
DEFAULT_255_2_778
10
13.2027832
20
8.9829034
40
1.1467678
50
348.482898
51
359.9249349
0
LINE
8
DEFAULT_255_2_778
10
11.9352501
20
8.218701
11
11.3949501
21
8.218701
0
LINE
8
DEFAULT_255_2_778
10
11.3949501
20
8.218701
11
11.3949501
21
9.883101
0
LINE
8
DEFAULT_255_2_778
10
11.3949501
20
9.883101
11
11.9042501
21
9.883101
0
LINE
8
DEFAULT_255_2_778
10
11.9349501
20
8.218701
11
11.9352501
21
8.218701
0
LINE
8
DEFAULT_255_2_778
10
11.9426501
20
8.997101
11
11.6002501
21
8.997101
0
LINE
8
DEFAULT_255_2_778
10
11.6002501
20
8.997101
11
11.6002501
21
8.398001
0
LINE
8
DEFAULT_255_2_778
10
11.6002501
20
8.398001
11
11.9394501
21
8.398001
0
LINE
8
DEFAULT_255_2_778
10
11.9423501
20
8.996801
11
11.9426501
21
8.997101
0
LINE
8
DEFAULT_255_2_778
10
11.6002501
20
9.702401
11
11.6002501
21
9.173301
0
LINE
8
DEFAULT_255_2_778
10
11.6002501
20
9.173301
11
11.9106501
21
9.173301
0
LINE
8
DEFAULT_255_2_778
10
11.9042501
20
9.702401
11
11.6002501
21
9.702401
0
LINE
8
DEFAULT_255_2_778
10
11.6002501
20
9.702401
11
11.6002501
21
9.702401
0
LINE
8
DEFAULT_255_2_778
10
12.9795501
20
9.883101
11
12.9795501
21
8.218701
0
LINE
8
DEFAULT_255_2_778
10
12.9795501
20
8.218701
11
12.7742501
21
8.218701
0
LINE
8
DEFAULT_255_2_778
10
12.7742501
20
8.218701
11
12.7742501
21
9.883101
0
LINE
8
DEFAULT_255_2_778
10
12.7742501
20
9.883101
11
12.9795501
21
9.883101
0
LINE
8
DEFAULT_255_2_778
10
12.9795501
20
9.883101
11
12.9795501
21
9.883101
0
LINE
8
DEFAULT_255_2_778
10
14.5538501
20
9.102401
11
14.5538501
21
8.997301
0
LINE
8
DEFAULT_255_2_778
10
13.3010501
20
8.982201
11
13.3010501
21
9.102401
0
LINE
8
DEFAULT_255_2_778
10
14.5538501
20
9.102101
11
14.5538501
21
9.102401
0
LINE
8
DEFAULT_255_2_778
10
14.3495501
20
8.981201
11
14.3495501
21
9.104701
0
LINE
8
DEFAULT_255_2_778
10
13.5050501
20
9.119601
11
13.5050501
21
8.997301
0
LINE
8
DEFAULT_255_2_778
10
14.3495501
20
8.981401
11
14.3495501
21
8.981201
0
LINE
8
DEFAULT_255_2_778
10
15.2430501
20
9.011901
11
15.2430501
21
8.839401
0
LINE
8
DEFAULT_255_2_778
10
15.2430501
20
8.839401
11
14.7207501
21
8.839401
0
LINE
8
DEFAULT_255_2_778
10
14.7207501
20
8.839401
11
14.7207501
21
9.011901
0
LINE
8
DEFAULT_255_2_778
10
14.7207501
20
9.011901
11
15.2430501
21
9.011901
0
LINE
8
DEFAULT_255_2_778
10
15.2430501
20
9.011901
11
15.2430501
21
9.011901
0
LINE
8
DEFAULT_255_2_778
10
15.4663709
20
9.8831469
11
15.7317709
21
9.8831469
0
LINE
8
DEFAULT_255_2_778
10
15.7317709
20
9.8831469
11
16.2410709
21
8.5250469
0
LINE
8
DEFAULT_255_2_778
10
16.2410709
20
8.5250469
11
16.7503709
21
9.8831469
0
LINE
8
DEFAULT_255_2_778
10
16.7503709
20
9.8831469
11
17.0168709
21
9.8831469
0
LINE
8
DEFAULT_255_2_778
10
17.0168709
20
9.8831469
11
17.0168709
21
8.2186469
0
LINE
8
DEFAULT_255_2_778
10
17.0168709
20
8.2186469
11
16.8114709
21
8.2186469
0
LINE
8
DEFAULT_255_2_778
10
16.8114709
20
8.2186469
11
16.8114709
21
8.8668469
0
LINE
8
DEFAULT_255_2_778
10
16.8114709
20
8.8668469
11
16.8308709
21
9.5664469
0
LINE
8
DEFAULT_255_2_778
10
16.8308709
20
9.5664469
11
16.3193709
21
8.2186469
0
LINE
8
DEFAULT_255_2_778
10
16.3193709
20
8.2186469
11
16.1622709
21
8.2186469
0
LINE
8
DEFAULT_255_2_778
10
16.1622709
20
8.2186469
11
15.6518709
21
9.5630469
0
LINE
8
DEFAULT_255_2_778
10
15.6518709
20
9.5630469
11
15.6721709
21
8.8668469
0
LINE
8
DEFAULT_255_2_778
10
15.6721709
20
8.8668469
11
15.6721709
21
8.2186469
0
LINE
8
DEFAULT_255_2_778
10
15.6721709
20
8.2186469
11
15.4668709
21
8.2186469
0
LINE
8
DEFAULT_255_2_778
10
15.4668709
20
8.2186469
11
15.4668709
21
9.8831469
0
LINE
8
DEFAULT_255_2_778
10
15.4668709
20
9.8831469
11
15.4663709
21
9.8831469
0
ARC
8
DEFAULT_255_2_778
10
46.8359996
20
36.01832
40
4.075246
50
53.9123082
51
64.6051903
0
ARC
8
DEFAULT_255_2_778
10
46.893949
20
36.1405584
40
3.9399674
50
64.6041373
51
79.2836461
0
ARC
8
DEFAULT_255_2_778
10
46.9048295
20
36.1901881
40
3.8891803
50
79.305188
51
89.9971221
0
LINE
8
DEFAULT_255_2_778
10
46.9050248
20
40.0793682
11
46.9041979
21
40.0793681
0
ARC
8
DEFAULT_255_2_778
10
46.9064293
20
36.1763948
40
3.902974
50
90.0327581
51
110.0419575
0
ARC
8
DEFAULT_255_2_778
10
46.9436591
20
36.0733667
40
4.0125219
50
110.0371979
51
121.9586279
0
ARC
8
DEFAULT_255_2_778
10
47.0045045
20
35.9715326
40
4.1311275
50
121.9270274
51
126.0493258
0
ARC
8
DEFAULT_255_2_778
10
61.144296
20
88.7329045
40
0.2759583
50
359.0010193
51
67.5198486
0
ARC
8
DEFAULT_255_2_778
10
60.2957994
20
89.6726128
40
0.2929551
50
181.2360714
51
245.2847686
0
ARC
8
DEFAULT_255_2_778
10
60.2790303
20
91.1807722
40
0.2761576
50
112.5083188
51
180.9708133
0
ARC
8
DEFAULT_255_2_778
10
61.1437563
20
92.1097377
40
0.2764935
50
292.5552982
51
0.9440549
0
ARC
8
DEFAULT_255_2_778
10
3.8647123
20
7.6377759
40
3.6896326
50
189.3129658
51
206.4146256
0
ARC
8
DEFAULT_255_2_778
10
3.6800361
20
7.5395178
40
3.4805304
50
206.3184225
51
231.3286646
0
ARC
8
DEFAULT_255_2_778
10
3.5034914
20
7.3198518
40
3.1987133
50
231.339006
51
258.2740127
0
ARC
8
DEFAULT_255_2_778
10
3.2264235
20
5.0887534
40
2.9876063
50
183.8934127
51
201.156699
0
ARC
8
DEFAULT_255_2_778
10
3.0906798
20
5.0332806
40
2.8409922
50
201.1014152
51
225.2224261
0
ARC
8
DEFAULT_255_2_778
10
2.9012022
20
4.822064
40
2.5576409
50
224.902711
51
267.4189218
0
ARC
8
DEFAULT_255_2_778
10
2.8878168
20
4.7812245
40
2.5162665
50
267.6815228
51
269.2165792
0
ARC
8
DEFAULT_255_2_778
10
58.4052825
20
104.6571645
40
3.0536317
50
9.1317774
51
26.8020283
0
ARC
8
DEFAULT_255_2_778
10
58.5611882
20
104.7403871
40
2.8769521
50
26.7227114
51
52.0354959
0
ARC
8
DEFAULT_255_2_778
10
58.7169082
20
104.9486895
40
2.616939
50
51.9178435
51
88.388284
0
ARC
8
DEFAULT_255_2_778
10
58.410987
20
106.5822195
40
3.0476284
50
9.9133165
51
27.5597455
0
ARC
8
DEFAULT_255_2_778
10
58.5679179
20
106.6687583
40
2.8684682
50
27.4776227
51
52.966927
0
ARC
8
DEFAULT_255_2_778
10
58.7173089
20
106.8738167
40
2.6148014
50
52.8739167
51
88.3957513
0
ARC
8
DEFAULT_255_2_778
10
2.9069126
20
106.9084317
40
2.5797164
50
91.1883313
51
141.2067219
0
ARC
8
DEFAULT_255_2_778
10
3.1167867
20
106.7053431
40
2.8706574
50
140.6717933
51
161.8154828
0
ARC
8
DEFAULT_255_2_778
10
3.2363011
20
106.6620931
40
2.9977027
50
161.7430034
51
171.3606087
0
ARC
8
DEFAULT_255_2_778
10
2.9182826
20
105.0201168
40
2.5453032
50
91.4604135
51
116.7494364
0
ARC
8
DEFAULT_255_2_778
10
3.0347799
20
104.8196101
40
2.7768209
50
117.0338542
51
150.8050029
0
ARC
8
DEFAULT_255_2_778
10
3.208954
20
104.7076631
40
2.983502
50
150.5598322
51
170.4711231
0
ARC
8
DEFAULT_255_2_778
10
3.3098101
20
104.6882205
40
3.0861863
50
170.4251157
51
179.5660757
0
ARC
8
DEFAULT_255_2_778
10
2.9069126
20
109.3468317
40
2.5797164
50
91.1883313
51
141.2067219
0
ARC
8
DEFAULT_255_2_778
10
3.1167867
20
109.1437431
40
2.8706574
50
140.6717933
51
161.8154828
0
ARC
8
DEFAULT_255_2_778
10
3.2363011
20
109.1004931
40
2.9977027
50
161.7430034
51
171.3606087
0
ARC
8
DEFAULT_255_2_778
10
58.7378781
20
109.3476877
40
2.5788427
50
38.8836282
51
88.8305109
0
ARC
8
DEFAULT_255_2_778
10
58.5285499
20
109.144784
40
2.8692822
50
18.1277058
51
39.4136244
0
ARC
8
DEFAULT_255_2_778
10
58.408299
20
109.1013847
40
2.9970701
50
8.517656
51
18.2009412
0
ARC
8
DEFAULT_255_2_778
10
58.1172824
20
104.2702782
40
1.4448646
50
0.3971474
51
26.6931642
0
ARC
8
DEFAULT_255_2_778
10
58.2559102
20
104.3629183
40
1.2795603
50
25.7754665
51
88.5937446
0
ARC
8
DEFAULT_255_2_778
10
3.393516
20
104.4135418
40
1.2290526
50
88.3636618
51
89.9995769
0
ARC
8
DEFAULT_255_2_778
10
3.401028
20
104.3730572
40
1.2695594
50
90.3386152
51
136.5728141
0
ARC
8
DEFAULT_255_2_778
10
3.5316782
20
104.2489215
40
1.4497789
50
136.5593689
51
180.2421937
0
ARC
8
DEFAULT_255_2_778
10
3.7441432
20
7.4955487
40
1.6622868
50
179.5296937
51
179.9997627
0
ARC
8
DEFAULT_255_2_778
10
3.6874273
20
7.4918402
40
1.6055752
50
179.8674136
51
204.6695383
0
ARC
8
DEFAULT_255_2_778
10
3.5356061
20
7.3960656
40
1.4278321
50
203.7198528
51
266.8658196
0
ARC
8
DEFAULT_255_2_778
10
3.5111216
20
7.3325406
40
1.3632247
50
267.7474102
51
269.3901682
0
ARC
8
DEFAULT_255_2_778
10
3.1998071
20
2.6431738
40
2.9603445
50
188.5824694
51
206.3751064
0
ARC
8
DEFAULT_255_2_778
10
3.0491636
20
2.5643439
40
2.7903648
50
206.2991067
51
231.5696684
0
ARC
8
DEFAULT_255_2_778
10
2.8948788
20
2.3600844
40
2.534465
50
231.431794
51
268.7595357
0
ARC
8
DEFAULT_255_2_778
10
2.8880305
20
2.3406501
40
2.5148951
50
268.9059347
51
269.2112829
0
ARC
8
DEFAULT_255_2_778
10
3.4400851
20
7.3779226
40
1.0220463
50
222.5795027
51
269.6707724
0
ARC
8
DEFAULT_255_2_778
10
3.5474888
20
7.4786543
40
1.1692892
50
179.7334903
51
222.6531006
0
ARC
8
DEFAULT_255_2_778
10
3.5592516
20
104.1315363
40
1.1810456
50
150.5222687
51
180.1864405
0
ARC
8
DEFAULT_255_2_778
10
3.4468521
20
104.2125073
40
1.0434623
50
90.6940603
51
151.3557583
0
ARC
8
DEFAULT_255_2_778
10
58.190188
20
104.1959391
40
1.0601358
50
19.0168792
51
88.9393275
0
ARC
8
DEFAULT_255_2_778
10
58.0724974
20
104.1297497
40
1.1932167
50
359.9012519
51
20.180332
0
ARC
8
DEFAULT_255_2_778
10
58.7887589
20
2.3191604
40
2.4748678
50
270.0405932
51
300.5591139
0
ARC
8
DEFAULT_255_2_778
10
58.670237
20
2.5119137
40
2.7011115
50
300.6452089
51
329.7345602
0
ARC
8
DEFAULT_255_2_778
10
58.5115091
20
2.6125982
40
2.8889589
50
329.5965
51
348.3313556
0
ARC
8
DEFAULT_255_2_778
10
58.4110991
20
2.6376772
40
2.9923689
50
348.2499293
51
351.7248267
0
LINE
8
DEFAULT_255_2_778
10
49.7847123
20
33.9849932
11
44.0244123
21
33.9849932
0
LINE
8
DEFAULT_255_2_778
10
44.1252123
20
34.8618932
11
49.6838123
21
34.8618932
0
LINE
8
DEFAULT_255_2_778
10
44.0054123
20
33.8175932
11
44.5171123
21
38.2688932
0
LINE
8
DEFAULT_255_2_778
10
44.3385123
20
36.7144932
11
49.4714123
21
36.7144932
0
LINE
8
DEFAULT_255_2_778
10
49.8042123
20
33.8175932
11
49.2364123
21
38.7586932
0
LINE
8
DEFAULT_255_2_778
10
49.2364123
20
38.7586932
11
49.2364123
21
39.3115932
0
LINE
8
DEFAULT_255_2_778
10
44.5734123
20
39.3115932
11
44.5734123
21
38.7586932
0
LINE
8
DEFAULT_255_2_778
10
44.5734123
20
38.7586932
11
44.5171123
21
38.2688932
0
LINE
8
DEFAULT_255_2_778
10
44.5171123
20
38.2688932
11
49.2925123
21
38.2688932
0
LINE
8
DEFAULT_255_2_778
10
61.1617123
20
90.2380932
11
60.0153123
21
90.2380932
0
LINE
8
DEFAULT_255_2_778
10
60.0153123
20
90.2380932
11
60.0153123
21
90.6095932
0
LINE
8
DEFAULT_255_2_778
10
60.0153123
20
90.6095932
11
61.4205123
21
90.6095932
0
LINE
8
DEFAULT_255_2_778
10
61.4205123
20
90.6095932
11
61.4205123
21
90.2380932
0
LINE
8
DEFAULT_255_2_778
10
61.4205123
20
90.2380932
11
61.1617123
21
90.2380932
0
LINE
8
DEFAULT_255_2_778
10
61.3507123
20
91.9255932
11
61.3618123
21
91.6154932
0
LINE
8
DEFAULT_255_2_778
10
61.3618123
20
91.6154932
11
61.4237123
21
91.3389932
0
LINE
8
DEFAULT_255_2_778
10
61.4237123
20
89.5091932
11
61.3618123
21
89.2326932
0
LINE
8
DEFAULT_255_2_778
10
61.3618123
20
89.2326932
11
61.3504123
21
88.9169932
0
LINE
8
DEFAULT_255_2_778
10
61.2498123
20
88.9878932
11
60.1733123
21
89.4064932
0
LINE
8
DEFAULT_255_2_778
10
60.0029123
20
89.6662932
11
60.0029123
21
91.1760932
0
LINE
8
DEFAULT_255_2_778
10
60.1733123
20
91.4358932
11
61.2498123
21
91.8543932
0
LINE
8
DEFAULT_255_2_778
10
2.8534123
20
2.2651932
11
58.7905123
21
2.2651932
0
LINE
8
DEFAULT_255_2_778
10
58.7905123
20
109.4875932
11
2.8534123
21
109.4875932
0
LINE
8
DEFAULT_255_2_778
10
61.4171123
20
90.6060932
11
61.4171123
21
90.2346932
0
LINE
8
DEFAULT_255_2_778
10
44.5430123
20
4.1878932
11
2.8534123
21
4.1878932
0
LINE
8
DEFAULT_255_2_778
10
2.8534123
20
4.1878932
11
2.8534123
21
-0.1740068
0
LINE
8
DEFAULT_255_2_778
10
2.8534123
20
-0.1740068
11
58.7905123
21
-0.1557068
0
LINE
8
DEFAULT_255_2_778
10
58.7905123
20
-0.1557068
11
58.7905123
21
4.4590932
0
LINE
8
DEFAULT_255_2_778
10
58.7905123
20
4.4590932
11
49.2973123
21
4.4590932
0
LINE
8
DEFAULT_255_2_778
10
58.7905123
20
107.5642932
11
2.8534123
21
107.5642932
0
LINE
8
DEFAULT_255_2_778
10
2.8534123
20
107.5642932
11
2.8534123
21
111.9259932
0
LINE
8
DEFAULT_255_2_778
10
2.8534123
20
111.9259932
11
43.6442123
21
111.9259932
0
LINE
8
DEFAULT_255_2_778
10
43.3045123
20
111.9259932
11
58.7903123
21
111.9259932
0
LINE
8
DEFAULT_255_2_778
10
58.7903123
20
111.9259932
11
58.7903123
21
107.2930932
0
LINE
8
DEFAULT_255_2_778
10
0.2726123
20
109.5507932
11
0.2237123
21
106.6803932
0
LINE
8
DEFAULT_255_2_778
10
0.2237123
20
106.6803932
11
0.2237123
21
104.7112932
0
LINE
8
DEFAULT_255_2_778
10
0.2237123
20
104.7112932
11
0.2237123
21
92.1139932
0
LINE
8
DEFAULT_255_2_778
10
0.2237123
20
92.8754932
11
0.2237123
21
23.0246932
0
LINE
8
DEFAULT_255_2_778
10
61.3723123
20
109.5452932
11
61.4202123
21
106.6803932
0
LINE
8
DEFAULT_255_2_778
10
61.4202123
20
106.6803932
11
61.4202123
21
36.7149932
0
LINE
8
DEFAULT_255_2_778
10
61.4202123
20
36.7149932
11
49.7989123
21
36.7149932
0
LINE
8
DEFAULT_255_2_778
10
49.3169123
20
38.0550932
11
59.5621123
21
38.0550932
0
LINE
8
DEFAULT_255_2_778
10
59.5621123
20
38.0550932
11
59.5621123
21
104.2802932
0
LINE
8
DEFAULT_255_2_778
10
58.2873123
20
105.6420932
11
3.4286123
21
105.6420932
0
LINE
8
DEFAULT_255_2_778
10
2.0819123
20
7.5480932
11
2.0819123
21
104.2032932
0
LINE
8
DEFAULT_255_2_778
10
2.0819123
20
104.2032932
11
2.0819123
21
7.5091932
0
LINE
8
DEFAULT_255_2_778
10
3.4966123
20
5.9693932
11
31.5250123
21
5.9693932
0
LINE
8
DEFAULT_255_2_778
10
31.5250123
20
5.9693932
11
31.5250123
21
38.0553932
0
LINE
8
DEFAULT_255_2_778
10
2.0821123
20
104.2429932
11
2.0821123
21
104.2032932
0
LINE
8
DEFAULT_255_2_778
10
2.0821123
20
104.2032932
11
2.0821123
21
104.2429932
0
LINE
8
DEFAULT_255_2_778
10
0.2237123
20
23.3712932
11
0.2237123
21
14.6378932
0
LINE
8
DEFAULT_255_2_778
10
0.2237123
20
14.6378932
11
0.2237123
21
7.0406932
0
LINE
8
DEFAULT_255_2_778
10
0.2237123
20
7.0406932
11
0.2726123
21
2.2013932
0
LINE
8
DEFAULT_255_2_778
10
31.1635123
20
38.2990932
11
31.1635123
21
6.3558932
0
LINE
8
DEFAULT_255_2_778
10
31.1635123
20
6.3558932
11
3.4342123
21
6.3558932
0
LINE
8
DEFAULT_255_2_778
10
2.3782123
20
7.4840932
11
2.3782123
21
104.1276932
0
LINE
8
DEFAULT_255_2_778
10
3.4342123
20
105.2558932
11
58.2098123
21
105.2558932
0
LINE
8
DEFAULT_255_2_778
10
59.2657123
20
104.1276932
11
59.2657123
21
38.2990932
0
LINE
8
DEFAULT_255_2_778
10
59.2657123
20
38.2990932
11
49.2888123
21
38.2990932
0
ENDSEC
0
EOF