0
SECTION
2
HEADER
9
$MEASUREMENT
70
1
0
ENDSEC
0
SECTION
2
TABLES
0
TABLE
2
LTYPE
0
LTYPE
72
65
70
64
2
CONTINUOUS
3
______
73
0
40
0
0
ENDTAB
0
TABLE
2
LAYER
0
LAYER
2
DEFAULT_255_2_778
70
0
62
255
6
CONTINUOUS
0
ENDTAB
0
ENDSEC
0
SECTION
2
ENTITIES
0
ARC
8
DEFAULT_255_2_778
10
7.0327885
20
14.5307961
40
1.9097753
50
159.5916949
51
180.1390143
0
ARC
8
DEFAULT_255_2_778
10
6.8720912
20
14.5956813
40
1.7365454
50
131.6339493
51
159.7492761
0
ARC
8
DEFAULT_255_2_778
10
6.7056565
20
14.7905037
40
1.4803687
50
90.21046
51
131.8290162
0
ARC
8
DEFAULT_255_2_778
10
6.6791515
20
14.7385545
40
1.5324527
50
31.7957862
51
89.212305
0
ARC
8
DEFAULT_255_2_778
10
6.4397247
20
14.5502944
40
1.8354543
50
9.2206404
51
32.8526928
0
ARC
8
DEFAULT_255_2_778
10
6.3269704
20
14.5272571
40
1.9504486
50
359.9678438
51
9.3578923
0
ARC
8
DEFAULT_255_2_778
10
6.3680875
20
14.5215435
40
1.9093369
50
339.588158
51
0.1386055
0
ARC
8
DEFAULT_255_2_778
10
6.528304
20
14.4568329
40
1.7366181
50
311.6318305
51
339.7455153
0
ARC
8
DEFAULT_255_2_778
10
6.6947401
20
14.2619404
40
1.4803881
50
270.2120447
51
311.8282881
0
ARC
8
DEFAULT_255_2_778
10
6.721229
20
14.3138447
40
1.5324263
50
211.7962449
51
269.2144259
0
ARC
8
DEFAULT_255_2_778
10
6.9605886
20
14.5020268
40
1.8353294
50
189.2202057
51
212.8521837
0
ARC
8
DEFAULT_255_2_778
10
7.0733858
20
14.5250706
40
1.9503672
50
179.9679247
51
189.3574736
0
ARC
8
DEFAULT_255_2_778
10
6.973717
20
14.5308979
40
1.6007052
50
157.3362428
51
180.169503
0
ARC
8
DEFAULT_255_2_778
10
6.8171694
20
14.6033797
40
1.428332
50
124.5748623
51
157.5995336
0
ARC
8
DEFAULT_255_2_778
10
6.7016055
20
14.7631847
40
1.2311786
50
90.0645323
51
124.3669742
0
ARC
8
DEFAULT_255_2_778
10
6.6791103
20
14.6956722
40
1.2988618
50
28.6604354
51
89.0688155
0
ARC
8
DEFAULT_255_2_778
10
6.462504
20
14.539996
40
1.5639361
50
5.4405687
51
29.8590252
0
ARC
8
DEFAULT_255_2_778
10
6.3721069
20
14.526509
40
1.655212
50
359.9880024
51
5.6086398
0
ARC
8
DEFAULT_255_2_778
10
6.4266915
20
14.5214308
40
1.6006343
50
337.3374275
51
0.1693729
0
ARC
8
DEFAULT_255_2_778
10
6.5832698
20
14.4489337
40
1.4282271
50
304.5763373
51
337.6009729
0
ARC
8
DEFAULT_255_2_778
10
6.6988413
20
14.2891407
40
1.2310791
50
270.0641094
51
304.3680627
0
ARC
8
DEFAULT_255_2_778
10
6.721347
20
14.3569282
40
1.2990376
50
208.6663369
51
269.0680717
0
ARC
8
DEFAULT_255_2_778
10
6.9375226
20
14.5123768
40
1.563628
50
185.4427122
51
209.8644162
0
ARC
8
DEFAULT_255_2_778
10
7.0275277
20
14.5258124
40
1.6545089
50
179.987879
51
185.6102551
0
LINE
8
DEFAULT_255_2_778
10
8.0273188
20
14.5261625
11
8.2774188
21
14.5261625
0
LINE
8
DEFAULT_255_2_778
10
5.1230188
20
14.5261625
11
5.3730188
21
14.5261625
0
LINE
8
DEFAULT_255_2_778
10
5.1230188
20
14.5261625
11
5.1230188
21
14.5261625
0
LINE
8
DEFAULT_255_2_778
10
5.3730188
20
14.5261625
11
5.3730188
21
14.5261625
0
ARC
8
DEFAULT_255_2_778
10
76.9612237
20
14.5305948
40
2.276343
50
161.368607
51
180.1170167
0
ARC
8
DEFAULT_255_2_778
10
76.7928318
20
14.5910904
40
2.097452
50
137.043927
51
161.4649721
0
ARC
8
DEFAULT_255_2_778
10
76.5699406
20
14.820858
40
1.7778253
50
90.372401
51
137.5684446
0
ARC
8
DEFAULT_255_2_778
10
76.5389091
20
14.794655
40
1.8040959
50
35.6374936
51
89.3814424
0
ARC
8
DEFAULT_255_2_778
10
76.279754
20
14.5683127
40
2.1468487
50
13.8089235
51
36.5170387
0
ARC
8
DEFAULT_255_2_778
10
76.1350358
20
14.5286627
40
2.2968513
50
359.9322258
51
13.9077571
0
ARC
8
DEFAULT_255_2_778
10
76.1550817
20
14.5212847
40
2.2768085
50
341.3714571
51
0.1172947
0
ARC
8
DEFAULT_255_2_778
10
76.3239375
20
14.4606365
40
2.0974292
50
317.0461952
51
341.4679689
0
ARC
8
DEFAULT_255_2_778
10
76.5468804
20
14.2308842
40
1.7777757
50
270.3707998
51
317.5696419
0
ARC
8
DEFAULT_255_2_778
10
76.5779141
20
14.2571498
40
1.8041097
50
215.6370059
51
269.3797868
0
ARC
8
DEFAULT_255_2_778
10
76.8371474
20
14.4835849
40
2.1469801
50
193.8093906
51
216.5173728
0
ARC
8
DEFAULT_255_2_778
10
76.9818399
20
14.5232268
40
2.296956
50
179.9321772
51
193.9081445
0
ARC
8
DEFAULT_255_2_778
10
76.8071935
20
14.5306275
40
1.577015
50
157.3367486
51
180.1700958
0
ARC
8
DEFAULT_255_2_778
10
76.6515797
20
14.602882
40
1.4055923
50
124.1890647
51
157.6104787
0
ARC
8
DEFAULT_255_2_778
10
76.5389977
20
14.7598433
40
1.212503
50
90.0572844
51
123.9562972
0
ARC
8
DEFAULT_255_2_778
10
76.5166205
20
14.6917717
40
1.280749
50
28.3188368
51
89.0531188
0
ARC
8
DEFAULT_255_2_778
10
76.3015237
20
14.5388263
40
1.5430018
50
4.9128804
51
29.5295987
0
ARC
8
DEFAULT_255_2_778
10
76.2128298
20
14.5262331
40
1.6324558
50
359.9899145
51
5.0866546
0
ARC
8
DEFAULT_255_2_778
10
76.2679789
20
14.5212575
40
1.5773136
50
337.3391111
51
0.1703031
0
ARC
8
DEFAULT_255_2_778
10
76.4238249
20
14.4489068
40
1.4056399
50
304.1924169
51
337.6130897
0
ARC
8
DEFAULT_255_2_778
10
76.5365614
20
14.291733
40
1.2122878
50
270.0578526
51
303.9597454
0
ARC
8
DEFAULT_255_2_778
10
76.5589005
20
14.3600735
40
1.2808018
50
208.3189296
51
269.0553924
0
ARC
8
DEFAULT_255_2_778
10
76.7740853
20
14.5130324
40
1.543138
50
184.9118656
51
209.5284595
0
ARC
8
DEFAULT_255_2_778
10
76.863021
20
14.525658
40
1.6328356
50
179.9899035
51
185.0860619
0
LINE
8
DEFAULT_255_2_778
10
74.6848855
20
14.5259458
11
74.6848855
21
14.5259458
0
LINE
8
DEFAULT_255_2_778
10
75.2301855
20
14.5259458
11
75.2301855
21
14.5259458
0
ARC
8
DEFAULT_255_2_778
10
76.9612237
20
97.2313948
40
2.276343
50
161.368607
51
180.1170167
0
ARC
8
DEFAULT_255_2_778
10
76.7928318
20
97.2918904
40
2.097452
50
137.043927
51
161.4649721
0
ARC
8
DEFAULT_255_2_778
10
76.5699406
20
97.521658
40
1.7778253
50
90.372401
51
137.5684446
0
ARC
8
DEFAULT_255_2_778
10
76.5389091
20
97.495455
40
1.8040959
50
35.6374936
51
89.3814424
0
ARC
8
DEFAULT_255_2_778
10
76.279754
20
97.2691127
40
2.1468487
50
13.8089235
51
36.5170387
0
ARC
8
DEFAULT_255_2_778
10
76.1350358
20
97.2294627
40
2.2968513
50
359.9322258
51
13.9077571
0
ARC
8
DEFAULT_255_2_778
10
76.1550817
20
97.2220847
40
2.2768085
50
341.3714571
51
0.1172947
0
ARC
8
DEFAULT_255_2_778
10
76.3239375
20
97.1614365
40
2.0974292
50
317.0461952
51
341.4679689
0
ARC
8
DEFAULT_255_2_778
10
76.5468804
20
96.9316842
40
1.7777757
50
270.3707998
51
317.5696419
0
ARC
8
DEFAULT_255_2_778
10
76.5779141
20
96.9579498
40
1.8041097
50
215.6370059
51
269.3797868
0
ARC
8
DEFAULT_255_2_778
10
76.8371474
20
97.1843849
40
2.1469801
50
193.8093906
51
216.5173728
0
ARC
8
DEFAULT_255_2_778
10
76.9818399
20
97.2240268
40
2.296956
50
179.9321772
51
193.9081445
0
ARC
8
DEFAULT_255_2_778
10
76.8071935
20
97.2314275
40
1.577015
50
157.3367486
51
180.1700958
0
ARC
8
DEFAULT_255_2_778
10
76.6515797
20
97.303682
40
1.4055923
50
124.1890647
51
157.6104787
0
ARC
8
DEFAULT_255_2_778
10
76.5389977
20
97.4606433
40
1.212503
50
90.0572844
51
123.9562972
0
ARC
8
DEFAULT_255_2_778
10
76.5166205
20
97.3925717
40
1.280749
50
28.3188368
51
89.0531188
0
ARC
8
DEFAULT_255_2_778
10
76.3015237
20
97.2396263
40
1.5430018
50
4.9128804
51
29.5295987
0
ARC
8
DEFAULT_255_2_778
10
76.2128298
20
97.2270331
40
1.6324558
50
359.9899145
51
5.0866546
0
ARC
8
DEFAULT_255_2_778
10
76.2679789
20
97.2220575
40
1.5773136
50
337.3391111
51
0.1703031
0
ARC
8
DEFAULT_255_2_778
10
76.4238249
20
97.1497068
40
1.4056399
50
304.1924169
51
337.6130897
0
ARC
8
DEFAULT_255_2_778
10
76.5365614
20
96.992533
40
1.2122878
50
270.0578526
51
303.9597454
0
ARC
8
DEFAULT_255_2_778
10
76.5589005
20
97.0608735
40
1.2808018
50
208.3189296
51
269.0553924
0
ARC
8
DEFAULT_255_2_778
10
76.7740853
20
97.2138324
40
1.543138
50
184.9118656
51
209.5284595
0
ARC
8
DEFAULT_255_2_778
10
76.863021
20
97.226458
40
1.6328356
50
179.9899035
51
185.0860619
0
LINE
8
DEFAULT_255_2_778
10
74.6848855
20
97.2267458
11
74.6848855
21
97.2267458
0
LINE
8
DEFAULT_255_2_778
10
75.2301855
20
97.2267458
11
75.2301855
21
97.2267458
0
ARC
8
DEFAULT_255_2_778
10
66.7691562
20
77.5927628
40
0.4638582
50
279.5129189
51
291.9953862
0
ARC
8
DEFAULT_255_2_778
10
66.7718567
20
77.5787021
40
0.4495447
50
270.0048803
51
279.4696452
0
ARC
8
DEFAULT_255_2_778
10
66.7801059
20
77.6166371
40
0.4875489
50
212.2607744
51
269.0350254
0
ARC
8
DEFAULT_255_2_778
10
66.8488641
20
77.6719115
40
0.5752842
50
198.1123019
51
213.2607851
0
ARC
8
DEFAULT_255_2_778
10
66.8746793
20
77.6817501
40
0.6028801
50
187.5559209
51
198.2382876
0
ARC
8
DEFAULT_255_2_778
10
66.8771146
20
77.6820629
40
0.6053353
50
179.9971192
51
187.5549625
0
ARC
8
DEFAULT_255_2_778
10
66.8259357
20
77.6954346
40
0.5543171
50
113.9647778
51
181.3791215
0
ARC
8
DEFAULT_255_2_778
10
68.5248462
20
77.4951026
40
1.3743651
50
90.0650458
51
111.9916381
0
ARC
8
DEFAULT_255_2_778
10
73.5056799
20
78.3610586
40
0.5086893
50
13.8152407
51
88.0954482
0
ARC
8
DEFAULT_255_2_778
10
73.4156136
20
78.3172611
40
0.6069728
50
359.9250281
51
15.8001604
0
ARC
8
DEFAULT_255_2_778
10
73.4405573
20
78.3115251
40
0.5820496
50
318.4516271
51
0.4864697
0
ARC
8
DEFAULT_255_2_778
10
73.518518
20
78.2391713
40
0.4757217
50
270.4899552
51
318.7457049
0
ARC
8
DEFAULT_255_2_778
10
68.5238461
20
77.3054017
40
0.4580655
50
90.070068
51
111.9818965
0
LINE
8
DEFAULT_255_2_778
10
68.352386
20
77.7301669
11
66.942886
21
77.1626669
0
LINE
8
DEFAULT_255_2_778
10
66.600786
20
78.2019669
11
68.010186
21
78.7694669
0
LINE
8
DEFAULT_255_2_778
10
68.523286
20
78.8694669
11
73.522586
21
78.8694669
0
LINE
8
DEFAULT_255_2_778
10
73.522586
20
77.7634669
11
68.523286
21
77.7634669
0
LINE
8
DEFAULT_255_2_778
10
68.352386
20
77.7301669
11
68.352386
21
77.7301669
0
ARC
8
DEFAULT_255_2_778
10
66.7691562
20
74.8275628
40
0.4638582
50
279.5129189
51
291.9953862
0
ARC
8
DEFAULT_255_2_778
10
66.7718567
20
74.8135021
40
0.4495447
50
270.0048803
51
279.4696452
0
ARC
8
DEFAULT_255_2_778
10
66.7801059
20
74.8514371
40
0.4875489
50
212.2607744
51
269.0350254
0
ARC
8
DEFAULT_255_2_778
10
66.8488641
20
74.9067115
40
0.5752842
50
198.1123019
51
213.2607851
0
ARC
8
DEFAULT_255_2_778
10
66.8746793
20
74.9165501
40
0.6028801
50
187.5559209
51
198.2382876
0
ARC
8
DEFAULT_255_2_778
10
66.8771146
20
74.9168629
40
0.6053353
50
179.9971192
51
187.5549625
0
ARC
8
DEFAULT_255_2_778
10
66.8259357
20
74.9302346
40
0.5543171
50
113.9647778
51
181.3791215
0
ARC
8
DEFAULT_255_2_778
10
68.5248462
20
74.7299026
40
1.3743651
50
90.0650458
51
111.9916381
0
ARC
8
DEFAULT_255_2_778
10
73.5056799
20
75.5958586
40
0.5086893
50
13.8152407
51
88.0954482
0
ARC
8
DEFAULT_255_2_778
10
73.4156136
20
75.5520611
40
0.6069728
50
359.9250281
51
15.8001604
0
ARC
8
DEFAULT_255_2_778
10
73.4405573
20
75.5463251
40
0.5820496
50
318.4516271
51
0.4864697
0
ARC
8
DEFAULT_255_2_778
10
73.518518
20
75.4739713
40
0.4757217
50
270.4899552
51
318.7457049
0
ARC
8
DEFAULT_255_2_778
10
68.5238461
20
74.5402017
40
0.4580655
50
90.070068
51
111.9818965
0
LINE
8
DEFAULT_255_2_778
10
68.352386
20
74.9649669
11
66.942886
21
74.3974669
0
LINE
8
DEFAULT_255_2_778
10
66.600786
20
75.4367669
11
68.010186
21
76.0042669
0
LINE
8
DEFAULT_255_2_778
10
68.523286
20
76.1042669
11
73.522586
21
76.1042669
0
LINE
8
DEFAULT_255_2_778
10
73.522586
20
74.9982669
11
68.523286
21
74.9982669
0
LINE
8
DEFAULT_255_2_778
10
68.352386
20
74.9649669
11
68.352386
21
74.9649669
0
ARC
8
DEFAULT_255_2_778
10
66.7691562
20
72.0623628
40
0.4638582
50
279.5129189
51
291.9953862
0
ARC
8
DEFAULT_255_2_778
10
66.7718567
20
72.0483021
40
0.4495447
50
270.0048803
51
279.4696452
0
ARC
8
DEFAULT_255_2_778
10
66.7801059
20
72.0862371
40
0.4875489
50
212.2607744
51
269.0350254
0
ARC
8
DEFAULT_255_2_778
10
66.8488641
20
72.1415115
40
0.5752842
50
198.1123019
51
213.2607851
0
ARC
8
DEFAULT_255_2_778
10
66.8746793
20
72.1513501
40
0.6028801
50
187.5559209
51
198.2382876
0
ARC
8
DEFAULT_255_2_778
10
66.8771146
20
72.1516629
40
0.6053353
50
179.9971192
51
187.5549625
0
ARC
8
DEFAULT_255_2_778
10
66.8259357
20
72.1650346
40
0.5543171
50
113.9647778
51
181.3791215
0
ARC
8
DEFAULT_255_2_778
10
68.5248462
20
71.9647026
40
1.3743651
50
90.0650458
51
111.9916381
0
ARC
8
DEFAULT_255_2_778
10
73.5056799
20
72.8306586
40
0.5086893
50
13.8152407
51
88.0954482
0
ARC
8
DEFAULT_255_2_778
10
73.4156136
20
72.7868611
40
0.6069728
50
359.9250281
51
15.8001604
0
ARC
8
DEFAULT_255_2_778
10
73.4405573
20
72.7811251
40
0.5820496
50
318.4516271
51
0.4864697
0
ARC
8
DEFAULT_255_2_778
10
73.518518
20
72.7087713
40
0.4757217
50
270.4899552
51
318.7457049
0
ARC
8
DEFAULT_255_2_778
10
68.5238461
20
71.7750017
40
0.4580655
50
90.070068
51
111.9818965
0
LINE
8
DEFAULT_255_2_778
10
68.352386
20
72.1997669
11
66.942886
21
71.6322669
0
LINE
8
DEFAULT_255_2_778
10
66.600786
20
72.6715669
11
68.010186
21
73.2390669
0
LINE
8
DEFAULT_255_2_778
10
68.523286
20
73.3390669
11
73.522586
21
73.3390669
0
LINE
8
DEFAULT_255_2_778
10
73.522586
20
72.2330669
11
68.523286
21
72.2330669
0
LINE
8
DEFAULT_255_2_778
10
68.352386
20
72.1997669
11
68.352386
21
72.1997669
0
ARC
8
DEFAULT_255_2_778
10
68.5240178
20
39.9785204
40
0.4589473
50
248.0394249
51
269.9086339
0
ARC
8
DEFAULT_255_2_778
10
66.7690408
20
39.6900989
40
0.4641601
50
68.0042937
51
80.4788748
0
ARC
8
DEFAULT_255_2_778
10
66.7717604
20
39.7042536
40
0.4497506
50
80.5222893
51
89.9946528
0
ARC
8
DEFAULT_255_2_778
10
66.7799573
20
39.6667989
40
0.4872737
50
90.9589372
51
147.7604093
0
ARC
8
DEFAULT_255_2_778
10
66.8492597
20
39.6112054
40
0.5756362
50
146.7598089
51
161.9071613
0
ARC
8
DEFAULT_255_2_778
10
66.8759153
20
39.6010714
40
0.6041226
50
161.77867
51
172.2753725
0
ARC
8
DEFAULT_255_2_778
10
66.8776761
20
39.6008521
40
0.605897
50
172.2771995
51
180.0022423
0
ARC
8
DEFAULT_255_2_778
10
66.8262397
20
39.5877021
40
0.5546159
50
178.6438343
51
245.4773652
0
ARC
8
DEFAULT_255_2_778
10
66.7804801
20
39.527049
40
0.4807232
50
247.4392863
51
248.0498577
0
ARC
8
DEFAULT_255_2_778
10
68.5243537
20
39.7867834
40
1.3731102
50
248.0093778
51
269.9554461
0
ARC
8
DEFAULT_255_2_778
10
73.5056852
20
38.9220922
40
0.5086994
50
271.9039125
51
346.1776633
0
ARC
8
DEFAULT_255_2_778
10
73.415918
20
38.9657839
40
0.6066684
50
344.1958486
51
0.0745821
0
ARC
8
DEFAULT_255_2_778
10
73.4405573
20
38.9715155
40
0.5820496
50
359.5135303
51
41.5483729
0
ARC
8
DEFAULT_255_2_778
10
73.518518
20
39.0438692
40
0.4757217
50
41.2542951
51
89.5100448
0
LINE
8
DEFAULT_255_2_778
10
73.522586
20
39.5195737
11
68.523286
21
39.5195737
0
LINE
8
DEFAULT_255_2_778
10
68.352386
20
39.5528737
11
66.942886
21
40.1204737
0
LINE
8
DEFAULT_255_2_778
10
66.600786
20
39.0811737
11
68.010186
21
38.5135737
0
LINE
8
DEFAULT_255_2_778
10
68.523286
20
38.4136737
11
73.522586
21
38.4136737
0
LINE
8
DEFAULT_255_2_778
10
73.522586
20
39.5195737
11
73.522586
21
39.5195737
0
ARC
8
DEFAULT_255_2_778
10
68.5240178
20
37.2133204
40
0.4589473
50
248.0394249
51
269.9086339
0
ARC
8
DEFAULT_255_2_778
10
66.7690408
20
36.9248989
40
0.4641601
50
68.0042937
51
80.4788748
0
ARC
8
DEFAULT_255_2_778
10
66.7717604
20
36.9390536
40
0.4497506
50
80.5222893
51
89.9946528
0
ARC
8
DEFAULT_255_2_778
10
66.7799573
20
36.9015989
40
0.4872737
50
90.9589372
51
147.7604093
0
ARC
8
DEFAULT_255_2_778
10
66.8492597
20
36.8460054
40
0.5756362
50
146.7598089
51
161.9071613
0
ARC
8
DEFAULT_255_2_778
10
66.8759153
20
36.8358714
40
0.6041226
50
161.77867
51
172.2753725
0
ARC
8
DEFAULT_255_2_778
10
66.8776761
20
36.8356521
40
0.605897
50
172.2771995
51
180.0022423
0
ARC
8
DEFAULT_255_2_778
10
66.8262397
20
36.8225021
40
0.5546159
50
178.6438343
51
245.4773652
0
ARC
8
DEFAULT_255_2_778
10
66.7804801
20
36.761849
40
0.4807232
50
247.4392863
51
248.0498577
0
ARC
8
DEFAULT_255_2_778
10
68.5243537
20
37.0215834
40
1.3731102
50
248.0093778
51
269.9554461
0
ARC
8
DEFAULT_255_2_778
10
73.5056852
20
36.1568922
40
0.5086994
50
271.9039125
51
346.1776633
0
ARC
8
DEFAULT_255_2_778
10
73.415918
20
36.2005839
40
0.6066684
50
344.1958486
51
0.0745821
0
ARC
8
DEFAULT_255_2_778
10
73.4405573
20
36.2063155
40
0.5820496
50
359.5135303
51
41.5483729
0
ARC
8
DEFAULT_255_2_778
10
73.518518
20
36.2786692
40
0.4757217
50
41.2542951
51
89.5100448
0
LINE
8
DEFAULT_255_2_778
10
73.522586
20
36.7543737
11
68.523286
21
36.7543737
0
LINE
8
DEFAULT_255_2_778
10
68.352386
20
36.7876737
11
66.942886
21
37.3552737
0
LINE
8
DEFAULT_255_2_778
10
66.600786
20
36.3159737
11
68.010186
21
35.7483737
0
LINE
8
DEFAULT_255_2_778
10
68.523286
20
35.6484737
11
73.522586
21
35.6484737
0
LINE
8
DEFAULT_255_2_778
10
73.522586
20
36.7543737
11
73.522586
21
36.7543737
0
ARC
8
DEFAULT_255_2_778
10
68.5240178
20
34.4481204
40
0.4589473
50
248.0394249
51
269.9086339
0
ARC
8
DEFAULT_255_2_778
10
66.7690408
20
34.1596989
40
0.4641601
50
68.0042937
51
80.4788748
0
ARC
8
DEFAULT_255_2_778
10
66.7717604
20
34.1738536
40
0.4497506
50
80.5222893
51
89.9946528
0
ARC
8
DEFAULT_255_2_778
10
66.7799573
20
34.1363989
40
0.4872737
50
90.9589372
51
147.7604093
0
ARC
8
DEFAULT_255_2_778
10
66.8492597
20
34.0808054
40
0.5756362
50
146.7598089
51
161.9071613
0
ARC
8
DEFAULT_255_2_778
10
66.8759153
20
34.0706714
40
0.6041226
50
161.77867
51
172.2753725
0
ARC
8
DEFAULT_255_2_778
10
66.8776761
20
34.0704521
40
0.605897
50
172.2771995
51
180.0022423
0
ARC
8
DEFAULT_255_2_778
10
66.8262397
20
34.0573021
40
0.5546159
50
178.6438343
51
245.4773652
0
ARC
8
DEFAULT_255_2_778
10
66.7804801
20
33.996649
40
0.4807232
50
247.4392863
51
248.0498577
0
ARC
8
DEFAULT_255_2_778
10
68.5243537
20
34.2563834
40
1.3731102
50
248.0093778
51
269.9554461
0
ARC
8
DEFAULT_255_2_778
10
73.5056852
20
33.3916922
40
0.5086994
50
271.9039125
51
346.1776633
0
ARC
8
DEFAULT_255_2_778
10
73.415918
20
33.4353839
40
0.6066684
50
344.1958486
51
0.0745821
0
ARC
8
DEFAULT_255_2_778
10
73.4405573
20
33.4411155
40
0.5820496
50
359.5135303
51
41.5483729
0
ARC
8
DEFAULT_255_2_778
10
73.518518
20
33.5134692
40
0.4757217
50
41.2542951
51
89.5100448
0
LINE
8
DEFAULT_255_2_778
10
73.522586
20
33.9891737
11
68.523286
21
33.9891737
0
LINE
8
DEFAULT_255_2_778
10
68.352386
20
34.0224737
11
66.942886
21
34.5900737
0
LINE
8
DEFAULT_255_2_778
10
66.600786
20
33.5507737
11
68.010186
21
32.9831737
0
LINE
8
DEFAULT_255_2_778
10
68.523286
20
32.8832737
11
73.522586
21
32.8832737
0
LINE
8
DEFAULT_255_2_778
10
73.522586
20
33.9891737
11
73.522586
21
33.9891737
0
ARC
8
DEFAULT_255_2_778
10
74.5994301
20
71.7112273
40
0.4502135
50
272.0436743
51
348.2310474
0
ARC
8
DEFAULT_255_2_778
10
74.5193625
20
71.7478499
40
0.5364231
50
346.1454549
51
0.0587732
0
ARC
8
DEFAULT_255_2_778
10
74.5416067
20
79.6403785
40
0.5141932
50
359.5678448
51
41.4712918
0
ARC
8
DEFAULT_255_2_778
10
74.6114956
20
79.7037753
40
0.4198438
50
41.3049473
51
89.4555234
0
ARC
8
DEFAULT_255_2_778
10
65.6826708
20
79.70313
40
0.4204921
50
90.5839494
51
138.6556016
0
ARC
8
DEFAULT_255_2_778
10
65.7527735
20
79.6403374
40
0.5146023
50
138.5628594
51
180.4272441
0
ARC
8
DEFAULT_255_2_778
10
65.7532186
20
32.1127305
40
0.5150471
50
179.5806467
51
221.4183457
0
ARC
8
DEFAULT_255_2_778
10
65.6823857
20
32.0494427
40
0.4200616
50
221.3365294
51
269.4543461
0
ARC
8
DEFAULT_255_2_778
10
74.6114106
20
32.0496052
40
0.4202248
50
270.555575
51
318.6535244
0
ARC
8
DEFAULT_255_2_778
10
74.5411621
20
32.1126894
40
0.5146373
50
318.5475121
51
0.4242618
0
ARC
8
DEFAULT_255_2_778
10
74.5462165
20
40.0097174
40
0.5095955
50
359.4133997
51
44.8313993
0
ARC
8
DEFAULT_255_2_778
10
74.6128352
20
40.0759612
40
0.4156473
50
44.8298397
51
89.6346964
0
ARC
8
DEFAULT_255_2_778
10
71.6094672
20
41.5387691
40
1.0474081
50
205.4011838
51
268.7755601
0
ARC
8
DEFAULT_255_2_778
10
71.791811
20
41.6591196
40
1.2641168
50
180.0139146
51
206.7836658
0
ARC
8
DEFAULT_255_2_778
10
71.8253484
20
41.6636459
40
1.2976631
50
179.9976042
51
180.2134044
0
ARC
8
DEFAULT_255_2_778
10
71.7653054
20
50.1892172
40
1.2376516
50
138.5191441
51
180.4081788
0
ARC
8
DEFAULT_255_2_778
10
71.5966508
20
50.3424152
40
1.0098303
50
90.5427381
51
138.6928002
0
ARC
8
DEFAULT_255_2_778
10
74.6112464
20
51.7727637
40
0.4205849
50
270.5774732
51
318.6316375
0
ARC
8
DEFAULT_255_2_778
10
74.5411621
20
51.8354894
40
0.5146373
50
318.5475121
51
0.4242618
0
ARC
8
DEFAULT_255_2_778
10
74.5462165
20
59.9188174
40
0.5095955
50
359.4133997
51
44.8313993
0
ARC
8
DEFAULT_255_2_778
10
74.6128352
20
59.9850612
40
0.4156473
50
44.8298397
51
89.6346964
0
ARC
8
DEFAULT_255_2_778
10
71.5971429
20
61.4115589
40
1.0109088
50
221.334504
51
269.4299488
0
ARC
8
DEFAULT_255_2_778
10
71.764996
20
61.5635684
40
1.2373437
50
179.5817738
51
221.4863645
0
ARC
8
DEFAULT_255_2_778
10
71.7925287
20
70.0935231
40
1.2648509
50
153.4594595
51
180.1958217
0
ARC
8
DEFAULT_255_2_778
10
71.6369852
20
70.1869462
40
1.0840459
50
106.6893358
51
154.2034699
0
ARC
8
DEFAULT_255_2_778
10
71.5866628
20
70.2964925
40
0.9648078
50
89.9749088
51
105.6949941
0
ARC
8
DEFAULT_255_2_778
10
71.6029394
20
70.1235358
40
0.4274585
50
92.1255437
51
169.0789455
0
ARC
8
DEFAULT_255_2_778
10
71.6787746
20
70.0896601
40
0.5086894
50
166.9502637
51
180.0518013
0
ARC
8
DEFAULT_255_2_778
10
71.6568978
20
61.5689921
40
0.4868259
50
179.5753497
51
221.5174965
0
ARC
8
DEFAULT_255_2_778
10
71.5912328
20
61.5089339
40
0.3978522
50
221.3097082
51
269.4458935
0
ARC
8
DEFAULT_255_2_778
10
74.5934571
20
60.0422486
40
1.0690847
50
25.9163734
51
88.8032749
0
ARC
8
DEFAULT_255_2_778
10
74.4090463
20
59.9185582
40
1.2893744
50
0.6688302
51
27.2786175
0
ARC
8
DEFAULT_255_2_778
10
74.3478466
20
59.9133066
40
1.3506387
50
359.999727
51
0.8612901
0
ARC
8
DEFAULT_255_2_778
10
74.4337681
20
51.829951
40
1.2647502
50
318.5119784
51
0.414479
0
ARC
8
DEFAULT_255_2_778
10
74.6054926
20
51.6741679
40
1.032916
50
270.5543039
51
318.6747883
0
ARC
8
DEFAULT_255_2_778
10
71.6028662
20
50.2141986
40
0.427393
50
92.1160535
51
169.0745411
0
ARC
8
DEFAULT_255_2_778
10
71.6786897
20
50.1803628
40
0.5086046
50
166.9503655
51
180.0521113
0
ARC
8
DEFAULT_255_2_778
10
71.6572748
20
41.6597334
40
0.4872018
50
179.5922947
51
221.5005515
0
ARC
8
DEFAULT_255_2_778
10
71.5910967
20
41.5995311
40
0.397748
50
221.3223463
51
269.4653614
0
ARC
8
DEFAULT_255_2_778
10
74.5934571
20
40.1329486
40
1.0690847
50
25.9163734
51
88.8032749
0
ARC
8
DEFAULT_255_2_778
10
74.4090463
20
40.0092582
40
1.2893744
50
0.6688302
51
27.2786175
0
ARC
8
DEFAULT_255_2_778
10
74.3478466
20
40.0040066
40
1.3506387
50
359.999727
51
0.8612901
0
ARC
8
DEFAULT_255_2_778
10
74.4046937
20
32.1117302
40
1.2937986
50
334.0247887
51
0.1890964
0
ARC
8
DEFAULT_255_2_778
10
74.5556882
20
32.0247064
40
1.1200075
50
290.4924725
51
334.6437997
0
ARC
8
DEFAULT_255_2_778
10
74.6161688
20
31.9052256
40
0.9870256
50
269.9777355
51
289.6318645
0
ARC
8
DEFAULT_255_2_778
10
65.7009458
20
31.9869811
40
1.0690127
50
205.9140427
51
268.8068208
0
ARC
8
DEFAULT_255_2_778
10
65.8855438
20
32.1107289
40
1.2894938
50
180.6681806
51
207.2752199
0
ARC
8
DEFAULT_255_2_778
10
65.9466239
20
32.1159937
40
1.3506387
50
179.999727
51
180.8612901
0
ARC
8
DEFAULT_255_2_778
10
65.860447
20
79.6456462
40
1.2644948
50
138.5076009
51
180.4144212
0
ARC
8
DEFAULT_255_2_778
10
65.688978
20
79.8013325
40
1.032916
50
90.5543039
51
138.6747883
0
ARC
8
DEFAULT_255_2_778
10
74.5937719
20
79.7654674
40
1.0689657
50
25.9142077
51
88.8039332
0
ARC
8
DEFAULT_255_2_778
10
74.4093143
20
79.6417539
40
1.2893064
50
0.6689227
51
27.276908
0
ARC
8
DEFAULT_255_2_778
10
74.3484224
20
79.6365065
40
1.350263
50
359.9997333
51
0.861407
0
ARC
8
DEFAULT_255_2_778
10
74.4343118
20
71.7391093
40
1.2644076
50
318.5128681
51
0.4210142
0
ARC
8
DEFAULT_255_2_778
10
74.6057185
20
71.5837296
40
1.0330784
50
270.5583234
51
318.6707643
0
ARC
8
DEFAULT_255_2_778
10
72.7259046
20
68.896134
40
0.529846
50
91.8623639
51
165.3504892
0
ARC
8
DEFAULT_255_2_778
10
72.820073
20
68.8492103
40
0.6331882
50
163.3971507
51
180.082354
0
ARC
8
DEFAULT_255_2_778
10
72.7259046
20
62.7656663
40
0.529846
50
194.6495108
51
268.1376361
0
ARC
8
DEFAULT_255_2_778
10
72.820073
20
62.8125901
40
0.6331882
50
179.917646
51
196.6028493
0
ARC
8
DEFAULT_255_2_778
10
52.3514267
20
5.7467304
40
6.0448611
50
359.9475818
51
19.2393141
0
ARC
8
DEFAULT_255_2_778
10
57.4505919
20
12.6660604
40
1.0542924
50
187.0820235
51
199.305838
0
ARC
8
DEFAULT_255_2_778
10
57.4564972
20
12.666835
40
1.0602481
50
179.9972854
51
187.0842191
0
ARC
8
DEFAULT_255_2_778
10
57.4220581
20
12.6731232
40
1.0258279
50
138.6906452
51
180.3484125
0
ARC
8
DEFAULT_255_2_778
10
57.3003609
20
12.7710151
40
0.8698201
50
113.3661651
51
138.2425158
0
ARC
8
DEFAULT_255_2_778
10
57.2774334
20
12.8202517
40
0.8155294
50
101.6656909
51
113.2593968
0
ARC
8
DEFAULT_255_2_778
10
57.2722417
20
12.8420614
40
0.7931208
50
98.6560498
51
101.6169615
0
ARC
8
DEFAULT_255_2_778
10
57.2712255
20
12.8491363
40
0.7859734
50
90.0027653
51
98.6604371
0
ARC
8
DEFAULT_255_2_778
10
57.2617361
20
12.7968435
40
0.8383195
50
40.8047006
51
89.354019
0
ARC
8
DEFAULT_255_2_778
10
57.1588611
20
12.6958332
40
0.9822419
50
19.0543184
51
41.343213
0
ARC
8
DEFAULT_255_2_778
10
51.9127238
20
5.7364888
40
8.2332635
50
359.9611086
51
19.2240661
0
ARC
8
DEFAULT_255_2_778
10
60.7290444
20
0.3932494
40
0.5830762
50
179.5626377
51
222.1979997
0
ARC
8
DEFAULT_255_2_778
10
60.6500922
20
0.3205062
40
0.4757257
50
222.0946212
51
269.4584836
0
ARC
8
DEFAULT_255_2_778
10
60.6455937
20
0.2963974
40
0.4515957
50
270.0003009
51
271.6992968
0
ARC
8
DEFAULT_255_2_778
10
60.6455937
20
0.2963974
40
0.4515958
50
270.0003009
51
271.6992968
0
ARC
8
DEFAULT_255_2_778
10
60.6500922
20
0.3205062
40
0.4757258
50
222.0946212
51
269.4584836
0
ARC
8
DEFAULT_255_2_778
10
60.7290444
20
0.3932494
40
0.5830762
50
179.5626377
51
222.1979997
0
ARC
8
DEFAULT_255_2_778
10
57.8930368
20
0.4041984
40
0.4740692
50
267.7331073
51
269.9994994
0
ARC
8
DEFAULT_255_2_778
10
57.8930113
20
0.4035896
40
0.4734603
50
270.0025896
51
317.446737
0
ARC
8
DEFAULT_255_2_778
10
57.8127856
20
0.4784958
40
0.5832163
50
317.3558755
51
0.4326955
0
ARC
8
DEFAULT_255_2_778
10
56.2522845
20
0.5609742
40
0.581521
50
179.5048017
51
222.2694357
0
ARC
8
DEFAULT_255_2_778
10
56.175837
20
0.4898531
40
0.4771148
50
222.1242588
51
266.7616962
0
ARC
8
DEFAULT_255_2_778
10
47.8741779
20
5.7460831
40
6.0469097
50
359.9489953
51
19.2360241
0
ARC
8
DEFAULT_255_2_778
10
52.9767492
20
12.664943
40
1.0554027
50
182.3965952
51
199.2549699
0
ARC
8
DEFAULT_255_2_778
10
52.9910507
20
12.6662754
40
1.0697478
50
179.9996658
51
182.4358636
0
ARC
8
DEFAULT_255_2_778
10
52.9552692
20
12.6711569
40
1.0339779
50
144.3767575
51
180.270158
0
ARC
8
DEFAULT_255_2_778
10
52.8311599
20
12.7608175
40
0.880871
50
111.0235676
51
144.4153992
0
ARC
8
DEFAULT_255_2_778
10
52.7967727
20
12.8368474
40
0.7975801
50
90.0534641
51
110.6771468
0
ARC
8
DEFAULT_255_2_778
10
52.7959526
20
12.8438777
40
0.7905494
50
81.4804566
51
89.9945009
0
ARC
8
DEFAULT_255_2_778
10
52.7949094
20
12.836166
40
0.7983305
50
80.2223981
51
81.4884078
0
ARC
8
DEFAULT_255_2_778
10
52.7664429
20
12.7592458
40
0.8790954
50
27.1410883
51
79.245359
0
ARC
8
DEFAULT_255_2_778
10
52.6537474
20
12.6807954
40
1.0153363
50
19.2893278
51
28.179583
0
ARC
8
DEFAULT_255_2_778
10
53.4181368
20
0.6197984
40
0.4740692
50
267.7331073
51
269.9994994
0
ARC
8
DEFAULT_255_2_778
10
53.4181113
20
0.6191896
40
0.4734603
50
270.0025896
51
317.446737
0
ARC
8
DEFAULT_255_2_778
10
53.3377029
20
0.6941664
40
0.5833985
50
317.3629264
51
0.4256271
0
ARC
8
DEFAULT_255_2_778
10
43.3979103
20
5.7472533
40
6.0481979
50
2.4926814
51
19.2230362
0
ARC
8
DEFAULT_255_2_778
10
48.5011739
20
12.6658274
40
1.0546751
50
187.1004995
51
199.3024162
0
ARC
8
DEFAULT_255_2_778
10
48.5069919
20
12.6665908
40
1.0605429
50
179.99743
51
187.1025737
0
ARC
8
DEFAULT_255_2_778
10
48.4727085
20
12.6727896
40
1.0262778
50
138.9444011
51
180.3434144
0
ARC
8
DEFAULT_255_2_778
10
48.3505611
20
12.7704935
40
0.8700233
50
113.3603887
51
138.5130783
0
ARC
8
DEFAULT_255_2_778
10
48.3278327
20
12.8198001
40
0.8157474
50
101.8993598
51
113.2680515
0
ARC
8
DEFAULT_255_2_778
10
48.3224862
20
12.8420129
40
0.7929099
50
98.6616222
51
101.8522867
0
ARC
8
DEFAULT_255_2_778
10
48.3214645
20
12.8491606
40
0.78569
50
90.0026289
51
98.666462
0
ARC
8
DEFAULT_255_2_778
10
48.3120123
20
12.7968832
40
0.8380204
50
40.9381022
51
89.3562044
0
ARC
8
DEFAULT_255_2_778
10
48.2092482
20
12.6956451
40
0.9820284
50
19.0517145
51
41.471469
0
ARC
8
DEFAULT_255_2_778
10
38.9398797
20
5.751006
40
6.0312181
50
4.5265897
51
19.2385086
0
ARC
8
DEFAULT_255_2_778
10
44.0261628
20
12.6655734
40
1.0543023
50
187.0716709
51
199.3121587
0
ARC
8
DEFAULT_255_2_778
10
44.0322339
20
12.666373
40
1.0604258
50
179.9971792
51
187.0741592
0
ARC
8
DEFAULT_255_2_778
10
43.9980481
20
12.6725958
40
1.0262585
50
138.9408916
51
180.3445068
0
ARC
8
DEFAULT_255_2_778
10
43.875132
20
12.7709595
40
0.8689916
50
113.3302274
51
138.5079358
0
ARC
8
DEFAULT_255_2_778
10
43.8528416
20
12.8194739
40
0.8156171
50
101.6238212
51
113.2420878
0
ARC
8
DEFAULT_255_2_778
10
43.8476421
20
12.8414372
40
0.7930569
50
98.6076662
51
101.5755883
0
ARC
8
DEFAULT_255_2_778
10
43.8467098
20
12.8480449
40
0.7863842
50
90.0026991
51
98.6125611
0
ARC
8
DEFAULT_255_2_778
10
43.8372881
20
12.7960023
40
0.8384792
50
40.8199051
51
89.3587051
0
ARC
8
DEFAULT_255_2_778
10
43.7351572
20
12.6957228
40
0.9813621
50
19.0479925
51
41.352784
0
ARC
8
DEFAULT_255_2_778
10
39.2631199
20
12.6975752
40
0.9779279
50
19.0150479
51
42.6656193
0
ARC
8
DEFAULT_255_2_778
10
39.3628142
20
12.7985756
40
0.8361975
50
42.2063225
51
89.4036083
0
ARC
8
DEFAULT_255_2_778
10
39.3715578
20
12.8481167
40
0.7866112
50
90.0028972
51
98.6331796
0
ARC
8
DEFAULT_255_2_778
10
39.3750655
20
12.8285845
40
0.8064487
50
98.6712631
51
110.974861
0
ARC
8
DEFAULT_255_2_778
10
39.3855576
20
12.7989732
40
0.8378541
50
110.9199645
51
113.1781656
0
ARC
8
DEFAULT_255_2_778
10
39.4524527
20
12.7042536
40
0.9515659
50
114.6363523
51
172.4967817
0
ARC
8
DEFAULT_255_2_778
10
39.5603961
20
12.6666563
40
1.0637471
50
171.2481589
51
179.9996389
0
ARC
8
DEFAULT_255_2_778
10
39.557393
20
12.666614
40
1.0607439
50
179.9973555
51
187.0800226
0
ARC
8
DEFAULT_255_2_778
10
39.551382
20
12.665824
40
1.0546814
50
187.0776797
51
199.3020932
0
ARC
8
DEFAULT_255_2_778
10
34.477304
20
5.7541046
40
6.0183769
50
6.5842876
51
19.2529546
0
ARC
8
DEFAULT_255_2_778
10
41.3846315
20
3.69147
40
3.1509463
50
180.0139986
51
192.7586522
0
ARC
8
DEFAULT_255_2_778
10
38.3533098
20
1.4250413
40
0.5815466
50
179.5015774
51
222.2627626
0
ARC
8
DEFAULT_255_2_778
10
38.2767831
20
1.3539294
40
0.477088
50
222.1233276
51
266.7679975
0
ARC
8
DEFAULT_255_2_778
10
34.8092916
20
12.7078779
40
0.9546816
50
18.8102186
51
53.5142015
0
ARC
8
DEFAULT_255_2_778
10
34.8896722
20
12.8094218
40
0.8252545
50
53.808994
51
80.1050873
0
ARC
8
DEFAULT_255_2_778
10
34.8963334
20
12.8334729
40
0.80042
50
80.2789688
51
81.5924757
0
ARC
8
DEFAULT_255_2_778
10
34.8972822
20
12.8406313
40
0.7931998
50
81.5846735
51
89.994527
0
ARC
8
DEFAULT_255_2_778
10
34.9055911
20
12.7987802
40
0.8350916
50
90.5648834
51
138.9502655
0
ARC
8
DEFAULT_255_2_778
10
34.9782698
20
12.7189752
40
0.942393
50
138.1929967
51
144.0074973
0
ARC
8
DEFAULT_255_2_778
10
35.0570481
20
12.6706354
40
1.0345654
50
144.4054174
51
180.2684787
0
ARC
8
DEFAULT_255_2_778
10
35.0921522
20
12.6657806
40
1.0696581
50
179.9996223
51
182.4126639
0
ARC
8
DEFAULT_255_2_778
10
35.0776295
20
12.664413
40
1.0550911
50
182.3716615
51
199.2591547
0
ARC
8
DEFAULT_255_2_778
10
29.9715282
20
5.7449339
40
6.0507586
50
359.9580162
51
19.2298187
0
ARC
8
DEFAULT_255_2_778
10
35.5190079
20
1.4837614
40
0.4736314
50
267.7345088
51
269.9995206
0
ARC
8
DEFAULT_255_2_778
10
35.5188423
20
1.4839752
40
0.4738453
50
270.0195424
51
317.4262113
0
ARC
8
DEFAULT_255_2_778
10
35.4392639
20
1.5584571
40
0.5828383
50
317.3268239
51
0.4367839
0
ARC
8
DEFAULT_255_2_778
10
30.3437655
20
12.7076713
40
0.9551515
50
18.8137042
51
53.5032572
0
ARC
8
DEFAULT_255_2_778
10
30.4235769
20
12.8084587
40
0.8266702
50
53.7953036
51
80.0521719
0
ARC
8
DEFAULT_255_2_778
10
30.4311946
20
12.8365867
40
0.7976533
50
80.2420954
51
81.5602862
0
ARC
8
DEFAULT_255_2_778
10
30.4319371
20
12.8424643
40
0.7917305
50
81.5510087
51
89.994752
0
ARC
8
DEFAULT_255_2_778
10
30.4404239
20
12.799407
40
0.8348303
50
90.5774929
51
138.9659314
0
ARC
8
DEFAULT_255_2_778
10
30.51372
20
12.718873
40
0.9430746
50
138.1986474
51
144.0073704
0
ARC
8
DEFAULT_255_2_778
10
30.5919481
20
12.6709354
40
1.0345654
50
144.4054174
51
180.2684787
0
ARC
8
DEFAULT_255_2_778
10
30.6270522
20
12.6660806
40
1.0696581
50
179.9996223
51
182.4126639
0
ARC
8
DEFAULT_255_2_778
10
30.6125295
20
12.664713
40
1.0550911
50
182.3716615
51
199.2591547
0
ARC
8
DEFAULT_255_2_778
10
25.5059881
20
5.7448583
40
6.051199
50
359.9558945
51
19.2291221
0
ARC
8
DEFAULT_255_2_778
10
30.9741028
20
1.7740517
40
0.5831003
50
317.3512628
51
0.4469418
0
ARC
8
DEFAULT_255_2_778
10
31.0539299
20
1.6998696
40
0.4741274
50
269.9989042
51
317.4091989
0
ARC
8
DEFAULT_255_2_778
10
31.0539291
20
1.7010294
40
0.4752873
50
267.7760371
51
269.9990033
0
ARC
8
DEFAULT_255_2_778
10
33.8890397
20
1.6419192
40
0.5831654
50
179.6481688
51
222.6136053
0
ARC
8
DEFAULT_255_2_778
10
33.8117858
20
1.5695866
40
0.4773394
50
222.5022899
51
266.7814047
0
ARC
8
DEFAULT_255_2_778
10
21.0355399
20
5.7455099
40
6.0473477
50
359.9496932
51
19.2353125
0
ARC
8
DEFAULT_255_2_778
10
26.1389449
20
12.6644202
40
1.0558632
50
182.3788996
51
199.2449324
0
ARC
8
DEFAULT_255_2_778
10
26.1530565
20
12.665744
40
1.070018
50
179.999637
51
182.4183583
0
ARC
8
DEFAULT_255_2_778
10
26.118066
20
12.6705459
40
1.0350386
50
144.4180749
51
180.2654424
0
ARC
8
DEFAULT_255_2_778
10
25.9912261
20
12.762729
40
0.8782443
50
111.0062124
51
144.4942228
0
ARC
8
DEFAULT_255_2_778
10
25.957995
20
12.8359786
40
0.7979647
50
90.0491604
51
110.664076
0
ARC
8
DEFAULT_255_2_778
10
25.9572326
20
12.8419307
40
0.7920123
50
81.5317625
51
89.9943744
0
ARC
8
DEFAULT_255_2_778
10
25.9562751
20
12.834732
40
0.7992735
50
80.2242842
51
81.5398706
0
ARC
8
DEFAULT_255_2_778
10
25.9279429
20
12.7587458
40
0.8790954
50
27.1410883
51
79.245359
0
ARC
8
DEFAULT_255_2_778
10
25.8152474
20
12.6802954
40
1.0153363
50
19.2893278
51
28.179583
0
ARC
8
DEFAULT_255_2_778
10
29.413417
20
1.8568299
40
0.5811539
50
179.5001191
51
222.5898464
0
ARC
8
DEFAULT_255_2_778
10
29.3370532
20
1.7852395
40
0.4764862
50
222.4663307
51
266.7915971
0
ARC
8
DEFAULT_255_2_778
10
26.5795499
20
1.9166626
40
0.4747335
50
267.7346968
51
269.9994743
0
ARC
8
DEFAULT_255_2_778
10
26.5796546
20
1.9150633
40
0.473134
50
269.9867961
51
317.4641128
0
ARC
8
DEFAULT_255_2_778
10
26.4995805
20
1.990328
40
0.5830213
50
317.3339135
51
0.4296744
0
ARC
8
DEFAULT_255_2_778
10
21.3946289
20
12.7075505
40
0.9551304
50
18.821791
51
53.5108133
0
ARC
8
DEFAULT_255_2_778
10
21.4753441
20
12.8094264
40
0.8252376
50
53.8100498
51
80.1099504
0
ARC
8
DEFAULT_255_2_778
10
21.4819334
20
12.8334729
40
0.80042
50
80.2789688
51
81.5924757
0
ARC
8
DEFAULT_255_2_778
10
21.4828822
20
12.8406313
40
0.7931998
50
81.5846735
51
89.994527
0
ARC
8
DEFAULT_255_2_778
10
21.4911911
20
12.7987802
40
0.8350916
50
90.5648834
51
138.9502655
0
ARC
8
DEFAULT_255_2_778
10
21.5638698
20
12.7189752
40
0.942393
50
138.1929967
51
144.0074973
0
ARC
8
DEFAULT_255_2_778
10
21.642634
20
12.6707157
40
1.0345072
50
144.4085774
51
180.2723224
0
ARC
8
DEFAULT_255_2_778
10
21.6787781
20
12.6657965
40
1.0706396
50
179.999876
51
182.4113023
0
ARC
8
DEFAULT_255_2_778
10
21.6641866
20
12.6644426
40
1.0560043
50
182.371217
51
199.2435434
0
ARC
8
DEFAULT_255_2_778
10
16.5542003
20
5.7444213
40
6.0537864
50
359.9600496
51
19.2249612
0
ARC
8
DEFAULT_255_2_778
10
24.9398311
20
2.0742656
40
0.5832566
50
179.6527788
51
222.6115472
0
ARC
8
DEFAULT_255_2_778
10
24.8624
20
2.0016478
40
0.4771074
50
222.4889295
51
266.766101
0
ARC
8
DEFAULT_255_2_778
10
22.1043412
20
2.1334484
40
0.4759063
50
267.7774731
51
269.998997
0
ARC
8
DEFAULT_255_2_778
10
22.1044305
20
2.131459
40
0.4739169
50
269.9882008
51
317.4367937
0
ARC
8
DEFAULT_255_2_778
10
22.0244856
20
2.2059958
40
0.5832163
50
317.3558755
51
0.4326955
0
ARC
8
DEFAULT_255_2_778
10
11.7924362
20
5.7464317
40
8.0900515
50
359.9558668
51
359.9999999
0
ARC
8
DEFAULT_255_2_778
10
11.7119144
20
5.7465415
40
8.1705732
50
359.99923
51
19.2239836
0
ARC
8
DEFAULT_255_2_778
10
16.9199562
20
12.7074658
40
0.9548458
50
18.8139651
51
53.5151467
0
ARC
8
DEFAULT_255_2_778
10
17.0004514
20
12.8090092
40
0.8253517
50
53.8164673
51
80.1118448
0
ARC
8
DEFAULT_255_2_778
10
17.0070333
20
12.8331722
40
0.8004208
50
80.278969
51
81.5924758
0
ARC
8
DEFAULT_255_2_778
10
17.0079177
20
12.8399739
40
0.7935629
50
81.5838449
51
89.9944874
0
ARC
8
DEFAULT_255_2_778
10
17.0162104
20
12.7984232
40
0.8351541
50
90.5636869
51
139.0510219
0
ARC
8
DEFAULT_255_2_778
10
17.0888731
20
12.7188364
40
0.9422789
50
138.2915845
51
144.0070531
0
ARC
8
DEFAULT_255_2_778
10
17.1675567
20
12.6706196
40
1.0343025
50
144.4075417
51
180.272199
0
ARC
8
DEFAULT_255_2_778
10
17.2034263
20
12.6656952
40
1.0701605
50
179.9994283
51
182.4467071
0
ARC
8
DEFAULT_255_2_778
10
17.1893928
20
12.664364
40
1.0560832
50
182.40705
51
199.254773
0
ARC
8
DEFAULT_255_2_778
10
20.402702
20
2.2525632
40
0.5132693
50
193.3941685
51
265.3268594
0
ARC
8
DEFAULT_255_2_778
10
20.492635
20
2.2950866
40
0.6109518
50
180.1487763
51
195.3202188
0
ARC
8
DEFAULT_255_2_778
10
17.6300079
20
2.3470614
40
0.4736314
50
267.7345088
51
269.9995206
0
ARC
8
DEFAULT_255_2_778
10
17.6298423
20
2.3472752
40
0.4738453
50
270.0195424
51
317.4262113
0
ARC
8
DEFAULT_255_2_778
10
17.5493667
20
2.4221047
40
0.5837337
50
317.3614231
51
0.4118064
0
ARC
8
DEFAULT_255_2_778
10
12.4453916
20
12.7086779
40
0.9546816
50
18.8102186
51
53.5142015
0
ARC
8
DEFAULT_255_2_778
10
12.5257722
20
12.8102218
40
0.8252545
50
53.808994
51
80.1050873
0
ARC
8
DEFAULT_255_2_778
10
12.5324334
20
12.8342729
40
0.80042
50
80.2789688
51
81.5924757
0
ARC
8
DEFAULT_255_2_778
10
12.5333794
20
12.8414289
40
0.7932026
50
81.5844936
51
89.9947117
0
ARC
8
DEFAULT_255_2_778
10
12.5417393
20
12.7992713
40
0.8354013
50
90.5683548
51
139.0445089
0
ARC
8
DEFAULT_255_2_778
10
12.6143989
20
12.7196332
40
0.942559
50
138.2835561
51
143.9966368
0
ARC
8
DEFAULT_255_2_778
10
12.6935653
20
12.6714018
40
1.0349824
50
144.4128462
51
180.2662707
0
ARC
8
DEFAULT_255_2_778
10
12.7284943
20
12.6665846
40
1.0699002
50
179.9996077
51
182.4001486
0
ARC
8
DEFAULT_255_2_778
10
12.7137422
20
12.665216
40
1.0551038
50
182.3594421
51
199.2590856
0
ARC
8
DEFAULT_255_2_778
10
7.6071855
20
5.7456588
40
6.0512013
50
359.9558896
51
19.2291093
0
ARC
8
DEFAULT_255_2_778
10
13.1557144
20
2.5633838
40
0.4726668
50
267.6927062
51
269.9999984
0
ARC
8
DEFAULT_255_2_778
10
13.1555229
20
2.5638968
40
0.4731799
50
270.023188
51
317.4637223
0
ARC
8
DEFAULT_255_2_778
10
13.0751856
20
2.6390958
40
0.5832163
50
317.3558755
51
0.4326955
0
ARC
8
DEFAULT_255_2_778
10
15.9896604
20
2.5055754
40
0.5815978
50
179.4951295
51
222.2494137
0
ARC
8
DEFAULT_255_2_778
10
15.9129756
20
2.4344817
40
0.4770343
50
222.1214301
51
266.7805692
0
ARC
8
DEFAULT_255_2_778
10
51.7171004
20
0.7407371
40
0.5125373
50
192.9654415
51
265.3315623
0
ARC
8
DEFAULT_255_2_778
10
51.8053901
20
0.7817228
40
0.608105
50
179.9361802
51
194.8626167
0
ARC
8
DEFAULT_255_2_778
10
42.8290098
20
1.2094413
40
0.5815466
50
179.5015774
51
222.2627626
0
ARC
8
DEFAULT_255_2_778
10
42.7524831
20
1.1383294
40
0.477088
50
222.1233276
51
266.7679975
0
ARC
8
DEFAULT_255_2_778
10
44.4696368
20
1.0523984
40
0.4740692
50
267.7331073
51
269.9994994
0
ARC
8
DEFAULT_255_2_778
10
44.4696113
20
1.0517896
40
0.4734603
50
270.0025896
51
317.446737
0
ARC
8
DEFAULT_255_2_778
10
44.3892154
20
1.1269075
40
0.5834849
50
317.3518983
51
0.4117018
0
ARC
8
DEFAULT_255_2_778
10
47.303717
20
0.9932299
40
0.5811539
50
179.5001191
51
222.5898464
0
ARC
8
DEFAULT_255_2_778
10
47.2273532
20
0.9216395
40
0.4764862
50
222.4663307
51
266.7915971
0
ARC
8
DEFAULT_255_2_778
10
48.9445283
20
0.8373865
40
0.4752444
50
267.7759347
51
269.9990213
0
ARC
8
DEFAULT_255_2_778
10
48.9445513
20
0.8360119
40
0.4738697
50
269.996237
51
317.439292
0
ARC
8
DEFAULT_255_2_778
10
48.8645856
20
0.9105958
40
0.5832163
50
317.3558755
51
0.4326955
0
ARC
8
DEFAULT_255_2_778
10
39.9949412
20
1.2703482
40
0.475906
50
267.7774729
51
269.9989968
0
ARC
8
DEFAULT_255_2_778
10
39.9950946
20
1.2679855
40
0.4735434
50
269.9804356
51
317.456649
0
ARC
8
DEFAULT_255_2_778
10
39.9154634
20
1.3428574
40
0.5828389
50
317.3268341
51
0.4367543
0
ARC
8
DEFAULT_255_2_778
10
48.1348657
20
3.0699805
40
2.9031206
50
359.9956588
51
0.0477538
0
ARC
8
DEFAULT_255_2_778
10
47.9831048
20
3.0697496
40
3.0548816
50
347.0413698
51
0.0002059
0
ARC
8
DEFAULT_255_2_778
10
12.0782009
20
5.7452214
40
6.0537858
50
359.9600482
51
19.2249616
0
ARC
8
DEFAULT_255_2_778
10
57.1627403
20
99.0559871
40
0.9780267
50
317.2149888
51
340.9645191
0
ARC
8
DEFAULT_255_2_778
10
57.2625036
20
98.9545059
40
0.8359056
50
270.5999271
51
317.6751729
0
ARC
8
DEFAULT_255_2_778
10
57.2712949
20
98.9044948
40
0.7858488
50
261.3330586
51
269.9971565
0
ARC
8
DEFAULT_255_2_778
10
57.2748308
20
98.9241247
40
0.8057875
50
248.992153
51
261.2948414
0
ARC
8
DEFAULT_255_2_778
10
57.2852082
20
98.9534249
40
0.8368609
50
246.7889465
51
249.0480455
0
ARC
8
DEFAULT_255_2_778
10
57.352863
20
99.0501578
40
0.9527318
50
187.0367914
51
245.3421925
0
ARC
8
DEFAULT_255_2_778
10
57.4582504
20
99.0862991
40
1.0620012
50
180.0003424
51
188.2755141
0
ARC
8
DEFAULT_255_2_778
10
57.4553405
20
99.0863406
40
1.0590913
50
172.8734326
51
180.0025891
0
ARC
8
DEFAULT_255_2_778
10
57.4498073
20
99.0870634
40
1.0535112
50
160.6863881
51
172.8751042
0
ARC
8
DEFAULT_255_2_778
10
52.3429469
20
106.007403
40
6.0533397
50
340.7743266
51
0.0378336
0
ARC
8
DEFAULT_255_2_778
10
57.8932212
20
111.3485695
40
0.4743009
50
90.0005224
51
92.2638939
0
ARC
8
DEFAULT_255_2_778
10
57.8931216
20
111.3489776
40
0.4738928
50
42.5763281
51
89.9884845
0
ARC
8
DEFAULT_255_2_778
10
57.8128371
20
111.2744076
40
0.5834648
50
359.5671929
51
42.6346025
0
ARC
8
DEFAULT_255_2_778
10
60.0048413
20
102.7135255
40
0.0228591
50
347.8136844
51
43.6362812
0
ARC
8
DEFAULT_255_2_778
10
51.9105831
20
106.0169236
40
8.2357038
50
340.7788181
51
0.0353177
0
ARC
8
DEFAULT_255_2_778
10
60.7297344
20
111.3599113
40
0.5834658
50
137.831426
51
180.4331679
0
ARC
8
DEFAULT_255_2_778
10
60.6503878
20
111.4324791
40
0.4759408
50
90.5418625
51
137.8938815
0
ARC
8
DEFAULT_255_2_778
10
60.645884
20
111.4561526
40
0.452246
50
88.3019222
51
89.9996521
0
ARC
8
DEFAULT_255_2_778
10
60.650628
20
111.4314672
40
0.4768116
50
88.9596406
51
90.0008105
0
ARC
8
DEFAULT_255_2_778
10
60.6505868
20
111.432213
40
0.4760658
50
89.9958569
51
137.91297
0
ARC
8
DEFAULT_255_2_778
10
60.7295495
20
111.3596817
40
0.5832815
50
137.8243627
51
180.4402292
0
ARC
8
DEFAULT_255_2_778
10
53.3386856
20
111.0583046
40
0.5832163
50
359.5673045
51
42.6441245
0
ARC
8
DEFAULT_255_2_778
10
53.4189113
20
111.1332107
40
0.4734602
50
42.553263
51
89.9974104
0
ARC
8
DEFAULT_255_2_778
10
53.4189368
20
111.132602
40
0.474069
50
90.0005006
51
92.2668927
0
ARC
8
DEFAULT_255_2_778
10
47.8745405
20
106.006391
40
6.0473471
50
340.7646813
51
0.0503021
0
ARC
8
DEFAULT_255_2_778
10
52.9760003
20
99.0877207
40
1.0538536
50
160.7307776
51
177.6861762
0
ARC
8
DEFAULT_255_2_778
10
52.9912246
20
99.0863358
40
1.0691218
50
177.644958
51
179.9999484
0
ARC
8
DEFAULT_255_2_778
10
52.9560049
20
99.0815222
40
1.0339133
50
179.7331946
51
215.624365
0
ARC
8
DEFAULT_255_2_778
10
52.8317458
20
98.9915147
40
0.8804826
50
215.5732247
51
248.9792466
0
ARC
8
DEFAULT_255_2_778
10
52.7974991
20
98.9158631
40
0.7975957
50
249.3262779
51
269.9476228
0
ARC
8
DEFAULT_255_2_778
10
52.7966923
20
98.9091426
40
0.7908748
50
270.0056256
51
278.5204237
0
ARC
8
DEFAULT_255_2_778
10
52.7957093
20
98.9165351
40
0.7983313
50
278.5115921
51
279.7776018
0
ARC
8
DEFAULT_255_2_778
10
52.7672429
20
98.9934545
40
0.8790954
50
280.754641
51
332.8589117
0
ARC
8
DEFAULT_255_2_778
10
52.6545474
20
99.071905
40
1.0153363
50
331.820417
51
340.7106722
0
ARC
8
DEFAULT_255_2_778
10
43.39841
20
106.0057967
40
6.0483133
50
340.7738368
51
357.5040506
0
ARC
8
DEFAULT_255_2_778
10
48.501682
20
99.0868764
40
1.0546815
50
160.6979068
51
172.9223203
0
ARC
8
DEFAULT_255_2_778
10
48.507693
20
99.0860863
40
1.060744
50
172.9199774
51
180.0026445
0
ARC
8
DEFAULT_255_2_778
10
48.4732795
20
99.0798518
40
1.026349
50
179.6546885
51
221.0541293
0
ARC
8
DEFAULT_255_2_778
10
48.3504738
20
98.9816181
40
0.8692502
50
221.4877364
51
246.6597627
0
ARC
8
DEFAULT_255_2_778
10
48.3280197
20
98.9332752
40
0.8159684
50
246.7625406
51
258.3605469
0
ARC
8
DEFAULT_255_2_778
10
48.3228591
20
98.9115705
40
0.7936691
50
258.409308
51
261.3710653
0
ARC
8
DEFAULT_255_2_778
10
48.3218578
20
98.9045837
40
0.7866111
50
261.3668204
51
269.9971028
0
ARC
8
DEFAULT_255_2_778
10
48.3124191
20
98.9565113
40
0.8385914
50
270.6421859
51
319.2530496
0
ARC
8
DEFAULT_255_2_778
10
48.2100423
20
99.0568358
40
0.9816787
50
318.717104
51
340.9547908
0
ARC
8
DEFAULT_255_2_778
10
38.9490878
20
105.9998614
40
6.0223926
50
340.7506572
51
355.4842555
0
ARC
8
DEFAULT_255_2_778
10
44.0270865
20
99.0871787
40
1.0546851
50
160.6981096
51
172.9365681
0
ARC
8
DEFAULT_255_2_778
10
44.0332147
20
99.0863744
40
1.0608656
50
172.9341544
51
180.0027271
0
ARC
8
DEFAULT_255_2_778
10
43.9988627
20
99.0801378
40
1.0265322
50
179.6547216
51
221.0503026
0
ARC
8
DEFAULT_255_2_778
10
43.8758476
20
98.9817381
40
0.8691661
50
221.4840751
51
246.659259
0
ARC
8
DEFAULT_255_2_778
10
43.8533147
20
98.9336212
40
0.8160611
50
246.7733591
51
258.3576951
0
ARC
8
DEFAULT_255_2_778
10
43.8481175
20
98.9117099
40
0.7935521
50
258.4059661
51
261.3650663
0
ARC
8
DEFAULT_255_2_778
10
43.8471487
20
98.9048688
40
0.786643
50
261.3600157
51
269.9973841
0
ARC
8
DEFAULT_255_2_778
10
43.8377023
20
98.9569187
40
0.8387458
50
270.6428567
51
319.2463701
0
ARC
8
DEFAULT_255_2_778
10
43.7352392
20
99.0573621
40
0.9819772
50
318.7095892
51
340.9406575
0
ARC
8
DEFAULT_255_2_778
10
34.4750714
20
105.9993449
40
6.0214869
50
340.7498304
51
353.4109943
0
ARC
8
DEFAULT_255_2_778
10
39.552182
20
99.0868764
40
1.0546815
50
160.6979068
51
172.9223203
0
ARC
8
DEFAULT_255_2_778
10
39.558193
20
99.0860863
40
1.060744
50
172.9199774
51
180.0026445
0
ARC
8
DEFAULT_255_2_778
10
39.5237795
20
99.0798518
40
1.026349
50
179.6546885
51
221.0541293
0
ARC
8
DEFAULT_255_2_778
10
39.4009738
20
98.9816181
40
0.8692502
50
221.4877364
51
246.6597627
0
ARC
8
DEFAULT_255_2_778
10
39.3785274
20
98.9332847
40
0.8159801
50
246.7623056
51
258.348442
0
ARC
8
DEFAULT_255_2_778
10
39.3733009
20
98.9112278
40
0.7933223
50
258.3964122
51
261.3564523
0
ARC
8
DEFAULT_255_2_778
10
39.3723431
20
98.9044708
40
0.7864981
50
261.3514593
51
269.9972839
0
ARC
8
DEFAULT_255_2_778
10
39.3629213
20
98.9563727
40
0.8384527
50
270.6413054
51
319.1843497
0
ARC
8
DEFAULT_255_2_778
10
39.2603411
20
99.0570609
40
0.9819423
50
318.6502535
51
340.9462042
0
ARC
8
DEFAULT_255_2_778
10
29.9756819
20
106.0066162
40
6.0469058
50
340.7639726
51
0.0510144
0
ARC
8
DEFAULT_255_2_778
10
35.076491
20
99.087318
40
1.0538882
50
160.6909564
51
172.9622891
0
ARC
8
DEFAULT_255_2_778
10
35.0827779
20
99.0864945
40
1.0602286
50
172.9597515
51
180.0028055
0
ARC
8
DEFAULT_255_2_778
10
35.048661
20
99.0802233
40
1.0261307
50
179.6527349
51
221.3029737
0
ARC
8
DEFAULT_255_2_778
10
34.9266199
20
98.9820438
40
0.8696739
50
221.7507568
51
246.632621
0
ARC
8
DEFAULT_255_2_778
10
34.9036681
20
98.9327993
40
0.8153664
50
246.7406719
51
258.3366282
0
ARC
8
DEFAULT_255_2_778
10
34.8984529
20
98.9108415
40
0.7928081
50
258.3849438
51
261.3470002
0
ARC
8
DEFAULT_255_2_778
10
34.8974714
20
98.9039687
40
0.7858657
50
261.3423538
51
269.9973874
0
ARC
8
DEFAULT_255_2_778
10
34.8879586
20
98.95648
40
0.8384307
50
270.6476394
51
319.1933511
0
ARC
8
DEFAULT_255_2_778
10
34.7851828
20
99.0574385
40
0.9822446
50
318.6536286
51
340.9413335
0
ARC
8
DEFAULT_255_2_778
10
38.3537845
20
110.3273261
40
0.581521
50
137.7305643
51
180.4951983
0
ARC
8
DEFAULT_255_2_778
10
38.277337
20
110.3984472
40
0.4771148
50
93.2383038
51
137.8757412
0
ARC
8
DEFAULT_255_2_778
10
35.5193368
20
110.268202
40
0.4740692
50
90.0005006
51
92.2668927
0
ARC
8
DEFAULT_255_2_778
10
35.5193113
20
110.2688107
40
0.4734603
50
42.553263
51
89.9974104
0
ARC
8
DEFAULT_255_2_778
10
35.4390856
20
110.1939046
40
0.5832163
50
359.5673045
51
42.6441245
0
ARC
8
DEFAULT_255_2_778
10
41.3851303
20
108.0613837
40
3.1508451
50
167.2493831
51
179.9942445
0
ARC
8
DEFAULT_255_2_778
10
30.3233199
20
99.0551252
40
0.9779279
50
317.3343807
51
340.9849521
0
ARC
8
DEFAULT_255_2_778
10
30.4230142
20
98.9541248
40
0.8361975
50
270.5963917
51
317.7936775
0
ARC
8
DEFAULT_255_2_778
10
30.4317578
20
98.9045837
40
0.7866112
50
261.3668204
51
269.9971028
0
ARC
8
DEFAULT_255_2_778
10
30.4352655
20
98.9241159
40
0.8064487
50
249.025139
51
261.3287369
0
ARC
8
DEFAULT_255_2_778
10
30.4457576
20
98.9537272
40
0.8378541
50
246.8218344
51
249.0800355
0
ARC
8
DEFAULT_255_2_778
10
30.5127638
20
99.0484614
40
0.9516255
50
187.5067455
51
245.3579404
0
ARC
8
DEFAULT_255_2_778
10
30.6203864
20
99.0859828
40
1.0634794
50
180.0003498
51
188.7535077
0
ARC
8
DEFAULT_255_2_778
10
30.6172982
20
99.0860277
40
1.0603912
50
172.9144145
51
180.002777
0
ARC
8
DEFAULT_255_2_778
10
30.6112705
20
99.0868206
40
1.0543118
50
160.6876566
51
172.9167736
0
ARC
8
DEFAULT_255_2_778
10
25.5032027
20
106.0074788
40
6.0537841
50
340.7750342
51
0.0399532
0
ARC
8
DEFAULT_255_2_778
10
30.9731484
20
109.9776512
40
0.5838509
50
359.6024533
51
42.6339207
0
ARC
8
DEFAULT_255_2_778
10
31.0539113
20
110.0529107
40
0.4734602
50
42.553263
51
89.9974104
0
ARC
8
DEFAULT_255_2_778
10
31.0539368
20
110.052302
40
0.474069
50
90.0005006
51
92.2668927
0
ARC
8
DEFAULT_255_2_778
10
26.5790079
20
109.837139
40
0.4736314
50
90.0004794
51
92.2654912
0
ARC
8
DEFAULT_255_2_778
10
26.5788423
20
109.8369252
40
0.4738453
50
42.5737887
51
89.9804576
0
ARC
8
DEFAULT_255_2_778
10
26.4985495
20
109.7621663
40
0.5835514
50
359.581125
51
42.6456281
0
ARC
8
DEFAULT_255_2_778
10
21.0373768
20
106.0067443
40
6.044711
50
340.7604463
51
0.0517141
0
ARC
8
DEFAULT_255_2_778
10
26.1353227
20
99.0870849
40
1.0535185
50
160.6877723
51
172.989246
0
ARC
8
DEFAULT_255_2_778
10
26.1417834
20
99.0862393
40
1.0600341
50
172.9864996
51
180.0029443
0
ARC
8
DEFAULT_255_2_778
10
26.1078329
20
99.0799682
40
1.0261026
50
179.6528723
51
221.3035617
0
ARC
8
DEFAULT_255_2_778
10
25.9855304
20
98.9815604
40
0.8692989
50
221.7517178
51
246.6427263
0
ARC
8
DEFAULT_255_2_778
10
25.9631467
20
98.932938
40
0.8157876
50
246.7320899
51
258.1002274
0
ARC
8
DEFAULT_255_2_778
10
25.9578428
20
98.9109399
40
0.793169
50
258.1474648
51
261.3370932
0
ARC
8
DEFAULT_255_2_778
10
25.9567949
20
98.9036948
40
0.7858488
50
261.3330586
51
269.9971565
0
ARC
8
DEFAULT_255_2_778
10
25.9472794
20
98.9561965
40
0.838404
50
270.647631
51
319.1857507
0
ARC
8
DEFAULT_255_2_778
10
25.84476
20
99.0569525
40
0.9818925
50
318.6461102
51
340.9333752
0
ARC
8
DEFAULT_255_2_778
10
29.4129845
20
109.8952261
40
0.581521
50
137.7305643
51
180.4951983
0
ARC
8
DEFAULT_255_2_778
10
29.336537
20
109.9663472
40
0.4771148
50
93.2383038
51
137.8757412
0
ARC
8
DEFAULT_255_2_778
10
22.1039368
20
109.620502
40
0.4740692
50
90.0005006
51
92.2668927
0
ARC
8
DEFAULT_255_2_778
10
22.1039113
20
109.6211107
40
0.4734603
50
42.553263
51
89.9974104
0
ARC
8
DEFAULT_255_2_778
10
22.0236856
20
109.5462046
40
0.5832163
50
359.5673045
51
42.6441245
0
ARC
8
DEFAULT_255_2_778
10
16.5590971
20
106.0069654
40
6.0477904
50
340.7653995
51
0.0495932
0
ARC
8
DEFAULT_255_2_778
10
21.6616454
20
99.0874997
40
1.0545355
50
160.7310095
51
177.6756554
0
ARC
8
DEFAULT_255_2_778
10
21.6767266
20
99.0861112
40
1.0696609
50
177.6341053
51
179.9999298
0
ARC
8
DEFAULT_255_2_778
10
21.6412921
20
99.0812595
40
1.0342377
50
179.7311428
51
215.5935825
0
ARC
8
DEFAULT_255_2_778
10
21.5152049
20
98.9899002
40
0.8785343
50
215.534658
51
249.3101237
0
ARC
8
DEFAULT_255_2_778
10
21.4821542
20
98.9160787
40
0.7978113
50
249.6575276
51
269.9496943
0
ARC
8
DEFAULT_255_2_778
10
21.4813873
20
98.9091925
40
0.7909246
50
270.0048124
51
278.3573626
0
ARC
8
DEFAULT_255_2_778
10
21.4805071
20
98.915939
40
0.7977273
50
278.3494839
51
279.7779514
0
ARC
8
DEFAULT_255_2_778
10
21.4519429
20
98.9934545
40
0.8790954
50
280.754641
51
332.8589117
0
ARC
8
DEFAULT_255_2_778
10
21.3392474
20
99.071905
40
1.0153363
50
331.820417
51
340.7106722
0
ARC
8
DEFAULT_255_2_778
10
24.937417
20
109.6791704
40
0.5811539
50
137.4101536
51
180.4998809
0
ARC
8
DEFAULT_255_2_778
10
24.8610532
20
109.7507608
40
0.4764862
50
93.2084029
51
137.5336693
0
ARC
8
DEFAULT_255_2_778
10
17.1867454
20
99.0874997
40
1.0545355
50
160.7310095
51
177.6756554
0
ARC
8
DEFAULT_255_2_778
10
17.2018266
20
99.0861112
40
1.0696609
50
177.6341053
51
179.9999298
0
ARC
8
DEFAULT_255_2_778
10
17.1663921
20
99.0812595
40
1.0342377
50
179.7311428
51
215.5935825
0
ARC
8
DEFAULT_255_2_778
10
17.0403049
20
98.9899002
40
0.8785343
50
215.534658
51
249.3101237
0
ARC
8
DEFAULT_255_2_778
10
17.0072542
20
98.9160787
40
0.7978113
50
249.6575276
51
269.9496943
0
ARC
8
DEFAULT_255_2_778
10
17.0064873
20
98.9091925
40
0.7909246
50
270.0048124
51
278.3573626
0
ARC
8
DEFAULT_255_2_778
10
17.0056071
20
98.915939
40
0.7977273
50
278.3494839
51
279.7779514
0
ARC
8
DEFAULT_255_2_778
10
16.9770429
20
98.9934545
40
0.8790954
50
280.754641
51
332.8589117
0
ARC
8
DEFAULT_255_2_778
10
16.8643474
20
99.071905
40
1.0153363
50
331.820417
51
340.7106722
0
ARC
8
DEFAULT_255_2_778
10
11.7133783
20
106.0049265
40
8.16801
50
340.7729584
51
359.9976207
0
ARC
8
DEFAULT_255_2_778
10
11.976343
20
106.0045873
40
7.9050454
50
1e-7
51
0.0515541
0
ARC
8
DEFAULT_255_2_778
10
20.4631845
20
109.4629261
40
0.581521
50
137.7305643
51
180.4951983
0
ARC
8
DEFAULT_255_2_778
10
20.386737
20
109.5340472
40
0.4771148
50
93.2383038
51
137.8757412
0
ARC
8
DEFAULT_255_2_778
10
17.5484856
20
109.3295046
40
0.5832163
50
359.5673045
51
42.6441245
0
ARC
8
DEFAULT_255_2_778
10
17.6287113
20
109.4044107
40
0.4734602
50
42.553263
51
89.9974104
0
ARC
8
DEFAULT_255_2_778
10
17.6287368
20
109.403802
40
0.474069
50
90.0005006
51
92.2668927
0
ARC
8
DEFAULT_255_2_778
10
15.9883604
20
109.2471249
40
0.5815978
50
137.7505863
51
180.5048705
0
ARC
8
DEFAULT_255_2_778
10
15.9116756
20
109.3182187
40
0.4770343
50
93.2194308
51
137.8785699
0
ARC
8
DEFAULT_255_2_778
10
13.0738856
20
109.1136046
40
0.5832163
50
359.5673045
51
42.6441245
0
ARC
8
DEFAULT_255_2_778
10
13.1541113
20
109.1885107
40
0.4734602
50
42.553263
51
89.9974104
0
ARC
8
DEFAULT_255_2_778
10
13.1541368
20
109.187902
40
0.474069
50
90.0005006
51
92.2668927
0
ARC
8
DEFAULT_255_2_778
10
7.6097331
20
106.0063922
40
6.0473545
50
340.7646931
51
0.0502901
0
ARC
8
DEFAULT_255_2_778
10
12.7106227
20
99.0870849
40
1.0535185
50
160.6877723
51
172.989246
0
ARC
8
DEFAULT_255_2_778
10
12.7170834
20
99.0862393
40
1.0600341
50
172.9864996
51
180.0029443
0
ARC
8
DEFAULT_255_2_778
10
12.6831329
20
99.0799682
40
1.0261026
50
179.6528723
51
221.3035617
0
ARC
8
DEFAULT_255_2_778
10
12.5608304
20
98.9815604
40
0.8692989
50
221.7517178
51
246.6427263
0
ARC
8
DEFAULT_255_2_778
10
12.5384155
20
98.9328613
40
0.8157049
50
246.7319753
51
258.1127432
0
ARC
8
DEFAULT_255_2_778
10
12.5330521
20
98.9104973
40
0.7927161
50
258.1591266
51
261.3538184
0
ARC
8
DEFAULT_255_2_778
10
12.5320792
20
98.9036466
40
0.785797
50
261.3488531
51
269.997191
0
ARC
8
DEFAULT_255_2_778
10
12.522576
20
98.9560719
40
0.8382757
50
270.6469213
51
319.2000296
0
ARC
8
DEFAULT_255_2_778
10
12.4198779
20
99.0569163
40
0.9819549
50
318.6612482
51
340.9553845
0
ARC
8
DEFAULT_255_2_778
10
12.0846436
20
106.0063902
40
6.047344
50
340.7646787
51
0.0503097
0
ARC
8
DEFAULT_255_2_778
10
48.8627363
20
110.8418926
40
0.5837641
50
359.5885137
51
42.6229015
0
ARC
8
DEFAULT_255_2_778
10
48.9431558
20
110.9164713
40
0.4740869
50
42.5722273
51
90.0028287
0
ARC
8
DEFAULT_255_2_778
10
48.9431411
20
110.9146561
40
0.4759021
50
90.0010475
51
92.2225231
0
ARC
8
DEFAULT_255_2_778
10
47.2413561
20
110.7959807
40
0.5123169
50
94.665476
51
166.6899137
0
ARC
8
DEFAULT_255_2_778
10
47.3289697
20
110.7547967
40
0.6073847
50
164.8116837
51
180.0657042
0
ARC
8
DEFAULT_255_2_778
10
51.7809081
20
110.9742283
40
0.5844471
50
138.4883781
51
180.5223506
0
ARC
8
DEFAULT_255_2_778
10
51.7013805
20
111.0463698
40
0.4770836
50
93.2196967
51
138.6459931
0
ARC
8
DEFAULT_255_2_778
10
33.8267004
20
110.1480632
40
0.5125373
50
94.6684377
51
167.0345585
0
ARC
8
DEFAULT_255_2_778
10
33.9149901
20
110.1070775
40
0.608105
50
165.1373833
51
180.0638198
0
ARC
8
DEFAULT_255_2_778
10
39.9142856
20
110.4098046
40
0.5832163
50
359.5673045
51
42.6441245
0
ARC
8
DEFAULT_255_2_778
10
39.9944157
20
110.4844931
40
0.4736779
50
42.5648361
51
89.9964533
0
ARC
8
DEFAULT_255_2_778
10
39.9944496
20
110.4834572
40
0.4747138
50
90.0005522
51
92.2653537
0
ARC
8
DEFAULT_255_2_778
10
42.8286845
20
110.5432261
40
0.581521
50
137.7305643
51
180.4951983
0
ARC
8
DEFAULT_255_2_778
10
42.752237
20
110.6143472
40
0.4771148
50
93.2383038
51
137.8757412
0
ARC
8
DEFAULT_255_2_778
10
44.4693212
20
110.7000695
40
0.4743009
50
90.0005224
51
92.2638939
0
ARC
8
DEFAULT_255_2_778
10
44.4692216
20
110.7004776
40
0.4738928
50
42.5763281
51
89.9884845
0
ARC
8
DEFAULT_255_2_778
10
44.3889371
20
110.6259076
40
0.5834648
50
359.5671929
51
42.6346025
0
ARC
8
DEFAULT_255_2_778
10
56.1915586
20
111.2285754
40
0.5122147
50
94.6554627
51
166.6866738
0
ARC
8
DEFAULT_255_2_778
10
56.2790521
20
111.1873933
40
0.6071671
50
164.805847
51
180.0654116
0
ARC
8
DEFAULT_255_2_778
10
47.9926664
20
108.6839475
40
3.0434213
50
359.9999467
51
12.9832273
0
ARC
8
DEFAULT_255_2_778
10
48.2577807
20
108.6838038
40
2.7783071
50
359.9215603
51
0.002905
0
LINE
8
DEFAULT_255_2_778
10
75.0557853
20
71.7484002
11
75.0557853
21
79.6365002
0
LINE
8
DEFAULT_255_2_778
10
74.6154853
20
80.1236002
11
65.6783853
21
80.1236002
0
LINE
8
DEFAULT_255_2_778
10
65.2381853
20
79.6365002
11
65.2381853
21
32.1165002
0
LINE
8
DEFAULT_255_2_778
10
65.6783853
20
31.6294002
11
74.6154853
21
31.6294002
0
LINE
8
DEFAULT_255_2_778
10
75.0557853
20
32.1165002
11
75.0557853
21
40.0045002
0
LINE
8
DEFAULT_255_2_778
10
74.6154853
20
40.4916002
11
71.5870853
21
40.4916002
0
LINE
8
DEFAULT_255_2_778
10
70.5276853
20
41.6637002
11
70.5276853
21
50.1804002
0
LINE
8
DEFAULT_255_2_778
10
71.5870853
20
51.3522002
11
74.6154853
21
51.3522002
0
LINE
8
DEFAULT_255_2_778
10
75.0557853
20
51.8393002
11
75.0557853
21
59.9136002
0
LINE
8
DEFAULT_255_2_778
10
74.6154853
20
60.4007002
11
71.5870853
21
60.4007002
0
LINE
8
DEFAULT_255_2_778
10
70.5276853
20
61.5726002
11
70.5276853
21
70.0892002
0
LINE
8
DEFAULT_255_2_778
10
71.5870853
20
71.2613002
11
74.6154853
21
71.2613002
0
LINE
8
DEFAULT_255_2_778
10
71.1700853
20
70.0892002
11
71.1700853
21
61.5726002
0
LINE
8
DEFAULT_255_2_778
10
71.5873853
20
61.1111002
11
74.6157853
21
61.1111002
0
LINE
8
DEFAULT_255_2_778
10
75.6984853
20
59.9133002
11
75.6984853
21
51.8391002
0
LINE
8
DEFAULT_255_2_778
10
74.6154853
20
50.6413002
11
71.5870853
21
50.6413002
0
LINE
8
DEFAULT_255_2_778
10
71.1700853
20
50.1799002
11
71.1700853
21
41.6632002
0
LINE
8
DEFAULT_255_2_778
10
71.5873853
20
41.2018002
11
74.6157853
21
41.2018002
0
LINE
8
DEFAULT_255_2_778
10
75.6984853
20
40.0040002
11
75.6984853
21
32.1160002
0
LINE
8
DEFAULT_255_2_778
10
74.6157853
20
30.9182002
11
65.6786853
21
30.9182002
0
LINE
8
DEFAULT_255_2_778
10
64.5959853
20
32.1160002
11
64.5959853
21
79.6365002
0
LINE
8
DEFAULT_255_2_778
10
65.6789853
20
80.8342002
11
74.6160853
21
80.8342002
0
LINE
8
DEFAULT_255_2_778
10
75.6986853
20
79.6365002
11
75.6986853
21
71.7484002
0
LINE
8
DEFAULT_255_2_778
10
74.6157853
20
70.5507002
11
71.5870853
21
70.5507002
0
LINE
8
DEFAULT_255_2_778
10
72.1868853
20
68.8483002
11
72.1881853
21
68.8184002
0
LINE
8
DEFAULT_255_2_778
10
72.1868853
20
62.8135002
11
72.1868853
21
68.8486002
0
LINE
8
DEFAULT_255_2_778
10
58.3951853
20
0.4832002
11
58.3951853
21
2.7417002
0
LINE
8
DEFAULT_255_2_778
10
60.6229853
20
-0.1547998
11
57.8734853
21
-0.0692998
0
LINE
8
DEFAULT_255_2_778
10
58.3951853
20
2.1186002
11
60.1456853
21
2.0339002
0
LINE
8
DEFAULT_255_2_778
10
58.3962853
20
2.7417002
11
58.3962853
21
5.7412002
0
LINE
8
DEFAULT_255_2_778
10
58.0586853
20
7.7386002
11
56.4555853
21
12.3175002
0
LINE
8
DEFAULT_255_2_778
10
58.0872853
20
13.0165002
11
59.6868853
21
8.4474002
0
LINE
8
DEFAULT_255_2_778
10
60.1459853
20
5.7309002
11
60.1459853
21
0.3977002
0
LINE
8
DEFAULT_255_2_778
10
60.1459853
20
0.3977002
11
60.1290853
21
0.3969002
0
LINE
8
DEFAULT_255_2_778
10
60.1290853
20
0.3969002
11
59.7556853
21
0.3800002
0
LINE
8
DEFAULT_255_2_778
10
56.1488853
20
0.0138002
11
57.8742853
21
-0.0694998
0
LINE
8
DEFAULT_255_2_778
10
58.3959853
20
0.4829002
11
60.1448853
21
0.3501002
0
LINE
8
DEFAULT_255_2_778
10
56.1480853
20
0.0138002
11
53.3985853
21
0.1466002
0
LINE
8
DEFAULT_255_2_778
10
53.9202853
20
2.3345002
11
55.6707853
21
2.2498002
0
LINE
8
DEFAULT_255_2_778
10
53.9202853
20
2.9575002
11
53.9202853
21
0.6988002
0
LINE
8
DEFAULT_255_2_778
10
53.9202853
20
0.6988002
11
55.6699853
21
0.5660002
0
LINE
8
DEFAULT_255_2_778
10
55.6699853
20
0.5660002
11
55.6699853
21
2.8247002
0
LINE
8
DEFAULT_255_2_778
10
53.9210853
20
2.9573002
11
53.9210853
21
5.7407002
0
LINE
8
DEFAULT_255_2_778
10
53.5834853
20
7.7383002
11
51.9803853
21
12.3169002
0
LINE
8
DEFAULT_255_2_778
10
53.6120853
20
13.0162002
11
55.2151853
21
8.4373002
0
LINE
8
DEFAULT_255_2_778
10
55.2151853
20
8.4373002
11
55.6707853
21
5.7407002
0
LINE
8
DEFAULT_255_2_778
10
55.6707853
20
5.7407002
11
55.6707853
21
2.8245002
0
LINE
8
DEFAULT_255_2_778
10
53.3993853
20
0.1463002
11
51.6739853
21
0.2294002
0
LINE
8
DEFAULT_255_2_778
10
51.6739853
20
0.2294002
11
53.3993853
21
0.1461002
0
LINE
8
DEFAULT_255_2_778
10
49.1088853
20
7.7386002
11
47.5057853
21
12.3172002
0
LINE
8
DEFAULT_255_2_778
10
49.1374853
20
13.0162002
11
50.7405853
21
8.4376002
0
LINE
8
DEFAULT_255_2_778
10
50.7405853
20
8.4376002
11
51.1646853
21
5.9270002
0
LINE
8
DEFAULT_255_2_778
10
51.1646853
20
5.9270002
11
49.4403853
21
6.0103002
0
LINE
8
DEFAULT_255_2_778
10
44.9715853
20
5.7410002
11
44.9715853
21
5.7410002
0
LINE
8
DEFAULT_255_2_778
10
44.6342853
20
7.7383002
11
43.0311853
21
12.3169002
0
LINE
8
DEFAULT_255_2_778
10
44.6627853
20
13.0160002
11
46.2659853
21
8.4373002
0
LINE
8
DEFAULT_255_2_778
10
46.2659853
20
8.4373002
11
46.6532853
21
6.1447002
0
LINE
8
DEFAULT_255_2_778
10
46.6532853
20
6.1447002
11
44.9522853
21
6.2270002
0
LINE
8
DEFAULT_255_2_778
10
42.1413853
20
6.3628002
11
41.7907853
21
8.4376002
0
LINE
8
DEFAULT_255_2_778
10
41.7907853
20
8.4376002
11
40.1876853
21
13.0162002
0
LINE
8
DEFAULT_255_2_778
10
38.5559853
20
12.3172002
11
40.1590853
21
7.7386002
0
LINE
8
DEFAULT_255_2_778
10
40.4559853
20
6.4442002
11
42.1413853
21
6.3628002
0
LINE
8
DEFAULT_255_2_778
10
36.0209853
20
3.1983002
11
37.7714853
21
3.1137002
0
LINE
8
DEFAULT_255_2_778
10
33.3055853
20
3.9042002
11
36.0307853
21
3.8209002
0
LINE
8
DEFAULT_255_2_778
10
38.2498853
20
0.8776002
11
35.4992853
21
1.0105002
0
LINE
8
DEFAULT_255_2_778
10
37.7717853
20
3.6886002
11
37.7717853
21
5.7405002
0
LINE
8
DEFAULT_255_2_778
10
37.7717853
20
5.7405002
11
37.3161853
21
8.4371002
0
LINE
8
DEFAULT_255_2_778
10
37.3161853
20
8.4371002
11
35.7129853
21
13.0157002
0
LINE
8
DEFAULT_255_2_778
10
34.0815853
20
12.3164002
11
35.6846853
21
7.7378002
0
LINE
8
DEFAULT_255_2_778
10
36.0222853
20
5.7405002
11
36.0212853
21
3.8217002
0
LINE
8
DEFAULT_255_2_778
10
36.0212853
20
3.8217002
11
36.0212853
21
1.5632002
0
LINE
8
DEFAULT_255_2_778
10
33.7847853
20
1.0933002
11
35.5002853
21
1.0105002
0
LINE
8
DEFAULT_255_2_778
10
36.0220853
20
1.5629002
11
37.7709853
21
1.4301002
0
LINE
8
DEFAULT_255_2_778
10
37.7709853
20
1.4301002
11
37.7709853
21
3.6888002
0
LINE
8
DEFAULT_255_2_778
10
33.3066853
20
1.6460002
11
33.3066853
21
3.9045002
0
LINE
8
DEFAULT_255_2_778
10
33.3066853
20
3.9045002
11
33.3066853
21
5.7405002
0
LINE
8
DEFAULT_255_2_778
10
33.3066853
20
5.7405002
11
32.8509853
21
8.4371002
0
LINE
8
DEFAULT_255_2_778
10
32.8509853
20
8.4371002
11
31.2478853
21
13.0157002
0
LINE
8
DEFAULT_255_2_778
10
29.6164853
20
12.3167002
11
31.2195853
21
7.7378002
0
LINE
8
DEFAULT_255_2_778
10
31.5571853
20
5.7402002
11
31.5571853
21
4.0371002
0
LINE
8
DEFAULT_255_2_778
10
31.5571853
20
4.0371002
11
31.5571853
21
1.7786002
0
LINE
8
DEFAULT_255_2_778
10
31.0354853
20
1.2261002
11
29.3100853
21
1.3095002
0
LINE
8
DEFAULT_255_2_778
10
33.7839853
20
1.0933002
11
31.0343853
21
1.2261002
0
LINE
8
DEFAULT_255_2_778
10
31.5561853
20
3.4140002
11
33.3066853
21
3.3293002
0
LINE
8
DEFAULT_255_2_778
10
31.5561853
20
1.7783002
11
33.3058853
21
1.6455002
0
LINE
8
DEFAULT_255_2_778
10
28.8311853
20
4.1204002
11
31.5563853
21
4.0371002
0
LINE
8
DEFAULT_255_2_778
10
27.0825853
20
1.9947002
11
27.0825853
21
4.2532002
0
LINE
8
DEFAULT_255_2_778
10
27.0817853
20
3.6299002
11
28.8322853
21
3.5452002
0
LINE
8
DEFAULT_255_2_778
10
24.3568853
20
4.3363002
11
27.0820853
21
4.2530002
0
LINE
8
DEFAULT_255_2_778
10
27.0820853
20
4.2530002
11
27.0828853
21
5.7402002
0
LINE
8
DEFAULT_255_2_778
10
26.7452853
20
7.7378002
11
25.1420853
21
12.3164002
0
LINE
8
DEFAULT_255_2_778
10
26.7735853
20
13.0157002
11
28.3766853
21
8.4371002
0
LINE
8
DEFAULT_255_2_778
10
28.3766853
20
8.4371002
11
28.8322853
21
5.7405002
0
LINE
8
DEFAULT_255_2_778
10
28.8322853
20
5.7405002
11
28.8322853
21
4.1207002
0
LINE
8
DEFAULT_255_2_778
10
28.8322853
20
4.1207002
11
28.8322853
21
1.8619002
0
LINE
8
DEFAULT_255_2_778
10
29.3103853
20
1.3095002
11
26.5597853
21
1.4423002
0
LINE
8
DEFAULT_255_2_778
10
24.8354853
20
1.5256002
11
26.5607853
21
1.4423002
0
LINE
8
DEFAULT_255_2_778
10
27.0825853
20
1.9947002
11
28.8314853
21
1.8619002
0
LINE
8
DEFAULT_255_2_778
10
24.3573853
20
2.0784002
11
24.3573853
21
4.3368002
0
LINE
8
DEFAULT_255_2_778
10
24.3573853
20
4.3368002
11
24.3573853
21
5.7405002
0
LINE
8
DEFAULT_255_2_778
10
24.3573853
20
5.7405002
11
23.9017853
21
8.4371002
0
LINE
8
DEFAULT_255_2_778
10
23.9017853
20
8.4371002
11
22.2986853
21
13.0157002
0
LINE
8
DEFAULT_255_2_778
10
20.6671853
20
12.3164002
11
22.2703853
21
7.7378002
0
LINE
8
DEFAULT_255_2_778
10
22.6079853
20
5.7402002
11
22.6068853
21
4.4691002
0
LINE
8
DEFAULT_255_2_778
10
22.6068853
20
4.4691002
11
19.8816853
21
4.5525002
0
LINE
8
DEFAULT_255_2_778
10
22.6068853
20
2.2106002
11
24.3565853
21
2.0778002
0
LINE
8
DEFAULT_255_2_778
10
24.8354853
20
1.5253002
11
22.0848853
21
1.6582002
0
LINE
8
DEFAULT_255_2_778
10
22.6065853
20
3.8460002
11
24.3570853
21
3.7614002
0
LINE
8
DEFAULT_255_2_778
10
20.3605853
20
1.7413002
11
22.0858853
21
1.6579002
0
LINE
8
DEFAULT_255_2_778
10
22.6076853
20
2.2104002
11
22.6076853
21
4.4691002
0
LINE
8
DEFAULT_255_2_778
10
19.8816853
20
2.2940002
11
19.8816853
21
4.5525002
0
LINE
8
DEFAULT_255_2_778
10
19.8816853
20
4.5525002
11
19.8824853
21
5.7402002
0
LINE
8
DEFAULT_255_2_778
10
19.4268853
20
8.4368002
11
17.8237853
21
13.0154002
0
LINE
8
DEFAULT_255_2_778
10
16.1923853
20
12.3161002
11
17.7954853
21
7.7375002
0
LINE
8
DEFAULT_255_2_778
10
18.1319853
20
4.0619002
11
19.8824853
21
3.9773002
0
LINE
8
DEFAULT_255_2_778
10
17.6102853
20
1.8738002
11
20.3608853
21
1.7410002
0
LINE
8
DEFAULT_255_2_778
10
19.8816853
20
2.2935002
11
18.1319853
21
2.4263002
0
LINE
8
DEFAULT_255_2_778
10
18.1319853
20
2.4263002
11
18.1319853
21
4.6850002
0
LINE
8
DEFAULT_255_2_778
10
15.4078853
20
2.5099002
11
15.4078853
21
4.7684002
0
LINE
8
DEFAULT_255_2_778
10
13.6581853
20
2.6427002
11
13.6581853
21
4.9025002
0
LINE
8
DEFAULT_255_2_778
10
11.7176853
20
12.3172002
11
13.3207853
21
7.7386002
0
LINE
8
DEFAULT_255_2_778
10
13.6583853
20
5.7410002
11
13.6583853
21
4.9023002
0
LINE
8
DEFAULT_255_2_778
10
13.6583853
20
4.9023002
11
13.1583853
21
4.9023002
0
LINE
8
DEFAULT_255_2_778
10
13.6583853
20
4.2792002
11
15.4088853
21
4.1945002
0
LINE
8
DEFAULT_255_2_778
10
13.6583853
20
2.6435002
11
15.4080853
21
2.5107002
0
LINE
8
DEFAULT_255_2_778
10
38.3149853
20
2.9965002
11
50.9572853
21
2.3858002
0
LINE
8
DEFAULT_255_2_778
10
47.1996853
20
0.4461002
11
44.4500853
21
0.5790002
0
LINE
8
DEFAULT_255_2_778
10
42.7247853
20
0.6623002
11
39.9751853
21
0.7951002
0
LINE
8
DEFAULT_255_2_778
10
40.4969853
20
1.3475002
11
42.2466853
21
1.2148002
0
LINE
8
DEFAULT_255_2_778
10
42.2466853
20
1.2148002
11
42.2466853
21
2.0172002
0
LINE
8
DEFAULT_255_2_778
10
42.2466853
20
2.0172002
11
40.4969853
21
2.1016002
0
LINE
8
DEFAULT_255_2_778
10
40.4969853
20
2.1016002
11
40.4969853
21
1.3475002
0
LINE
8
DEFAULT_255_2_778
10
51.1972853
20
0.7824002
11
51.1972853
21
1.5846002
0
LINE
8
DEFAULT_255_2_778
10
51.1972853
20
1.5846002
11
49.4475853
21
1.6690002
0
LINE
8
DEFAULT_255_2_778
10
49.4475853
20
1.6690002
11
49.4475853
21
0.9150002
0
LINE
8
DEFAULT_255_2_778
10
42.7255853
20
0.6620002
11
44.4508853
21
0.5787002
0
LINE
8
DEFAULT_255_2_778
10
44.9726853
20
1.1311002
11
46.7215853
21
0.9983002
0
LINE
8
DEFAULT_255_2_778
10
46.7215853
20
0.9983002
11
46.7215853
21
1.8008002
0
LINE
8
DEFAULT_255_2_778
10
46.7215853
20
1.8008002
11
44.9718853
21
1.8852002
0
LINE
8
DEFAULT_255_2_778
10
44.9718853
20
1.8852002
11
44.9718853
21
1.1311002
0
LINE
8
DEFAULT_255_2_778
10
47.2006853
20
0.4459002
11
48.9733853
21
0.3601002
0
LINE
8
DEFAULT_255_2_778
10
48.9733853
20
0.3601002
11
51.7229853
21
0.2273002
0
LINE
8
DEFAULT_255_2_778
10
49.4477853
20
0.9150002
11
51.1974853
21
0.7835002
0
LINE
8
DEFAULT_255_2_778
10
38.2511853
20
0.8782002
11
39.9764853
21
0.7948002
0
LINE
8
DEFAULT_255_2_778
10
49.2038853
20
2.5551002
11
49.2038853
21
2.5633002
0
LINE
8
DEFAULT_255_2_778
10
49.2038853
20
5.3348002
11
49.2038853
21
2.4702002
0
LINE
8
DEFAULT_255_2_778
10
40.1103853
20
2.9094002
11
40.1103853
21
5.7738002
0
LINE
8
DEFAULT_255_2_778
10
37.7735853
20
3.7129002
11
38.2379853
21
3.6905002
0
LINE
8
DEFAULT_255_2_778
10
38.2379853
20
3.6905002
11
38.2379853
21
5.8643002
0
LINE
8
DEFAULT_255_2_778
10
38.2379853
20
5.8643002
11
51.0358853
21
5.2462002
0
LINE
8
DEFAULT_255_2_778
10
51.0358853
20
5.2462002
11
51.0358853
21
3.0724002
0
LINE
8
DEFAULT_255_2_778
10
55.6721853
20
2.8242002
11
58.3973853
21
2.7408002
0
LINE
8
DEFAULT_255_2_778
10
51.0358853
20
3.0443002
11
53.9234853
21
2.9560002
0
LINE
8
DEFAULT_255_2_778
10
13.1353853
20
2.0913002
11
17.6102853
21
1.8751002
0
LINE
8
DEFAULT_255_2_778
10
18.1319853
20
5.7410002
11
18.1319853
21
4.6861002
0
LINE
8
DEFAULT_255_2_778
10
18.1319853
20
4.6861002
11
15.4067853
21
4.7694002
0
LINE
8
DEFAULT_255_2_778
10
15.4067853
20
4.7694002
11
15.4067853
21
5.7410002
0
LINE
8
DEFAULT_255_2_778
10
15.4067853
20
5.7410002
11
14.9511853
21
8.4376002
0
LINE
8
DEFAULT_255_2_778
10
14.9511853
20
8.4376002
11
13.3480853
21
13.0162002
0
LINE
8
DEFAULT_255_2_778
10
13.1570853
20
4.9023002
11
10.9072853
21
5.0110002
0
LINE
8
DEFAULT_255_2_778
10
10.9072853
20
5.0110002
11
10.9072853
21
2.1990002
0
LINE
8
DEFAULT_255_2_778
10
58.3951853
20
111.2700002
11
58.3951853
21
109.0116002
0
LINE
8
DEFAULT_255_2_778
10
60.6229853
20
111.9080002
11
57.8734853
21
111.8228002
0
LINE
8
DEFAULT_255_2_778
10
58.3951853
20
109.6349002
11
60.1456853
21
109.7196002
0
LINE
8
DEFAULT_255_2_778
10
59.6868853
20
103.3061002
11
58.0872853
21
98.7370002
0
LINE
8
DEFAULT_255_2_778
10
56.4555853
20
99.4355002
11
58.0586853
21
104.0141002
0
LINE
8
DEFAULT_255_2_778
10
58.3962853
20
106.0114002
11
58.3962853
21
109.0113002
0
LINE
8
DEFAULT_255_2_778
10
58.3962853
20
111.2700002
11
60.1451853
21
111.4029002
0
LINE
8
DEFAULT_255_2_778
10
60.0213853
20
102.7293002
11
60.0213853
21
102.7293002
0
LINE
8
DEFAULT_255_2_778
10
60.0213853
20
102.7293002
11
59.5543853
21
102.9267002
0
LINE
8
DEFAULT_255_2_778
10
59.5543853
20
102.9267002
11
59.5543853
21
102.9267002
0
LINE
8
DEFAULT_255_2_778
10
59.5543853
20
102.9267002
11
59.6871853
21
103.3056002
0
LINE
8
DEFAULT_255_2_778
10
60.1462853
20
106.0220002
11
60.1462853
21
111.3555002
0
LINE
8
DEFAULT_255_2_778
10
53.9208853
20
109.4185002
11
55.6713853
21
109.5032002
0
LINE
8
DEFAULT_255_2_778
10
55.6705853
20
108.9282002
11
55.6705853
21
111.1867002
0
LINE
8
DEFAULT_255_2_778
10
55.6705853
20
111.1867002
11
53.9208853
21
111.0539002
0
LINE
8
DEFAULT_255_2_778
10
53.9208853
20
111.0539002
11
53.9208853
21
108.7954002
0
LINE
8
DEFAULT_255_2_778
10
53.4001853
20
111.6063002
11
51.6747853
21
111.5230002
0
LINE
8
DEFAULT_255_2_778
10
53.9218853
20
108.7954002
11
53.9218853
21
106.0117002
0
LINE
8
DEFAULT_255_2_778
10
53.5842853
20
104.0141002
11
51.9811853
21
99.4355002
0
LINE
8
DEFAULT_255_2_778
10
53.6128853
20
98.7365002
11
55.2159853
21
103.3151002
0
LINE
8
DEFAULT_255_2_778
10
55.2159853
20
103.3151002
11
55.6715853
21
106.0117002
0
LINE
8
DEFAULT_255_2_778
10
55.6715853
20
106.0117002
11
55.6715853
21
108.9279002
0
LINE
8
DEFAULT_255_2_778
10
49.1093853
20
104.0141002
11
47.5062853
21
99.4355002
0
LINE
8
DEFAULT_255_2_778
10
49.1379853
20
98.7365002
11
50.7410853
21
103.3151002
0
LINE
8
DEFAULT_255_2_778
10
50.7410853
20
103.3151002
11
51.1651853
21
105.8257002
0
LINE
8
DEFAULT_255_2_778
10
51.1651853
20
105.8257002
11
49.4409853
21
105.7424002
0
LINE
8
DEFAULT_255_2_778
10
44.6347853
20
104.0144002
11
43.0316853
21
99.4358002
0
LINE
8
DEFAULT_255_2_778
10
44.6633853
20
98.7367002
11
46.2664853
21
103.3153002
0
LINE
8
DEFAULT_255_2_778
10
46.2664853
20
103.3153002
11
46.6537853
21
105.6080002
0
LINE
8
DEFAULT_255_2_778
10
46.6537853
20
105.6080002
11
44.9527853
21
105.5257002
0
LINE
8
DEFAULT_255_2_778
10
42.1418853
20
105.3899002
11
40.4567853
21
105.3084002
0
LINE
8
DEFAULT_255_2_778
10
40.1598853
20
104.0141002
11
38.5567853
21
99.4355002
0
LINE
8
DEFAULT_255_2_778
10
40.1884853
20
98.7365002
11
41.7915853
21
103.3151002
0
LINE
8
DEFAULT_255_2_778
10
41.7915853
20
103.3151002
11
42.1418853
21
105.3899002
0
LINE
8
DEFAULT_255_2_778
10
36.0214853
20
110.1895002
11
36.0214853
21
107.9310002
0
LINE
8
DEFAULT_255_2_778
10
36.0214853
20
107.9310002
11
36.0225853
21
106.0120002
0
LINE
8
DEFAULT_255_2_778
10
35.6849853
20
104.0144002
11
34.0818853
21
99.4358002
0
LINE
8
DEFAULT_255_2_778
10
35.7135853
20
98.7367002
11
37.3166853
21
103.3153002
0
LINE
8
DEFAULT_255_2_778
10
37.3166853
20
103.3153002
11
37.7722853
21
106.0120002
0
LINE
8
DEFAULT_255_2_778
10
37.7722853
20
106.0120002
11
37.7722853
21
108.0636002
0
LINE
8
DEFAULT_255_2_778
10
36.0214853
20
108.5538002
11
37.7719853
21
108.6385002
0
LINE
8
DEFAULT_255_2_778
10
33.3060853
20
107.8479002
11
36.0312853
21
107.9313002
0
LINE
8
DEFAULT_255_2_778
10
38.2503853
20
110.8748002
11
35.4997853
21
110.7419002
0
LINE
8
DEFAULT_255_2_778
10
33.7849853
20
110.6591002
11
35.5005853
21
110.7419002
0
LINE
8
DEFAULT_255_2_778
10
36.0222853
20
110.1895002
11
37.7711853
21
110.3223002
0
LINE
8
DEFAULT_255_2_778
10
37.7711853
20
110.3223002
11
37.7711853
21
108.0636002
0
LINE
8
DEFAULT_255_2_778
10
31.5561853
20
108.3379002
11
33.3066853
21
108.4226002
0
LINE
8
DEFAULT_255_2_778
10
31.5561853
20
109.9736002
11
33.3058853
21
110.1064002
0
LINE
8
DEFAULT_255_2_778
10
29.6162853
20
99.4355002
11
31.2193853
21
104.0141002
0
LINE
8
DEFAULT_255_2_778
10
31.5569853
20
106.0117002
11
31.5569853
21
107.7151002
0
LINE
8
DEFAULT_255_2_778
10
31.5569853
20
107.7151002
11
31.5569853
21
109.9736002
0
LINE
8
DEFAULT_255_2_778
10
31.0351853
20
110.5260002
11
29.3098853
21
110.4427002
0
LINE
8
DEFAULT_255_2_778
10
27.0809853
20
108.1220002
11
28.8314853
21
108.2067002
0
LINE
8
DEFAULT_255_2_778
10
27.0809853
20
109.7577002
11
28.8306853
21
109.8905002
0
LINE
8
DEFAULT_255_2_778
10
24.3557853
20
107.4159002
11
27.0809853
21
107.4992002
0
LINE
8
DEFAULT_255_2_778
10
24.8349853
20
110.2271002
11
26.5602853
21
110.3104002
0
LINE
8
DEFAULT_255_2_778
10
27.0820853
20
109.7579002
11
27.0820853
21
107.4995002
0
LINE
8
DEFAULT_255_2_778
10
27.0820853
20
107.4995002
11
27.0820853
21
106.0122002
0
LINE
8
DEFAULT_255_2_778
10
26.7444853
20
104.0149002
11
25.1410853
21
99.4355002
0
LINE
8
DEFAULT_255_2_778
10
26.7727853
20
98.7362002
11
28.3758853
21
103.3148002
0
LINE
8
DEFAULT_255_2_778
10
28.3758853
20
103.3148002
11
28.8314853
21
106.0114002
0
LINE
8
DEFAULT_255_2_778
10
28.8314853
20
106.0114002
11
28.8314853
21
109.8902002
0
LINE
8
DEFAULT_255_2_778
10
29.3095853
20
110.4427002
11
26.5589853
21
110.3099002
0
LINE
8
DEFAULT_255_2_778
10
22.6058853
20
107.9059002
11
24.3562853
21
107.9905002
0
LINE
8
DEFAULT_255_2_778
10
22.6058853
20
109.5415002
11
24.3554853
21
109.6743002
0
LINE
8
DEFAULT_255_2_778
10
19.8805853
20
107.1997002
11
22.6058853
21
107.2830002
0
LINE
8
DEFAULT_255_2_778
10
20.3597853
20
110.0109002
11
22.0851853
21
110.0942002
0
LINE
8
DEFAULT_255_2_778
10
22.6068853
20
109.5418002
11
22.6068853
21
107.2833002
0
LINE
8
DEFAULT_255_2_778
10
22.6068853
20
107.2833002
11
22.6068853
21
106.0122002
0
LINE
8
DEFAULT_255_2_778
10
22.2692853
20
104.0146002
11
20.6661853
21
99.4355002
0
LINE
8
DEFAULT_255_2_778
10
22.2975853
20
98.7365002
11
23.9006853
21
103.3151002
0
LINE
8
DEFAULT_255_2_778
10
23.9006853
20
103.3151002
11
24.3562853
21
106.0117002
0
LINE
8
DEFAULT_255_2_778
10
24.3562853
20
106.0117002
11
24.3562853
21
107.4156002
0
LINE
8
DEFAULT_255_2_778
10
24.3562853
20
107.4156002
11
24.3562853
21
109.6741002
0
LINE
8
DEFAULT_255_2_778
10
24.8343853
20
110.2265002
11
22.0837853
21
110.0937002
0
LINE
8
DEFAULT_255_2_778
10
18.1306853
20
107.6897002
11
19.8811853
21
107.7744002
0
LINE
8
DEFAULT_255_2_778
10
17.7940853
20
104.0144002
11
16.1912853
21
99.4355002
0
LINE
8
DEFAULT_255_2_778
10
17.8226853
20
98.7365002
11
19.4257853
21
103.3151002
0
LINE
8
DEFAULT_255_2_778
10
19.8813853
20
106.0117002
11
19.8805853
21
107.1994002
0
LINE
8
DEFAULT_255_2_778
10
19.8805853
20
107.1994002
11
19.8805853
21
109.4579002
0
LINE
8
DEFAULT_255_2_778
10
19.8805853
20
109.4579002
11
18.1309853
21
109.3251002
0
LINE
8
DEFAULT_255_2_778
10
18.1309853
20
109.3251002
11
18.1309853
21
107.0666002
0
LINE
8
DEFAULT_255_2_778
10
20.3597853
20
110.0104002
11
17.6091853
21
109.8775002
0
LINE
8
DEFAULT_255_2_778
10
17.6099853
20
109.8775002
11
13.1353853
21
109.6616002
0
LINE
8
DEFAULT_255_2_778
10
15.4067853
20
109.2420002
11
15.4067853
21
106.9835002
0
LINE
8
DEFAULT_255_2_778
10
13.6570853
20
107.4738002
11
15.4075853
21
107.5585002
0
LINE
8
DEFAULT_255_2_778
10
13.6570853
20
106.8507002
11
13.6570853
21
109.1092002
0
LINE
8
DEFAULT_255_2_778
10
13.6570853
20
109.1092002
11
15.4067853
21
109.2420002
0
LINE
8
DEFAULT_255_2_778
10
13.1570853
20
106.8504002
11
13.6570853
21
106.8504002
0
LINE
8
DEFAULT_255_2_778
10
13.6570853
20
106.8504002
11
13.6570853
21
106.0117002
0
LINE
8
DEFAULT_255_2_778
10
13.3194853
20
104.0141002
11
11.7163853
21
99.4355002
0
LINE
8
DEFAULT_255_2_778
10
13.3480853
20
98.7365002
11
14.9511853
21
103.3151002
0
LINE
8
DEFAULT_255_2_778
10
14.9511853
20
103.3151002
11
15.4067853
21
106.0117002
0
LINE
8
DEFAULT_255_2_778
10
15.4067853
20
106.0117002
11
15.4067853
21
106.9833002
0
LINE
8
DEFAULT_255_2_778
10
15.4067853
20
106.9833002
11
18.1319853
21
107.0666002
0
LINE
8
DEFAULT_255_2_778
10
18.1319853
20
107.0666002
11
18.1319853
21
106.0117002
0
LINE
8
DEFAULT_255_2_778
10
51.1961853
20
110.9705002
11
51.1961853
21
110.1681002
0
LINE
8
DEFAULT_255_2_778
10
51.1961853
20
110.1681002
11
49.4464853
21
110.0836002
0
LINE
8
DEFAULT_255_2_778
10
49.4464853
20
110.0836002
11
49.4464853
21
110.8377002
0
LINE
8
DEFAULT_255_2_778
10
38.3135853
20
108.7565002
11
50.9559853
21
109.3672002
0
LINE
8
DEFAULT_255_2_778
10
55.6699853
20
108.9282002
11
58.3951853
21
109.0116002
0
LINE
8
DEFAULT_255_2_778
10
56.1483853
20
111.7389002
11
53.3988853
21
111.6061002
0
LINE
8
DEFAULT_255_2_778
10
51.7218853
20
111.5251002
11
48.9723853
21
111.3923002
0
LINE
8
DEFAULT_255_2_778
10
48.9723853
20
111.3923002
11
47.1996853
21
111.3066002
0
LINE
8
DEFAULT_255_2_778
10
49.4467853
20
110.8361002
11
51.1964853
21
110.9689002
0
LINE
8
DEFAULT_255_2_778
10
47.1988853
20
111.3066002
11
44.4492853
21
111.1737002
0
LINE
8
DEFAULT_255_2_778
10
42.7239853
20
111.0904002
11
39.9743853
21
110.9576002
0
LINE
8
DEFAULT_255_2_778
10
40.4961853
20
110.4051002
11
42.2458853
21
110.5379002
0
LINE
8
DEFAULT_255_2_778
10
42.2458853
20
110.5379002
11
42.2458853
21
109.7357002
0
LINE
8
DEFAULT_255_2_778
10
42.2458853
20
109.7357002
11
40.4961853
21
109.6513002
0
LINE
8
DEFAULT_255_2_778
10
40.4961853
20
109.6513002
11
40.4961853
21
110.4051002
0
LINE
8
DEFAULT_255_2_778
10
33.7839853
20
110.6586002
11
31.0343853
21
110.5258002
0
LINE
8
DEFAULT_255_2_778
10
28.8309853
20
107.6315002
11
31.5561853
21
107.7148002
0
LINE
8
DEFAULT_255_2_778
10
33.3068853
20
110.1064002
11
33.3068853
21
107.8479002
0
LINE
8
DEFAULT_255_2_778
10
33.3068853
20
107.8479002
11
33.3068853
21
106.0117002
0
LINE
8
DEFAULT_255_2_778
10
33.3068853
20
106.0117002
11
32.8512853
21
103.3151002
0
LINE
8
DEFAULT_255_2_778
10
32.8512853
20
103.3151002
11
31.2481853
21
98.7365002
0
LINE
8
DEFAULT_255_2_778
10
39.9756853
20
110.9578002
11
38.2503853
21
110.8745002
0
LINE
8
DEFAULT_255_2_778
10
42.7252853
20
111.0907002
11
44.4505853
21
111.1740002
0
LINE
8
DEFAULT_255_2_778
10
44.9723853
20
110.6215002
11
46.7212853
21
110.7544002
0
LINE
8
DEFAULT_255_2_778
10
46.7212853
20
110.7544002
11
46.7212853
21
109.9519002
0
LINE
8
DEFAULT_255_2_778
10
46.7212853
20
109.9519002
11
44.9715853
21
109.8675002
0
LINE
8
DEFAULT_255_2_778
10
44.9715853
20
109.8675002
11
44.9715853
21
110.6215002
0
LINE
8
DEFAULT_255_2_778
10
57.8752853
20
111.8225002
11
56.1499853
21
111.7391002
0
LINE
8
DEFAULT_255_2_778
10
63.0177853
20
109.1171002
11
62.8928853
21
109.1171002
0
LINE
8
DEFAULT_255_2_778
10
62.8928853
20
109.1171002
11
60.1467853
21
109.1171002
0
LINE
8
DEFAULT_255_2_778
10
63.0169853
20
111.8471002
11
62.8920853
21
111.7016002
0
LINE
8
DEFAULT_255_2_778
10
49.2022853
20
109.1976002
11
49.2022853
21
109.1894002
0
LINE
8
DEFAULT_255_2_778
10
49.2022853
20
106.4178002
11
49.2022853
21
109.2822002
0
LINE
8
DEFAULT_255_2_778
10
40.1087853
20
108.8430002
11
40.1087853
21
105.9786002
0
LINE
8
DEFAULT_255_2_778
10
37.7714853
20
108.0395002
11
38.2357853
21
108.0620002
0
LINE
8
DEFAULT_255_2_778
10
38.2357853
20
108.0620002
11
38.2357853
21
105.8882002
0
LINE
8
DEFAULT_255_2_778
10
38.2357853
20
105.8882002
11
51.0336853
21
106.5062002
0
LINE
8
DEFAULT_255_2_778
10
51.0336853
20
106.5062002
11
51.0336853
21
108.6800002
0
LINE
8
DEFAULT_255_2_778
10
51.0336853
20
108.6800002
11
53.9210853
21
108.8195002
0
ARC
8
DEFAULT_255_2_778
10
7.0327885
20
97.2318961
40
1.9097753
50
159.5916949
51
180.1390143
0
ARC
8
DEFAULT_255_2_778
10
6.8720912
20
97.2967813
40
1.7365454
50
131.6339493
51
159.7492761
0
ARC
8
DEFAULT_255_2_778
10
6.7056565
20
97.4916037
40
1.4803687
50
90.21046
51
131.8290162
0
ARC
8
DEFAULT_255_2_778
10
6.6791515
20
97.4396545
40
1.5324527
50
31.7957862
51
89.212305
0
ARC
8
DEFAULT_255_2_778
10
6.4397247
20
97.2513944
40
1.8354543
50
9.2206404
51
32.8526928
0
ARC
8
DEFAULT_255_2_778
10
6.3269704
20
97.2283571
40
1.9504486
50
359.9678438
51
9.3578923
0
ARC
8
DEFAULT_255_2_778
10
6.3680875
20
97.2226435
40
1.9093369
50
339.588158
51
0.1386055
0
ARC
8
DEFAULT_255_2_778
10
6.528304
20
97.1579329
40
1.7366181
50
311.6318305
51
339.7455153
0
ARC
8
DEFAULT_255_2_778
10
6.6947401
20
96.9630404
40
1.4803881
50
270.2120447
51
311.8282881
0
ARC
8
DEFAULT_255_2_778
10
6.721229
20
97.0149447
40
1.5324263
50
211.7962449
51
269.2144259
0
ARC
8
DEFAULT_255_2_778
10
6.9605886
20
97.2031268
40
1.8353294
50
189.2202057
51
212.8521837
0
ARC
8
DEFAULT_255_2_778
10
7.0733858
20
97.2261706
40
1.9503672
50
179.9679247
51
189.3574736
0
ARC
8
DEFAULT_255_2_778
10
6.973717
20
97.2319979
40
1.6007052
50
157.3362428
51
180.169503
0
ARC
8
DEFAULT_255_2_778
10
6.8171694
20
97.3044797
40
1.428332
50
124.5748623
51
157.5995336
0
ARC
8
DEFAULT_255_2_778
10
6.7016055
20
97.4642847
40
1.2311786
50
90.0645323
51
124.3669742
0
ARC
8
DEFAULT_255_2_778
10
6.6791103
20
97.3967722
40
1.2988618
50
28.6604354
51
89.0688155
0
ARC
8
DEFAULT_255_2_778
10
6.462504
20
97.241096
40
1.5639361
50
5.4405687
51
29.8590252
0
ARC
8
DEFAULT_255_2_778
10
6.3721069
20
97.227609
40
1.655212
50
359.9880024
51
5.6086398
0
ARC
8
DEFAULT_255_2_778
10
6.4266915
20
97.2225308
40
1.6006343
50
337.3374275
51
0.1693729
0
ARC
8
DEFAULT_255_2_778
10
6.5832698
20
97.1500337
40
1.4282271
50
304.5763373
51
337.6009729
0
ARC
8
DEFAULT_255_2_778
10
6.6988413
20
96.9902407
40
1.2310791
50
270.0641094
51
304.3680627
0
ARC
8
DEFAULT_255_2_778
10
6.721347
20
97.0580282
40
1.2990376
50
208.6663369
51
269.0680717
0
ARC
8
DEFAULT_255_2_778
10
6.9375226
20
97.2134768
40
1.563628
50
185.4427122
51
209.8644162
0
ARC
8
DEFAULT_255_2_778
10
7.0275277
20
97.2269124
40
1.6545089
50
179.987879
51
185.6102551
0
LINE
8
DEFAULT_255_2_778
10
8.0273188
20
97.2272625
11
8.2774188
21
97.2272625
0
LINE
8
DEFAULT_255_2_778
10
5.1230188
20
97.2272625
11
5.3730188
21
97.2272625
0
LINE
8
DEFAULT_255_2_778
10
5.1230188
20
97.2272625
11
5.1230188
21
97.2272625
0
LINE
8
DEFAULT_255_2_778
10
5.3730188
20
97.2272625
11
5.3730188
21
97.2272625
0
ARC
8
DEFAULT_255_2_778
10
64.8546041
20
90.6733465
40
0.7659302
50
18.128209
51
81.5823281
0
ARC
8
DEFAULT_255_2_778
10
64.729899
20
90.6078445
40
0.9051295
50
359.9038459
51
19.6127468
0
ARC
8
DEFAULT_255_2_778
10
64.8548124
20
90.1678838
40
0.7656814
50
278.4046726
51
341.8785978
0
ARC
8
DEFAULT_255_2_778
10
64.7296242
20
90.2335972
40
0.9054044
50
340.3902568
51
0.0967128
0
ARC
8
DEFAULT_255_2_778
10
64.8112619
20
90.6118168
40
0.5803894
50
359.4776418
51
44.0423015
0
ARC
8
DEFAULT_255_2_778
10
64.8858365
20
90.6825
40
0.4776459
50
44.1663916
51
82.74852
0
ARC
8
DEFAULT_255_2_778
10
64.8670464
20
90.1982395
40
0.5190051
50
278.7866417
51
348.4384766
0
ARC
8
DEFAULT_255_2_778
10
64.7829051
20
90.2346308
40
0.6090225
50
346.6705324
51
0.0465428
0
ARC
8
DEFAULT_255_2_778
10
77.1491636
20
82.4449919
40
0.0530164
50
357.4417346
51
86.7955449
0
ARC
8
DEFAULT_255_2_778
10
63.1450908
20
82.4449919
40
0.0530165
50
93.2044551
51
182.5582654
0
ARC
8
DEFAULT_255_2_778
10
63.1450244
20
29.307899
40
0.0529528
50
177.3735326
51
266.8636138
0
ARC
8
DEFAULT_255_2_778
10
77.1492303
20
29.3078987
40
0.0529525
50
273.1360963
51
2.6267765
0
ARC
8
DEFAULT_255_2_778
10
72.7259954
20
42.856124
40
0.5293737
50
194.9921799
51
268.1523325
0
ARC
8
DEFAULT_255_2_778
10
72.8198053
20
42.9033884
40
0.6325787
50
179.9151215
51
196.9297865
0
ARC
8
DEFAULT_255_2_778
10
72.7963807
20
48.944324
40
0.6091732
50
139.7711524
51
180.4607273
0
ARC
8
DEFAULT_255_2_778
10
72.713661
20
49.0188469
40
0.4979011
50
90.5447484
51
140.1707242
0
ARC
8
DEFAULT_255_2_778
10
64.8546041
20
21.5840465
40
0.7659302
50
18.128209
51
81.5823281
0
ARC
8
DEFAULT_255_2_778
10
64.729899
20
21.5185445
40
0.9051295
50
359.9038459
51
19.6127468
0
ARC
8
DEFAULT_255_2_778
10
64.8546041
20
21.0787046
40
0.7659302
50
278.4176719
51
341.871791
0
ARC
8
DEFAULT_255_2_778
10
64.729899
20
21.1442065
40
0.9051295
50
340.3872532
51
0.0961541
0
ARC
8
DEFAULT_255_2_778
10
64.8117486
20
21.5225302
40
0.5802029
50
359.4761495
51
44.0547291
0
ARC
8
DEFAULT_255_2_778
10
64.8858614
20
21.5927513
40
0.4781132
50
44.1826907
51
82.7344889
0
ARC
8
DEFAULT_255_2_778
10
64.8670464
20
21.1088395
40
0.5190051
50
278.7866417
51
348.4384766
0
ARC
8
DEFAULT_255_2_778
10
64.7829051
20
21.1452308
40
0.6090225
50
346.6705324
51
0.0465428
0
ARC
8
DEFAULT_255_2_778
10
73.4895135
20
35.5338332
40
6.9848181
50
356.384159
51
359.8619738
0
ARC
8
DEFAULT_255_2_778
10
73.4711556
20
35.5344003
40
7.0031775
50
359.8576962
51
359.9999999
0
ARC
8
DEFAULT_255_2_778
10
73.3890918
20
35.5336165
40
7.0852412
50
0.0063377
51
5.3880508
0
ARC
8
DEFAULT_255_2_778
10
73.4132923
20
76.2184413
40
7.0610261
50
354.6039572
51
359.9978651
0
ARC
8
DEFAULT_255_2_778
10
73.4279511
20
76.2181777
40
7.0463673
50
0.0000038
51
0.4185385
0
ARC
8
DEFAULT_255_2_778
10
73.4421332
20
76.2183499
40
7.0321843
50
0.4179795
51
3.6018051
0
ARC
8
DEFAULT_255_2_778
10
62.5995028
20
1.940745
40
17.9165745
50
355.5073739
51
359.9470596
0
ARC
8
DEFAULT_255_2_778
10
62.5555307
20
1.9409304
40
17.9605467
50
359.9465977
51
359.9993065
0
ARC
8
DEFAULT_255_2_778
10
62.6024307
20
1.9407202
40
17.9136465
50
359.9999769
51
4.4929955
0
ARC
8
DEFAULT_255_2_778
10
79.8518094
20
3.3358426
40
3.037527
50
331.3575032
51
0.1411476
0
ARC
8
DEFAULT_255_2_778
10
79.8092742
20
3.3392619
40
3.0800557
50
343.5582619
51
0.0755931
0
ARC
8
DEFAULT_255_2_778
10
79.9788144
20
3.286335
40
2.9024692
50
323.023578
51
343.6130584
0
ARC
8
DEFAULT_255_2_778
10
80.3086879
20
2.9950372
40
2.4639658
50
275.1426097
51
323.8211623
0
ARC
8
DEFAULT_255_2_778
10
80.3476609
20
2.8720876
40
2.3381829
50
272.7643431
51
274.4614816
0
ARC
8
DEFAULT_255_2_778
10
79.8092742
20
108.4130892
40
3.0800557
50
359.9244069
51
16.4417381
0
ARC
8
DEFAULT_255_2_778
10
79.9788144
20
108.466016
40
2.9024692
50
16.3869416
51
36.976422
0
ARC
8
DEFAULT_255_2_778
10
80.3086879
20
108.7573138
40
2.4639658
50
36.1788377
51
84.8573903
0
ARC
8
DEFAULT_255_2_778
10
80.3476609
20
108.8802634
40
2.3381829
50
85.5385184
51
87.2356569
0
ARC
8
DEFAULT_255_2_778
10
62.6273608
20
109.8128748
40
17.8879913
50
355.5007273
51
359.956762
0
ARC
8
DEFAULT_255_2_778
10
62.6331143
20
109.8127508
40
17.8822377
50
359.9571454
51
0.0008403
0
ARC
8
DEFAULT_255_2_778
10
62.6302419
20
109.813188
40
17.8851102
50
359.9994394
51
4.4996398
0
ARC
8
DEFAULT_255_2_778
10
81.6972595
20
76.6981039
40
1.1918755
50
332.2591466
51
0.2077496
0
ARC
8
DEFAULT_255_2_778
10
81.8672245
20
76.5842264
40
0.9886767
50
272.7945484
51
333.5153269
0
ARC
8
DEFAULT_255_2_778
10
81.86459
20
35.1629263
40
0.994799
50
24.13324
51
87.07074
0
ARC
8
DEFAULT_255_2_778
10
81.6932958
20
35.0544197
40
1.195837
50
359.8230004
51
25.5222444
0
ARC
8
DEFAULT_255_2_778
10
66.337451
20
29.4849304
40
17.2509243
50
22.4304629
51
28.7401292
0
ARC
8
DEFAULT_255_2_778
10
81.2448037
20
37.6672342
40
0.2457348
50
27.2698738
51
88.921929
0
ARC
8
DEFAULT_255_2_778
10
0.621637
20
4.4501558
40
0.270772
50
178.0169632
51
255.2345188
0
ARC
8
DEFAULT_255_2_778
10
0.636088
20
107.3040795
40
0.2736215
50
107.7155623
51
163.8433397
0
ARC
8
DEFAULT_255_2_778
10
0.7563017
20
107.2484004
40
0.4050763
50
161.0092309
51
180.1661819
0
ARC
8
DEFAULT_255_2_778
10
9.64435
20
107.187391
40
2.3028366
50
92.7758322
51
102.31652
0
ARC
8
DEFAULT_255_2_778
10
0.593496
20
22.8506997
40
0.2778763
50
225.524196
51
271.5530539
0
ARC
8
DEFAULT_255_2_778
10
0.5170401
20
22.7689911
40
0.1660296
50
180.8163874
51
224.5955741
0
ARC
8
DEFAULT_255_2_778
10
0.5474589
20
19.8765994
40
0.1969462
50
105.4403136
51
175.8577029
0
ARC
8
DEFAULT_255_2_778
10
0.5997866
20
19.7721472
40
0.3123807
50
89.7724497
51
109.5947279
0
LINE
8
DEFAULT_255_2_778
10
63.0170272
20
91.9546255
11
63.4715272
21
91.6122255
0
LINE
8
DEFAULT_255_2_778
10
63.4715272
20
91.6122255
11
64.9667272
21
91.4310255
0
LINE
8
DEFAULT_255_2_778
10
65.6350272
20
90.6063255
11
65.3916272
21
90.6063255
0
LINE
8
DEFAULT_255_2_778
10
65.3916272
20
90.6063255
11
65.3916272
21
90.2348255
0
LINE
8
DEFAULT_255_2_778
10
65.3916272
20
90.2348255
11
65.6350272
21
90.2348255
0
LINE
8
DEFAULT_255_2_778
10
63.0170272
20
88.8867255
11
63.4715272
21
89.2291255
0
LINE
8
DEFAULT_255_2_778
10
63.4715272
20
89.2291255
11
64.9667272
21
89.4104255
0
LINE
8
DEFAULT_255_2_778
10
65.6350272
20
90.2351255
11
65.6350272
21
90.6065255
0
LINE
8
DEFAULT_255_2_778
10
64.7834272
20
91.1759255
11
0.3510272
21
91.1759255
0
LINE
8
DEFAULT_255_2_778
10
64.7902272
20
89.6662255
11
0.3510272
21
89.6662255
0
LINE
8
DEFAULT_255_2_778
10
0.4168272
20
91.4357255
11
19.9053272
21
91.4357255
0
LINE
8
DEFAULT_255_2_778
10
19.9053272
20
91.4357255
11
62.6918272
21
91.4357255
0
LINE
8
DEFAULT_255_2_778
10
62.6918272
20
91.4357255
11
62.6913272
21
91.4291255
0
LINE
8
DEFAULT_255_2_778
10
62.6913272
20
91.4291255
11
62.7633272
21
91.4275255
0
LINE
8
DEFAULT_255_2_778
10
62.7633272
20
91.4275255
11
62.7633272
21
91.8273255
0
LINE
8
DEFAULT_255_2_778
10
62.7633272
20
91.8273255
11
60.0129272
21
91.8564255
0
LINE
8
DEFAULT_255_2_778
10
60.0129272
20
91.8564255
11
0.3671272
21
91.8564255
0
LINE
8
DEFAULT_255_2_778
10
62.6415272
20
89.4135255
11
62.6421272
21
89.4067255
0
LINE
8
DEFAULT_255_2_778
10
62.6421272
20
89.4067255
11
30.1539272
21
89.4067255
0
LINE
8
DEFAULT_255_2_778
10
30.1539272
20
89.4067255
11
0.6010272
21
89.4067255
0
LINE
8
DEFAULT_255_2_778
10
62.7638272
20
89.0169255
11
62.8921272
21
88.8870255
0
LINE
8
DEFAULT_255_2_778
10
62.8921272
20
88.8870255
11
62.8921272
21
89.2622255
0
LINE
8
DEFAULT_255_2_778
10
62.8921272
20
89.2622255
11
62.7633272
21
89.4157255
0
LINE
8
DEFAULT_255_2_778
10
62.8921272
20
92.0858255
11
62.7672272
21
92.0858255
0
LINE
8
DEFAULT_255_2_778
10
62.8921272
20
91.9628255
11
62.7638272
21
91.8257255
0
LINE
8
DEFAULT_255_2_778
10
62.8921272
20
89.0429255
11
62.9463272
21
89.1632255
0
LINE
8
DEFAULT_255_2_778
10
62.9463272
20
89.1632255
11
63.3890272
21
89.4966255
0
LINE
8
DEFAULT_255_2_778
10
64.9461272
20
91.1563255
11
63.3890272
21
91.3450255
0
LINE
8
DEFAULT_255_2_778
10
63.3890272
20
91.3450255
11
63.3890272
21
91.3450255
0
LINE
8
DEFAULT_255_2_778
10
63.3890272
20
91.3450255
11
62.9463272
21
91.6784255
0
LINE
8
DEFAULT_255_2_778
10
62.9463272
20
91.6784255
11
62.8921272
21
91.7988255
0
LINE
8
DEFAULT_255_2_778
10
62.7638272
20
89.4159255
11
63.3893272
21
89.4966255
0
LINE
8
DEFAULT_255_2_778
10
63.3893272
20
89.4966255
11
64.9463272
21
89.6853255
0
LINE
8
DEFAULT_255_2_778
10
62.6423272
20
89.4127255
11
62.7638272
21
89.4149255
0
LINE
8
DEFAULT_255_2_778
10
62.7638272
20
89.4149255
11
62.7638272
21
89.0169255
0
LINE
8
DEFAULT_255_2_778
10
62.7638272
20
89.0169255
11
60.0238272
21
88.9881255
0
LINE
8
DEFAULT_255_2_778
10
60.0238272
20
88.9881255
11
0.6010272
21
88.9881255
0
LINE
8
DEFAULT_255_2_778
10
78.8899272
20
36.2540255
11
78.0236272
21
35.1639255
0
LINE
8
DEFAULT_255_2_778
10
78.8899272
20
75.5105255
11
78.8899272
21
36.2426255
0
LINE
8
DEFAULT_255_2_778
10
77.1616272
20
69.4266255
11
77.5828272
21
69.4293255
0
LINE
8
DEFAULT_255_2_778
10
77.5828272
20
69.4293255
11
77.5828272
21
83.0022255
0
LINE
8
DEFAULT_255_2_778
10
77.5828272
20
83.0022255
11
65.7523272
21
83.0022255
0
LINE
8
DEFAULT_255_2_778
10
77.3304272
20
49.5173255
11
77.5828272
21
49.5202255
0
LINE
8
DEFAULT_255_2_778
10
77.5828272
20
49.5202255
11
77.5828272
21
62.2326255
0
LINE
8
DEFAULT_255_2_778
10
77.5828272
20
62.2326255
11
77.4079272
21
62.2326255
0
LINE
8
DEFAULT_255_2_778
10
72.7089272
20
69.4259255
11
77.2021272
21
69.4259255
0
LINE
8
DEFAULT_255_2_778
10
77.2021272
20
69.4259255
11
77.2021272
21
82.4426255
0
LINE
8
DEFAULT_255_2_778
10
77.1521272
20
82.4979255
11
63.1421272
21
82.4979255
0
LINE
8
DEFAULT_255_2_778
10
63.0921272
20
82.4426255
11
63.0921272
21
29.3105255
0
LINE
8
DEFAULT_255_2_778
10
63.0921272
20
29.3105255
11
62.8921272
21
29.3105255
0
LINE
8
DEFAULT_255_2_778
10
62.8921272
20
29.3105255
11
62.8921272
21
82.4423255
0
LINE
8
DEFAULT_255_2_778
10
62.8921272
20
82.4423255
11
62.8921272
21
82.9953255
0
LINE
8
DEFAULT_255_2_778
10
63.1421272
20
29.2550255
11
77.1521272
21
29.2550255
0
LINE
8
DEFAULT_255_2_778
10
77.2021272
20
29.3103255
11
77.2021272
21
42.3270255
0
LINE
8
DEFAULT_255_2_778
10
77.2021272
20
42.3270255
11
72.7089272
21
42.3270255
0
LINE
8
DEFAULT_255_2_778
10
72.1872272
20
42.9043255
11
72.1872272
21
48.9394255
0
LINE
8
DEFAULT_255_2_778
10
72.7089272
20
49.5167255
11
77.4021272
21
49.5167255
0
LINE
8
DEFAULT_255_2_778
10
77.4021272
20
49.5167255
11
77.4021272
21
62.2366255
0
LINE
8
DEFAULT_255_2_778
10
77.4021272
20
62.2366255
11
72.7089272
21
62.2366255
0
LINE
8
DEFAULT_255_2_778
10
62.8921272
20
29.3108255
11
62.8921272
21
28.7578255
0
LINE
8
DEFAULT_255_2_778
10
62.8921272
20
28.7578255
11
63.0170272
21
28.7578255
0
LINE
8
DEFAULT_255_2_778
10
74.3446272
20
106.7535255
11
74.3446272
21
103.7688255
0
LINE
8
DEFAULT_255_2_778
10
65.3350272
20
106.7652255
11
65.3350272
21
103.7550255
0
LINE
8
DEFAULT_255_2_778
10
75.7768272
20
106.7496255
11
75.7768272
21
103.7706255
0
LINE
8
DEFAULT_255_2_778
10
75.7768272
20
103.7706255
11
63.4141272
21
103.7524255
0
LINE
8
DEFAULT_255_2_778
10
63.4141272
20
103.7524255
11
63.4141272
21
106.7678255
0
LINE
8
DEFAULT_255_2_778
10
63.4141272
20
106.7678255
11
75.7768272
21
106.7514255
0
LINE
8
DEFAULT_255_2_778
10
74.3446272
20
5.0011255
11
74.3446272
21
7.9854255
0
LINE
8
DEFAULT_255_2_778
10
65.3350272
20
4.9879255
11
65.3350272
21
8.0002255
0
LINE
8
DEFAULT_255_2_778
10
63.4141272
20
8.0034255
11
75.7768272
21
7.9822255
0
LINE
8
DEFAULT_255_2_778
10
75.7768272
20
7.9822255
11
75.7768272
21
5.0033255
0
LINE
8
DEFAULT_255_2_778
10
75.7768272
20
5.0033255
11
63.4141272
21
4.9850255
0
LINE
8
DEFAULT_255_2_778
10
63.4141272
20
4.9850255
11
63.4141272
21
8.0005255
0
LINE
8
DEFAULT_255_2_778
10
63.0170272
20
22.8653255
11
63.4715272
21
22.5229255
0
LINE
8
DEFAULT_255_2_778
10
63.4715272
20
22.5229255
11
64.9667272
21
22.3417255
0
LINE
8
DEFAULT_255_2_778
10
65.6350272
20
21.5170255
11
65.3916272
21
21.5170255
0
LINE
8
DEFAULT_255_2_778
10
65.3916272
20
21.5170255
11
65.3916272
21
21.1455255
0
LINE
8
DEFAULT_255_2_778
10
65.3916272
20
21.1455255
11
65.6350272
21
21.1455255
0
LINE
8
DEFAULT_255_2_778
10
63.0170272
20
19.7974255
11
63.4715272
21
20.1398255
0
LINE
8
DEFAULT_255_2_778
10
63.4715272
20
20.1398255
11
64.9667272
21
20.3210255
0
LINE
8
DEFAULT_255_2_778
10
65.6350272
20
21.1457255
11
65.6350272
21
21.5172255
0
LINE
8
DEFAULT_255_2_778
10
64.7834272
20
22.0866255
11
4.8505272
21
22.0866255
0
LINE
8
DEFAULT_255_2_778
10
64.7905272
20
20.5769255
11
4.8505272
21
20.5769255
0
LINE
8
DEFAULT_255_2_778
10
62.6418272
20
20.3239255
11
62.6423272
21
20.3171255
0
LINE
8
DEFAULT_255_2_778
10
62.6423272
20
20.3171255
11
4.8505272
21
20.3171255
0
LINE
8
DEFAULT_255_2_778
10
4.8505272
20
22.3464255
11
62.2912272
21
22.3464255
0
LINE
8
DEFAULT_255_2_778
10
62.7638272
20
22.7362255
11
62.8921272
21
22.8729255
0
LINE
8
DEFAULT_255_2_778
10
4.8505272
20
19.8982255
11
60.0238272
21
19.8982255
0
LINE
8
DEFAULT_255_2_778
10
60.0238272
20
19.8982255
11
62.7638272
21
19.9271255
0
LINE
8
DEFAULT_255_2_778
10
62.7638272
20
19.9271255
11
62.8921272
21
19.7972255
0
LINE
8
DEFAULT_255_2_778
10
4.8505272
20
22.7647255
11
60.0238272
21
22.7647255
0
LINE
8
DEFAULT_255_2_778
10
60.0238272
20
22.7647255
11
62.7638272
21
22.7359255
0
LINE
8
DEFAULT_255_2_778
10
62.7638272
20
22.7359255
11
62.7638272
21
22.3380255
0
LINE
8
DEFAULT_255_2_778
10
62.7638272
20
22.3380255
11
62.2912272
21
22.3462255
0
LINE
8
DEFAULT_255_2_778
10
62.2912272
20
22.3462255
11
62.6434272
21
22.3395255
0
LINE
8
DEFAULT_255_2_778
10
0.6010272
20
23.0222255
11
0.6010272
21
22.7623255
0
LINE
8
DEFAULT_255_2_778
10
0.6010272
20
22.7623255
11
4.7235272
21
22.7623255
0
LINE
8
DEFAULT_255_2_778
10
4.7235272
20
20.0848255
11
0.6010272
21
20.0848255
0
LINE
8
DEFAULT_255_2_778
10
0.6010272
20
20.0848255
11
0.6010272
21
19.8953255
0
LINE
8
DEFAULT_255_2_778
10
0.6010272
20
19.8953255
11
4.7235272
21
19.8953255
0
LINE
8
DEFAULT_255_2_778
10
0.6010272
20
19.8953255
11
0.6010272
21
19.6355255
0
LINE
8
DEFAULT_255_2_778
10
0.6010272
20
19.6355255
11
4.7235272
21
19.6355255
0
LINE
8
DEFAULT_255_2_778
10
63.3890272
20
22.2557255
11
62.9463272
21
22.5890255
0
LINE
8
DEFAULT_255_2_778
10
62.9463272
20
22.5890255
11
62.8921272
21
22.7094255
0
LINE
8
DEFAULT_255_2_778
10
64.9463272
20
22.0670255
11
63.3893272
21
22.2557255
0
LINE
8
DEFAULT_255_2_778
10
63.3893272
20
22.2557255
11
63.3893272
21
22.2557255
0
LINE
8
DEFAULT_255_2_778
10
63.3893272
20
22.2557255
11
62.8924272
21
22.3340255
0
LINE
8
DEFAULT_255_2_778
10
62.8924272
20
22.3340255
11
62.6418272
21
22.3395255
0
LINE
8
DEFAULT_255_2_778
10
62.7641272
20
20.3266255
11
63.3131272
21
20.3496255
0
LINE
8
DEFAULT_255_2_778
10
62.7635272
20
20.3261255
11
62.8924272
21
20.1726255
0
LINE
8
DEFAULT_255_2_778
10
62.8924272
20
20.1726255
11
62.8924272
21
19.7903255
0
LINE
8
DEFAULT_255_2_778
10
62.8924272
20
22.8650255
11
62.8924272
21
22.4906255
0
LINE
8
DEFAULT_255_2_778
10
62.8924272
20
22.4906255
11
62.7641272
21
22.3380255
0
LINE
8
DEFAULT_255_2_778
10
62.6426272
20
20.3232255
11
62.7641272
21
20.3253255
0
LINE
8
DEFAULT_255_2_778
10
62.7641272
20
20.3253255
11
62.7641272
21
19.9273255
0
LINE
8
DEFAULT_255_2_778
10
62.8924272
20
19.9535255
11
62.9466272
21
20.0739255
0
LINE
8
DEFAULT_255_2_778
10
62.9466272
20
20.0739255
11
63.3893272
21
20.4073255
0
LINE
8
DEFAULT_255_2_778
10
63.3893272
20
20.4073255
11
63.3893272
21
20.4073255
0
LINE
8
DEFAULT_255_2_778
10
63.3893272
20
20.4073255
11
64.9463272
21
20.5959255
0
LINE
8
DEFAULT_255_2_778
10
82.8893272
20
35.0507255
11
80.4604272
21
35.0933255
0
LINE
8
DEFAULT_255_2_778
10
80.4604272
20
76.6601255
11
82.8893272
21
76.7027255
0
LINE
8
DEFAULT_255_2_778
10
82.8893272
20
76.7027255
11
82.8893272
21
75.2329255
0
LINE
8
DEFAULT_255_2_778
10
82.8893272
20
75.2329255
11
82.3673272
21
74.2325255
0
LINE
8
DEFAULT_255_2_778
10
82.3673272
20
74.2325255
11
80.2784272
21
74.1923255
0
LINE
8
DEFAULT_255_2_778
10
80.2784272
20
74.1923255
11
80.0850272
21
75.5441255
0
LINE
8
DEFAULT_255_2_778
10
78.0239272
20
35.1639255
11
80.4607272
21
35.0933255
0
LINE
8
DEFAULT_255_2_778
10
80.4607272
20
35.0933255
11
80.4607272
21
3.3438255
0
LINE
8
DEFAULT_255_2_778
10
80.4607272
20
3.3438255
11
65.7525272
21
2.6334255
0
LINE
8
DEFAULT_255_2_778
10
65.7525272
20
2.6334255
11
65.7525272
21
-0.1732745
0
LINE
8
DEFAULT_255_2_778
10
65.7525272
20
-0.1732745
11
63.0175272
21
-0.0938745
0
LINE
8
DEFAULT_255_2_778
10
63.0175272
20
-0.0938745
11
63.0175272
21
2.6363255
0
LINE
8
DEFAULT_255_2_778
10
63.0175272
20
2.6363255
11
62.8926272
21
2.6363255
0
LINE
8
DEFAULT_255_2_778
10
80.4610272
20
3.3440255
11
82.8898272
21
3.3440255
0
LINE
8
DEFAULT_255_2_778
10
62.8926272
20
2.6366255
11
60.1465272
21
2.6366255
0
LINE
8
DEFAULT_255_2_778
10
60.0275272
20
23.0256255
11
62.7678272
21
22.9968255
0
LINE
8
DEFAULT_255_2_778
10
62.7678272
20
22.9968255
11
62.7678272
21
88.7568255
0
LINE
8
DEFAULT_255_2_778
10
62.7678272
20
88.7568255
11
60.0275272
21
88.7280255
0
LINE
8
DEFAULT_255_2_778
10
4.8505272
20
6.1158255
11
9.6437272
21
5.0720255
0
LINE
8
DEFAULT_255_2_778
10
9.6437272
20
5.0720255
11
10.9076272
21
5.0109255
0
LINE
8
DEFAULT_255_2_778
10
0.6010272
20
104.7120255
11
0.6010272
21
92.1144255
0
LINE
8
DEFAULT_255_2_778
10
0.6010272
20
92.1144255
11
19.9055272
21
92.1144255
0
LINE
8
DEFAULT_255_2_778
10
19.9055272
20
92.1144255
11
60.0272272
21
92.1144255
0
LINE
8
DEFAULT_255_2_778
10
60.0272272
20
92.1144255
11
60.0272272
21
102.7081255
0
LINE
8
DEFAULT_255_2_778
10
0.6010272
20
36.5752255
11
0.6010272
21
23.0222255
0
LINE
8
DEFAULT_255_2_778
10
0.6010272
20
23.0222255
11
60.0269272
21
23.0251255
0
LINE
8
DEFAULT_255_2_778
10
60.0269272
20
23.0251255
11
60.0269272
21
88.7280255
0
LINE
8
DEFAULT_255_2_778
10
60.0269272
20
88.7280255
11
0.6010272
21
88.7280255
0
LINE
8
DEFAULT_255_2_778
10
0.6010272
20
88.7280255
11
0.6010272
21
36.7154255
0
LINE
8
DEFAULT_255_2_778
10
0.6010272
20
36.7154255
11
4.8505272
21
36.7154255
0
LINE
8
DEFAULT_255_2_778
10
4.8505272
20
36.7154255
11
4.8505272
21
5.9698255
0
LINE
8
DEFAULT_255_2_778
10
4.8505272
20
5.9698255
11
0.5830272
21
5.9698255
0
LINE
8
DEFAULT_255_2_778
10
0.5830272
20
5.9698255
11
0.5526272
21
4.1883255
0
LINE
8
DEFAULT_255_2_778
10
0.3512272
20
7.0001255
11
0.6013272
21
7.0001255
0
LINE
8
DEFAULT_255_2_778
10
0.6013272
20
7.0001255
11
0.5862272
21
6.1103255
0
LINE
8
DEFAULT_255_2_778
10
0.5862272
20
6.1103255
11
2.4748272
21
6.1103255
0
LINE
8
DEFAULT_255_2_778
10
2.4748272
20
6.1103255
11
4.7235272
21
6.1320255
0
LINE
8
DEFAULT_255_2_778
10
4.7235272
20
6.1320255
11
4.7235272
21
22.5726255
0
LINE
8
DEFAULT_255_2_778
10
4.7235272
20
22.5726255
11
0.6010272
21
22.5726255
0
LINE
8
DEFAULT_255_2_778
10
0.6010272
20
22.5726255
11
0.6010272
21
22.7621255
0
LINE
8
DEFAULT_255_2_778
10
0.6010272
20
19.6352255
11
0.6010272
21
7.0001255
0
LINE
8
DEFAULT_255_2_778
10
0.6010272
20
7.0001255
11
4.5936272
21
6.1306255
0
LINE
8
DEFAULT_255_2_778
10
80.4604272
20
0.5366255
11
65.7523272
21
-0.1738745
0
LINE
8
DEFAULT_255_2_778
10
80.4604272
20
111.2157255
11
65.7562272
21
111.9253255
0
LINE
8
DEFAULT_255_2_778
10
65.7562272
20
111.9253255
11
65.7583272
21
111.9063255
0
LINE
8
DEFAULT_255_2_778
10
65.7583272
20
111.9063255
11
65.7620272
21
111.8335255
0
LINE
8
DEFAULT_255_2_778
10
65.7620272
20
111.8335255
11
65.7613272
21
109.8531255
0
LINE
8
DEFAULT_255_2_778
10
65.7613272
20
109.8531255
11
65.7568272
21
109.4848255
0
LINE
8
DEFAULT_255_2_778
10
65.7568272
20
109.4848255
11
65.7520272
21
109.1200255
0
LINE
8
DEFAULT_255_2_778
10
65.7520272
20
109.1200255
11
80.4602272
21
108.4096255
0
LINE
8
DEFAULT_255_2_778
10
81.9154272
20
75.5970255
11
78.8896272
21
75.5094255
0
LINE
8
DEFAULT_255_2_778
10
78.8896272
20
75.5094255
11
78.0234272
21
76.5894255
0
LINE
8
DEFAULT_255_2_778
10
78.0234272
20
76.5894255
11
80.4602272
21
76.6601255
0
LINE
8
DEFAULT_255_2_778
10
80.4602272
20
76.6601255
11
80.4602272
21
108.4093255
0
LINE
8
DEFAULT_255_2_778
10
80.4602272
20
108.4093255
11
82.8891272
21
108.4093255
0
LINE
8
DEFAULT_255_2_778
10
82.8891272
20
108.4093255
11
82.8891272
21
76.7024255
0
LINE
8
DEFAULT_255_2_778
10
81.9154272
20
75.5967255
11
81.9154272
21
75.5970255
0
LINE
8
DEFAULT_255_2_778
10
78.8896272
20
36.2439255
11
81.9154272
21
36.1564255
0
LINE
8
DEFAULT_255_2_778
10
82.8891272
20
35.0507255
11
82.8891272
21
3.3438255
0
LINE
8
DEFAULT_255_2_778
10
82.8891272
20
3.3438255
11
82.8891272
21
11.4527255
0
LINE
8
DEFAULT_255_2_778
10
63.0167272
20
-0.0941745
11
62.8918272
21
0.0513255
0
LINE
8
DEFAULT_255_2_778
10
62.8918272
20
0.0513255
11
62.8918272
21
19.7977255
0
LINE
8
DEFAULT_255_2_778
10
62.8918272
20
19.7977255
11
63.0167272
21
19.7977255
0
LINE
8
DEFAULT_255_2_778
10
63.0167272
20
19.7977255
11
63.0167272
21
2.6360255
0
LINE
8
DEFAULT_255_2_778
10
63.0167272
20
2.6360255
11
65.7517272
21
2.6334255
0
LINE
8
DEFAULT_255_2_778
10
65.7517272
20
2.6334255
11
65.7517272
21
4.9823255
0
LINE
8
DEFAULT_255_2_778
10
65.7517272
20
4.9823255
11
65.7544272
21
4.9823255
0
LINE
8
DEFAULT_255_2_778
10
62.8916272
20
91.9551255
11
62.8916272
21
111.7015255
0
LINE
8
DEFAULT_255_2_778
10
62.8916272
20
111.7015255
11
62.7667272
21
111.8470255
0
LINE
8
DEFAULT_255_2_778
10
65.7517272
20
109.1168255
11
63.0167272
21
109.1168255
0
LINE
8
DEFAULT_255_2_778
10
63.0167272
20
109.1168255
11
63.0167272
21
91.9546255
0
LINE
8
DEFAULT_255_2_778
10
63.0167272
20
91.9546255
11
62.8918272
21
91.9546255
0
LINE
8
DEFAULT_255_2_778
10
62.8918272
20
91.9546255
11
62.8918272
21
91.5802255
0
LINE
8
DEFAULT_255_2_778
10
62.8918272
20
91.5802255
11
62.7635272
21
91.4275255
0
LINE
8
DEFAULT_255_2_778
10
62.7635272
20
91.4275255
11
63.3887272
21
91.3450255
0
LINE
8
DEFAULT_255_2_778
10
62.8918272
20
82.9953255
11
62.8918272
21
88.8870255
0
LINE
8
DEFAULT_255_2_778
10
62.8918272
20
88.8870255
11
63.0167272
21
88.8870255
0
LINE
8
DEFAULT_255_2_778
10
63.0167272
20
88.8870255
11
63.0167272
21
82.9955255
0
LINE
8
DEFAULT_255_2_778
10
63.0167272
20
82.9955255
11
65.7517272
21
82.9955255
0
LINE
8
DEFAULT_255_2_778
10
65.7517272
20
82.9955255
11
65.7517272
21
84.5031255
0
LINE
8
DEFAULT_255_2_778
10
65.7517272
20
84.5031255
11
78.0231272
21
84.5031255
0
LINE
8
DEFAULT_255_2_778
10
78.0231272
20
84.5031255
11
78.0231272
21
27.2499255
0
LINE
8
DEFAULT_255_2_778
10
78.0231272
20
27.2499255
11
65.7517272
21
27.2499255
0
LINE
8
DEFAULT_255_2_778
10
65.7517272
20
28.7575255
11
63.0167272
21
28.7575255
0
LINE
8
DEFAULT_255_2_778
10
63.0167272
20
28.7575255
11
63.0167272
21
22.8655255
0
LINE
8
DEFAULT_255_2_778
10
63.0167272
20
22.8655255
11
62.8918272
21
22.8655255
0
LINE
8
DEFAULT_255_2_778
10
62.8918272
20
22.8655255
11
62.8918272
21
28.7573255
0
LINE
8
DEFAULT_255_2_778
10
65.7520272
20
84.5029255
11
65.7520272
21
103.7495255
0
LINE
8
DEFAULT_255_2_778
10
65.7520272
20
8.0034255
11
65.7520272
21
28.7573255
0
LINE
8
DEFAULT_255_2_778
10
65.7520272
20
28.7573255
11
77.5826272
21
28.7573255
0
LINE
8
DEFAULT_255_2_778
10
77.5826272
20
28.7573255
11
77.5826272
21
42.3301255
0
LINE
8
DEFAULT_255_2_778
10
77.5826272
20
42.3301255
11
77.1865272
21
42.3278255
0
LINE
8
DEFAULT_255_2_778
10
65.7523272
20
109.1197255
11
65.7523272
21
109.1168255
0
LINE
8
DEFAULT_255_2_778
10
65.7523272
20
109.1168255
11
65.7523272
21
109.1168255
0
LINE
8
DEFAULT_255_2_778
10
65.7523272
20
109.1168255
11
65.7523272
21
106.7705255
0
LINE
8
DEFAULT_255_2_778
10
65.7523272
20
106.7705255
11
65.7549272
21
106.7705255
0
LINE
8
DEFAULT_255_2_778
10
65.7538272
20
111.9264255
11
63.0170272
21
111.8473255
0
LINE
8
DEFAULT_255_2_778
10
63.0170272
20
111.8473255
11
63.0170272
21
109.1171255
0
LINE
8
DEFAULT_255_2_778
10
81.2494272
20
37.9129255
11
80.2051272
21
37.9129255
0
LINE
8
DEFAULT_255_2_778
10
80.2051272
20
37.9129255
11
80.1398272
21
36.2537255
0
LINE
8
DEFAULT_255_2_778
10
80.7880272
20
111.1766255
11
82.8893272
21
111.2171255
0
LINE
8
DEFAULT_255_2_778
10
82.8893272
20
111.2171255
11
82.8893272
21
108.7241255
0
LINE
8
DEFAULT_255_2_778
10
0.1893272
20
58.5031255
11
0.1893272
21
40.9165255
0
LINE
8
DEFAULT_255_2_778
10
0.1893272
20
40.9165255
11
0.3510272
21
40.9165255
0
LINE
8
DEFAULT_255_2_778
10
0.5827272
20
5.9698255
11
0.3510272
21
5.9698255
0
LINE
8
DEFAULT_255_2_778
10
0.3510272
20
5.9698255
11
0.3510272
21
4.4595255
0
LINE
8
DEFAULT_255_2_778
10
0.5526272
20
4.1883255
11
9.5325272
21
2.2653255
0
LINE
8
DEFAULT_255_2_778
10
9.5325272
20
2.2653255
11
13.1351272
21
2.0912255
0
LINE
8
DEFAULT_255_2_778
10
62.8918272
20
0.0516255
11
62.7670272
21
-0.0938745
0
LINE
8
DEFAULT_255_2_778
10
62.7670272
20
-0.0938745
11
60.6588272
21
-0.1550745
0
LINE
8
DEFAULT_255_2_778
10
62.7670272
20
-0.0938745
11
62.7670272
21
19.6675255
0
LINE
8
DEFAULT_255_2_778
10
62.7670272
20
19.6675255
11
60.0267272
21
19.6387255
0
LINE
8
DEFAULT_255_2_778
10
60.0267272
20
92.1144255
11
62.7670272
21
92.0856255
0
LINE
8
DEFAULT_255_2_778
10
62.7670272
20
92.0856255
11
62.7670272
21
111.8473255
0
LINE
8
DEFAULT_255_2_778
10
62.7670272
20
111.8473255
11
60.6588272
21
111.9084255
0
LINE
8
DEFAULT_255_2_778
10
0.3512272
20
107.2472255
11
0.3512272
21
107.2065255
0
LINE
8
DEFAULT_255_2_778
10
0.3512272
20
107.2065255
11
0.3512272
21
89.4781255
0
LINE
8
DEFAULT_255_2_778
10
13.1354272
20
109.6616255
11
9.5328272
21
109.4875255
0
LINE
8
DEFAULT_255_2_778
10
9.1531272
20
109.4372255
11
0.5528272
21
107.5647255
0
LINE
8
DEFAULT_255_2_778
10
0.5528272
20
107.5647255
11
0.5542272
21
107.4682255
0
LINE
8
DEFAULT_255_2_778
10
0.5542272
20
107.4682255
11
0.5550272
21
107.3959255
0
LINE
8
DEFAULT_255_2_778
10
0.5550272
20
107.3959255
11
0.5687272
21
106.6329255
0
LINE
8
DEFAULT_255_2_778
10
0.5687272
20
106.6329255
11
0.5822272
21
105.8285255
0
LINE
8
DEFAULT_255_2_778
10
0.5822272
20
105.8285255
11
0.6013272
21
104.7117255
0
LINE
8
DEFAULT_255_2_778
10
0.6013272
20
104.7117255
11
9.6437272
21
106.6808255
0
LINE
8
DEFAULT_255_2_778
10
9.6437272
20
106.6808255
11
13.1573272
21
106.8504255
0
LINE
8
DEFAULT_255_2_778
10
4.8505272
20
19.6384255
11
60.0272272
21
19.6384255
0
LINE
8
DEFAULT_255_2_778
10
60.0272272
20
19.6384255
11
60.0272272
21
7.1316255
0
LINE
8
DEFAULT_255_2_778
10
0.6010272
20
36.7157255
11
0.3510272
21
36.7157255
0
LINE
8
DEFAULT_255_2_778
10
0.3510272
20
36.7157255
11
0.3510272
21
89.6665255
0
LINE
8
DEFAULT_255_2_778
10
0.3510272
20
22.7666255
11
0.3510272
21
22.7666255
0
LINE
8
DEFAULT_255_2_778
10
0.3510272
20
22.7666255
11
0.3510272
21
23.0222255
0
LINE
8
DEFAULT_255_2_778
10
0.3510272
20
23.0222255
11
0.3510272
21
36.5752255
0
LINE
8
DEFAULT_255_2_778
10
0.3510272
20
36.5752255
11
0.6010272
21
36.5752255
0
LINE
8
DEFAULT_255_2_778
10
0.6010272
20
36.5752255
11
2.4748272
21
36.5752255
0
LINE
8
DEFAULT_255_2_778
10
2.4748272
20
36.5752255
11
4.7235272
21
36.5535255
0
LINE
8
DEFAULT_255_2_778
10
4.7235272
20
36.5535255
11
4.8505272
21
36.5522255
0
LINE
8
DEFAULT_255_2_778
10
0.5859272
20
6.1103255
11
0.3510272
21
6.1103255
0
LINE
8
DEFAULT_255_2_778
10
0.3510272
20
6.1103255
11
0.3510272
21
7.0001255
0
LINE
8
DEFAULT_255_2_778
10
0.3510272
20
7.0001255
11
0.3510272
21
19.6352255
0
LINE
8
DEFAULT_255_2_778
10
0.3510272
20
19.6352255
11
0.3510272
21
19.8908255
0
LINE
8
DEFAULT_255_2_778
10
0.3510272
20
19.8908255
11
0.3510272
21
19.8908255
0
ENDSEC
0
EOF