0
SECTION
2
HEADER
9
$MEASUREMENT
70
1
0
ENDSEC
0
SECTION
2
TABLES
0
TABLE
2
LTYPE
0
LTYPE
72
65
70
64
2
CONTINUOUS
3
______
73
0
40
0
0
ENDTAB
0
TABLE
2
LAYER
0
LAYER
2
DEFAULT_255_2_778
70
0
62
255
6
CONTINUOUS
0
LAYER
2
DEFAULT_255_1_234
70
0
62
255
6
CONTINUOUS
0
ENDTAB
0
ENDSEC
0
SECTION
2
ENTITIES
0
ARC
8
DEFAULT_255_2_778
10
3.5700693
20
51.9926534
40
0.7914215
50
129.1312896
51
180.1450914
0
ARC
8
DEFAULT_255_2_778
10
3.5703345
20
51.9931405
40
0.7912112
50
89.854026
51
129.1684493
0
ARC
8
DEFAULT_255_2_778
10
25.7993937
20
51.992827
40
0.7915249
50
39.4792447
51
90.147911
0
ARC
8
DEFAULT_255_2_778
10
25.7999935
20
51.9926737
40
0.7911595
50
359.8533901
51
39.5154338
0
ARC
8
DEFAULT_255_2_778
10
25.7996693
20
-1.9863989
40
0.7914836
50
309.4761667
51
0.1482649
0
ARC
8
DEFAULT_255_2_778
10
25.799398
20
-1.98683
40
0.7913235
50
269.8517415
51
309.511178
0
ARC
8
DEFAULT_255_2_778
10
3.570342
20
-1.9867718
40
0.7913815
50
219.1282118
51
270.1454017
0
ARC
8
DEFAULT_255_2_778
10
3.5700247
20
-1.9863893
40
0.7913769
50
179.8524075
51
219.1641908
0
LINE
8
DEFAULT_255_2_778
10
3.5723503
20
52.7843492
11
25.7973503
21
52.7843492
0
LINE
8
DEFAULT_255_2_778
10
26.5911503
20
51.9906492
11
26.5911503
21
-1.9843508
0
LINE
8
DEFAULT_255_2_778
10
25.7973503
20
-2.7781508
11
3.5723503
21
-2.7781508
0
LINE
8
DEFAULT_255_2_778
10
2.7786503
20
-1.9843508
11
2.7786503
21
51.9906492
0
LINE
8
DEFAULT_255_1_234
10
10.7045392
20
-0.6513
11
10.2989364
21
-0.6513
0
LINE
8
DEFAULT_255_1_234
10
10.2989364
20
-0.6513
11
10.2989364
21
0.5181211
0
LINE
8
DEFAULT_255_1_234
10
10.2989364
20
0.5181211
11
10.6812471
21
0.5181211
0
LINE
8
DEFAULT_255_1_234
10
10.7101614
20
-0.1043386
11
10.4531458
21
-0.1043386
0
LINE
8
DEFAULT_255_1_234
10
10.4531458
20
-0.1043386
11
10.4531458
21
-0.5252017
0
LINE
8
DEFAULT_255_1_234
10
10.4531458
20
-0.5252017
11
10.7077519
21
-0.5252017
0
LINE
8
DEFAULT_255_1_234
10
10.4531458
20
0.3912196
11
10.4531458
21
0.0193501
0
LINE
8
DEFAULT_255_1_234
10
10.4531458
20
0.0193501
11
10.6860662
21
0.0193501
0
LINE
8
DEFAULT_255_1_234
10
10.6812471
20
0.3912196
11
10.4531458
21
0.3912196
0
ARC
8
DEFAULT_255_1_234
10
10.685018
20
-0.2186099
40
0.7367406
50
82.1257326
51
90.2932599
0
ARC
8
DEFAULT_255_1_234
10
10.7239135
20
0.0532013
40
0.4621653
50
69.9044149
51
82.2857423
0
ARC
8
DEFAULT_255_1_234
10
10.7809813
20
0.2074637
40
0.2976871
50
51.1838526
51
70.0181538
0
ARC
8
DEFAULT_255_1_234
10
10.8064779
20
0.244524
40
0.2528517
50
12.1017251
51
50.4214761
0
ARC
8
DEFAULT_255_1_234
10
10.6680653
20
0.2097676
40
0.3955061
50
359.5251267
51
12.8211707
0
ARC
8
DEFAULT_255_1_234
10
10.8260579
20
0.2028344
40
0.2375281
50
323.4908128
51
0.8817314
0
ARC
8
DEFAULT_255_1_234
10
10.7842266
20
0.235155
40
0.2903817
50
298.6825083
51
323.2756573
0
ARC
8
DEFAULT_255_1_234
10
10.7480629
20
0.2952649
40
0.3604842
50
293.1999386
51
299.1396394
0
ARC
8
DEFAULT_255_1_234
10
10.8153602
20
-0.3132874
40
0.2871098
50
54.0011765
51
74.9167975
0
ARC
8
DEFAULT_255_1_234
10
10.8269961
20
-0.2935668
40
0.2643248
50
36.3580696
51
53.5291921
0
ARC
8
DEFAULT_255_1_234
10
10.8143203
20
-0.3026002
40
0.2798884
50
4.8189881
51
36.3089977
0
ARC
8
DEFAULT_255_1_234
10
10.7364038
20
-0.313573
40
0.358478
50
359.9370252
51
5.5204067
0
ARC
8
DEFAULT_255_1_234
10
10.703956
20
-0.3176333
40
0.3909429
50
344.7478609
51
0.5373281
0
ARC
8
DEFAULT_255_1_234
10
10.8030531
20
-0.3443456
40
0.2883093
50
311.1786488
51
344.6886812
0
ARC
8
DEFAULT_255_1_234
10
10.7738578
20
-0.3080013
40
0.3348923
50
286.0418249
51
310.8441291
0
ARC
8
DEFAULT_255_1_234
10
10.723141
20
-0.1433193
40
0.5071869
50
274.1042341
51
286.4071509
0
ARC
8
DEFAULT_255_1_234
10
10.7054666
20
0.0450229
40
0.6963234
50
269.9236873
51
274.445647
0
ARC
8
DEFAULT_255_1_234
10
10.7100667
20
-0.1889463
40
0.3362634
50
269.6055768
51
281.3740047
0
ARC
8
DEFAULT_255_1_234
10
10.7331305
20
-0.2982647
40
0.224546
50
281.1055983
51
302.5132223
0
ARC
8
DEFAULT_255_1_234
10
10.7478204
20
-0.3246177
40
0.1944357
50
303.0368945
51
311.8811219
0
ARC
8
DEFAULT_255_1_234
10
10.7549611
20
-0.333111
40
0.1833454
50
311.9916004
51
351.7143462
0
ARC
8
DEFAULT_255_1_234
10
10.6732841
20
-0.316607
40
0.2665871
50
350.7339597
51
0.2221581
0
ARC
8
DEFAULT_255_1_234
10
10.6625287
20
-0.3109533
40
0.2773789
50
359.0456241
51
17.2296242
0
ARC
8
DEFAULT_255_1_234
10
10.7664404
20
-0.2800837
40
0.1689915
50
17.6685481
51
78.9940892
0
ARC
8
DEFAULT_255_1_234
10
10.7147568
20
-0.4655776
40
0.3612658
50
76.5635957
51
90.6980921
0
LINE
8
DEFAULT_255_1_234
10
10.7103552
20
-0.1043387
11
10.7101614
21
-0.1043386
0
ARC
8
DEFAULT_255_1_234
10
10.6883228
20
0.3479036
40
0.3285612
50
269.6064736
51
281.4533503
0
ARC
8
DEFAULT_255_1_234
10
10.7106048
20
0.2427688
40
0.2210975
50
281.2041486
51
302.5148063
0
ARC
8
DEFAULT_255_1_234
10
10.7242898
20
0.2181241
40
0.1929674
50
303.021671
51
309.8369575
0
ARC
8
DEFAULT_255_1_234
10
10.7426359
20
0.1975488
40
0.1654181
50
309.5228395
51
356.9509836
0
ARC
8
DEFAULT_255_1_234
10
10.6762942
20
0.2070932
40
0.2322512
50
355.4701227
51
0.0492546
0
ARC
8
DEFAULT_255_1_234
10
10.6484033
20
0.2093094
40
0.2601498
50
359.5558597
51
11.2096359
0
ARC
8
DEFAULT_255_1_234
10
10.7441323
20
0.229123
40
0.1623975
50
10.9182341
51
31.3230275
0
ARC
8
DEFAULT_255_1_234
10
10.7727056
20
0.2450214
40
0.1297302
50
31.8852677
51
52.1412565
0
ARC
8
DEFAULT_255_1_234
10
10.7452789
20
0.206275
40
0.1771663
50
52.8285564
51
71.9850297
0
ARC
8
DEFAULT_255_1_234
10
10.7076965
20
0.0956664
40
0.2939794
50
71.6863486
51
82.8455995
0
ARC
8
DEFAULT_255_1_234
10
10.6837501
20
-0.0852851
40
0.476506
50
82.6984714
51
90.1729175
0
ARC
8
DEFAULT_255_1_234
10
10.6815136
20
0.0370623
40
0.3541573
50
89.8708275
51
90.0431131
0
LINE
8
DEFAULT_255_1_234
10
12.0056808
20
-0.6513
11
11.7518778
21
-0.1782306
0
LINE
8
DEFAULT_255_1_234
10
11.7518778
20
-0.1782306
11
11.4771924
21
-0.1782306
0
LINE
8
DEFAULT_255_1_234
10
11.4771924
20
-0.1782306
11
11.4771924
21
-0.6513
0
LINE
8
DEFAULT_255_1_234
10
11.4771924
20
-0.6513
11
11.3221798
21
-0.6513
0
LINE
8
DEFAULT_255_1_234
10
11.3221798
20
-0.6513
11
11.3221798
21
0.5181211
0
LINE
8
DEFAULT_255_1_234
10
11.3221798
20
0.5181211
11
11.7093096
21
0.5181211
0
LINE
8
DEFAULT_255_1_234
10
11.8964491
20
-0.1453005
11
12.1711346
21
-0.6416619
0
LINE
8
DEFAULT_255_1_234
10
12.1711346
20
-0.6416619
11
12.1711346
21
-0.6513
0
LINE
8
DEFAULT_255_1_234
10
12.1711346
20
-0.6513
11
12.0056808
21
-0.6513
0
LINE
8
DEFAULT_255_1_234
10
11.4771924
20
0.3912196
11
11.4771924
21
-0.0521323
0
LINE
8
DEFAULT_255_1_234
10
11.4771924
20
-0.0521323
11
11.7141287
21
-0.0521323
0
LINE
8
DEFAULT_255_1_234
10
11.7133255
20
0.3912196
11
11.4771924
21
0.3912196
0
ARC
8
DEFAULT_255_1_234
10
11.7134736
20
-0.1780239
40
0.6961575
50
80.653586
51
90.3427061
0
ARC
8
DEFAULT_255_1_234
10
11.755421
20
0.0682348
40
0.4463577
50
65.6987447
51
80.8329603
0
ARC
8
DEFAULT_255_1_234
10
11.8031851
20
0.1777322
40
0.3269094
50
50.0017161
51
65.4305835
0
ARC
8
DEFAULT_255_1_234
10
11.8250315
20
0.2072482
40
0.2902647
50
11.628416
51
49.5603263
0
ARC
8
DEFAULT_255_1_234
10
11.6714651
20
0.1697299
40
0.4482792
50
359.5655735
51
12.3691
0
ARC
8
DEFAULT_255_1_234
10
11.7791511
20
0.1634644
40
0.3405924
50
341.9983148
51
0.4822259
0
ARC
8
DEFAULT_255_1_234
10
11.8186351
20
0.1527471
40
0.2997359
50
323.8609373
51
341.61416
0
ARC
8
DEFAULT_255_1_234
10
11.7884595
20
0.1760484
40
0.3378487
50
296.7018614
51
323.6876402
0
ARC
8
DEFAULT_255_1_234
10
11.7443491
20
0.2549235
40
0.4281516
50
290.8086567
51
297.2323311
0
ARC
8
DEFAULT_255_1_234
10
11.716702
20
0.3072351
40
0.3593766
50
269.589728
51
281.8058135
0
ARC
8
DEFAULT_255_1_234
10
11.7417919
20
0.1924743
40
0.2419125
50
281.5501019
51
303.9357432
0
ARC
8
DEFAULT_255_1_234
10
11.7555107
20
0.1686936
40
0.2145323
50
304.4415616
51
311.2106213
0
ARC
8
DEFAULT_255_1_234
10
11.7687212
20
0.1547632
40
0.1953505
50
310.9875673
51
356.2715578
0
ARC
8
DEFAULT_255_1_234
10
11.6930861
20
0.1660422
40
0.2716331
50
354.9348262
51
0.0609027
0
ARC
8
DEFAULT_255_1_234
10
11.6743735
20
0.1687435
40
0.2903554
50
359.5239371
51
12.8808918
0
ARC
8
DEFAULT_255_1_234
10
11.7721291
20
0.1926728
40
0.1897315
50
12.4173452
51
43.1022135
0
ARC
8
DEFAULT_255_1_234
10
11.7782895
20
0.1963724
40
0.1827118
50
43.5751728
51
48.203944
0
ARC
8
DEFAULT_255_1_234
10
11.7613387
20
0.1742302
40
0.2105272
50
48.7809703
51
72.6969569
0
ARC
8
DEFAULT_255_1_234
10
11.7259012
20
0.066682
40
0.3237537
50
72.3702241
51
84.8791103
0
ARC
8
DEFAULT_255_1_234
10
11.7111488
20
-0.0675231
40
0.4587478
50
84.5400526
51
89.7281406
0
LINE
8
DEFAULT_255_1_234
10
12.4353788
20
0.5181211
11
12.7172928
21
0.0699501
0
LINE
8
DEFAULT_255_1_234
10
12.7172928
20
0.0699501
11
12.9976004
21
0.5181211
0
LINE
8
DEFAULT_255_1_234
10
12.9976004
20
0.5181211
11
13.1791177
21
0.5181211
0
LINE
8
DEFAULT_255_1_234
10
13.1791177
20
0.5181211
11
12.8096578
21
-0.0617704
0
LINE
8
DEFAULT_255_1_234
10
12.8096578
20
-0.0617704
11
13.1879526
21
-0.6513
0
LINE
8
DEFAULT_255_1_234
10
13.1879526
20
-0.6513
11
13.004829
21
-0.6513
0
LINE
8
DEFAULT_255_1_234
10
13.004829
20
-0.6513
11
12.7172928
21
-0.1950973
0
LINE
8
DEFAULT_255_1_234
10
12.7172928
20
-0.1950973
11
12.4281502
21
-0.6513
0
LINE
8
DEFAULT_255_1_234
10
12.4281502
20
-0.6513
11
12.2458297
21
-0.6513
0
LINE
8
DEFAULT_255_1_234
10
12.2458297
20
-0.6513
11
12.6249278
21
-0.0617704
0
LINE
8
DEFAULT_255_1_234
10
12.6249278
20
-0.0617704
11
12.2546646
21
0.5181211
0
LINE
8
DEFAULT_255_1_234
10
12.2546646
20
0.5181211
11
12.4353788
21
0.5181211
0
LINE
8
DEFAULT_255_1_234
10
13.6160443
20
-0.0938974
11
13.6160443
21
-0.2151766
0
LINE
8
DEFAULT_255_1_234
10
13.6160443
20
-0.2151766
11
13.2240955
21
-0.2151766
0
LINE
8
DEFAULT_255_1_234
10
13.2240955
20
-0.2151766
11
13.2240955
21
-0.0938974
0
LINE
8
DEFAULT_255_1_234
10
13.2240955
20
-0.0938974
11
13.6160443
21
-0.0938974
0
LINE
8
DEFAULT_255_1_234
10
14.5597735
20
0.1799849
11
14.404761
21
0.1799849
0
LINE
8
DEFAULT_255_1_234
10
13.7124251
20
-0.3123606
11
13.8674377
21
-0.3123606
0
ARC
8
DEFAULT_255_1_234
10
14.4706423
20
1.0746768
40
1.252368
50
248.9199003
51
254.1439814
0
ARC
8
DEFAULT_255_1_234
10
14.3025918
20
0.6420234
40
0.788226
50
241.633709
51
249.0064503
0
ARC
8
DEFAULT_255_1_234
10
14.1497312
20
0.3619317
40
0.4691427
50
230.498225
51
241.8087113
0
ARC
8
DEFAULT_255_1_234
10
14.0712886
20
0.2619906
40
0.3421437
50
227.4064532
51
229.9881192
0
ARC
8
DEFAULT_255_1_234
10
14.0225407
20
0.2144088
40
0.2741476
50
200.6781896
51
228.1763934
0
ARC
8
DEFAULT_255_1_234
10
14.0297718
20
0.2129077
40
0.2804109
50
179.5061581
51
199.8694617
0
ARC
8
DEFAULT_255_1_234
10
14.0288469
20
0.220321
40
0.2795204
50
132.4834203
51
181.0242172
0
ARC
8
DEFAULT_255_1_234
10
14.0884052
20
0.1640704
40
0.3612768
50
129.2532479
51
133.4242687
0
ARC
8
DEFAULT_255_1_234
10
14.1030501
20
0.1420965
40
0.3875675
50
101.98776
51
128.8742646
0
ARC
8
DEFAULT_255_1_234
10
14.1429112
20
-0.0300259
40
0.5642249
50
89.5906553
51
102.3169264
0
ARC
8
DEFAULT_255_1_234
10
14.1499604
20
0.0018148
40
0.5323783
50
77.2360837
51
90.3248275
0
ARC
8
DEFAULT_255_1_234
10
14.1706683
20
0.09854
40
0.4334697
50
63.837784
51
77.0809408
0
ARC
8
DEFAULT_255_1_234
10
14.1984445
20
0.1502911
40
0.3747796
50
45.9864267
51
64.1607727
0
ARC
8
DEFAULT_255_1_234
10
14.2245326
20
0.1800866
40
0.3352302
50
32.2747395
51
45.6547121
0
ARC
8
DEFAULT_255_1_234
10
14.2311767
20
0.181988
40
0.328603
50
359.6507365
51
32.6130309
0
ARC
8
DEFAULT_255_1_234
10
14.1368862
20
0.182466
40
0.2678863
50
359.469343
51
14.9832209
0
ARC
8
DEFAULT_255_1_234
10
14.2073924
20
0.2013539
40
0.1948938
50
14.9781179
51
48.2004265
0
ARC
8
DEFAULT_255_1_234
10
14.1909569
20
0.1806983
40
0.2212521
50
48.5927837
51
74.1241538
0
ARC
8
DEFAULT_255_1_234
10
14.1576058
20
0.0706248
40
0.3362561
50
73.7888341
51
86.6652678
0
ARC
8
DEFAULT_255_1_234
10
14.1473624
20
-0.0501119
40
0.4573953
50
86.2640471
51
90.0526343
0
ARC
8
DEFAULT_255_1_234
10
14.1445336
20
-0.0105808
40
0.4178709
50
89.6697524
51
99.2309573
0
ARC
8
DEFAULT_255_1_234
10
14.1202787
20
0.1338964
40
0.2713749
50
99.069534
51
113.7658566
0
ARC
8
DEFAULT_255_1_234
10
14.0928978
20
0.1984677
40
0.2012469
50
114.0401004
51
127.9850673
0
ARC
8
DEFAULT_255_1_234
10
14.0688542
20
0.228073
40
0.1631167
50
127.7287463
51
176.7105154
0
ARC
8
DEFAULT_255_1_234
10
14.136726
20
0.2179693
40
0.2315392
50
175.1779447
51
180.0581938
0
ARC
8
DEFAULT_255_1_234
10
14.0524106
20
0.2167428
40
0.1472271
50
179.6142195
51
228.1246017
0
ARC
8
DEFAULT_255_1_234
10
14.0965775
20
0.2576308
40
0.2072299
50
226.5779593
51
230.8800004
0
ARC
8
DEFAULT_255_1_234
10
14.1436854
20
0.3201636
40
0.2854818
50
231.4635071
51
241.9260842
0
ARC
8
DEFAULT_255_1_234
10
14.2634032
20
0.54048
40
0.53622
50
241.7178533
51
248.3259551
0
ARC
8
DEFAULT_255_1_234
10
14.4019404
20
0.8837064
40
0.9063478
50
248.2007737
51
252.4528373
0
ARC
8
DEFAULT_255_1_234
10
14.5223128
20
1.2558441
40
1.2974635
50
252.3391078
51
254.3469452
0
ARC
8
DEFAULT_255_1_234
10
13.7680831
20
-1.4418852
40
1.5037162
50
71.0197183
51
74.4087047
0
ARC
8
DEFAULT_255_1_234
10
13.9375516
20
-0.9526889
40
0.9859993
50
66.1847285
51
71.086374
0
ARC
8
DEFAULT_255_1_234
10
14.0931829
20
-0.60228
40
0.6025855
50
59.3536294
51
66.2691831
0
ARC
8
DEFAULT_255_1_234
10
14.1820481
20
-0.4519391
40
0.4279449
50
49.1020879
51
59.3293958
0
ARC
8
DEFAULT_255_1_234
10
14.2639221
20
-0.3586166
40
0.3038015
50
32.7919921
51
49.2505539
0
ARC
8
DEFAULT_255_1_234
10
14.2960311
20
-0.3357809
40
0.264448
50
31.1181161
51
32.4005348
0
ARC
8
DEFAULT_255_1_234
10
14.2871849
20
-0.3393221
40
0.2738556
50
8.1116974
51
30.7958831
0
ARC
8
DEFAULT_255_1_234
10
14.2061517
20
-0.3531247
40
0.3560327
50
359.8389159
51
8.4706516
0
ARC
8
DEFAULT_255_1_234
10
14.2687308
20
-0.3579863
40
0.2934776
50
337.4731098
51
0.7537279
0
ARC
8
DEFAULT_255_1_234
10
14.2866003
20
-0.3599613
40
0.2762607
50
307.5917067
51
336.4315538
0
ARC
8
DEFAULT_255_1_234
10
14.2405831
20
-0.3086898
40
0.3449979
50
307.6551545
51
308.4529766
0
ARC
8
DEFAULT_255_1_234
10
14.217555
20
-0.273175
40
0.3871988
50
284.3734338
51
307.1424381
0
ARC
8
DEFAULT_255_1_234
10
14.168038
20
-0.0910068
40
0.5759636
50
272.4382747
51
284.646547
0
ARC
8
DEFAULT_255_1_234
10
14.1553589
20
0.0889893
40
0.7563528
50
269.9708387
51
272.8178037
0
ARC
8
DEFAULT_255_1_234
10
14.1510628
20
-0.1148284
40
0.5525489
50
248.2707594
51
270.4055579
0
ARC
8
DEFAULT_255_1_234
10
14.145637
20
-0.1338808
40
0.5328452
50
246.1383403
51
248.0542782
0
ARC
8
DEFAULT_255_1_234
10
14.1037749
20
-0.2218157
40
0.4355005
50
233.1670131
51
246.4950969
0
ARC
8
DEFAULT_255_1_234
10
14.0483653
20
-0.2966188
40
0.3424126
50
215.3403242
51
233.0843104
0
ARC
8
DEFAULT_255_1_234
10
14.0211085
20
-0.3164451
40
0.3087104
50
179.2419209
51
215.2648451
0
ARC
8
DEFAULT_255_1_234
10
14.0978679
20
-0.3150334
40
0.2304457
50
179.335461
51
199.1045811
0
ARC
8
DEFAULT_255_1_234
10
14.0646355
20
-0.3237234
40
0.1962176
50
199.8828939
51
232.7063202
0
ARC
8
DEFAULT_255_1_234
10
14.1118623
20
-0.2643212
40
0.2720938
50
232.3738199
51
255.5136649
0
ARC
8
DEFAULT_255_1_234
10
14.145949
20
-0.1399165
40
0.4010747
50
255.2446292
51
267.5320849
0
ARC
8
DEFAULT_255_1_234
10
14.1547113
20
-0.0166298
40
0.5246356
50
267.1557994
51
270.0286766
0
ARC
8
DEFAULT_255_1_234
10
14.1574886
20
-0.061005
40
0.4802668
50
269.7000017
51
278.1660162
0
ARC
8
DEFAULT_255_1_234
10
14.1830891
20
-0.2340485
40
0.3053425
50
278.0231263
51
290.625471
0
ARC
8
DEFAULT_255_1_234
10
14.2178578
20
-0.3267975
40
0.206291
50
290.6619762
51
307.0370976
0
ARC
8
DEFAULT_255_1_234
10
14.2478967
20
-0.3636496
40
0.1587906
50
306.3943566
51
355.3030547
0
ARC
8
DEFAULT_255_1_234
10
14.1966898
20
-0.3559887
40
0.2104809
50
354.3660432
51
0.0698737
0
ARC
8
DEFAULT_255_1_234
10
14.2109243
20
-0.3537383
40
0.1962563
50
359.417946
51
16.1971788
0
ARC
8
DEFAULT_255_1_234
10
14.2564554
20
-0.3412582
40
0.149053
50
16.4723299
51
52.6262157
0
ARC
8
DEFAULT_255_1_234
10
14.1743608
20
-0.4496567
40
0.2850296
50
52.7386432
51
62.4979148
0
ARC
8
DEFAULT_255_1_234
10
14.0358685
20
-0.7102717
40
0.5801521
50
62.2515216
51
68.1220564
0
ARC
8
DEFAULT_255_1_234
10
13.8638595
20
-1.1330128
40
1.0365451
50
68.0062803
51
71.8053402
0
ARC
8
DEFAULT_255_1_234
10
13.6842967
20
-1.6715242
40
1.6042013
50
71.7183119
51
73.9258742
0
LINE
8
DEFAULT_255_1_234
10
15.4207759
20
0.0153343
11
15.4207759
21
-0.110764
0
LINE
8
DEFAULT_255_1_234
10
15.4207759
20
-0.110764
11
14.9139732
21
-0.110764
0
LINE
8
DEFAULT_255_1_234
10
14.9139732
20
-0.110764
11
14.9139732
21
-0.5252017
0
LINE
8
DEFAULT_255_1_234
10
14.9139732
20
-0.5252017
11
15.5026996
21
-0.5252017
0
LINE
8
DEFAULT_255_1_234
10
15.5026996
20
-0.5252017
11
15.5026996
21
-0.6513
0
LINE
8
DEFAULT_255_1_234
10
15.5026996
20
-0.6513
11
14.7597638
21
-0.6513
0
LINE
8
DEFAULT_255_1_234
10
14.7597638
20
-0.6513
11
14.7597638
21
0.5181211
0
LINE
8
DEFAULT_255_1_234
10
14.7597638
20
0.5181211
11
15.4946679
21
0.5181211
0
LINE
8
DEFAULT_255_1_234
10
15.4946679
20
0.5181211
11
15.4946679
21
0.3912196
0
LINE
8
DEFAULT_255_1_234
10
15.4946679
20
0.3912196
11
14.9139732
21
0.3912196
0
LINE
8
DEFAULT_255_1_234
10
14.9139732
20
0.3912196
11
14.9139732
21
0.0153343
0
LINE
8
DEFAULT_255_1_234
10
14.9139732
20
0.0153343
11
15.4207759
21
0.0153343
0
LINE
8
DEFAULT_255_1_234
10
16.3773559
20
-0.6513
11
16.123553
21
-0.1782306
0
LINE
8
DEFAULT_255_1_234
10
16.123553
20
-0.1782306
11
15.8488675
21
-0.1782306
0
LINE
8
DEFAULT_255_1_234
10
15.8488675
20
-0.1782306
11
15.8488675
21
-0.6513
0
LINE
8
DEFAULT_255_1_234
10
15.8488675
20
-0.6513
11
15.693855
21
-0.6513
0
LINE
8
DEFAULT_255_1_234
10
15.693855
20
-0.6513
11
15.693855
21
0.5181211
0
LINE
8
DEFAULT_255_1_234
10
15.693855
20
0.5181211
11
16.0809848
21
0.5181211
0
LINE
8
DEFAULT_255_1_234
10
16.2681243
20
-0.1453005
11
16.5428097
21
-0.6416619
0
LINE
8
DEFAULT_255_1_234
10
16.5428097
20
-0.6416619
11
16.5428097
21
-0.6513
0
LINE
8
DEFAULT_255_1_234
10
16.5428097
20
-0.6513
11
16.3773559
21
-0.6513
0
LINE
8
DEFAULT_255_1_234
10
15.8488675
20
0.3912196
11
15.8488675
21
-0.0521323
0
LINE
8
DEFAULT_255_1_234
10
15.8488675
20
-0.0521323
11
16.0858038
21
-0.0521323
0
LINE
8
DEFAULT_255_1_234
10
16.0850006
20
0.3912196
11
15.8488675
21
0.3912196
0
ARC
8
DEFAULT_255_1_234
10
16.0851487
20
-0.1780239
40
0.6961575
50
80.653586
51
90.3427061
0
ARC
8
DEFAULT_255_1_234
10
16.1270962
20
0.0682348
40
0.4463577
50
65.6987447
51
80.8329603
0
ARC
8
DEFAULT_255_1_234
10
16.1748602
20
0.1777322
40
0.3269094
50
50.0017161
51
65.4305835
0
ARC
8
DEFAULT_255_1_234
10
16.1967067
20
0.2072482
40
0.2902647
50
11.628416
51
49.5603263
0
ARC
8
DEFAULT_255_1_234
10
16.0431403
20
0.1697299
40
0.4482792
50
359.5655735
51
12.3691
0
ARC
8
DEFAULT_255_1_234
10
16.1508263
20
0.1634644
40
0.3405924
50
341.9983148
51
0.4822259
0
ARC
8
DEFAULT_255_1_234
10
16.1903103
20
0.1527471
40
0.2997359
50
323.8609373
51
341.61416
0
ARC
8
DEFAULT_255_1_234
10
16.1601347
20
0.1760484
40
0.3378487
50
296.7018614
51
323.6876402
0
ARC
8
DEFAULT_255_1_234
10
16.1160242
20
0.2549235
40
0.4281516
50
290.8086567
51
297.2323311
0
ARC
8
DEFAULT_255_1_234
10
16.0883771
20
0.3072351
40
0.3593766
50
269.589728
51
281.8058135
0
ARC
8
DEFAULT_255_1_234
10
16.1134671
20
0.1924743
40
0.2419125
50
281.5501019
51
303.9357432
0
ARC
8
DEFAULT_255_1_234
10
16.1271858
20
0.1686936
40
0.2145323
50
304.4415616
51
311.2106213
0
ARC
8
DEFAULT_255_1_234
10
16.1403964
20
0.1547632
40
0.1953505
50
310.9875673
51
356.2715578
0
ARC
8
DEFAULT_255_1_234
10
16.0647612
20
0.1660422
40
0.2716331
50
354.9348262
51
0.0609027
0
ARC
8
DEFAULT_255_1_234
10
16.0460487
20
0.1687435
40
0.2903554
50
359.5239371
51
12.8808918
0
ARC
8
DEFAULT_255_1_234
10
16.1438042
20
0.1926728
40
0.1897315
50
12.4173452
51
43.1022135
0
ARC
8
DEFAULT_255_1_234
10
16.1499647
20
0.1963724
40
0.1827118
50
43.5751728
51
48.203944
0
ARC
8
DEFAULT_255_1_234
10
16.1330139
20
0.1742302
40
0.2105272
50
48.7809703
51
72.6969569
0
ARC
8
DEFAULT_255_1_234
10
16.0975763
20
0.066682
40
0.3237537
50
72.3702241
51
84.8791103
0
ARC
8
DEFAULT_255_1_234
10
16.082824
20
-0.0675231
40
0.4587478
50
84.5400526
51
89.7281406
0
LINE
8
DEFAULT_255_1_234
10
16.8729142
20
0.5181211
11
16.8729142
21
-0.6513
0
LINE
8
DEFAULT_255_1_234
10
16.8729142
20
-0.6513
11
16.7187048
21
-0.6513
0
LINE
8
DEFAULT_255_1_234
10
16.7187048
20
-0.6513
11
16.7187048
21
0.5181211
0
LINE
8
DEFAULT_255_1_234
10
16.7187048
20
0.5181211
11
16.8729142
21
0.5181211
0
LINE
8
DEFAULT_255_1_234
10
18.0543829
20
-0.0304466
11
18.0543829
21
-0.1043386
0
LINE
8
DEFAULT_255_1_234
10
17.1138663
20
-0.1147799
11
17.1138663
21
-0.0304466
0
LINE
8
DEFAULT_255_1_234
10
17.9009767
20
-0.1155831
11
17.9009767
21
-0.0288403
0
LINE
8
DEFAULT_255_1_234
10
17.2672725
20
-0.018399
11
17.2672725
21
-0.1043386
0
ARC
8
DEFAULT_255_1_234
10
17.1901855
20
-0.1082985
40
0.8642064
50
350.487711
51
0.2625388
0
ARC
8
DEFAULT_255_1_234
10
17.4195096
20
-0.1477422
40
0.631518
50
336.0277639
51
350.5787438
0
ARC
8
DEFAULT_255_1_234
10
17.553992
20
-0.2085108
40
0.4839466
50
319.8877444
51
336.1328423
0
ARC
8
DEFAULT_255_1_234
10
17.6142561
20
-0.256742
40
0.4067874
50
302.4806467
51
319.6143626
0
ARC
8
DEFAULT_255_1_234
10
17.6027571
20
-0.2345798
40
0.4316636
50
275.8195682
51
302.1884709
0
ARC
8
DEFAULT_255_1_234
10
17.5861204
20
-0.1203335
40
0.5470306
50
269.9171439
51
276.3397983
0
ARC
8
DEFAULT_255_1_234
10
17.5816414
20
-0.1889319
40
0.4784458
50
252.5219675
51
270.4416499
0
ARC
8
DEFAULT_255_1_234
10
17.5672673
20
-0.2428408
40
0.422716
50
237.5352116
51
252.1857531
0
ARC
8
DEFAULT_255_1_234
10
17.5761869
20
-0.2314637
40
0.4371052
50
209.063312
51
237.3492538
0
ARC
8
DEFAULT_255_1_234
10
17.6631717
20
-0.1768315
40
0.5397041
50
205.1183774
51
209.6470015
0
ARC
8
DEFAULT_255_1_234
10
17.7428754
20
-0.143017
40
0.6262326
50
188.7215458
51
204.8240747
0
ARC
8
DEFAULT_255_1_234
10
17.9426282
20
-0.1093933
40
0.8287794
50
180.3723947
51
188.9252049
0
ARC
8
DEFAULT_255_1_234
10
17.9399033
20
-0.0264598
40
0.8260467
50
169.5253763
51
180.2765336
0
ARC
8
DEFAULT_255_1_234
10
17.7496482
20
0.0085309
40
0.6326007
50
155.8315255
51
169.5089989
0
ARC
8
DEFAULT_255_1_234
10
17.6215984
20
0.0679348
40
0.4914567
50
139.6258461
51
156.0379525
0
ARC
8
DEFAULT_255_1_234
10
17.5626317
20
0.1153799
40
0.4158054
50
122.6416387
51
139.3430715
0
ARC
8
DEFAULT_255_1_234
10
17.5726937
20
0.0970451
40
0.4366739
50
93.0223692
51
122.455762
0
ARC
8
DEFAULT_255_1_234
10
17.5834934
20
0.0005709
40
0.5336137
50
89.975342
51
93.6341897
0
ARC
8
DEFAULT_255_1_234
10
17.5873713
20
0.0404242
40
0.4937738
50
73.746375
51
90.4233405
0
ARC
8
DEFAULT_255_1_234
10
17.6049291
20
0.1084287
40
0.4235786
50
57.662753
51
73.4518111
0
ARC
8
DEFAULT_255_1_234
10
17.6041298
20
0.1105832
40
0.4221899
50
29.1440151
51
57.414694
0
ARC
8
DEFAULT_255_1_234
10
17.5106492
20
0.0522005
40
0.5322966
50
24.0982783
51
29.7323517
0
ARC
8
DEFAULT_255_1_234
10
17.4072768
20
0.0093399
40
0.6441673
50
8.6655297
51
23.8241346
0
ARC
8
DEFAULT_255_1_234
10
17.1838506
20
-0.0271146
40
0.8705386
50
359.7806941
51
8.8218784
0
ARC
8
DEFAULT_255_1_234
10
17.0691504
20
-0.0245655
40
0.8318373
50
359.7055579
51
8.036044
0
ARC
8
DEFAULT_255_1_234
10
17.369151
20
0.0191239
40
0.5286768
50
7.8928306
51
20.2962107
0
ARC
8
DEFAULT_255_1_234
10
17.531908
20
0.0791395
40
0.3552073
50
20.3231126
51
36.4992797
0
ARC
8
DEFAULT_255_1_234
10
17.6004626
20
0.1319402
40
0.2686974
50
36.1437156
51
85.6627023
0
ARC
8
DEFAULT_255_1_234
10
17.5842172
20
0.0279221
40
0.373739
50
84.3852322
51
90.0757696
0
ARC
8
DEFAULT_255_1_234
10
17.5799845
20
0.0939839
40
0.3076997
50
89.3038458
51
109.9045693
0
ARC
8
DEFAULT_255_1_234
10
17.5707236
20
0.1322062
40
0.2686424
50
110.8228367
51
143.9179474
0
ARC
8
DEFAULT_255_1_234
10
17.6640896
20
0.0609236
40
0.3860887
50
143.5289163
51
163.2980757
0
ARC
8
DEFAULT_255_1_234
10
17.8548717
20
0.0009433
40
0.5860659
50
163.0418846
51
174.3140048
0
ARC
8
DEFAULT_255_1_234
10
18.0952829
20
-0.0268146
40
0.8280531
50
174.0509143
51
179.4176892
0
ARC
8
DEFAULT_255_1_234
10
18.0448568
20
-0.1085046
40
0.7775954
50
179.6930361
51
188.7906598
0
ARC
8
DEFAULT_255_1_234
10
17.7785047
20
-0.1511065
40
0.5078633
50
188.6331305
51
202.5629587
0
ARC
8
DEFAULT_255_1_234
10
17.6530639
20
-0.2015004
40
0.3726913
50
202.8081362
51
216.1193925
0
ARC
8
DEFAULT_255_1_234
10
17.5721209
20
-0.2666324
40
0.2689577
50
215.0755913
51
264.6379694
0
ARC
8
DEFAULT_255_1_234
10
17.5848158
20
-0.1835487
40
0.3528978
50
263.846392
51
270.0833719
0
ARC
8
DEFAULT_255_1_234
10
17.5889549
20
-0.2093626
40
0.3271036
50
269.3649385
51
287.5152008
0
ARC
8
DEFAULT_255_1_234
10
17.6067706
20
-0.2740762
40
0.2600406
50
288.0630309
51
323.8113348
0
ARC
8
DEFAULT_255_1_234
10
17.5196548
20
-0.2090951
40
0.3687189
50
323.6547608
51
342.6590488
0
ARC
8
DEFAULT_255_1_234
10
17.3165163
20
-0.1430048
40
0.5823286
50
342.4091907
51
353.6451149
0
ARC
8
DEFAULT_255_1_234
10
17.0333674
20
-0.107781
40
0.8676442
50
353.4029884
51
359.4847795
0
ARC
8
DEFAULT_255_2_778
10
20.2534188
20
49.1741525
40
0.3580657
50
89.9945037
51
180.0054963
0
ARC
8
DEFAULT_255_2_778
10
20.2534875
20
49.1741525
40
0.3580657
50
359.9945037
51
90.0054963
0
ARC
8
DEFAULT_255_2_778
10
20.2534875
20
49.1740838
40
0.3580657
50
269.9945037
51
0.0054963
0
ARC
8
DEFAULT_255_2_778
10
20.2534188
20
49.1740838
40
0.3580657
50
179.9945037
51
270.0054963
0
ARC
8
DEFAULT_255_2_778
10
22.9622406
20
48.905782
40
2.3282817
50
111.9150345
51
128.7655504
0
ARC
8
DEFAULT_255_2_778
10
22.8791007
20
49.037852
40
2.1733214
50
129.2366206
51
154.7721516
0
ARC
8
DEFAULT_255_2_778
10
23.480657
20
48.7420583
40
2.8435961
50
154.5467617
51
165.9285636
0
ARC
8
DEFAULT_255_2_778
10
23.9646902
20
48.6046212
40
3.3465569
50
165.6609748
51
166.525375
0
ARC
8
DEFAULT_255_2_778
10
21.5282291
20
49.8228171
40
1.414623
50
156.0627036
51
175.7189082
0
ARC
8
DEFAULT_255_2_778
10
22.1164502
20
49.569283
40
2.0551309
50
144.7505594
51
156.2560535
0
ARC
8
DEFAULT_255_2_778
10
22.8861799
20
49.0339863
40
2.9926766
50
137.345293
51
144.8863205
0
ARC
8
DEFAULT_255_2_778
10
23.8131446
20
48.1848407
40
4.2497776
50
131.6389266
51
137.393651
0
ARC
8
DEFAULT_255_2_778
10
24.5393492
20
47.3881248
40
5.3277326
50
130.1334351
51
131.7826198
0
LINE
8
DEFAULT_255_2_778
10
19.8953532
20
49.1741182
11
19.8953532
21
49.1741182
0
LINE
8
DEFAULT_255_2_778
10
21.1052532
20
51.4614182
11
22.0932532
21
51.0658182
0
LINE
8
DEFAULT_255_2_778
10
20.7102532
20
49.3844182
11
20.1175532
21
49.9284182
0
LINE
8
DEFAULT_255_2_778
10
21.1052532
20
51.4614182
11
21.1052532
21
51.4614182
0
ARC
8
DEFAULT_255_2_778
10
13.7594907
20
49.9976437
40
0.8717226
50
88.9281645
51
133.9885749
0
ARC
8
DEFAULT_255_2_778
10
13.7757454
20
49.7725604
40
1.0966534
50
88.9487005
51
89.9972984
0
ARC
8
DEFAULT_255_2_778
10
13.7953
20
50.0680011
40
0.8010283
50
72.1310318
51
89.9594908
0
ARC
8
DEFAULT_255_2_778
10
13.8705373
20
50.3250083
40
0.5333823
50
60.6505783
51
71.3519493
0
ARC
8
DEFAULT_255_2_778
10
13.9543387
20
50.4521349
40
0.3816498
50
20.3938858
51
62.2625554
0
ARC
8
DEFAULT_255_2_778
10
14.9704645
20
49.9641628
40
0.9050345
50
89.7568633
51
136.6758865
0
ARC
8
DEFAULT_255_2_778
10
14.9742773
20
49.8465709
40
1.0226182
50
88.9864436
51
89.9984426
0
ARC
8
DEFAULT_255_2_778
10
14.992248
20
50.085692
40
0.7833372
50
71.373585
51
89.9913488
0
ARC
8
DEFAULT_255_2_778
10
15.0841803
20
50.364542
40
0.489734
50
42.2193789
51
71.1458349
0
ARC
8
DEFAULT_255_2_778
10
15.0590908
20
50.3570658
40
0.5134635
50
8.5226311
51
40.9558105
0
ARC
8
DEFAULT_255_2_778
10
14.7367896
20
50.2918045
40
0.8420446
50
359.6942069
51
9.6641803
0
ARC
8
DEFAULT_255_2_778
10
14.4472507
20
50.2888277
40
1.1315727
50
355.5855084
51
359.923173
0
ARC
8
DEFAULT_255_2_778
10
14.2502845
20
50.2611289
40
0.7547163
50
352.4548626
51
359.7652122
0
ARC
8
DEFAULT_255_2_778
10
14.4078893
20
50.2582192
40
0.5971052
50
359.9824407
51
2.1700815
0
ARC
8
DEFAULT_255_2_778
10
14.8167551
20
50.2740752
40
0.1879327
50
2.0595693
51
88.944897
0
ARC
8
DEFAULT_255_2_778
10
14.7529878
20
49.9867725
40
0.4799353
50
81.9476992
51
88.9638763
0
ARC
8
DEFAULT_255_2_778
10
14.7641352
20
49.9806844
40
0.4859511
50
90.2910974
51
140.7094043
0
ARC
8
DEFAULT_255_2_778
10
14.950423
20
49.7878111
40
0.7529164
50
138.3264016
51
141.8088804
0
ARC
8
DEFAULT_255_2_778
10
13.0111845
20
50.2577289
40
0.7547163
50
352.4548626
51
359.7652122
0
ARC
8
DEFAULT_255_2_778
10
13.1687893
20
50.2548192
40
0.5971052
50
359.9824407
51
2.1700815
0
ARC
8
DEFAULT_255_2_778
10
13.5767327
20
50.2716775
40
0.1888212
50
1.7455696
51
88.6065628
0
ARC
8
DEFAULT_255_2_778
10
13.5151974
20
49.9953897
40
0.469731
50
81.9072271
51
88.8693446
0
ARC
8
DEFAULT_255_2_778
10
13.5126914
20
49.9553568
40
0.5098084
50
88.6765396
51
89.9981553
0
ARC
8
DEFAULT_255_2_778
10
13.5179114
20
49.9589569
40
0.5062351
50
90.5889431
51
134.9317856
0
ARC
8
DEFAULT_255_2_778
10
13.6708307
20
49.7685835
40
0.749469
50
132.9288129
51
135.7848647
0
LINE
8
DEFAULT_255_2_778
10
12.6682663
20
50.8349292
11
13.2005663
21
50.8365292
0
LINE
8
DEFAULT_255_2_778
10
13.2005663
20
50.8365292
11
13.1540663
21
50.6248292
0
LINE
8
DEFAULT_255_2_778
10
15.5754663
20
50.2017292
11
15.5715663
21
50.1589292
0
LINE
8
DEFAULT_255_2_778
10
15.5715663
20
50.1589292
11
15.3386663
21
48.9735292
0
LINE
8
DEFAULT_255_2_778
10
15.3386663
20
48.9735292
11
14.7655663
21
48.9735292
0
LINE
8
DEFAULT_255_2_778
10
14.7655663
20
48.9735292
11
14.9984663
21
50.1620292
0
LINE
8
DEFAULT_255_2_778
10
14.3586663
20
50.2533292
11
14.3525663
21
50.2139292
0
LINE
8
DEFAULT_255_2_778
10
14.3525663
20
50.2139292
11
14.0975663
21
48.9735292
0
LINE
8
DEFAULT_255_2_778
10
14.0975663
20
48.9735292
11
13.5265663
21
48.9735292
0
LINE
8
DEFAULT_255_2_778
10
13.5265663
20
48.9735292
11
13.7593663
21
50.1586292
0
LINE
8
DEFAULT_255_2_778
10
13.1336663
20
50.2912292
11
12.8603663
21
48.9735292
0
LINE
8
DEFAULT_255_2_778
10
12.8603663
20
48.9735292
11
12.2893663
21
48.9735292
0
LINE
8
DEFAULT_255_2_778
10
12.2893663
20
48.9735292
11
12.6679663
21
50.8346292
0
LINE
8
DEFAULT_255_2_778
10
12.6679663
20
50.8346292
11
12.6682663
21
50.8349292
0
ARC
8
DEFAULT_255_2_778
10
16.6200073
20
49.6839296
40
1.1835327
50
72.5038745
51
90.0092706
0
ARC
8
DEFAULT_255_2_778
10
16.6946065
20
49.9465618
40
0.9106565
50
60.3350098
51
72.012487
0
ARC
8
DEFAULT_255_2_778
10
16.7749673
20
50.0677924
40
0.7656054
50
24.9513793
51
61.0705157
0
ARC
8
DEFAULT_255_2_778
10
16.6824605
20
50.0264225
40
0.8669314
50
359.4887328
51
24.8512384
0
ARC
8
DEFAULT_255_2_778
10
16.4761349
20
50.0200746
40
1.0732233
50
353.5741487
51
359.9259073
0
ARC
8
DEFAULT_255_2_778
10
16.4718898
20
49.9892512
40
1.0744425
50
309.8322789
51
355.2330791
0
ARC
8
DEFAULT_255_2_778
10
16.4131004
20
50.0561469
40
1.1634726
50
274.0073872
51
309.9453537
0
ARC
8
DEFAULT_255_2_778
10
16.3618863
20
50.4246028
40
1.5348158
50
269.9462811
51
274.9533663
0
ARC
8
DEFAULT_255_2_778
10
16.3604814
20
50.5483871
40
1.6585995
50
269.1686307
51
269.9988202
0
ARC
8
DEFAULT_255_2_778
10
16.3365833
20
50.0608263
40
1.170864
50
252.1092944
51
269.9918014
0
ARC
8
DEFAULT_255_2_778
10
16.2643716
20
49.8105397
40
0.9105332
50
240.5370236
51
251.5952644
0
ARC
8
DEFAULT_255_2_778
10
16.1851932
20
49.6887089
40
0.7655666
50
205.2400495
51
241.211713
0
ARC
8
DEFAULT_255_2_778
10
16.2644058
20
49.7258751
40
0.8530649
50
179.5368594
51
205.2293562
0
ARC
8
DEFAULT_255_2_778
10
16.4511104
20
49.7314748
40
1.0397424
50
173.5174505
51
179.9285896
0
ARC
8
DEFAULT_255_2_778
10
16.6391803
20
49.7201758
40
1.2279263
50
153.4099026
51
173.9843619
0
ARC
8
DEFAULT_255_2_778
10
16.479574
20
49.7879448
40
1.0549233
50
129.6863931
51
152.8211827
0
ARC
8
DEFAULT_255_2_778
10
16.5416695
20
49.717442
40
1.1488354
50
92.7647679
51
129.8242239
0
ARC
8
DEFAULT_255_2_778
10
16.5841385
20
49.3745159
40
1.493635
50
89.9700537
51
93.7575078
0
ARC
8
DEFAULT_255_2_778
10
16.5848078
20
49.2730121
40
1.5951388
50
88.7352629
51
89.9960004
0
ARC
8
DEFAULT_255_2_778
10
16.4400633
20
49.664103
40
0.4277578
50
179.6036168
51
209.4859363
0
ARC
8
DEFAULT_255_2_778
10
16.339418
20
49.6171836
40
0.3171735
50
211.0570865
51
223.1755117
0
ARC
8
DEFAULT_255_2_778
10
16.3473332
20
49.6351793
40
0.3353476
50
224.4925211
51
268.7887171
0
ARC
8
DEFAULT_255_2_778
10
16.3774447
20
49.8478866
40
0.5492412
50
266.1163412
51
268.8180997
0
ARC
8
DEFAULT_255_2_778
10
16.3835472
20
49.9762917
40
0.6777536
50
268.526223
51
269.9955091
0
ARC
8
DEFAULT_255_2_778
10
16.3990701
20
49.7861572
40
0.4878678
50
268.1704265
51
325.4339242
0
ARC
8
DEFAULT_255_2_778
10
16.1704695
20
49.9528589
40
0.7707306
50
324.8706977
51
351.0886768
0
ARC
8
DEFAULT_255_2_778
10
15.7623184
20
50.031759
40
1.1862684
50
350.3775551
51
0.2885744
0
ARC
8
DEFAULT_255_2_778
10
15.4717188
20
50.0374545
40
1.4768528
50
0.0108339
51
1.7075744
0
ARC
8
DEFAULT_255_2_778
10
16.4937032
20
50.0723496
40
0.454304
50
1.1493477
51
31.2464652
0
ARC
8
DEFAULT_255_2_778
10
16.5878626
20
50.1190769
40
0.3496776
50
32.703807
51
41.7810929
0
ARC
8
DEFAULT_255_2_778
10
16.6096519
20
50.1284534
40
0.3272685
50
43.0987922
51
88.7571407
0
ARC
8
DEFAULT_255_2_778
10
16.5789548
20
49.9161359
40
0.5408314
50
85.992647
51
88.8704975
0
ARC
8
DEFAULT_255_2_778
10
16.5725639
20
49.8142668
40
0.6428217
50
88.4799611
51
89.9943311
0
ARC
8
DEFAULT_255_2_778
10
16.5615528
20
49.9675787
40
0.4896349
50
88.7039519
51
145.0513377
0
ARC
8
DEFAULT_255_2_778
10
16.7596356
20
49.8142936
40
0.7399051
50
144.1087108
51
170.2824956
0
ARC
8
DEFAULT_255_2_778
10
17.1861952
20
49.7271764
40
1.1751307
50
169.6063184
51
180.3528002
0
ARC
8
DEFAULT_255_2_778
10
17.522268
20
49.7203441
40
1.5111813
50
180.0153016
51
182.009194
0
LINE
8
DEFAULT_255_2_778
10
16.6200158
20
50.8677623
11
16.6198158
21
50.8674623
0
LINE
8
DEFAULT_255_2_778
10
16.0120158
20
49.6673623
11
16.0123158
21
49.6670623
0
ARC
8
DEFAULT_255_2_778
10
18.587937
20
48.7455854
40
1.642039
50
81.2830361
51
86.628458
0
ARC
8
DEFAULT_255_2_778
10
18.6429757
20
49.5840313
40
0.8018272
50
87.0310432
51
89.8986713
0
ARC
8
DEFAULT_255_2_778
10
18.6242064
20
49.4953997
40
0.8906863
50
88.7012797
51
89.9954117
0
ARC
8
DEFAULT_255_2_778
10
18.6103452
20
49.7396623
40
0.6465738
50
88.765285
51
116.6201427
0
ARC
8
DEFAULT_255_2_778
10
18.5802548
20
49.8236694
40
0.5580924
50
117.7228833
51
138.7756782
0
ARC
8
DEFAULT_255_2_778
10
18.7590475
20
50.1898707
40
0.6980151
50
116.489914
51
143.0810972
0
ARC
8
DEFAULT_255_2_778
10
18.7053938
20
50.2699223
40
0.6025621
50
89.4580016
51
115.3188873
0
ARC
8
DEFAULT_255_2_778
10
18.6965205
20
49.9351885
40
0.9373821
50
77.9674605
51
89.1092017
0
ARC
8
DEFAULT_255_2_778
10
18.6028478
20
49.4046466
40
1.4759175
50
78.008513
51
78.7045202
0
LINE
8
DEFAULT_255_2_778
10
18.9094938
20
50.8486573
11
18.8367938
21
50.3686573
0
LINE
8
DEFAULT_255_2_778
10
18.1604938
20
50.1914573
11
17.9072938
21
48.9735573
0
LINE
8
DEFAULT_255_2_778
10
17.9072938
20
48.9735573
11
17.3362938
21
48.9735573
0
LINE
8
DEFAULT_255_2_778
10
17.3362938
20
48.9735573
11
17.7169938
21
50.8346573
0
LINE
8
DEFAULT_255_2_778
10
17.7169938
20
50.8346573
11
18.2535938
21
50.8362573
0
LINE
8
DEFAULT_255_2_778
10
18.2535938
20
50.8362573
11
18.2009938
21
50.6091573
0
LINE
8
DEFAULT_255_2_778
10
18.9094938
20
50.8483573
11
18.9094938
21
50.8486573
0
ARC
8
DEFAULT_255_2_778
10
19.1571128
20
50.0600894
40
1.1700739
50
250.1384534
51
270.3253519
0
ARC
8
DEFAULT_255_2_778
10
19.1018273
20
49.8792628
40
0.9812659
50
242.0400724
51
249.5873206
0
ARC
8
DEFAULT_255_2_778
10
19.0015727
20
49.7209713
40
0.7945755
50
208.3440719
51
243.0739412
0
ARC
8
DEFAULT_255_2_778
10
18.9938609
20
49.7117404
40
0.7834185
50
179.5715836
51
208.0176768
0
ARC
8
DEFAULT_255_2_778
10
19.141172
20
49.7167939
40
0.930708
50
174.3678809
51
179.9504871
0
ARC
8
DEFAULT_255_2_778
10
19.322969
20
49.7582045
40
1.1082855
50
145.24933
51
173.7565404
0
ARC
8
DEFAULT_255_2_778
10
19.3043239
20
49.7831309
40
1.0788028
50
116.4826416
51
145.7726174
0
ARC
8
DEFAULT_255_2_778
10
19.3348976
20
49.7134448
40
1.1548163
50
89.3335424
51
116.2986099
0
ARC
8
DEFAULT_255_2_778
10
19.3482483
20
49.4710265
40
1.3971563
50
88.7200635
51
89.9966493
0
ARC
8
DEFAULT_255_2_778
10
19.3739264
20
49.7554319
40
1.1124162
50
73.6937809
51
89.7151452
0
ARC
8
DEFAULT_255_2_778
10
19.4851962
20
50.1273959
40
0.7241771
50
40.439997
51
73.880282
0
ARC
8
DEFAULT_255_2_778
10
19.4514712
20
50.1054519
40
0.7640962
50
0.3370816
51
40.0519836
0
ARC
8
DEFAULT_255_2_778
10
19.2137457
20
50.0818262
40
1.0022031
50
359.994028
51
1.6078833
0
ARC
8
DEFAULT_255_2_778
10
19.0846833
20
50.083994
40
1.1312679
50
353.167063
51
359.8849147
0
ARC
8
DEFAULT_255_2_778
10
18.9406155
20
50.0987359
40
1.2760687
50
352.3939633
51
353.279462
0
ARC
8
DEFAULT_255_2_778
10
19.1530478
20
49.660044
40
0.3604224
50
171.5294964
51
179.9003766
0
ARC
8
DEFAULT_255_2_778
10
19.1259641
20
49.6642734
40
0.3333577
50
180.6192204
51
227.8732743
0
ARC
8
DEFAULT_255_2_778
10
19.2039834
20
49.925098
40
0.5908529
50
239.3033103
51
268.7295305
0
ARC
8
DEFAULT_255_2_778
10
19.2271224
20
50.1591019
40
0.8255073
50
267.4839269
51
270.0168707
0
ARC
8
DEFAULT_255_2_778
10
19.2268753
20
50.243929
40
0.9103345
50
270.0308514
51
273.2230324
0
ARC
8
DEFAULT_255_2_778
10
19.2542379
20
49.5827781
40
0.2488861
50
275.4917641
51
302.3582203
0
ARC
8
DEFAULT_255_2_778
10
19.3200418
20
49.4668196
40
0.115896
50
305.561706
51
314.7657745
0
ARC
8
DEFAULT_255_2_778
10
19.3095773
20
49.4996196
40
0.1473882
50
308.6632861
51
359.3837416
0
ARC
8
DEFAULT_255_2_778
10
17.807225
20
51.2222961
40
2.962762
50
318.8021847
51
324.4102292
0
ARC
8
DEFAULT_255_2_778
10
18.7925821
20
50.3539638
40
1.6494092
50
310.4033061
51
318.953359
0
ARC
8
DEFAULT_255_2_778
10
19.3188808
20
49.7273319
40
0.831118
50
295.9312381
51
310.7744109
0
ARC
8
DEFAULT_255_2_778
10
19.4407027
20
49.4984904
40
0.5721233
50
294.3678437
51
294.9811966
0
ARC
8
DEFAULT_255_2_778
10
19.1945821
20
50.2626166
40
1.3727502
50
269.5731295
51
290.563626
0
ARC
8
DEFAULT_255_2_778
10
19.1843639
20
50.4784678
40
1.5885634
50
269.2675557
51
269.9996725
0
ARC
8
DEFAULT_255_2_778
10
19.3387312
20
49.8974127
40
0.5595531
50
88.7582819
51
89.9982675
0
ARC
8
DEFAULT_255_2_778
10
19.3323907
20
49.9945288
40
0.4624807
50
89.2123589
51
125.5867616
0
ARC
8
DEFAULT_255_2_778
10
19.4008068
20
49.9223957
40
0.5611219
50
126.9818839
51
147.669232
0
ARC
8
DEFAULT_255_2_778
10
19.876359
20
49.6027026
40
1.1340353
50
146.870707
51
156.2884785
0
ARC
8
DEFAULT_255_2_778
10
19.2351279
20
50.1805241
40
0.4275542
50
349.7487379
51
359.8271594
0
ARC
8
DEFAULT_255_2_778
10
19.2975857
20
50.1797952
40
0.3650948
50
359.9119884
51
9.2266083
0
ARC
8
DEFAULT_255_2_778
10
19.4133961
20
50.1948775
40
0.2483918
50
10.0759194
51
54.8339385
0
ARC
8
DEFAULT_255_2_778
10
19.3596551
20
50.0992265
40
0.3577113
50
56.6213484
51
91.3898693
0
LINE
8
DEFAULT_255_2_778
10
19.3509786
20
50.4568326
11
19.3508569
21
50.4568344
0
LINE
8
DEFAULT_255_2_778
10
18.2149569
20
49.8081344
11
18.2212569
21
49.8787344
0
LINE
8
DEFAULT_255_2_778
10
20.2054569
20
49.9298344
11
20.1723569
21
49.7131344
0
LINE
8
DEFAULT_255_2_778
10
20.1723569
20
49.7131344
11
18.7965569
21
49.7131344
0
LINE
8
DEFAULT_255_2_778
10
19.4569569
20
49.4980344
11
20.2165569
21
49.4980344
0
LINE
8
DEFAULT_255_2_778
10
18.8380569
20
50.0587344
11
19.6434569
21
50.0587344
0
LINE
8
DEFAULT_255_2_778
10
19.6434569
20
50.0587344
11
19.6558569
21
50.1044344
0
LINE
8
DEFAULT_255_2_778
10
11.4252281
20
50.6455177
11
12.8081281
21
49.8295177
0
LINE
8
DEFAULT_255_2_778
10
12.8081281
20
49.8295177
11
11.2770281
21
49.2361177
0
LINE
8
DEFAULT_255_2_778
10
11.2770281
20
49.2361177
11
11.5979281
21
49.9531177
0
LINE
8
DEFAULT_255_2_778
10
11.5979281
20
49.9531177
11
11.4252281
21
50.6455177
0
ARC
8
DEFAULT_255_2_778
10
7.8633492
20
50.3651349
40
1.734445
50
345.0500681
51
0.450213
0
ARC
8
DEFAULT_255_2_778
10
8.1424128
20
50.3009315
40
1.4482985
50
339.8011311
51
344.6559926
0
ARC
8
DEFAULT_255_2_778
10
8.2241959
20
50.2554595
40
1.3559213
50
318.9869254
51
340.4112117
0
ARC
8
DEFAULT_255_2_778
10
8.3403786
20
50.1675223
40
1.2105876
50
317.7755753
51
318.5188915
0
ARC
8
DEFAULT_255_2_778
10
8.3677776
20
50.1416224
40
1.1728926
50
293.4453171
51
317.8130059
0
ARC
8
DEFAULT_255_2_778
10
8.3381728
20
50.2198502
40
1.2564472
50
269.4376299
51
293.2645473
0
ARC
8
DEFAULT_255_2_778
10
8.6390116
20
50.4279305
40
1.0182316
50
68.112945
51
90.7974227
0
ARC
8
DEFAULT_255_2_778
10
8.6827218
20
50.5632759
40
0.8764035
50
66.6600337
51
67.4660887
0
ARC
8
DEFAULT_255_2_778
10
8.6950616
20
50.5750129
40
0.860764
50
41.8199578
51
67.1046866
0
ARC
8
DEFAULT_255_2_778
10
8.5939144
20
50.4987866
40
0.9870277
50
18.4442061
51
41.2024761
0
ARC
8
DEFAULT_255_2_778
10
8.2913394
20
50.3951986
40
1.3068358
50
359.9236227
51
18.5554774
0
ARC
8
DEFAULT_255_2_778
10
7.9767371
20
50.3787824
40
1.6215036
50
359.9993331
51
0.5185192
0
ARC
8
DEFAULT_255_2_778
10
8.1161265
20
50.3849191
40
1.1556879
50
359.3527282
51
15.3461488
0
ARC
8
DEFAULT_255_2_778
10
8.3555709
20
50.4400091
40
0.9102591
50
15.9909101
51
17.2384514
0
ARC
8
DEFAULT_255_2_778
10
8.5215656
20
50.5034942
40
0.7329962
50
16.3441173
51
39.0583428
0
ARC
8
DEFAULT_255_2_778
10
8.6385861
20
50.5890513
40
0.5882641
50
39.7694118
51
66.0014919
0
ARC
8
DEFAULT_255_2_778
10
8.6052911
20
50.4960083
40
0.6868457
50
66.6208799
51
90.9301944
0
ARC
8
DEFAULT_255_2_778
10
8.3674619
20
50.0910777
40
0.865983
50
269.2774049
51
294.6427005
0
ARC
8
DEFAULT_255_2_778
10
8.3809787
20
50.0430801
40
0.8167574
50
295.184769
51
321.1699914
0
ARC
8
DEFAULT_255_2_778
10
8.188821
20
50.1895326
40
1.0582969
50
321.5163412
51
341.7776814
0
ARC
8
DEFAULT_255_2_778
10
7.8940618
20
50.3050931
40
1.374523
50
341.044332
51
342.4824039
0
ARC
8
DEFAULT_255_2_778
10
7.7898077
20
50.3267334
40
1.4804949
50
342.8981919
51
356.6952858
0
ARC
8
DEFAULT_255_2_778
10
7.2862441
20
50.3704849
40
1.9857973
50
356.2725814
51
0.0484329
0
LINE
8
DEFAULT_255_2_778
10
8.3258407
20
48.9634635
11
7.2765407
21
48.9391635
0
LINE
8
DEFAULT_255_2_778
10
7.2765407
20
48.9391635
11
7.7858407
21
51.4460635
0
LINE
8
DEFAULT_255_2_778
10
7.7858407
20
51.4460635
11
8.6248407
21
51.4460635
0
LINE
8
DEFAULT_255_2_778
10
9.5982407
20
50.3787635
11
9.5977407
21
50.3787635
0
LINE
8
DEFAULT_255_2_778
10
8.5941407
20
51.1827635
11
7.9962407
21
51.1647635
0
LINE
8
DEFAULT_255_2_778
10
7.9962407
20
51.1647635
11
7.6363407
21
49.1865635
0
LINE
8
DEFAULT_255_2_778
10
7.6363407
20
49.1865635
11
8.3565407
21
49.2251635
0
LINE
8
DEFAULT_255_2_778
10
9.2720407
20
50.3721635
11
9.2717407
21
50.3718635
0
ARC
8
DEFAULT_255_2_778
10
10.302374
20
49.767419
40
0.5777251
50
269.3131992
51
298.9193317
0
ARC
8
DEFAULT_255_2_778
10
10.2422898
20
49.8720114
40
0.6983333
50
299.0845099
51
323.1838183
0
ARC
8
DEFAULT_255_2_778
10
10.0730419
20
49.9959915
40
0.9081244
50
323.3206017
51
342.9705556
0
ARC
8
DEFAULT_255_2_778
10
9.9076255
20
50.0534416
40
1.0831324
50
342.6274164
51
0.2324268
0
ARC
8
DEFAULT_255_2_778
10
10.2433391
20
50.0705185
40
0.7475175
50
359.0278167
51
16.1300251
0
ARC
8
DEFAULT_255_2_778
10
10.5672449
20
50.1636392
40
0.4104922
50
16.2042834
51
41.9480466
0
ARC
8
DEFAULT_255_2_778
10
10.5796118
20
50.1554262
40
0.4070383
50
43.9719544
51
85.3997935
0
ARC
8
DEFAULT_255_2_778
10
10.5322186
20
49.8797297
40
0.686108
50
83.300847
51
90.1477804
0
ARC
8
DEFAULT_255_2_778
10
10.5219616
20
49.9844474
40
0.58145
50
89.163628
51
118.6648078
0
ARC
8
DEFAULT_255_2_778
10
10.581079
20
49.8874564
40
0.6949321
50
119.1056578
51
143.2104754
0
ARC
8
DEFAULT_255_2_778
10
10.7542438
20
49.7604766
40
0.9096571
50
143.3373192
51
162.9538381
0
ARC
8
DEFAULT_255_2_778
10
10.9180519
20
49.7034321
40
1.0830106
50
162.6089297
51
180.2167337
0
ARC
8
DEFAULT_255_2_778
10
10.590132
20
49.6866465
40
0.7551896
50
179.037255
51
196.0102976
0
ARC
8
DEFAULT_255_2_778
10
10.2623689
20
49.5931213
40
0.4143448
50
196.0798237
51
221.5429745
0
ARC
8
DEFAULT_255_2_778
10
10.2435386
20
49.5947741
40
0.4015819
50
223.501568
51
264.945498
0
ARC
8
DEFAULT_255_2_778
10
10.2934062
20
49.874923
40
0.6854906
50
262.8561454
51
270.170743
0
ARC
8
DEFAULT_255_2_778
10
10.2496801
20
49.9326733
40
0.993603
50
251.4783364
51
270.6555979
0
ARC
8
DEFAULT_255_2_778
10
10.1671823
20
49.6869369
40
0.7343883
50
228.2272369
51
251.4910714
0
ARC
8
DEFAULT_255_2_778
10
10.1298392
20
49.6362077
40
0.671704
50
202.6960886
51
227.720176
0
ARC
8
DEFAULT_255_2_778
10
10.2495562
20
49.6815656
40
0.7996635
50
179.6456167
51
202.3846702
0
ARC
8
DEFAULT_255_2_778
10
10.5173927
20
49.6977351
40
1.0675438
50
179.9999853
51
180.6023814
0
ARC
8
DEFAULT_255_2_778
10
10.5536721
20
49.704723
40
1.1038452
50
157.230675
51
180.3627006
0
ARC
8
DEFAULT_255_2_778
10
10.5843324
20
49.6951196
40
1.135837
50
135.6908415
51
157.3825693
0
ARC
8
DEFAULT_255_2_778
10
10.5546282
20
49.721815
40
1.0959349
50
113.1058727
51
135.604761
0
ARC
8
DEFAULT_255_2_778
10
10.5551078
20
49.7260049
40
1.0922713
50
89.5047522
51
113.2152626
0
ARC
8
DEFAULT_255_2_778
10
10.5759287
20
49.8229295
40
0.9953709
50
71.5130801
51
90.6550541
0
ARC
8
DEFAULT_255_2_778
10
10.6573575
20
50.0687115
40
0.7364524
50
48.2602918
51
71.4580165
0
ARC
8
DEFAULT_255_2_778
10
10.6956984
20
50.1221961
40
0.6710546
50
22.5497085
51
47.6627683
0
ARC
8
DEFAULT_255_2_778
10
10.5670556
20
50.0728328
40
0.8088011
50
359.0650515
51
22.2845409
0
ARC
8
DEFAULT_255_2_778
10
10.2767028
20
50.0535709
40
1.0990629
50
337.1812514
51
0.316152
0
ARC
8
DEFAULT_255_2_778
10
10.2412655
20
50.0641512
40
1.135837
50
315.6908415
51
337.3825693
0
ARC
8
DEFAULT_255_2_778
10
10.2631229
20
50.0461107
40
1.1075969
50
293.2336194
51
315.5688359
0
ARC
8
DEFAULT_255_2_778
10
10.268874
20
50.0254991
40
1.0863919
50
269.5873092
51
293.383724
0
LINE
8
DEFAULT_255_2_778
10
10.295449
20
49.1894354
11
10.295449
21
49.1897354
0
LINE
8
DEFAULT_255_2_778
10
10.261049
20
48.9391354
11
10.261049
21
48.9391354
0
LINE
8
DEFAULT_255_1_234
10
10.6983392
20
46.3122
11
10.2927364
21
46.3122
0
LINE
8
DEFAULT_255_1_234
10
10.2927364
20
46.3122
11
10.2927364
21
47.4816211
0
LINE
8
DEFAULT_255_1_234
10
10.2927364
20
47.4816211
11
10.6750471
21
47.4816211
0
LINE
8
DEFAULT_255_1_234
10
10.7039614
20
46.8591614
11
10.4469458
21
46.8591614
0
LINE
8
DEFAULT_255_1_234
10
10.4469458
20
46.8591614
11
10.4469458
21
46.4382983
0
LINE
8
DEFAULT_255_1_234
10
10.4469458
20
46.4382983
11
10.7015519
21
46.4382983
0
LINE
8
DEFAULT_255_1_234
10
10.4469458
20
47.3547196
11
10.4469458
21
46.9828501
0
LINE
8
DEFAULT_255_1_234
10
10.4469458
20
46.9828501
11
10.6798662
21
46.9828501
0
LINE
8
DEFAULT_255_1_234
10
10.6750471
20
47.3547196
11
10.4469458
21
47.3547196
0
ARC
8
DEFAULT_255_1_234
10
10.678818
20
46.7448901
40
0.7367406
50
82.1257326
51
90.2932599
0
ARC
8
DEFAULT_255_1_234
10
10.7177135
20
47.0167013
40
0.4621653
50
69.9044149
51
82.2857423
0
ARC
8
DEFAULT_255_1_234
10
10.7747813
20
47.1709637
40
0.2976871
50
51.1838526
51
70.0181538
0
ARC
8
DEFAULT_255_1_234
10
10.8002779
20
47.208024
40
0.2528517
50
12.1017251
51
50.4214761
0
ARC
8
DEFAULT_255_1_234
10
10.6618653
20
47.1732676
40
0.3955061
50
359.5251267
51
12.8211707
0
ARC
8
DEFAULT_255_1_234
10
10.8198579
20
47.1663344
40
0.2375281
50
323.4908128
51
0.8817314
0
ARC
8
DEFAULT_255_1_234
10
10.7780266
20
47.198655
40
0.2903817
50
298.6825083
51
323.2756573
0
ARC
8
DEFAULT_255_1_234
10
10.7418629
20
47.2587649
40
0.3604842
50
293.1999386
51
299.1396394
0
ARC
8
DEFAULT_255_1_234
10
10.8091602
20
46.6502126
40
0.2871098
50
54.0011765
51
74.9167975
0
ARC
8
DEFAULT_255_1_234
10
10.8207961
20
46.6699332
40
0.2643248
50
36.3580696
51
53.5291921
0
ARC
8
DEFAULT_255_1_234
10
10.8081203
20
46.6608998
40
0.2798884
50
4.8189881
51
36.3089977
0
ARC
8
DEFAULT_255_1_234
10
10.7302038
20
46.649927
40
0.358478
50
359.9370252
51
5.5204067
0
ARC
8
DEFAULT_255_1_234
10
10.697756
20
46.6458667
40
0.3909429
50
344.7478609
51
0.5373281
0
ARC
8
DEFAULT_255_1_234
10
10.7968531
20
46.6191544
40
0.2883093
50
311.1786488
51
344.6886812
0
ARC
8
DEFAULT_255_1_234
10
10.7676578
20
46.6554987
40
0.3348923
50
286.0418249
51
310.8441291
0
ARC
8
DEFAULT_255_1_234
10
10.716941
20
46.8201807
40
0.5071869
50
274.1042341
51
286.4071509
0
ARC
8
DEFAULT_255_1_234
10
10.6992666
20
47.0085229
40
0.6963234
50
269.9236873
51
274.445647
0
ARC
8
DEFAULT_255_1_234
10
10.7038667
20
46.7745537
40
0.3362634
50
269.6055768
51
281.3740047
0
ARC
8
DEFAULT_255_1_234
10
10.7269305
20
46.6652353
40
0.224546
50
281.1055983
51
302.5132223
0
ARC
8
DEFAULT_255_1_234
10
10.7416204
20
46.6388823
40
0.1944357
50
303.0368945
51
311.8811219
0
ARC
8
DEFAULT_255_1_234
10
10.7487611
20
46.630389
40
0.1833454
50
311.9916004
51
351.7143462
0
ARC
8
DEFAULT_255_1_234
10
10.6670841
20
46.646893
40
0.2665871
50
350.7339597
51
0.2221581
0
ARC
8
DEFAULT_255_1_234
10
10.6563287
20
46.6525467
40
0.2773789
50
359.0456241
51
17.2296242
0
ARC
8
DEFAULT_255_1_234
10
10.7602404
20
46.6834163
40
0.1689915
50
17.6685481
51
78.9940892
0
ARC
8
DEFAULT_255_1_234
10
10.7085568
20
46.4979224
40
0.3612658
50
76.5635957
51
90.6980921
0
LINE
8
DEFAULT_255_1_234
10
10.7041552
20
46.8591613
11
10.7039614
21
46.8591614
0
ARC
8
DEFAULT_255_1_234
10
10.6821228
20
47.3114036
40
0.3285612
50
269.6064736
51
281.4533503
0
ARC
8
DEFAULT_255_1_234
10
10.7044048
20
47.2062688
40
0.2210975
50
281.2041486
51
302.5148063
0
ARC
8
DEFAULT_255_1_234
10
10.7180898
20
47.1816241
40
0.1929674
50
303.021671
51
309.8369575
0
ARC
8
DEFAULT_255_1_234
10
10.7364359
20
47.1610488
40
0.1654181
50
309.5228395
51
356.9509836
0
ARC
8
DEFAULT_255_1_234
10
10.6700942
20
47.1705932
40
0.2322512
50
355.4701227
51
0.0492546
0
ARC
8
DEFAULT_255_1_234
10
10.6422033
20
47.1728094
40
0.2601498
50
359.5558597
51
11.2096359
0
ARC
8
DEFAULT_255_1_234
10
10.7379323
20
47.192623
40
0.1623975
50
10.9182341
51
31.3230275
0
ARC
8
DEFAULT_255_1_234
10
10.7665056
20
47.2085214
40
0.1297302
50
31.8852677
51
52.1412565
0
ARC
8
DEFAULT_255_1_234
10
10.7390789
20
47.169775
40
0.1771663
50
52.8285564
51
71.9850297
0
ARC
8
DEFAULT_255_1_234
10
10.7014965
20
47.0591664
40
0.2939794
50
71.6863486
51
82.8455995
0
ARC
8
DEFAULT_255_1_234
10
10.6775501
20
46.8782149
40
0.476506
50
82.6984714
51
90.1729175
0
ARC
8
DEFAULT_255_1_234
10
10.6753136
20
47.0005623
40
0.3541573
50
89.8708275
51
90.0431131
0
LINE
8
DEFAULT_255_1_234
10
11.9994808
20
46.3122
11
11.7456778
21
46.7852694
0
LINE
8
DEFAULT_255_1_234
10
11.7456778
20
46.7852694
11
11.4709924
21
46.7852694
0
LINE
8
DEFAULT_255_1_234
10
11.4709924
20
46.7852694
11
11.4709924
21
46.3122
0
LINE
8
DEFAULT_255_1_234
10
11.4709924
20
46.3122
11
11.3159798
21
46.3122
0
LINE
8
DEFAULT_255_1_234
10
11.3159798
20
46.3122
11
11.3159798
21
47.4816211
0
LINE
8
DEFAULT_255_1_234
10
11.3159798
20
47.4816211
11
11.7031096
21
47.4816211
0
LINE
8
DEFAULT_255_1_234
10
11.8902491
20
46.8181995
11
12.1649346
21
46.3218381
0
LINE
8
DEFAULT_255_1_234
10
12.1649346
20
46.3218381
11
12.1649346
21
46.3122
0
LINE
8
DEFAULT_255_1_234
10
12.1649346
20
46.3122
11
11.9994808
21
46.3122
0
LINE
8
DEFAULT_255_1_234
10
11.4709924
20
47.3547196
11
11.4709924
21
46.9113677
0
LINE
8
DEFAULT_255_1_234
10
11.4709924
20
46.9113677
11
11.7079287
21
46.9113677
0
LINE
8
DEFAULT_255_1_234
10
11.7071255
20
47.3547196
11
11.4709924
21
47.3547196
0
ARC
8
DEFAULT_255_1_234
10
11.7072736
20
46.7854761
40
0.6961575
50
80.653586
51
90.3427061
0
ARC
8
DEFAULT_255_1_234
10
11.749221
20
47.0317348
40
0.4463577
50
65.6987447
51
80.8329603
0
ARC
8
DEFAULT_255_1_234
10
11.7969851
20
47.1412322
40
0.3269094
50
50.0017161
51
65.4305835
0
ARC
8
DEFAULT_255_1_234
10
11.8188315
20
47.1707482
40
0.2902647
50
11.628416
51
49.5603263
0
ARC
8
DEFAULT_255_1_234
10
11.6652651
20
47.1332299
40
0.4482792
50
359.5655735
51
12.3691
0
ARC
8
DEFAULT_255_1_234
10
11.7729511
20
47.1269644
40
0.3405924
50
341.9983148
51
0.4822259
0
ARC
8
DEFAULT_255_1_234
10
11.8124351
20
47.1162471
40
0.2997359
50
323.8609373
51
341.61416
0
ARC
8
DEFAULT_255_1_234
10
11.7822595
20
47.1395484
40
0.3378487
50
296.7018614
51
323.6876402
0
ARC
8
DEFAULT_255_1_234
10
11.7381491
20
47.2184235
40
0.4281516
50
290.8086567
51
297.2323311
0
ARC
8
DEFAULT_255_1_234
10
11.710502
20
47.2707351
40
0.3593766
50
269.589728
51
281.8058135
0
ARC
8
DEFAULT_255_1_234
10
11.7355919
20
47.1559743
40
0.2419125
50
281.5501019
51
303.9357432
0
ARC
8
DEFAULT_255_1_234
10
11.7493107
20
47.1321936
40
0.2145323
50
304.4415616
51
311.2106213
0
ARC
8
DEFAULT_255_1_234
10
11.7625212
20
47.1182632
40
0.1953505
50
310.9875673
51
356.2715578
0
ARC
8
DEFAULT_255_1_234
10
11.6868861
20
47.1295422
40
0.2716331
50
354.9348262
51
0.0609027
0
ARC
8
DEFAULT_255_1_234
10
11.6681735
20
47.1322435
40
0.2903554
50
359.5239371
51
12.8808918
0
ARC
8
DEFAULT_255_1_234
10
11.7659291
20
47.1561728
40
0.1897315
50
12.4173452
51
43.1022135
0
ARC
8
DEFAULT_255_1_234
10
11.7720895
20
47.1598724
40
0.1827118
50
43.5751728
51
48.203944
0
ARC
8
DEFAULT_255_1_234
10
11.7551387
20
47.1377302
40
0.2105272
50
48.7809703
51
72.6969569
0
ARC
8
DEFAULT_255_1_234
10
11.7197012
20
47.030182
40
0.3237537
50
72.3702241
51
84.8791103
0
ARC
8
DEFAULT_255_1_234
10
11.7049488
20
46.8959769
40
0.4587478
50
84.5400526
51
89.7281406
0
LINE
8
DEFAULT_255_1_234
10
12.4291788
20
47.4816211
11
12.7110928
21
47.0334501
0
LINE
8
DEFAULT_255_1_234
10
12.7110928
20
47.0334501
11
12.9914004
21
47.4816211
0
LINE
8
DEFAULT_255_1_234
10
12.9914004
20
47.4816211
11
13.1729177
21
47.4816211
0
LINE
8
DEFAULT_255_1_234
10
13.1729177
20
47.4816211
11
12.8034578
21
46.9017296
0
LINE
8
DEFAULT_255_1_234
10
12.8034578
20
46.9017296
11
13.1817526
21
46.3122
0
LINE
8
DEFAULT_255_1_234
10
13.1817526
20
46.3122
11
12.998629
21
46.3122
0
LINE
8
DEFAULT_255_1_234
10
12.998629
20
46.3122
11
12.7110928
21
46.7684027
0
LINE
8
DEFAULT_255_1_234
10
12.7110928
20
46.7684027
11
12.4219502
21
46.3122
0
LINE
8
DEFAULT_255_1_234
10
12.4219502
20
46.3122
11
12.2396297
21
46.3122
0
LINE
8
DEFAULT_255_1_234
10
12.2396297
20
46.3122
11
12.6187278
21
46.9017296
0
LINE
8
DEFAULT_255_1_234
10
12.6187278
20
46.9017296
11
12.2484646
21
47.4816211
0
LINE
8
DEFAULT_255_1_234
10
12.2484646
20
47.4816211
11
12.4291788
21
47.4816211
0
LINE
8
DEFAULT_255_1_234
10
14.5439354
20
47.1434849
11
14.3889229
21
47.1434849
0
LINE
8
DEFAULT_255_1_234
10
13.6965871
20
46.6511394
11
13.8515996
21
46.6511394
0
ARC
8
DEFAULT_255_1_234
10
14.4548042
20
48.0381768
40
1.252368
50
248.9199003
51
254.1439814
0
ARC
8
DEFAULT_255_1_234
10
14.2867537
20
47.6055234
40
0.788226
50
241.633709
51
249.0064503
0
ARC
8
DEFAULT_255_1_234
10
14.1338931
20
47.3254317
40
0.4691427
50
230.498225
51
241.8087113
0
ARC
8
DEFAULT_255_1_234
10
14.0554505
20
47.2254906
40
0.3421437
50
227.4064532
51
229.9881192
0
ARC
8
DEFAULT_255_1_234
10
14.0067026
20
47.1779088
40
0.2741476
50
200.6781896
51
228.1763934
0
ARC
8
DEFAULT_255_1_234
10
14.0139337
20
47.1764077
40
0.2804109
50
179.5061581
51
199.8694617
0
ARC
8
DEFAULT_255_1_234
10
14.0130088
20
47.183821
40
0.2795204
50
132.4834203
51
181.0242172
0
ARC
8
DEFAULT_255_1_234
10
14.0725671
20
47.1275704
40
0.3612768
50
129.2532479
51
133.4242687
0
ARC
8
DEFAULT_255_1_234
10
14.087212
20
47.1055965
40
0.3875675
50
101.98776
51
128.8742646
0
ARC
8
DEFAULT_255_1_234
10
14.1270731
20
46.9334741
40
0.5642249
50
89.5906553
51
102.3169264
0
ARC
8
DEFAULT_255_1_234
10
14.1341223
20
46.9653148
40
0.5323783
50
77.2360837
51
90.3248275
0
ARC
8
DEFAULT_255_1_234
10
14.1548302
20
47.06204
40
0.4334697
50
63.837784
51
77.0809408
0
ARC
8
DEFAULT_255_1_234
10
14.1826064
20
47.1137911
40
0.3747796
50
45.9864267
51
64.1607727
0
ARC
8
DEFAULT_255_1_234
10
14.2086945
20
47.1435866
40
0.3352302
50
32.2747395
51
45.6547121
0
ARC
8
DEFAULT_255_1_234
10
14.2153386
20
47.145488
40
0.328603
50
359.6507365
51
32.6130309
0
ARC
8
DEFAULT_255_1_234
10
14.1210481
20
47.145966
40
0.2678863
50
359.469343
51
14.9832209
0
ARC
8
DEFAULT_255_1_234
10
14.1915544
20
47.1648539
40
0.1948938
50
14.9781179
51
48.2004265
0
ARC
8
DEFAULT_255_1_234
10
14.1751188
20
47.1441983
40
0.2212521
50
48.5927837
51
74.1241538
0
ARC
8
DEFAULT_255_1_234
10
14.1417677
20
47.0341248
40
0.3362561
50
73.7888341
51
86.6652678
0
ARC
8
DEFAULT_255_1_234
10
14.1315243
20
46.9133881
40
0.4573953
50
86.2640471
51
90.0526343
0
ARC
8
DEFAULT_255_1_234
10
14.1286955
20
46.9529192
40
0.4178709
50
89.6697524
51
99.2309573
0
ARC
8
DEFAULT_255_1_234
10
14.1044406
20
47.0973964
40
0.2713749
50
99.069534
51
113.7658566
0
ARC
8
DEFAULT_255_1_234
10
14.0770597
20
47.1619677
40
0.2012469
50
114.0401004
51
127.9850673
0
ARC
8
DEFAULT_255_1_234
10
14.0530161
20
47.191573
40
0.1631167
50
127.7287463
51
176.7105154
0
ARC
8
DEFAULT_255_1_234
10
14.1208879
20
47.1814693
40
0.2315392
50
175.1779447
51
180.0581938
0
ARC
8
DEFAULT_255_1_234
10
14.0365726
20
47.1802428
40
0.1472271
50
179.6142195
51
228.1246017
0
ARC
8
DEFAULT_255_1_234
10
14.0807394
20
47.2211308
40
0.2072299
50
226.5779593
51
230.8800004
0
ARC
8
DEFAULT_255_1_234
10
14.1278473
20
47.2836636
40
0.2854818
50
231.4635071
51
241.9260842
0
ARC
8
DEFAULT_255_1_234
10
14.2475651
20
47.50398
40
0.53622
50
241.7178533
51
248.3259551
0
ARC
8
DEFAULT_255_1_234
10
14.3861023
20
47.8472064
40
0.9063478
50
248.2007737
51
252.4528373
0
ARC
8
DEFAULT_255_1_234
10
14.5064748
20
48.2193441
40
1.2974635
50
252.3391078
51
254.3469452
0
ARC
8
DEFAULT_255_1_234
10
13.752245
20
45.5216148
40
1.5037162
50
71.0197183
51
74.4087047
0
ARC
8
DEFAULT_255_1_234
10
13.9217136
20
46.0108111
40
0.9859993
50
66.1847285
51
71.086374
0
ARC
8
DEFAULT_255_1_234
10
14.0773448
20
46.36122
40
0.6025855
50
59.3536294
51
66.2691831
0
ARC
8
DEFAULT_255_1_234
10
14.16621
20
46.5115609
40
0.4279449
50
49.1020879
51
59.3293958
0
ARC
8
DEFAULT_255_1_234
10
14.248084
20
46.6048834
40
0.3038015
50
32.7919921
51
49.2505539
0
ARC
8
DEFAULT_255_1_234
10
14.280193
20
46.6277191
40
0.264448
50
31.1181161
51
32.4005348
0
ARC
8
DEFAULT_255_1_234
10
14.2713468
20
46.6241779
40
0.2738556
50
8.1116974
51
30.7958831
0
ARC
8
DEFAULT_255_1_234
10
14.1903136
20
46.6103753
40
0.3560327
50
359.8389159
51
8.4706516
0
ARC
8
DEFAULT_255_1_234
10
14.2528927
20
46.6055137
40
0.2934776
50
337.4731098
51
0.7537279
0
ARC
8
DEFAULT_255_1_234
10
14.2707622
20
46.6035387
40
0.2762607
50
307.5917067
51
336.4315538
0
ARC
8
DEFAULT_255_1_234
10
14.224745
20
46.6548102
40
0.3449979
50
307.6551545
51
308.4529766
0
ARC
8
DEFAULT_255_1_234
10
14.2017169
20
46.690325
40
0.3871988
50
284.3734338
51
307.1424381
0
ARC
8
DEFAULT_255_1_234
10
14.1521999
20
46.8724932
40
0.5759636
50
272.4382747
51
284.646547
0
ARC
8
DEFAULT_255_1_234
10
14.1395208
20
47.0524893
40
0.7563528
50
269.9708387
51
272.8178037
0
ARC
8
DEFAULT_255_1_234
10
14.1352248
20
46.8486716
40
0.5525489
50
248.2707594
51
270.4055579
0
ARC
8
DEFAULT_255_1_234
10
14.1297989
20
46.8296192
40
0.5328452
50
246.1383403
51
248.0542782
0
ARC
8
DEFAULT_255_1_234
10
14.0879368
20
46.7416843
40
0.4355005
50
233.1670131
51
246.4950969
0
ARC
8
DEFAULT_255_1_234
10
14.0325273
20
46.6668812
40
0.3424126
50
215.3403242
51
233.0843104
0
ARC
8
DEFAULT_255_1_234
10
14.0052704
20
46.6470549
40
0.3087104
50
179.2419209
51
215.2648451
0
ARC
8
DEFAULT_255_1_234
10
14.0820298
20
46.6484666
40
0.2304457
50
179.335461
51
199.1045811
0
ARC
8
DEFAULT_255_1_234
10
14.0487974
20
46.6397766
40
0.1962176
50
199.8828939
51
232.7063202
0
ARC
8
DEFAULT_255_1_234
10
14.0960243
20
46.6991788
40
0.2720938
50
232.3738199
51
255.5136649
0
ARC
8
DEFAULT_255_1_234
10
14.1301109
20
46.8235835
40
0.4010747
50
255.2446292
51
267.5320849
0
ARC
8
DEFAULT_255_1_234
10
14.1388733
20
46.9468702
40
0.5246356
50
267.1557994
51
270.0286766
0
ARC
8
DEFAULT_255_1_234
10
14.1416505
20
46.902495
40
0.4802668
50
269.7000017
51
278.1660162
0
ARC
8
DEFAULT_255_1_234
10
14.167251
20
46.7294515
40
0.3053425
50
278.0231263
51
290.625471
0
ARC
8
DEFAULT_255_1_234
10
14.2020197
20
46.6367025
40
0.206291
50
290.6619762
51
307.0370976
0
ARC
8
DEFAULT_255_1_234
10
14.2320586
20
46.5998504
40
0.1587906
50
306.3943566
51
355.3030547
0
ARC
8
DEFAULT_255_1_234
10
14.1808518
20
46.6075113
40
0.2104809
50
354.3660432
51
0.0698737
0
ARC
8
DEFAULT_255_1_234
10
14.1950863
20
46.6097617
40
0.1962563
50
359.417946
51
16.1971788
0
ARC
8
DEFAULT_255_1_234
10
14.2406173
20
46.6222418
40
0.149053
50
16.4723299
51
52.6262157
0
ARC
8
DEFAULT_255_1_234
10
14.1585227
20
46.5138433
40
0.2850296
50
52.7386432
51
62.4979148
0
ARC
8
DEFAULT_255_1_234
10
14.0200304
20
46.2532283
40
0.5801521
50
62.2515216
51
68.1220564
0
ARC
8
DEFAULT_255_1_234
10
13.8480215
20
45.8304872
40
1.0365451
50
68.0062803
51
71.8053402
0
ARC
8
DEFAULT_255_1_234
10
13.6684586
20
45.2919758
40
1.6042013
50
71.7183119
51
73.9258742
0
LINE
8
DEFAULT_255_1_234
10
14.6828845
20
46.7226218
11
14.6828845
21
46.7499297
0
LINE
8
DEFAULT_255_1_234
10
15.4201981
20
46.7659932
11
15.4201981
21
46.7041488
0
LINE
8
DEFAULT_255_1_234
10
15.4201981
20
46.7041488
11
14.8314717
21
46.7041488
0
LINE
8
DEFAULT_255_1_234
10
15.318195
20
46.5346792
11
15.4089537
21
46.4639999
0
LINE
8
DEFAULT_255_1_234
10
14.8362907
20
46.8262313
11
15.2716109
21
46.8262313
0
LINE
8
DEFAULT_255_1_234
10
15.2716109
20
46.8262313
11
15.2716109
21
46.8374757
0
ARC
8
DEFAULT_255_1_234
10
15.076821
20
46.7337332
40
0.4376191
50
252.3266134
51
270.5810217
0
ARC
8
DEFAULT_255_1_234
10
15.0563299
20
46.6596644
40
0.3608374
50
223.3000567
51
251.8561855
0
ARC
8
DEFAULT_255_1_234
10
15.077466
20
46.6801937
40
0.3902993
50
190.9374509
51
223.3654032
0
ARC
8
DEFAULT_255_1_234
10
15.2499632
20
46.7191885
40
0.5670891
50
179.6531105
51
191.4989439
0
ARC
8
DEFAULT_255_1_234
10
15.2621645
20
46.7531417
40
0.5792888
50
167.4007466
51
180.3176909
0
ARC
8
DEFAULT_255_1_234
10
15.1569706
20
46.7753885
40
0.471777
50
154.1835823
51
167.250763
0
ARC
8
DEFAULT_255_1_234
10
15.0938174
20
46.8086417
40
0.4004528
50
134.3149965
51
154.5315275
0
ARC
8
DEFAULT_255_1_234
10
15.0720669
20
46.8277228
40
0.371612
50
122.8616532
51
133.9707695
0
ARC
8
DEFAULT_255_1_234
10
15.0617243
20
46.8499703
40
0.3473289
50
89.8249009
51
123.4199222
0
ARC
8
DEFAULT_255_1_234
10
15.0667284
20
46.7852967
40
0.4120197
50
74.7876118
51
90.5482747
0
ARC
8
DEFAULT_255_1_234
10
15.0961027
20
46.893803
40
0.2996077
50
39.8178249
51
74.7633718
0
ARC
8
DEFAULT_255_1_234
10
15.0448347
20
46.8538351
40
0.3645855
50
16.8990863
51
39.4829761
0
ARC
8
DEFAULT_255_1_234
10
14.8553644
20
46.7931526
40
0.5635218
50
4.9636328
51
17.2026414
0
ARC
8
DEFAULT_255_1_234
10
14.6135714
20
46.767634
40
0.8066286
50
359.8834553
51
5.2834307
0
ARC
8
DEFAULT_255_1_234
10
15.2173238
20
46.7107803
40
0.3859091
50
180.9846213
51
194.9401313
0
ARC
8
DEFAULT_255_1_234
10
15.1123516
20
46.6820849
40
0.2770883
50
194.80314
51
222.0412631
0
ARC
8
DEFAULT_255_1_234
10
15.0819398
20
46.6519116
40
0.2343055
50
221.5417084
51
268.8614402
0
ARC
8
DEFAULT_255_1_234
10
15.0892393
20
46.7195686
40
0.3021528
50
267.732405
51
270.0097136
0
ARC
8
DEFAULT_255_1_234
10
15.0910203
20
46.7397105
40
0.3222994
50
269.6924892
51
280.4117579
0
ARC
8
DEFAULT_255_1_234
10
15.1086609
20
46.6478193
40
0.2287344
50
280.2255091
51
298.6338936
0
ARC
8
DEFAULT_255_1_234
10
15.1203401
20
46.6234223
40
0.2017294
50
299.0430333
51
300.4643464
0
ARC
8
DEFAULT_255_1_234
10
15.0523407
20
46.7368038
40
0.3339357
50
300.6577328
51
322.0378878
0
ARC
8
DEFAULT_255_1_234
10
15.0172946
20
46.7672021
40
0.3802736
50
321.6750233
51
322.3046845
0
ARC
8
DEFAULT_255_1_234
10
15.1103907
20
46.650537
40
0.3520454
50
276.9728461
51
328.0035423
0
ARC
8
DEFAULT_255_1_234
10
15.082696
20
46.7985841
40
0.5024498
50
269.8361028
51
278.0581756
0
ARC
8
DEFAULT_255_1_234
10
15.0599698
20
46.8730757
40
0.202159
50
89.2018686
51
117.2851756
0
ARC
8
DEFAULT_255_1_234
10
15.0652867
20
46.8688752
40
0.2083484
50
118.0551165
51
137.4540413
0
ARC
8
DEFAULT_255_1_234
10
15.1027607
20
46.8348304
40
0.2589774
50
137.5109581
51
158.8516286
0
ARC
8
DEFAULT_255_1_234
10
15.2165442
20
46.7889074
40
0.38167
50
158.5845963
51
170.1721436
0
ARC
8
DEFAULT_255_1_234
10
15.3334831
20
46.7656823
40
0.5008657
50
169.8376422
51
173.0566086
0
ARC
8
DEFAULT_255_1_234
10
14.8637905
20
46.8167509
40
0.4083467
50
2.9091802
51
12.8847116
0
ARC
8
DEFAULT_255_1_234
10
15.0008582
20
46.8490101
40
0.2675383
50
12.6957781
51
28.6404489
0
ARC
8
DEFAULT_255_1_234
10
15.0550253
20
46.8770458
40
0.2065654
50
29.0169854
51
41.1487595
0
ARC
8
DEFAULT_255_1_234
10
15.0753038
20
46.8947003
40
0.1796786
50
41.1646065
51
85.0013516
0
ARC
8
DEFAULT_255_1_234
10
15.0632134
20
46.8212431
40
0.2539726
50
83.7280015
51
90.0964893
0
LINE
8
DEFAULT_255_1_234
10
16.0121372
20
47.1860531
11
16.0121372
21
47.0479072
0
LINE
8
DEFAULT_255_1_234
10
15.7406645
20
46.9290375
11
15.7406645
21
46.3122
0
LINE
8
DEFAULT_255_1_234
10
15.7406645
20
46.3122
11
15.5920773
21
46.3122
0
LINE
8
DEFAULT_255_1_234
10
15.5920773
20
46.3122
11
15.5920773
21
47.1812341
0
LINE
8
DEFAULT_255_1_234
10
15.5920773
20
47.1812341
11
15.7366486
21
47.1812341
0
LINE
8
DEFAULT_255_1_234
10
15.7366486
20
47.1812341
11
15.7390581
21
47.0808374
0
ARC
8
DEFAULT_255_1_234
10
15.9454778
20
46.6419342
40
0.4114092
50
80.6754243
51
86.8932892
0
ARC
8
DEFAULT_255_1_234
10
15.9394312
20
46.54517
40
0.5083596
50
86.8038578
51
90.0431435
0
ARC
8
DEFAULT_255_1_234
10
15.9357293
20
46.7908866
40
0.2626638
50
89.2759698
51
106.6213787
0
ARC
8
DEFAULT_255_1_234
10
15.9152857
20
46.865183
40
0.1856317
50
107.1346045
51
157.6458115
0
ARC
8
DEFAULT_255_1_234
10
15.9844458
20
46.8268311
40
0.2643398
50
155.6586782
51
157.2539184
0
ARC
8
DEFAULT_255_1_234
10
15.963966
20
46.9437157
40
0.2634121
50
127.8165941
51
148.6302098
0
ARC
8
DEFAULT_255_1_234
10
15.9386129
20
46.9697218
40
0.2273596
50
91.3329982
51
126.7875809
0
ARC
8
DEFAULT_255_1_234
10
15.946207
20
46.8982195
40
0.299078
50
89.986594
51
92.4688449
0
ARC
8
DEFAULT_255_1_234
10
15.9470465
20
46.9257078
40
0.2715908
50
85.3589899
51
90.1623399
0
ARC
8
DEFAULT_255_1_234
10
15.955498
20
47.0261164
40
0.1708278
50
78.401942
51
85.4594656
0
ARC
8
DEFAULT_255_1_234
10
15.9699864
20
47.0952236
40
0.1002194
50
67.7858312
51
78.5728455
0
ARC
8
DEFAULT_255_1_234
10
15.9807717
20
47.1231887
40
0.0702548
50
63.4835954
51
67.3062642
0
LINE
8
DEFAULT_255_1_234
10
16.3101147
20
47.1812341
11
16.3101147
21
46.3122
0
LINE
8
DEFAULT_255_1_234
10
16.3101147
20
46.3122
11
16.1615275
21
46.3122
0
LINE
8
DEFAULT_255_1_234
10
16.1615275
20
46.3122
11
16.1615275
21
47.1812341
0
LINE
8
DEFAULT_255_1_234
10
16.1615275
20
47.1812341
11
16.3101147
21
47.1812341
0
ARC
8
DEFAULT_255_1_234
10
16.2473424
20
47.4126889
40
0.097867
50
161.415052
51
180.5526306
0
ARC
8
DEFAULT_255_1_234
10
16.2349202
20
47.4161077
40
0.0850062
50
138.1827368
51
160.9307106
0
ARC
8
DEFAULT_255_1_234
10
16.2239148
20
47.4256588
40
0.0704362
50
104.6368899
51
138.0039868
0
ARC
8
DEFAULT_255_1_234
10
16.2346303
20
47.3889963
40
0.1086221
50
92.0600725
51
105.2189128
0
ARC
8
DEFAULT_255_1_234
10
16.2369651
20
47.3547117
40
0.1429728
50
89.9756393
51
92.5012496
0
ARC
8
DEFAULT_255_1_234
10
16.237967
20
47.3772731
40
0.1204151
50
78.0235316
51
90.4478182
0
ARC
8
DEFAULT_255_1_234
10
16.2471762
20
47.4186295
40
0.0780493
50
55.051506
51
78.3369085
0
ARC
8
DEFAULT_255_1_234
10
16.2522037
20
47.4270711
40
0.0682538
50
42.0501187
51
54.4513741
0
ARC
8
DEFAULT_255_1_234
10
16.2386904
20
47.4146798
40
0.0865878
50
1.7497075
51
42.1496013
0
ARC
8
DEFAULT_255_1_234
10
16.2132237
20
47.4117738
40
0.1121515
50
359.9852656
51
2.8364544
0
ARC
8
DEFAULT_255_1_234
10
16.2298229
20
47.4108229
40
0.0955566
50
342.1070653
51
0.552888
0
ARC
8
DEFAULT_255_1_234
10
16.2440926
20
47.4068904
40
0.0807713
50
316.7107116
51
341.6516965
0
ARC
8
DEFAULT_255_1_234
10
16.2507963
20
47.4008823
40
0.0717724
50
285.4397031
51
316.5324284
0
ARC
8
DEFAULT_255_1_234
10
16.239788
20
47.4374554
40
0.1099597
50
272.3547054
51
285.8953117
0
ARC
8
DEFAULT_255_1_234
10
16.2371038
20
47.4740048
40
0.1465932
50
269.9695369
51
272.8160237
0
ARC
8
DEFAULT_255_1_234
10
16.236122
20
47.4520863
40
0.1246779
50
258.8431134
51
270.4153935
0
ARC
8
DEFAULT_255_1_234
10
16.2271262
20
47.4085414
40
0.0802162
50
238.5431189
51
259.1288175
0
ARC
8
DEFAULT_255_1_234
10
16.2203147
20
47.3961856
40
0.0661247
50
222.5062634
51
237.9906969
0
ARC
8
DEFAULT_255_1_234
10
16.2330734
20
47.4077889
40
0.0833707
50
184.1069131
51
222.460413
0
ARC
8
DEFAULT_255_1_234
10
16.2599975
20
47.4116349
40
0.1105176
50
179.9429482
51
185.0960898
0
LINE
8
DEFAULT_255_1_234
10
16.510105
20
46.7226218
11
16.510105
21
46.7499297
0
LINE
8
DEFAULT_255_1_234
10
17.2474186
20
46.7659932
11
17.2474186
21
46.7041488
0
LINE
8
DEFAULT_255_1_234
10
17.2474186
20
46.7041488
11
16.6586921
21
46.7041488
0
LINE
8
DEFAULT_255_1_234
10
17.1454155
20
46.5346792
11
17.2361741
21
46.4639999
0
LINE
8
DEFAULT_255_1_234
10
16.6635112
20
46.8262313
11
17.0988314
21
46.8262313
0
LINE
8
DEFAULT_255_1_234
10
17.0988314
20
46.8262313
11
17.0988314
21
46.8374757
0
ARC
8
DEFAULT_255_1_234
10
16.9040415
20
46.7337332
40
0.4376191
50
252.3266134
51
270.5810217
0
ARC
8
DEFAULT_255_1_234
10
16.8835504
20
46.6596644
40
0.3608374
50
223.3000567
51
251.8561855
0
ARC
8
DEFAULT_255_1_234
10
16.9046865
20
46.6801937
40
0.3902993
50
190.9374509
51
223.3654032
0
ARC
8
DEFAULT_255_1_234
10
17.0771837
20
46.7191885
40
0.5670891
50
179.6531105
51
191.4989439
0
ARC
8
DEFAULT_255_1_234
10
17.0893849
20
46.7531417
40
0.5792888
50
167.4007466
51
180.3176909
0
ARC
8
DEFAULT_255_1_234
10
16.9841911
20
46.7753885
40
0.471777
50
154.1835823
51
167.250763
0
ARC
8
DEFAULT_255_1_234
10
16.9210378
20
46.8086417
40
0.4004528
50
134.3149965
51
154.5315275
0
ARC
8
DEFAULT_255_1_234
10
16.8992873
20
46.8277228
40
0.371612
50
122.8616532
51
133.9707695
0
ARC
8
DEFAULT_255_1_234
10
16.8889447
20
46.8499703
40
0.3473289
50
89.8249009
51
123.4199222
0
ARC
8
DEFAULT_255_1_234
10
16.8939488
20
46.7852967
40
0.4120197
50
74.7876118
51
90.5482747
0
ARC
8
DEFAULT_255_1_234
10
16.9233232
20
46.893803
40
0.2996077
50
39.8178249
51
74.7633718
0
ARC
8
DEFAULT_255_1_234
10
16.8720552
20
46.8538351
40
0.3645855
50
16.8990863
51
39.4829761
0
ARC
8
DEFAULT_255_1_234
10
16.6825848
20
46.7931526
40
0.5635218
50
4.9636328
51
17.2026414
0
ARC
8
DEFAULT_255_1_234
10
16.4407918
20
46.767634
40
0.8066286
50
359.8834553
51
5.2834307
0
ARC
8
DEFAULT_255_1_234
10
17.0445443
20
46.7107803
40
0.3859091
50
180.9846213
51
194.9401313
0
ARC
8
DEFAULT_255_1_234
10
16.9395721
20
46.6820849
40
0.2770883
50
194.80314
51
222.0412631
0
ARC
8
DEFAULT_255_1_234
10
16.9091603
20
46.6519116
40
0.2343055
50
221.5417084
51
268.8614402
0
ARC
8
DEFAULT_255_1_234
10
16.9164597
20
46.7195686
40
0.3021528
50
267.732405
51
270.0097136
0
ARC
8
DEFAULT_255_1_234
10
16.9182407
20
46.7397105
40
0.3222994
50
269.6924892
51
280.4117579
0
ARC
8
DEFAULT_255_1_234
10
16.9358814
20
46.6478193
40
0.2287344
50
280.2255091
51
298.6338936
0
ARC
8
DEFAULT_255_1_234
10
16.9475606
20
46.6234223
40
0.2017294
50
299.0430333
51
300.4643464
0
ARC
8
DEFAULT_255_1_234
10
16.8795611
20
46.7368038
40
0.3339357
50
300.6577328
51
322.0378878
0
ARC
8
DEFAULT_255_1_234
10
16.8445151
20
46.7672021
40
0.3802736
50
321.6750233
51
322.3046845
0
ARC
8
DEFAULT_255_1_234
10
16.9376112
20
46.650537
40
0.3520454
50
276.9728461
51
328.0035423
0
ARC
8
DEFAULT_255_1_234
10
16.9099165
20
46.7985841
40
0.5024498
50
269.8361028
51
278.0581756
0
ARC
8
DEFAULT_255_1_234
10
16.8871902
20
46.8730757
40
0.202159
50
89.2018686
51
117.2851756
0
ARC
8
DEFAULT_255_1_234
10
16.8925071
20
46.8688752
40
0.2083484
50
118.0551165
51
137.4540413
0
ARC
8
DEFAULT_255_1_234
10
16.9299811
20
46.8348304
40
0.2589774
50
137.5109581
51
158.8516286
0
ARC
8
DEFAULT_255_1_234
10
17.0437647
20
46.7889074
40
0.38167
50
158.5845963
51
170.1721436
0
ARC
8
DEFAULT_255_1_234
10
17.1607036
20
46.7656823
40
0.5008657
50
169.8376422
51
173.0566086
0
ARC
8
DEFAULT_255_1_234
10
16.691011
20
46.8167509
40
0.4083467
50
2.9091802
51
12.8847116
0
ARC
8
DEFAULT_255_1_234
10
16.8280786
20
46.8490101
40
0.2675383
50
12.6957781
51
28.6404489
0
ARC
8
DEFAULT_255_1_234
10
16.8822457
20
46.8770458
40
0.2065654
50
29.0169854
51
41.1487595
0
ARC
8
DEFAULT_255_1_234
10
16.9025242
20
46.8947003
40
0.1796786
50
41.1646065
51
85.0013516
0
ARC
8
DEFAULT_255_1_234
10
16.8904339
20
46.8212431
40
0.2539726
50
83.7280015
51
90.0964893
0
LINE
8
DEFAULT_255_1_234
10
18.0658527
20
46.9258248
11
17.9164624
21
46.9258248
0
LINE
8
DEFAULT_255_1_234
10
17.3831549
20
46.5796569
11
17.5317421
21
46.5796569
0
ARC
8
DEFAULT_255_1_234
10
17.7976442
20
46.5441959
40
0.1276617
50
359.3334982
51
18.5871358
0
ARC
8
DEFAULT_255_1_234
10
17.8185079
20
46.5497133
40
0.1061371
50
19.3540742
51
54.6485071
0
ARC
8
DEFAULT_255_1_234
10
17.7680981
20
46.4801919
40
0.1920087
50
54.3827097
51
65.0622807
0
ARC
8
DEFAULT_255_1_234
10
17.6912378
20
46.31849
40
0.3710447
50
64.8282493
51
71.4200025
0
ARC
8
DEFAULT_255_1_234
10
17.6010253
20
46.0538107
40
0.6506741
50
71.3164301
51
75.8006402
0
ARC
8
DEFAULT_255_1_234
10
17.5169073
20
45.7297561
40
0.9854641
50
75.6809531
51
78.0061883
0
ARC
8
DEFAULT_255_1_234
10
17.9617606
20
47.827677
40
1.1591028
50
254.6901892
51
258.0466452
0
ARC
8
DEFAULT_255_1_234
10
17.8579515
20
47.4517781
40
0.7691345
50
249.9010773
51
254.755261
0
ARC
8
DEFAULT_255_1_234
10
17.7575857
20
47.1791982
40
0.478665
50
243.3097214
51
249.9709442
0
ARC
8
DEFAULT_255_1_234
10
17.6946878
20
47.0537778
40
0.3383568
50
234.4047477
51
243.2862168
0
ARC
8
DEFAULT_255_1_234
10
17.6324401
20
46.9678232
40
0.2322322
50
220.8667099
51
234.5493881
0
ARC
8
DEFAULT_255_1_234
10
17.5982342
20
46.9366817
40
0.1859923
50
214.3062465
51
220.5065136
0
ARC
8
DEFAULT_255_1_234
10
17.5956422
20
46.933588
40
0.1821108
50
186.912965
51
213.9618616
0
ARC
8
DEFAULT_255_1_234
10
17.6488516
20
46.9422009
40
0.2359799
50
179.8808832
51
187.4339886
0
ARC
8
DEFAULT_255_1_234
10
17.633365
20
46.9442088
40
0.2204978
50
132.005434
51
180.3942919
0
ARC
8
DEFAULT_255_1_234
10
17.6990263
20
46.8836083
40
0.3095791
50
129.2319861
51
133.5302299
0
ARC
8
DEFAULT_255_1_234
10
17.7043771
20
46.8741928
40
0.3202615
50
100.4410011
51
128.9081242
0
ARC
8
DEFAULT_255_1_234
10
17.7317655
20
46.7456455
40
0.4516583
50
89.6985377
51
100.9026564
0
ARC
8
DEFAULT_255_1_234
10
17.7374697
20
46.7296166
40
0.4676928
50
77.6965325
51
90.4076836
0
ARC
8
DEFAULT_255_1_234
10
17.7705681
20
46.8723413
40
0.3211988
50
50.7276602
51
78.0399361
0
ARC
8
DEFAULT_255_1_234
10
17.815014
20
46.9241296
40
0.2529778
50
25.7545084
51
51.0957453
0
ARC
8
DEFAULT_255_1_234
10
17.8151364
20
46.9291206
40
0.250738
50
359.2468627
51
24.7394243
0
ARC
8
DEFAULT_255_1_234
10
17.7866816
20
46.9262664
40
0.1297815
50
359.8050318
51
45.1544908
0
ARC
8
DEFAULT_255_1_234
10
17.7459958
20
46.8914794
40
0.1831883
50
43.8047702
51
49.6271585
0
ARC
8
DEFAULT_255_1_234
10
17.746786
20
46.8915678
40
0.18261
50
49.7980766
51
82.1218353
0
ARC
8
DEFAULT_255_1_234
10
17.7348831
20
46.8268998
40
0.2483163
50
81.4465357
51
90.1710293
0
ARC
8
DEFAULT_255_1_234
10
17.7324434
20
46.774288
40
0.300932
50
89.6766211
51
99.1264602
0
ARC
8
DEFAULT_255_1_234
10
17.7152896
20
46.8776537
40
0.1961547
50
98.968313
51
113.4570237
0
ARC
8
DEFAULT_255_1_234
10
17.6956981
20
46.9244965
40
0.1453859
50
113.722589
51
127.4763106
0
ARC
8
DEFAULT_255_1_234
10
17.6788627
20
46.9445124
40
0.1192639
50
126.9083309
51
150.3165862
0
ARC
8
DEFAULT_255_1_234
10
17.674096
20
46.9495981
40
0.112623
50
151.3635175
51
180.0701457
0
ARC
8
DEFAULT_255_1_234
10
17.7049745
20
46.947499
40
0.1435149
50
179.2169974
51
179.9954013
0
ARC
8
DEFAULT_255_1_234
10
17.6688802
20
46.9462056
40
0.1074286
50
179.3040112
51
198.4225446
0
ARC
8
DEFAULT_255_1_234
10
17.6496936
20
46.9412127
40
0.0876573
50
199.2895851
51
238.6034594
0
ARC
8
DEFAULT_255_1_234
10
17.7099782
20
47.035845
40
0.1998512
50
237.9846301
51
246.8744712
0
ARC
8
DEFAULT_255_1_234
10
17.7957727
20
47.2321205
40
0.4140547
50
246.6234531
51
251.8168941
0
ARC
8
DEFAULT_255_1_234
10
17.8988271
20
47.5415905
40
0.7402308
50
251.713434
51
255.0778414
0
ARC
8
DEFAULT_255_1_234
10
18.0187533
20
47.9882563
40
1.2027155
50
255.0367487
51
257.4705983
0
ARC
8
DEFAULT_255_1_234
10
17.5079543
20
45.6868863
40
1.1546601
50
73.6837552
51
77.5016755
0
ARC
8
DEFAULT_255_1_234
10
17.6168318
20
46.0568581
40
0.7690009
50
68.7044154
51
73.7249639
0
ARC
8
DEFAULT_255_1_234
10
17.7071339
20
46.2895654
40
0.5193873
50
63.590599
51
68.6626804
0
ARC
8
DEFAULT_255_1_234
10
17.7842358
20
46.4433123
40
0.3473927
50
54.7106439
51
63.7013633
0
ARC
8
DEFAULT_255_1_234
10
17.8466812
20
46.53054
40
0.2401192
50
41.0622434
51
54.8487496
0
ARC
8
DEFAULT_255_1_234
10
17.8808199
20
46.5618592
40
0.1938094
50
34.4950568
51
40.7105546
0
ARC
8
DEFAULT_255_1_234
10
17.8855006
20
46.5667078
40
0.1872106
50
9.3763373
51
34.0833615
0
ARC
8
DEFAULT_255_1_234
10
17.8201876
20
46.5541728
40
0.2536988
50
359.7694872
51
9.7663171
0
ARC
8
DEFAULT_255_1_234
10
17.8399377
20
46.5498764
40
0.2339696
50
335.8654732
51
0.8022045
0
ARC
8
DEFAULT_255_1_234
10
17.8474422
20
46.5512197
40
0.2277108
50
307.7357725
51
334.7849066
0
ARC
8
DEFAULT_255_1_234
10
17.8073597
20
46.5962645
40
0.2878951
50
307.0241536
51
308.5578354
0
ARC
8
DEFAULT_255_1_234
10
17.7815929
20
46.6348801
40
0.3342515
50
282.9362969
51
306.5646424
0
ARC
8
DEFAULT_255_1_234
10
17.7454226
20
46.7816108
40
0.4853615
50
271.1026298
51
283.2200835
0
ARC
8
DEFAULT_255_1_234
10
17.739047
20
46.9057418
40
0.6096052
50
269.9919117
51
271.4772449
0
ARC
8
DEFAULT_255_1_234
10
17.7364225
20
46.7979436
40
0.5018135
50
259.0723564
51
270.289833
0
ARC
8
DEFAULT_255_1_234
10
17.7151957
20
46.6862271
40
0.388099
50
245.4963068
51
259.0227342
0
ARC
8
DEFAULT_255_1_234
10
17.6873914
20
46.6280615
40
0.3236422
50
228.9684658
51
245.7044727
0
ARC
8
DEFAULT_255_1_234
10
17.6608357
20
46.5953575
40
0.2815426
50
214.4011705
51
228.6759915
0
ARC
8
DEFAULT_255_1_234
10
17.6319098
20
46.579529
40
0.2487548
50
179.9705531
51
215.1572795
0
ARC
8
DEFAULT_255_1_234
10
17.7019698
20
46.5868806
40
0.1703809
50
182.4299387
51
203.0329699
0
ARC
8
DEFAULT_255_1_234
10
17.6835355
20
46.5812396
40
0.1512226
50
203.798802
51
232.548466
0
ARC
8
DEFAULT_255_1_234
10
17.7111877
20
46.6163826
40
0.1959374
50
232.3782728
51
256.3934612
0
ARC
8
DEFAULT_255_1_234
10
17.7342238
20
46.7053842
40
0.2878639
50
256.104506
51
268.4626716
0
ARC
8
DEFAULT_255_1_234
10
17.7388723
20
46.7850487
40
0.3676329
50
268.0715632
51
270.0138206
0
ARC
8
DEFAULT_255_1_234
10
17.7407247
20
46.7578083
40
0.3403971
50
269.7031147
51
278.8341955
0
ARC
8
DEFAULT_255_1_234
10
17.7589341
20
46.6447876
40
0.2259217
50
278.6728789
51
292.8232582
0
ARC
8
DEFAULT_255_1_234
10
17.7789879
20
46.5946449
40
0.171929
50
293.1452328
51
303.6655899
0
ARC
8
DEFAULT_255_1_234
10
17.8054758
20
46.5570204
40
0.1259367
50
303.1248165
51
321.742847
0
ARC
8
DEFAULT_255_1_234
10
17.8240638
20
46.5407156
40
0.1012531
50
322.4748573
51
1.1291126
0
LINE
8
DEFAULT_255_1_234
10
5.0753482
20
44.910201
11
5.0753482
21
44.4813062
0
LINE
8
DEFAULT_255_1_234
10
4.1741872
20
44.8563884
11
4.1741872
21
44.9583915
0
LINE
8
DEFAULT_255_1_234
10
5.0753482
20
45.1543659
11
4.9211389
21
45.1543659
0
LINE
8
DEFAULT_255_1_234
10
4.3291998
20
44.9624073
11
4.3291998
21
44.8668296
0
LINE
8
DEFAULT_255_1_234
10
4.921942
20
44.5222681
11
4.921942
21
44.7849059
0
LINE
8
DEFAULT_255_1_234
10
4.921942
20
44.7849059
11
4.6512725
21
44.7849059
0
LINE
8
DEFAULT_255_1_234
10
4.6512725
20
44.7849059
11
4.6512725
21
44.910201
0
LINE
8
DEFAULT_255_1_234
10
4.6512725
20
44.910201
11
5.0753482
21
44.910201
0
ARC
8
DEFAULT_255_1_234
10
4.7921989
20
44.6806396
40
0.3462765
50
295.8437914
51
324.8549609
0
ARC
8
DEFAULT_255_1_234
10
4.7505956
20
44.7559567
40
0.4322211
50
291.5695085
51
296.4549398
0
ARC
8
DEFAULT_255_1_234
10
4.6995207
20
44.8924275
40
0.5779178
50
278.6622409
51
291.3045483
0
ARC
8
DEFAULT_255_1_234
10
4.6655699
20
45.1072408
40
0.7953952
50
270.020006
51
278.7494541
0
ARC
8
DEFAULT_255_1_234
10
4.6617623
20
45.2389036
40
0.927067
50
269.9969998
51
270.2524872
0
ARC
8
DEFAULT_255_1_234
10
4.6579336
20
44.8305589
40
0.5187361
50
253.5786322
51
270.4175299
0
ARC
8
DEFAULT_255_1_234
10
4.6405992
20
44.7634236
40
0.4494451
50
238.8203306
51
253.2788235
0
ARC
8
DEFAULT_255_1_234
10
4.6386365
20
44.7583231
40
0.4440665
50
206.7883783
51
238.6962764
0
ARC
8
DEFAULT_255_1_234
10
4.7160275
20
44.8047405
40
0.5341121
50
206.1129412
51
207.4916643
0
ARC
8
DEFAULT_255_1_234
10
4.775719
20
44.8301488
40
0.5989041
50
188.6921119
51
205.7821245
0
ARC
8
DEFAULT_255_1_234
10
4.9613552
20
44.861723
40
0.7871862
50
180.3882829
51
188.9219216
0
ARC
8
DEFAULT_255_1_234
10
5.0841366
20
44.9640464
40
0.909967
50
170.2024264
51
180.3560651
0
ARC
8
DEFAULT_255_1_234
10
4.7677884
20
45.0206237
40
0.5886083
50
154.2857445
51
170.3893044
0
ARC
8
DEFAULT_255_1_234
10
4.6396087
20
45.079295
40
0.4476743
50
139.8401567
51
153.9332699
0
ARC
8
DEFAULT_255_1_234
10
4.6036823
20
45.1080577
40
0.4016697
50
98.4190291
51
139.6707122
0
ARC
8
DEFAULT_255_1_234
10
4.6416341
20
44.9235328
40
0.5898566
50
89.7659205
51
99.4415478
0
ARC
8
DEFAULT_255_1_234
10
4.648159
20
44.9300844
40
0.5833147
50
78.0551672
51
90.4042112
0
ARC
8
DEFAULT_255_1_234
10
4.68861
20
45.1119644
40
0.3970055
50
54.6380464
51
78.3339173
0
ARC
8
DEFAULT_255_1_234
10
4.7076156
20
45.1439795
40
0.3599102
50
50.031736
51
54.1558201
0
ARC
8
DEFAULT_255_1_234
10
4.6968944
20
45.1343766
40
0.3741624
50
18.1092409
51
49.7180913
0
ARC
8
DEFAULT_255_1_234
10
4.5512144
20
45.0810089
40
0.5292424
50
7.9672797
51
18.6984571
0
ARC
8
DEFAULT_255_1_234
10
4.5662622
20
45.0933504
40
0.3600838
50
9.7557294
51
27.3215714
0
ARC
8
DEFAULT_255_1_234
10
4.6790094
20
45.1496912
40
0.2340608
50
27.7361077
51
84.5257964
0
ARC
8
DEFAULT_255_1_234
10
4.6462481
20
44.985364
40
0.4011215
50
82.106034
51
90.2001166
0
ARC
8
DEFAULT_255_1_234
10
4.6412698
20
45.0361215
40
0.3503799
50
89.4150119
51
105.5823402
0
ARC
8
DEFAULT_255_1_234
10
4.6155696
20
45.1296867
40
0.2533503
50
105.6678618
51
144.2648758
0
ARC
8
DEFAULT_255_1_234
10
4.7048951
20
45.0661289
40
0.3629787
50
144.3561283
51
162.8564086
0
ARC
8
DEFAULT_255_1_234
10
4.913286
20
44.9992017
40
0.5818441
50
162.6076014
51
173.6780284
0
ARC
8
DEFAULT_255_1_234
10
5.2194004
20
44.961989
40
0.8902007
50
173.4670142
51
179.9730753
0
ARC
8
DEFAULT_255_1_234
10
5.0285675
20
44.862626
40
0.6993804
50
179.6556203
51
190.0080463
0
ARC
8
DEFAULT_255_1_234
10
4.7969504
20
44.8201375
40
0.4639066
50
189.8116607
51
206.6796816
0
ARC
8
DEFAULT_255_1_234
10
4.7124656
20
44.7807503
40
0.3707421
50
207.1031645
51
217.7074368
0
ARC
8
DEFAULT_255_1_234
10
4.6490345
20
44.7255559
40
0.2868417
50
216.7345547
51
265.6812148
0
ARC
8
DEFAULT_255_1_234
10
4.6621136
20
44.8159855
40
0.3780509
50
264.7366618
51
270.0611241
0
ARC
8
DEFAULT_255_1_234
10
4.6644399
20
45.1000111
40
0.662079
50
269.8335834
51
276.0539546
0
ARC
8
DEFAULT_255_1_234
10
4.6851404
20
44.909856
40
0.4708016
50
275.9894168
51
284.4615085
0
ARC
8
DEFAULT_255_1_234
10
4.7049411
20
44.8265663
40
0.3852094
50
284.7034461
51
286.4953897
0
ARC
8
DEFAULT_255_1_234
10
4.7456424
20
44.6954965
40
0.2479842
50
286.0770838
51
304.2625829
0
ARC
8
DEFAULT_255_1_234
10
4.7589838
20
44.6736594
40
0.2224291
50
304.5891602
51
317.1073298
0
LINE
8
DEFAULT_255_1_234
10
6.2311154
20
45.4973211
11
6.2311154
21
44.3279
0
LINE
8
DEFAULT_255_1_234
10
6.2311154
20
44.3279
11
6.0761028
21
44.3279
0
LINE
8
DEFAULT_255_1_234
10
6.0761028
20
44.3279
11
5.4873764
21
45.229061
0
LINE
8
DEFAULT_255_1_234
10
5.4873764
20
45.229061
11
5.4873764
21
44.3279
0
LINE
8
DEFAULT_255_1_234
10
5.4873764
20
44.3279
11
5.3323639
21
44.3279
0
LINE
8
DEFAULT_255_1_234
10
5.3323639
20
44.3279
11
5.3323639
21
45.4973211
0
LINE
8
DEFAULT_255_1_234
10
5.3323639
20
45.4973211
11
5.4873764
21
45.4973211
0
LINE
8
DEFAULT_255_1_234
10
5.4873764
20
45.4973211
11
6.0777092
21
44.5921442
0
LINE
8
DEFAULT_255_1_234
10
6.0777092
20
44.5921442
11
6.0777092
21
45.4973211
0
LINE
8
DEFAULT_255_1_234
10
6.0777092
20
45.4973211
11
6.2311154
21
45.4973211
0
LINE
8
DEFAULT_255_1_234
10
6.8286767
20
44.3279
11
6.5049977
21
44.3279
0
LINE
8
DEFAULT_255_1_234
10
6.5049977
20
44.3279
11
6.5049977
21
45.4973211
0
LINE
8
DEFAULT_255_1_234
10
6.5049977
20
45.4973211
11
6.8351021
21
45.4973211
0
LINE
8
DEFAULT_255_1_234
10
7.3507397
20
44.9519661
11
7.3507397
21
44.8772709
0
LINE
8
DEFAULT_255_1_234
10
6.839118
20
45.3704196
11
6.659207
21
45.3704196
0
LINE
8
DEFAULT_255_1_234
10
6.659207
20
45.3704196
11
6.659207
21
44.4539983
0
LINE
8
DEFAULT_255_1_234
10
6.659207
20
44.4539983
11
6.8214481
21
44.4539983
0
LINE
8
DEFAULT_255_1_234
10
7.1981367
20
44.8804836
11
7.1981367
21
44.9487534
0
ARC
8
DEFAULT_255_1_234
10
6.8389963
20
44.9107894
40
0.5865446
50
75.4101064
51
90.3804066
0
ARC
8
DEFAULT_255_1_234
10
6.8619477
20
45.0064492
40
0.4881916
50
60.145586
51
75.1888407
0
ARC
8
DEFAULT_255_1_234
10
6.8778252
20
45.0341199
40
0.4562893
50
26.5253612
51
60.1450928
0
ARC
8
DEFAULT_255_1_234
10
6.7658002
20
44.9747158
40
0.5830602
50
7.4030428
51
26.8320788
0
ARC
8
DEFAULT_255_1_234
10
6.6063758
20
44.9498804
40
0.7443669
50
0.1605367
51
7.7176192
0
ARC
8
DEFAULT_255_1_234
10
6.6227663
20
44.8734434
40
0.7279835
50
348.7289388
51
0.3012466
0
ARC
8
DEFAULT_255_1_234
10
6.7884093
20
44.8405386
40
0.559104
50
333.0706509
51
348.7181832
0
ARC
8
DEFAULT_255_1_234
10
6.8850851
20
44.7880319
40
0.4491417
50
299.2531685
51
333.4571258
0
ARC
8
DEFAULT_255_1_234
10
6.8489991
20
44.8565828
40
0.5265881
50
278.107187
51
299.0339503
0
ARC
8
DEFAULT_255_1_234
10
6.823407
20
45.0073216
40
0.679442
50
270.4443897
51
278.4511052
0
ARC
8
DEFAULT_255_1_234
10
6.82549
20
44.9144213
40
0.4604407
50
269.4970433
51
284.0205042
0
ARC
8
DEFAULT_255_1_234
10
6.8610201
20
44.7778978
40
0.3193797
50
283.7700273
51
318.1555492
0
ARC
8
DEFAULT_255_1_234
10
6.8272959
20
44.8031367
40
0.3613588
50
318.7415601
51
343.6873628
0
ARC
8
DEFAULT_255_1_234
10
6.6468982
20
44.8594832
40
0.5503313
50
343.3325091
51
355.8548958
0
ARC
8
DEFAULT_255_1_234
10
6.4370666
20
44.8794319
40
0.7610708
50
355.4988528
51
0.0791727
0
ARC
8
DEFAULT_255_1_234
10
6.5153289
20
44.952978
40
0.6828208
50
359.6455037
51
9.8607896
0
ARC
8
DEFAULT_255_1_234
10
6.7513987
20
44.9956099
40
0.4429406
50
9.6571907
51
26.1932807
0
ARC
8
DEFAULT_255_1_234
10
6.8441975
20
45.0387118
40
0.3406537
50
26.5777228
51
40.1532208
0
ARC
8
DEFAULT_255_1_234
10
6.8697702
20
45.0586619
40
0.308246
50
40.3840491
51
80.1431104
0
ARC
8
DEFAULT_255_1_234
10
6.837082
20
44.9137333
40
0.4566909
50
79.2152159
51
89.7445637
0
LINE
8
DEFAULT_255_1_234
10
5.1864292
20
5.8098211
11
5.1864292
21
5.6829196
0
LINE
8
DEFAULT_255_1_234
10
5.1864292
20
5.6829196
11
4.8105439
21
5.6829196
0
LINE
8
DEFAULT_255_1_234
10
4.8105439
20
5.6829196
11
4.8105439
21
4.6404
0
LINE
8
DEFAULT_255_1_234
10
4.8105439
20
4.6404
11
4.6571377
21
4.6404
0
LINE
8
DEFAULT_255_1_234
10
4.6571377
20
4.6404
11
4.6571377
21
5.6829196
0
LINE
8
DEFAULT_255_1_234
10
4.6571377
20
5.6829196
11
4.2820555
21
5.6829196
0
LINE
8
DEFAULT_255_1_234
10
4.2820555
20
5.6829196
11
4.2820555
21
5.8098211
0
LINE
8
DEFAULT_255_1_234
10
4.2820555
20
5.8098211
11
5.1864292
21
5.8098211
0
LINE
8
DEFAULT_255_1_234
10
5.4595083
20
5.8098211
11
5.7414224
21
5.3616501
0
LINE
8
DEFAULT_255_1_234
10
5.7414224
20
5.3616501
11
6.02173
21
5.8098211
0
LINE
8
DEFAULT_255_1_234
10
6.02173
20
5.8098211
11
6.2032473
21
5.8098211
0
LINE
8
DEFAULT_255_1_234
10
6.2032473
20
5.8098211
11
5.8337874
21
5.2299296
0
LINE
8
DEFAULT_255_1_234
10
5.8337874
20
5.2299296
11
6.2120822
21
4.6404
0
LINE
8
DEFAULT_255_1_234
10
6.2120822
20
4.6404
11
6.0289586
21
4.6404
0
LINE
8
DEFAULT_255_1_234
10
6.0289586
20
4.6404
11
5.7414224
21
5.0966027
0
LINE
8
DEFAULT_255_1_234
10
5.7414224
20
5.0966027
11
5.4522798
21
4.6404
0
LINE
8
DEFAULT_255_1_234
10
5.4522798
20
4.6404
11
5.2699593
21
4.6404
0
LINE
8
DEFAULT_255_1_234
10
5.2699593
20
4.6404
11
5.6490574
21
5.2299296
0
LINE
8
DEFAULT_255_1_234
10
5.6490574
20
5.2299296
11
5.2787942
21
5.8098211
0
LINE
8
DEFAULT_255_1_234
10
5.2787942
20
5.8098211
11
5.4595083
21
5.8098211
0
LINE
8
DEFAULT_255_1_234
10
6.8851419
20
5.8098211
11
6.3976154
21
4.5400033
0
LINE
8
DEFAULT_255_1_234
10
6.3976154
20
4.5400033
11
6.2699107
21
4.5400033
0
LINE
8
DEFAULT_255_1_234
10
6.2699107
20
4.5400033
11
6.7582404
21
5.8098211
0
LINE
8
DEFAULT_255_1_234
10
6.7582404
20
5.8098211
11
6.8851419
21
5.8098211
0
LINE
8
DEFAULT_255_1_234
10
7.3927478
20
4.6404
11
7.0690687
21
4.6404
0
LINE
8
DEFAULT_255_1_234
10
7.0690687
20
4.6404
11
7.0690687
21
5.8098211
0
LINE
8
DEFAULT_255_1_234
10
7.0690687
20
5.8098211
11
7.3991731
21
5.8098211
0
LINE
8
DEFAULT_255_1_234
10
7.9148107
20
5.2644661
11
7.9148107
21
5.1897709
0
LINE
8
DEFAULT_255_1_234
10
7.403189
20
5.6829196
11
7.2232781
21
5.6829196
0
LINE
8
DEFAULT_255_1_234
10
7.2232781
20
5.6829196
11
7.2232781
21
4.7664983
0
LINE
8
DEFAULT_255_1_234
10
7.2232781
20
4.7664983
11
7.3855192
21
4.7664983
0
LINE
8
DEFAULT_255_1_234
10
7.7622077
20
5.1929836
11
7.7622077
21
5.2612534
0
ARC
8
DEFAULT_255_1_234
10
7.4030674
20
5.2232894
40
0.5865446
50
75.4101064
51
90.3804066
0
ARC
8
DEFAULT_255_1_234
10
7.4260188
20
5.3189492
40
0.4881916
50
60.145586
51
75.1888407
0
ARC
8
DEFAULT_255_1_234
10
7.4418963
20
5.3466199
40
0.4562893
50
26.5253612
51
60.1450928
0
ARC
8
DEFAULT_255_1_234
10
7.3298712
20
5.2872158
40
0.5830602
50
7.4030428
51
26.8320788
0
ARC
8
DEFAULT_255_1_234
10
7.1704469
20
5.2623804
40
0.7443669
50
0.1605367
51
7.7176192
0
ARC
8
DEFAULT_255_1_234
10
7.1868373
20
5.1859434
40
0.7279835
50
348.7289388
51
0.3012466
0
ARC
8
DEFAULT_255_1_234
10
7.3524804
20
5.1530386
40
0.559104
50
333.0706509
51
348.7181832
0
ARC
8
DEFAULT_255_1_234
10
7.4491562
20
5.1005319
40
0.4491417
50
299.2531685
51
333.4571258
0
ARC
8
DEFAULT_255_1_234
10
7.4130701
20
5.1690828
40
0.5265881
50
278.107187
51
299.0339503
0
ARC
8
DEFAULT_255_1_234
10
7.387478
20
5.3198216
40
0.679442
50
270.4443897
51
278.4511052
0
ARC
8
DEFAULT_255_1_234
10
7.389561
20
5.2269213
40
0.4604407
50
269.4970433
51
284.0205042
0
ARC
8
DEFAULT_255_1_234
10
7.4250911
20
5.0903978
40
0.3193797
50
283.7700273
51
318.1555492
0
ARC
8
DEFAULT_255_1_234
10
7.3913669
20
5.1156367
40
0.3613588
50
318.7415601
51
343.6873628
0
ARC
8
DEFAULT_255_1_234
10
7.2109693
20
5.1719832
40
0.5503313
50
343.3325091
51
355.8548958
0
ARC
8
DEFAULT_255_1_234
10
7.0011377
20
5.1919319
40
0.7610708
50
355.4988528
51
0.0791727
0
ARC
8
DEFAULT_255_1_234
10
7.0794
20
5.265478
40
0.6828208
50
359.6455037
51
9.8607896
0
ARC
8
DEFAULT_255_1_234
10
7.3154697
20
5.3081099
40
0.4429406
50
9.6571907
51
26.1932807
0
ARC
8
DEFAULT_255_1_234
10
7.4082686
20
5.3512118
40
0.3406537
50
26.5777228
51
40.1532208
0
ARC
8
DEFAULT_255_1_234
10
7.4338412
20
5.3711619
40
0.308246
50
40.3840491
51
80.1431104
0
ARC
8
DEFAULT_255_1_234
10
7.401153
20
5.2262333
40
0.4566909
50
79.2152159
51
89.7445637
0
LINE
8
DEFAULT_255_1_234
10
8.5501212
20
5.6090276
11
8.5501212
21
5.2676788
0
LINE
8
DEFAULT_255_1_234
10
8.5501212
20
5.2676788
11
8.8762098
21
5.2676788
0
LINE
8
DEFAULT_255_1_234
10
8.8762098
20
5.2676788
11
8.8762098
21
5.1271233
0
LINE
8
DEFAULT_255_1_234
10
8.8762098
20
5.1271233
11
8.5501212
21
5.1271233
0
LINE
8
DEFAULT_255_1_234
10
8.5501212
20
5.1271233
11
8.5501212
21
4.7576634
0
LINE
8
DEFAULT_255_1_234
10
8.5501212
20
4.7576634
11
8.4007309
21
4.7576634
0
LINE
8
DEFAULT_255_1_234
10
8.4007309
20
4.7576634
11
8.4007309
21
5.1271233
0
LINE
8
DEFAULT_255_1_234
10
8.4007309
20
5.1271233
11
8.0746423
21
5.1271233
0
LINE
8
DEFAULT_255_1_234
10
8.0746423
20
5.1271233
11
8.0746423
21
5.2676788
0
LINE
8
DEFAULT_255_1_234
10
8.0746423
20
5.2676788
11
8.4007309
21
5.2676788
0
LINE
8
DEFAULT_255_1_234
10
8.4007309
20
5.2676788
11
8.4007309
21
5.6090276
0
LINE
8
DEFAULT_255_1_234
10
8.4007309
20
5.6090276
11
8.5501212
21
5.6090276
0
LINE
8
DEFAULT_255_1_234
10
4.9845341
20
12.5779
11
4.7307312
21
13.0509694
0
LINE
8
DEFAULT_255_1_234
10
4.7307312
20
13.0509694
11
4.4560458
21
13.0509694
0
LINE
8
DEFAULT_255_1_234
10
4.4560458
20
13.0509694
11
4.4560458
21
12.5779
0
LINE
8
DEFAULT_255_1_234
10
4.4560458
20
12.5779
11
4.3010332
21
12.5779
0
LINE
8
DEFAULT_255_1_234
10
4.3010332
20
12.5779
11
4.3010332
21
13.7473211
0
LINE
8
DEFAULT_255_1_234
10
4.3010332
20
13.7473211
11
4.688163
21
13.7473211
0
LINE
8
DEFAULT_255_1_234
10
4.8753025
20
13.0838995
11
5.1499879
21
12.5875381
0
LINE
8
DEFAULT_255_1_234
10
5.1499879
20
12.5875381
11
5.1499879
21
12.5779
0
LINE
8
DEFAULT_255_1_234
10
5.1499879
20
12.5779
11
4.9845341
21
12.5779
0
LINE
8
DEFAULT_255_1_234
10
4.4560458
20
13.6204196
11
4.4560458
21
13.1770677
0
LINE
8
DEFAULT_255_1_234
10
4.4560458
20
13.1770677
11
4.692982
21
13.1770677
0
LINE
8
DEFAULT_255_1_234
10
4.6921789
20
13.6204196
11
4.4560458
21
13.6204196
0
ARC
8
DEFAULT_255_1_234
10
4.6923269
20
13.0511761
40
0.6961575
50
80.653586
51
90.3427061
0
ARC
8
DEFAULT_255_1_234
10
4.7342744
20
13.2974348
40
0.4463577
50
65.6987447
51
80.8329603
0
ARC
8
DEFAULT_255_1_234
10
4.7820385
20
13.4069322
40
0.3269094
50
50.0017161
51
65.4305835
0
ARC
8
DEFAULT_255_1_234
10
4.8038849
20
13.4364482
40
0.2902647
50
11.628416
51
49.5603263
0
ARC
8
DEFAULT_255_1_234
10
4.6503185
20
13.3989299
40
0.4482792
50
359.5655735
51
12.3691
0
ARC
8
DEFAULT_255_1_234
10
4.7580045
20
13.3926644
40
0.3405924
50
341.9983148
51
0.4822259
0
ARC
8
DEFAULT_255_1_234
10
4.7974885
20
13.3819471
40
0.2997359
50
323.8609373
51
341.61416
0
ARC
8
DEFAULT_255_1_234
10
4.7673129
20
13.4052484
40
0.3378487
50
296.7018614
51
323.6876402
0
ARC
8
DEFAULT_255_1_234
10
4.7232024
20
13.4841235
40
0.4281516
50
290.8086567
51
297.2323311
0
ARC
8
DEFAULT_255_1_234
10
4.6955554
20
13.5364351
40
0.3593766
50
269.589728
51
281.8058135
0
ARC
8
DEFAULT_255_1_234
10
4.7206453
20
13.4216743
40
0.2419125
50
281.5501019
51
303.9357432
0
ARC
8
DEFAULT_255_1_234
10
4.7343641
20
13.3978936
40
0.2145323
50
304.4415616
51
311.2106213
0
ARC
8
DEFAULT_255_1_234
10
4.7475746
20
13.3839632
40
0.1953505
50
310.9875673
51
356.2715578
0
ARC
8
DEFAULT_255_1_234
10
4.6719395
20
13.3952422
40
0.2716331
50
354.9348262
51
0.0609027
0
ARC
8
DEFAULT_255_1_234
10
4.6532269
20
13.3979435
40
0.2903554
50
359.5239371
51
12.8808918
0
ARC
8
DEFAULT_255_1_234
10
4.7509824
20
13.4218728
40
0.1897315
50
12.4173452
51
43.1022135
0
ARC
8
DEFAULT_255_1_234
10
4.7571429
20
13.4255724
40
0.1827118
50
43.5751728
51
48.203944
0
ARC
8
DEFAULT_255_1_234
10
4.7401921
20
13.4034302
40
0.2105272
50
48.7809703
51
72.6969569
0
ARC
8
DEFAULT_255_1_234
10
4.7047546
20
13.295882
40
0.3237537
50
72.3702241
51
84.8791103
0
ARC
8
DEFAULT_255_1_234
10
4.6900022
20
13.1616769
40
0.4587478
50
84.5400526
51
89.7281406
0
LINE
8
DEFAULT_255_1_234
10
5.4142321
20
13.7473211
11
5.6961461
21
13.2991501
0
LINE
8
DEFAULT_255_1_234
10
5.6961461
20
13.2991501
11
5.9764538
21
13.7473211
0
LINE
8
DEFAULT_255_1_234
10
5.9764538
20
13.7473211
11
6.1579711
21
13.7473211
0
LINE
8
DEFAULT_255_1_234
10
6.1579711
20
13.7473211
11
5.7885111
21
13.1674296
0
LINE
8
DEFAULT_255_1_234
10
5.7885111
20
13.1674296
11
6.166806
21
12.5779
0
LINE
8
DEFAULT_255_1_234
10
6.166806
20
12.5779
11
5.9836824
21
12.5779
0
LINE
8
DEFAULT_255_1_234
10
5.9836824
20
12.5779
11
5.6961461
21
13.0341027
0
LINE
8
DEFAULT_255_1_234
10
5.6961461
20
13.0341027
11
5.4070036
21
12.5779
0
LINE
8
DEFAULT_255_1_234
10
5.4070036
20
12.5779
11
5.2246831
21
12.5779
0
LINE
8
DEFAULT_255_1_234
10
5.2246831
20
12.5779
11
5.6037812
21
13.1674296
0
LINE
8
DEFAULT_255_1_234
10
5.6037812
20
13.1674296
11
5.233518
21
13.7473211
0
LINE
8
DEFAULT_255_1_234
10
5.233518
20
13.7473211
11
5.4142321
21
13.7473211
0
LINE
8
DEFAULT_255_1_234
10
6.8398657
20
13.7473211
11
6.3523392
21
12.4775033
0
LINE
8
DEFAULT_255_1_234
10
6.3523392
20
12.4775033
11
6.2246345
21
12.4775033
0
LINE
8
DEFAULT_255_1_234
10
6.2246345
20
12.4775033
11
6.7129642
21
13.7473211
0
LINE
8
DEFAULT_255_1_234
10
6.7129642
20
13.7473211
11
6.8398657
21
13.7473211
0
LINE
8
DEFAULT_255_1_234
10
7.3474715
20
12.5779
11
7.0237925
21
12.5779
0
LINE
8
DEFAULT_255_1_234
10
7.0237925
20
12.5779
11
7.0237925
21
13.7473211
0
LINE
8
DEFAULT_255_1_234
10
7.0237925
20
13.7473211
11
7.3538969
21
13.7473211
0
LINE
8
DEFAULT_255_1_234
10
7.8695345
20
13.2019661
11
7.8695345
21
13.1272709
0
LINE
8
DEFAULT_255_1_234
10
7.3579128
20
13.6204196
11
7.1780019
21
13.6204196
0
LINE
8
DEFAULT_255_1_234
10
7.1780019
20
13.6204196
11
7.1780019
21
12.7039983
0
LINE
8
DEFAULT_255_1_234
10
7.1780019
20
12.7039983
11
7.340243
21
12.7039983
0
LINE
8
DEFAULT_255_1_234
10
7.7169315
20
13.1304836
11
7.7169315
21
13.1987534
0
ARC
8
DEFAULT_255_1_234
10
7.3577912
20
13.1607894
40
0.5865446
50
75.4101064
51
90.3804066
0
ARC
8
DEFAULT_255_1_234
10
7.3807425
20
13.2564492
40
0.4881916
50
60.145586
51
75.1888407
0
ARC
8
DEFAULT_255_1_234
10
7.3966201
20
13.2841199
40
0.4562893
50
26.5253612
51
60.1450928
0
ARC
8
DEFAULT_255_1_234
10
7.284595
20
13.2247158
40
0.5830602
50
7.4030428
51
26.8320788
0
ARC
8
DEFAULT_255_1_234
10
7.1251707
20
13.1998804
40
0.7443669
50
0.1605367
51
7.7176192
0
ARC
8
DEFAULT_255_1_234
10
7.1415611
20
13.1234434
40
0.7279835
50
348.7289388
51
0.3012466
0
ARC
8
DEFAULT_255_1_234
10
7.3072042
20
13.0905386
40
0.559104
50
333.0706509
51
348.7181832
0
ARC
8
DEFAULT_255_1_234
10
7.4038799
20
13.0380319
40
0.4491417
50
299.2531685
51
333.4571258
0
ARC
8
DEFAULT_255_1_234
10
7.3677939
20
13.1065828
40
0.5265881
50
278.107187
51
299.0339503
0
ARC
8
DEFAULT_255_1_234
10
7.3422018
20
13.2573216
40
0.679442
50
270.4443897
51
278.4511052
0
ARC
8
DEFAULT_255_1_234
10
7.3442848
20
13.1644213
40
0.4604407
50
269.4970433
51
284.0205042
0
ARC
8
DEFAULT_255_1_234
10
7.3798149
20
13.0278978
40
0.3193797
50
283.7700273
51
318.1555492
0
ARC
8
DEFAULT_255_1_234
10
7.3460907
20
13.0531367
40
0.3613588
50
318.7415601
51
343.6873628
0
ARC
8
DEFAULT_255_1_234
10
7.165693
20
13.1094832
40
0.5503313
50
343.3325091
51
355.8548958
0
ARC
8
DEFAULT_255_1_234
10
6.9558615
20
13.1294319
40
0.7610708
50
355.4988528
51
0.0791727
0
ARC
8
DEFAULT_255_1_234
10
7.0341237
20
13.202978
40
0.6828208
50
359.6455037
51
9.8607896
0
ARC
8
DEFAULT_255_1_234
10
7.2701935
20
13.2456099
40
0.4429406
50
9.6571907
51
26.1932807
0
ARC
8
DEFAULT_255_1_234
10
7.3629924
20
13.2887118
40
0.3406537
50
26.5777228
51
40.1532208
0
ARC
8
DEFAULT_255_1_234
10
7.388565
20
13.3086619
40
0.308246
50
40.3840491
51
80.1431104
0
ARC
8
DEFAULT_255_1_234
10
7.3558768
20
13.1637333
40
0.4566909
50
79.2152159
51
89.7445637
0
LINE
8
DEFAULT_255_1_234
10
8.3883848
20
13.1353026
11
8.3883848
21
13.0140234
0
LINE
8
DEFAULT_255_1_234
10
8.3883848
20
13.0140234
11
7.996436
21
13.0140234
0
LINE
8
DEFAULT_255_1_234
10
7.996436
20
13.0140234
11
7.996436
21
13.1353026
0
LINE
8
DEFAULT_255_1_234
10
7.996436
20
13.1353026
11
8.3883848
21
13.1353026
0
LINE
8
DEFAULT_255_1_234
10
5.0753482
20
21.097701
11
5.0753482
21
20.6688062
0
LINE
8
DEFAULT_255_1_234
10
4.1741872
20
21.0438884
11
4.1741872
21
21.1458915
0
LINE
8
DEFAULT_255_1_234
10
5.0753482
20
21.3418659
11
4.9211389
21
21.3418659
0
LINE
8
DEFAULT_255_1_234
10
4.3291998
20
21.1499073
11
4.3291998
21
21.0543296
0
LINE
8
DEFAULT_255_1_234
10
4.921942
20
20.7097681
11
4.921942
21
20.9724059
0
LINE
8
DEFAULT_255_1_234
10
4.921942
20
20.9724059
11
4.6512725
21
20.9724059
0
LINE
8
DEFAULT_255_1_234
10
4.6512725
20
20.9724059
11
4.6512725
21
21.097701
0
LINE
8
DEFAULT_255_1_234
10
4.6512725
20
21.097701
11
5.0753482
21
21.097701
0
ARC
8
DEFAULT_255_1_234
10
4.7921989
20
20.8681396
40
0.3462765
50
295.8437914
51
324.8549609
0
ARC
8
DEFAULT_255_1_234
10
4.7505956
20
20.9434567
40
0.4322211
50
291.5695085
51
296.4549398
0
ARC
8
DEFAULT_255_1_234
10
4.6995207
20
21.0799275
40
0.5779178
50
278.6622409
51
291.3045483
0
ARC
8
DEFAULT_255_1_234
10
4.6655699
20
21.2947408
40
0.7953952
50
270.020006
51
278.7494541
0
ARC
8
DEFAULT_255_1_234
10
4.6617623
20
21.4264036
40
0.927067
50
269.9969998
51
270.2524872
0
ARC
8
DEFAULT_255_1_234
10
4.6579336
20
21.0180589
40
0.5187361
50
253.5786322
51
270.4175299
0
ARC
8
DEFAULT_255_1_234
10
4.6405992
20
20.9509236
40
0.4494451
50
238.8203306
51
253.2788235
0
ARC
8
DEFAULT_255_1_234
10
4.6386365
20
20.9458231
40
0.4440665
50
206.7883783
51
238.6962764
0
ARC
8
DEFAULT_255_1_234
10
4.7160275
20
20.9922405
40
0.5341121
50
206.1129412
51
207.4916643
0
ARC
8
DEFAULT_255_1_234
10
4.775719
20
21.0176488
40
0.5989041
50
188.6921119
51
205.7821245
0
ARC
8
DEFAULT_255_1_234
10
4.9613552
20
21.049223
40
0.7871862
50
180.3882829
51
188.9219216
0
ARC
8
DEFAULT_255_1_234
10
5.0841366
20
21.1515464
40
0.909967
50
170.2024264
51
180.3560651
0
ARC
8
DEFAULT_255_1_234
10
4.7677884
20
21.2081237
40
0.5886083
50
154.2857445
51
170.3893044
0
ARC
8
DEFAULT_255_1_234
10
4.6396087
20
21.266795
40
0.4476743
50
139.8401567
51
153.9332699
0
ARC
8
DEFAULT_255_1_234
10
4.6036823
20
21.2955577
40
0.4016697
50
98.4190291
51
139.6707122
0
ARC
8
DEFAULT_255_1_234
10
4.6416341
20
21.1110328
40
0.5898566
50
89.7659205
51
99.4415478
0
ARC
8
DEFAULT_255_1_234
10
4.648159
20
21.1175844
40
0.5833147
50
78.0551672
51
90.4042112
0
ARC
8
DEFAULT_255_1_234
10
4.68861
20
21.2994644
40
0.3970055
50
54.6380464
51
78.3339173
0
ARC
8
DEFAULT_255_1_234
10
4.7076156
20
21.3314795
40
0.3599102
50
50.031736
51
54.1558201
0
ARC
8
DEFAULT_255_1_234
10
4.6968944
20
21.3218766
40
0.3741624
50
18.1092409
51
49.7180913
0
ARC
8
DEFAULT_255_1_234
10
4.5512144
20
21.2685089
40
0.5292424
50
7.9672797
51
18.6984571
0
ARC
8
DEFAULT_255_1_234
10
4.5662622
20
21.2808504
40
0.3600838
50
9.7557294
51
27.3215714
0
ARC
8
DEFAULT_255_1_234
10
4.6790094
20
21.3371912
40
0.2340608
50
27.7361077
51
84.5257964
0
ARC
8
DEFAULT_255_1_234
10
4.6462481
20
21.172864
40
0.4011215
50
82.106034
51
90.2001166
0
ARC
8
DEFAULT_255_1_234
10
4.6412698
20
21.2236215
40
0.3503799
50
89.4150119
51
105.5823402
0
ARC
8
DEFAULT_255_1_234
10
4.6155696
20
21.3171867
40
0.2533503
50
105.6678618
51
144.2648758
0
ARC
8
DEFAULT_255_1_234
10
4.7048951
20
21.2536289
40
0.3629787
50
144.3561283
51
162.8564086
0
ARC
8
DEFAULT_255_1_234
10
4.913286
20
21.1867017
40
0.5818441
50
162.6076014
51
173.6780284
0
ARC
8
DEFAULT_255_1_234
10
5.2194004
20
21.149489
40
0.8902007
50
173.4670142
51
179.9730753
0
ARC
8
DEFAULT_255_1_234
10
5.0285675
20
21.050126
40
0.6993804
50
179.6556203
51
190.0080463
0
ARC
8
DEFAULT_255_1_234
10
4.7969504
20
21.0076375
40
0.4639066
50
189.8116607
51
206.6796816
0
ARC
8
DEFAULT_255_1_234
10
4.7124656
20
20.9682503
40
0.3707421
50
207.1031645
51
217.7074368
0
ARC
8
DEFAULT_255_1_234
10
4.6490345
20
20.9130559
40
0.2868417
50
216.7345547
51
265.6812148
0
ARC
8
DEFAULT_255_1_234
10
4.6621136
20
21.0034855
40
0.3780509
50
264.7366618
51
270.0611241
0
ARC
8
DEFAULT_255_1_234
10
4.6644399
20
21.2875111
40
0.662079
50
269.8335834
51
276.0539546
0
ARC
8
DEFAULT_255_1_234
10
4.6851404
20
21.097356
40
0.4708016
50
275.9894168
51
284.4615085
0
ARC
8
DEFAULT_255_1_234
10
4.7049411
20
21.0140663
40
0.3852094
50
284.7034461
51
286.4953897
0
ARC
8
DEFAULT_255_1_234
10
4.7456424
20
20.8829965
40
0.2479842
50
286.0770838
51
304.2625829
0
ARC
8
DEFAULT_255_1_234
10
4.7589838
20
20.8611594
40
0.2224291
50
304.5891602
51
317.1073298
0
LINE
8
DEFAULT_255_1_234
10
6.2311154
20
21.6848211
11
6.2311154
21
20.5154
0
LINE
8
DEFAULT_255_1_234
10
6.2311154
20
20.5154
11
6.0761028
21
20.5154
0
LINE
8
DEFAULT_255_1_234
10
6.0761028
20
20.5154
11
5.4873764
21
21.416561
0
LINE
8
DEFAULT_255_1_234
10
5.4873764
20
21.416561
11
5.4873764
21
20.5154
0
LINE
8
DEFAULT_255_1_234
10
5.4873764
20
20.5154
11
5.3323639
21
20.5154
0
LINE
8
DEFAULT_255_1_234
10
5.3323639
20
20.5154
11
5.3323639
21
21.6848211
0
LINE
8
DEFAULT_255_1_234
10
5.3323639
20
21.6848211
11
5.4873764
21
21.6848211
0
LINE
8
DEFAULT_255_1_234
10
5.4873764
20
21.6848211
11
6.0777092
21
20.7796442
0
LINE
8
DEFAULT_255_1_234
10
6.0777092
20
20.7796442
11
6.0777092
21
21.6848211
0
LINE
8
DEFAULT_255_1_234
10
6.0777092
20
21.6848211
11
6.2311154
21
21.6848211
0
LINE
8
DEFAULT_255_1_234
10
6.8286767
20
20.5154
11
6.5049977
21
20.5154
0
LINE
8
DEFAULT_255_1_234
10
6.5049977
20
20.5154
11
6.5049977
21
21.6848211
0
LINE
8
DEFAULT_255_1_234
10
6.5049977
20
21.6848211
11
6.8351021
21
21.6848211
0
LINE
8
DEFAULT_255_1_234
10
7.3507397
20
21.1394661
11
7.3507397
21
21.0647709
0
LINE
8
DEFAULT_255_1_234
10
6.839118
20
21.5579196
11
6.659207
21
21.5579196
0
LINE
8
DEFAULT_255_1_234
10
6.659207
20
21.5579196
11
6.659207
21
20.6414983
0
LINE
8
DEFAULT_255_1_234
10
6.659207
20
20.6414983
11
6.8214481
21
20.6414983
0
LINE
8
DEFAULT_255_1_234
10
7.1981367
20
21.0679836
11
7.1981367
21
21.1362534
0
ARC
8
DEFAULT_255_1_234
10
6.8389963
20
21.0982894
40
0.5865446
50
75.4101064
51
90.3804066
0
ARC
8
DEFAULT_255_1_234
10
6.8619477
20
21.1939492
40
0.4881916
50
60.145586
51
75.1888407
0
ARC
8
DEFAULT_255_1_234
10
6.8778252
20
21.2216199
40
0.4562893
50
26.5253612
51
60.1450928
0
ARC
8
DEFAULT_255_1_234
10
6.7658002
20
21.1622158
40
0.5830602
50
7.4030428
51
26.8320788
0
ARC
8
DEFAULT_255_1_234
10
6.6063758
20
21.1373804
40
0.7443669
50
0.1605367
51
7.7176192
0
ARC
8
DEFAULT_255_1_234
10
6.6227663
20
21.0609434
40
0.7279835
50
348.7289388
51
0.3012466
0
ARC
8
DEFAULT_255_1_234
10
6.7884093
20
21.0280386
40
0.559104
50
333.0706509
51
348.7181832
0
ARC
8
DEFAULT_255_1_234
10
6.8850851
20
20.9755319
40
0.4491417
50
299.2531685
51
333.4571258
0
ARC
8
DEFAULT_255_1_234
10
6.8489991
20
21.0440828
40
0.5265881
50
278.107187
51
299.0339503
0
ARC
8
DEFAULT_255_1_234
10
6.823407
20
21.1948216
40
0.679442
50
270.4443897
51
278.4511052
0
ARC
8
DEFAULT_255_1_234
10
6.82549
20
21.1019213
40
0.4604407
50
269.4970433
51
284.0205042
0
ARC
8
DEFAULT_255_1_234
10
6.8610201
20
20.9653978
40
0.3193797
50
283.7700273
51
318.1555492
0
ARC
8
DEFAULT_255_1_234
10
6.8272959
20
20.9906367
40
0.3613588
50
318.7415601
51
343.6873628
0
ARC
8
DEFAULT_255_1_234
10
6.6468982
20
21.0469832
40
0.5503313
50
343.3325091
51
355.8548958
0
ARC
8
DEFAULT_255_1_234
10
6.4370666
20
21.0669319
40
0.7610708
50
355.4988528
51
0.0791727
0
ARC
8
DEFAULT_255_1_234
10
6.5153289
20
21.140478
40
0.6828208
50
359.6455037
51
9.8607896
0
ARC
8
DEFAULT_255_1_234
10
6.7513987
20
21.1831099
40
0.4429406
50
9.6571907
51
26.1932807
0
ARC
8
DEFAULT_255_1_234
10
6.8441975
20
21.2262118
40
0.3406537
50
26.5777228
51
40.1532208
0
ARC
8
DEFAULT_255_1_234
10
6.8697702
20
21.2461619
40
0.308246
50
40.3840491
51
80.1431104
0
ARC
8
DEFAULT_255_1_234
10
6.837082
20
21.1012333
40
0.4566909
50
79.2152159
51
89.7445637
0
LINE
8
DEFAULT_255_1_234
10
5.1864292
20
29.6223211
11
5.1864292
21
29.4954196
0
LINE
8
DEFAULT_255_1_234
10
5.1864292
20
29.4954196
11
4.8105439
21
29.4954196
0
LINE
8
DEFAULT_255_1_234
10
4.8105439
20
29.4954196
11
4.8105439
21
28.4529
0
LINE
8
DEFAULT_255_1_234
10
4.8105439
20
28.4529
11
4.6571377
21
28.4529
0
LINE
8
DEFAULT_255_1_234
10
4.6571377
20
28.4529
11
4.6571377
21
29.4954196
0
LINE
8
DEFAULT_255_1_234
10
4.6571377
20
29.4954196
11
4.2820555
21
29.4954196
0
LINE
8
DEFAULT_255_1_234
10
4.2820555
20
29.4954196
11
4.2820555
21
29.6223211
0
LINE
8
DEFAULT_255_1_234
10
4.2820555
20
29.6223211
11
5.1864292
21
29.6223211
0
LINE
8
DEFAULT_255_1_234
10
5.4595083
20
29.6223211
11
5.7414224
21
29.1741501
0
LINE
8
DEFAULT_255_1_234
10
5.7414224
20
29.1741501
11
6.02173
21
29.6223211
0
LINE
8
DEFAULT_255_1_234
10
6.02173
20
29.6223211
11
6.2032473
21
29.6223211
0
LINE
8
DEFAULT_255_1_234
10
6.2032473
20
29.6223211
11
5.8337874
21
29.0424296
0
LINE
8
DEFAULT_255_1_234
10
5.8337874
20
29.0424296
11
6.2120822
21
28.4529
0
LINE
8
DEFAULT_255_1_234
10
6.2120822
20
28.4529
11
6.0289586
21
28.4529
0
LINE
8
DEFAULT_255_1_234
10
6.0289586
20
28.4529
11
5.7414224
21
28.9091027
0
LINE
8
DEFAULT_255_1_234
10
5.7414224
20
28.9091027
11
5.4522798
21
28.4529
0
LINE
8
DEFAULT_255_1_234
10
5.4522798
20
28.4529
11
5.2699593
21
28.4529
0
LINE
8
DEFAULT_255_1_234
10
5.2699593
20
28.4529
11
5.6490574
21
29.0424296
0
LINE
8
DEFAULT_255_1_234
10
5.6490574
20
29.0424296
11
5.2787942
21
29.6223211
0
LINE
8
DEFAULT_255_1_234
10
5.2787942
20
29.6223211
11
5.4595083
21
29.6223211
0
LINE
8
DEFAULT_255_1_234
10
6.8851419
20
29.6223211
11
6.3976154
21
28.3525033
0
LINE
8
DEFAULT_255_1_234
10
6.3976154
20
28.3525033
11
6.2699107
21
28.3525033
0
LINE
8
DEFAULT_255_1_234
10
6.2699107
20
28.3525033
11
6.7582404
21
29.6223211
0
LINE
8
DEFAULT_255_1_234
10
6.7582404
20
29.6223211
11
6.8851419
21
29.6223211
0
LINE
8
DEFAULT_255_1_234
10
7.3927478
20
28.4529
11
7.0690687
21
28.4529
0
LINE
8
DEFAULT_255_1_234
10
7.0690687
20
28.4529
11
7.0690687
21
29.6223211
0
LINE
8
DEFAULT_255_1_234
10
7.0690687
20
29.6223211
11
7.3991731
21
29.6223211
0
LINE
8
DEFAULT_255_1_234
10
7.9148107
20
29.0769661
11
7.9148107
21
29.0022709
0
LINE
8
DEFAULT_255_1_234
10
7.403189
20
29.4954196
11
7.2232781
21
29.4954196
0
LINE
8
DEFAULT_255_1_234
10
7.2232781
20
29.4954196
11
7.2232781
21
28.5789983
0
LINE
8
DEFAULT_255_1_234
10
7.2232781
20
28.5789983
11
7.3855192
21
28.5789983
0
LINE
8
DEFAULT_255_1_234
10
7.7622077
20
29.0054836
11
7.7622077
21
29.0737534
0
ARC
8
DEFAULT_255_1_234
10
7.4030674
20
29.0357894
40
0.5865446
50
75.4101064
51
90.3804066
0
ARC
8
DEFAULT_255_1_234
10
7.4260188
20
29.1314492
40
0.4881916
50
60.145586
51
75.1888407
0
ARC
8
DEFAULT_255_1_234
10
7.4418963
20
29.1591199
40
0.4562893
50
26.5253612
51
60.1450928
0
ARC
8
DEFAULT_255_1_234
10
7.3298712
20
29.0997158
40
0.5830602
50
7.4030428
51
26.8320788
0
ARC
8
DEFAULT_255_1_234
10
7.1704469
20
29.0748804
40
0.7443669
50
0.1605367
51
7.7176192
0
ARC
8
DEFAULT_255_1_234
10
7.1868373
20
28.9984434
40
0.7279835
50
348.7289388
51
0.3012466
0
ARC
8
DEFAULT_255_1_234
10
7.3524804
20
28.9655386
40
0.559104
50
333.0706509
51
348.7181832
0
ARC
8
DEFAULT_255_1_234
10
7.4491562
20
28.9130319
40
0.4491417
50
299.2531685
51
333.4571258
0
ARC
8
DEFAULT_255_1_234
10
7.4130701
20
28.9815828
40
0.5265881
50
278.107187
51
299.0339503
0
ARC
8
DEFAULT_255_1_234
10
7.387478
20
29.1323216
40
0.679442
50
270.4443897
51
278.4511052
0
ARC
8
DEFAULT_255_1_234
10
7.389561
20
29.0394213
40
0.4604407
50
269.4970433
51
284.0205042
0
ARC
8
DEFAULT_255_1_234
10
7.4250911
20
28.9028978
40
0.3193797
50
283.7700273
51
318.1555492
0
ARC
8
DEFAULT_255_1_234
10
7.3913669
20
28.9281367
40
0.3613588
50
318.7415601
51
343.6873628
0
ARC
8
DEFAULT_255_1_234
10
7.2109693
20
28.9844832
40
0.5503313
50
343.3325091
51
355.8548958
0
ARC
8
DEFAULT_255_1_234
10
7.0011377
20
29.0044319
40
0.7610708
50
355.4988528
51
0.0791727
0
ARC
8
DEFAULT_255_1_234
10
7.0794
20
29.077978
40
0.6828208
50
359.6455037
51
9.8607896
0
ARC
8
DEFAULT_255_1_234
10
7.3154697
20
29.1206099
40
0.4429406
50
9.6571907
51
26.1932807
0
ARC
8
DEFAULT_255_1_234
10
7.4082686
20
29.1637118
40
0.3406537
50
26.5777228
51
40.1532208
0
ARC
8
DEFAULT_255_1_234
10
7.4338412
20
29.1836619
40
0.308246
50
40.3840491
51
80.1431104
0
ARC
8
DEFAULT_255_1_234
10
7.401153
20
29.0387333
40
0.4566909
50
79.2152159
51
89.7445637
0
LINE
8
DEFAULT_255_1_234
10
8.5501212
20
29.4215276
11
8.5501212
21
29.0801788
0
LINE
8
DEFAULT_255_1_234
10
8.5501212
20
29.0801788
11
8.8762098
21
29.0801788
0
LINE
8
DEFAULT_255_1_234
10
8.8762098
20
29.0801788
11
8.8762098
21
28.9396233
0
LINE
8
DEFAULT_255_1_234
10
8.8762098
20
28.9396233
11
8.5501212
21
28.9396233
0
LINE
8
DEFAULT_255_1_234
10
8.5501212
20
28.9396233
11
8.5501212
21
28.5701634
0
LINE
8
DEFAULT_255_1_234
10
8.5501212
20
28.5701634
11
8.4007309
21
28.5701634
0
LINE
8
DEFAULT_255_1_234
10
8.4007309
20
28.5701634
11
8.4007309
21
28.9396233
0
LINE
8
DEFAULT_255_1_234
10
8.4007309
20
28.9396233
11
8.0746423
21
28.9396233
0
LINE
8
DEFAULT_255_1_234
10
8.0746423
20
28.9396233
11
8.0746423
21
29.0801788
0
LINE
8
DEFAULT_255_1_234
10
8.0746423
20
29.0801788
11
8.4007309
21
29.0801788
0
LINE
8
DEFAULT_255_1_234
10
8.4007309
20
29.0801788
11
8.4007309
21
29.4215276
0
LINE
8
DEFAULT_255_1_234
10
8.4007309
20
29.4215276
11
8.5501212
21
29.4215276
0
LINE
8
DEFAULT_255_1_234
10
4.9845341
20
36.3904
11
4.7307312
21
36.8634694
0
LINE
8
DEFAULT_255_1_234
10
4.7307312
20
36.8634694
11
4.4560458
21
36.8634694
0
LINE
8
DEFAULT_255_1_234
10
4.4560458
20
36.8634694
11
4.4560458
21
36.3904
0
LINE
8
DEFAULT_255_1_234
10
4.4560458
20
36.3904
11
4.3010332
21
36.3904
0
LINE
8
DEFAULT_255_1_234
10
4.3010332
20
36.3904
11
4.3010332
21
37.5598211
0
LINE
8
DEFAULT_255_1_234
10
4.3010332
20
37.5598211
11
4.688163
21
37.5598211
0
LINE
8
DEFAULT_255_1_234
10
4.8753025
20
36.8963995
11
5.1499879
21
36.4000381
0
LINE
8
DEFAULT_255_1_234
10
5.1499879
20
36.4000381
11
5.1499879
21
36.3904
0
LINE
8
DEFAULT_255_1_234
10
5.1499879
20
36.3904
11
4.9845341
21
36.3904
0
LINE
8
DEFAULT_255_1_234
10
4.4560458
20
37.4329196
11
4.4560458
21
36.9895677
0
LINE
8
DEFAULT_255_1_234
10
4.4560458
20
36.9895677
11
4.692982
21
36.9895677
0
LINE
8
DEFAULT_255_1_234
10
4.6921789
20
37.4329196
11
4.4560458
21
37.4329196
0
ARC
8
DEFAULT_255_1_234
10
4.6923269
20
36.8636761
40
0.6961575
50
80.653586
51
90.3427061
0
ARC
8
DEFAULT_255_1_234
10
4.7342744
20
37.1099348
40
0.4463577
50
65.6987447
51
80.8329603
0
ARC
8
DEFAULT_255_1_234
10
4.7820385
20
37.2194322
40
0.3269094
50
50.0017161
51
65.4305835
0
ARC
8
DEFAULT_255_1_234
10
4.8038849
20
37.2489482
40
0.2902647
50
11.628416
51
49.5603263
0
ARC
8
DEFAULT_255_1_234
10
4.6503185
20
37.2114299
40
0.4482792
50
359.5655735
51
12.3691
0
ARC
8
DEFAULT_255_1_234
10
4.7580045
20
37.2051644
40
0.3405924
50
341.9983148
51
0.4822259
0
ARC
8
DEFAULT_255_1_234
10
4.7974885
20
37.1944471
40
0.2997359
50
323.8609373
51
341.61416
0
ARC
8
DEFAULT_255_1_234
10
4.7673129
20
37.2177484
40
0.3378487
50
296.7018614
51
323.6876402
0
ARC
8
DEFAULT_255_1_234
10
4.7232024
20
37.2966235
40
0.4281516
50
290.8086567
51
297.2323311
0
ARC
8
DEFAULT_255_1_234
10
4.6955554
20
37.3489351
40
0.3593766
50
269.589728
51
281.8058135
0
ARC
8
DEFAULT_255_1_234
10
4.7206453
20
37.2341743
40
0.2419125
50
281.5501019
51
303.9357432
0
ARC
8
DEFAULT_255_1_234
10
4.7343641
20
37.2103936
40
0.2145323
50
304.4415616
51
311.2106213
0
ARC
8
DEFAULT_255_1_234
10
4.7475746
20
37.1964632
40
0.1953505
50
310.9875673
51
356.2715578
0
ARC
8
DEFAULT_255_1_234
10
4.6719395
20
37.2077422
40
0.2716331
50
354.9348262
51
0.0609027
0
ARC
8
DEFAULT_255_1_234
10
4.6532269
20
37.2104435
40
0.2903554
50
359.5239371
51
12.8808918
0
ARC
8
DEFAULT_255_1_234
10
4.7509824
20
37.2343728
40
0.1897315
50
12.4173452
51
43.1022135
0
ARC
8
DEFAULT_255_1_234
10
4.7571429
20
37.2380724
40
0.1827118
50
43.5751728
51
48.203944
0
ARC
8
DEFAULT_255_1_234
10
4.7401921
20
37.2159302
40
0.2105272
50
48.7809703
51
72.6969569
0
ARC
8
DEFAULT_255_1_234
10
4.7047546
20
37.108382
40
0.3237537
50
72.3702241
51
84.8791103
0
ARC
8
DEFAULT_255_1_234
10
4.6900022
20
36.9741769
40
0.4587478
50
84.5400526
51
89.7281406
0
LINE
8
DEFAULT_255_1_234
10
5.4142321
20
37.5598211
11
5.6961461
21
37.1116501
0
LINE
8
DEFAULT_255_1_234
10
5.6961461
20
37.1116501
11
5.9764538
21
37.5598211
0
LINE
8
DEFAULT_255_1_234
10
5.9764538
20
37.5598211
11
6.1579711
21
37.5598211
0
LINE
8
DEFAULT_255_1_234
10
6.1579711
20
37.5598211
11
5.7885111
21
36.9799296
0
LINE
8
DEFAULT_255_1_234
10
5.7885111
20
36.9799296
11
6.166806
21
36.3904
0
LINE
8
DEFAULT_255_1_234
10
6.166806
20
36.3904
11
5.9836824
21
36.3904
0
LINE
8
DEFAULT_255_1_234
10
5.9836824
20
36.3904
11
5.6961461
21
36.8466027
0
LINE
8
DEFAULT_255_1_234
10
5.6961461
20
36.8466027
11
5.4070036
21
36.3904
0
LINE
8
DEFAULT_255_1_234
10
5.4070036
20
36.3904
11
5.2246831
21
36.3904
0
LINE
8
DEFAULT_255_1_234
10
5.2246831
20
36.3904
11
5.6037812
21
36.9799296
0
LINE
8
DEFAULT_255_1_234
10
5.6037812
20
36.9799296
11
5.233518
21
37.5598211
0
LINE
8
DEFAULT_255_1_234
10
5.233518
20
37.5598211
11
5.4142321
21
37.5598211
0
LINE
8
DEFAULT_255_1_234
10
6.8398657
20
37.5598211
11
6.3523392
21
36.2900033
0
LINE
8
DEFAULT_255_1_234
10
6.3523392
20
36.2900033
11
6.2246345
21
36.2900033
0
LINE
8
DEFAULT_255_1_234
10
6.2246345
20
36.2900033
11
6.7129642
21
37.5598211
0
LINE
8
DEFAULT_255_1_234
10
6.7129642
20
37.5598211
11
6.8398657
21
37.5598211
0
LINE
8
DEFAULT_255_1_234
10
7.3474715
20
36.3904
11
7.0237925
21
36.3904
0
LINE
8
DEFAULT_255_1_234
10
7.0237925
20
36.3904
11
7.0237925
21
37.5598211
0
LINE
8
DEFAULT_255_1_234
10
7.0237925
20
37.5598211
11
7.3538969
21
37.5598211
0
LINE
8
DEFAULT_255_1_234
10
7.8695345
20
37.0144661
11
7.8695345
21
36.9397709
0
LINE
8
DEFAULT_255_1_234
10
7.3579128
20
37.4329196
11
7.1780019
21
37.4329196
0
LINE
8
DEFAULT_255_1_234
10
7.1780019
20
37.4329196
11
7.1780019
21
36.5164983
0
LINE
8
DEFAULT_255_1_234
10
7.1780019
20
36.5164983
11
7.340243
21
36.5164983
0
LINE
8
DEFAULT_255_1_234
10
7.7169315
20
36.9429836
11
7.7169315
21
37.0112534
0
ARC
8
DEFAULT_255_1_234
10
7.3577912
20
36.9732894
40
0.5865446
50
75.4101064
51
90.3804066
0
ARC
8
DEFAULT_255_1_234
10
7.3807425
20
37.0689492
40
0.4881916
50
60.145586
51
75.1888407
0
ARC
8
DEFAULT_255_1_234
10
7.3966201
20
37.0966199
40
0.4562893
50
26.5253612
51
60.1450928
0
ARC
8
DEFAULT_255_1_234
10
7.284595
20
37.0372158
40
0.5830602
50
7.4030428
51
26.8320788
0
ARC
8
DEFAULT_255_1_234
10
7.1251707
20
37.0123804
40
0.7443669
50
0.1605367
51
7.7176192
0
ARC
8
DEFAULT_255_1_234
10
7.1415611
20
36.9359434
40
0.7279835
50
348.7289388
51
0.3012466
0
ARC
8
DEFAULT_255_1_234
10
7.3072042
20
36.9030386
40
0.559104
50
333.0706509
51
348.7181832
0
ARC
8
DEFAULT_255_1_234
10
7.4038799
20
36.8505319
40
0.4491417
50
299.2531685
51
333.4571258
0
ARC
8
DEFAULT_255_1_234
10
7.3677939
20
36.9190828
40
0.5265881
50
278.107187
51
299.0339503
0
ARC
8
DEFAULT_255_1_234
10
7.3422018
20
37.0698216
40
0.679442
50
270.4443897
51
278.4511052
0
ARC
8
DEFAULT_255_1_234
10
7.3442848
20
36.9769213
40
0.4604407
50
269.4970433
51
284.0205042
0
ARC
8
DEFAULT_255_1_234
10
7.3798149
20
36.8403978
40
0.3193797
50
283.7700273
51
318.1555492
0
ARC
8
DEFAULT_255_1_234
10
7.3460907
20
36.8656367
40
0.3613588
50
318.7415601
51
343.6873628
0
ARC
8
DEFAULT_255_1_234
10
7.165693
20
36.9219832
40
0.5503313
50
343.3325091
51
355.8548958
0
ARC
8
DEFAULT_255_1_234
10
6.9558615
20
36.9419319
40
0.7610708
50
355.4988528
51
0.0791727
0
ARC
8
DEFAULT_255_1_234
10
7.0341237
20
37.015478
40
0.6828208
50
359.6455037
51
9.8607896
0
ARC
8
DEFAULT_255_1_234
10
7.2701935
20
37.0581099
40
0.4429406
50
9.6571907
51
26.1932807
0
ARC
8
DEFAULT_255_1_234
10
7.3629924
20
37.1012118
40
0.3406537
50
26.5777228
51
40.1532208
0
ARC
8
DEFAULT_255_1_234
10
7.388565
20
37.1211619
40
0.308246
50
40.3840491
51
80.1431104
0
ARC
8
DEFAULT_255_1_234
10
7.3558768
20
36.9762333
40
0.4566909
50
79.2152159
51
89.7445637
0
LINE
8
DEFAULT_255_1_234
10
8.3883848
20
36.9478026
11
8.3883848
21
36.8265234
0
LINE
8
DEFAULT_255_1_234
10
8.3883848
20
36.8265234
11
7.996436
21
36.8265234
0
LINE
8
DEFAULT_255_1_234
10
7.996436
20
36.8265234
11
7.996436
21
36.9478026
0
LINE
8
DEFAULT_255_1_234
10
7.996436
20
36.9478026
11
8.3883848
21
36.9478026
0
LINE
8
DEFAULT_255_1_234
10
21.8630482
20
44.910201
11
21.8630482
21
44.4813062
0
LINE
8
DEFAULT_255_1_234
10
20.9618872
20
44.8563884
11
20.9618872
21
44.9583915
0
LINE
8
DEFAULT_255_1_234
10
21.8630482
20
45.1543659
11
21.7088389
21
45.1543659
0
LINE
8
DEFAULT_255_1_234
10
21.1168998
20
44.9624073
11
21.1168998
21
44.8668296
0
LINE
8
DEFAULT_255_1_234
10
21.709642
20
44.5222681
11
21.709642
21
44.7849059
0
LINE
8
DEFAULT_255_1_234
10
21.709642
20
44.7849059
11
21.4389725
21
44.7849059
0
LINE
8
DEFAULT_255_1_234
10
21.4389725
20
44.7849059
11
21.4389725
21
44.910201
0
LINE
8
DEFAULT_255_1_234
10
21.4389725
20
44.910201
11
21.8630482
21
44.910201
0
ARC
8
DEFAULT_255_1_234
10
21.5798989
20
44.6806396
40
0.3462765
50
295.8437914
51
324.8549609
0
ARC
8
DEFAULT_255_1_234
10
21.5382956
20
44.7559567
40
0.4322211
50
291.5695085
51
296.4549398
0
ARC
8
DEFAULT_255_1_234
10
21.4872207
20
44.8924275
40
0.5779178
50
278.6622409
51
291.3045483
0
ARC
8
DEFAULT_255_1_234
10
21.4532699
20
45.1072408
40
0.7953952
50
270.020006
51
278.7494541
0
ARC
8
DEFAULT_255_1_234
10
21.4494623
20
45.2389036
40
0.927067
50
269.9969998
51
270.2524872
0
ARC
8
DEFAULT_255_1_234
10
21.4456336
20
44.8305589
40
0.5187361
50
253.5786322
51
270.4175299
0
ARC
8
DEFAULT_255_1_234
10
21.4282992
20
44.7634236
40
0.4494451
50
238.8203306
51
253.2788235
0
ARC
8
DEFAULT_255_1_234
10
21.4263365
20
44.7583231
40
0.4440665
50
206.7883783
51
238.6962764
0
ARC
8
DEFAULT_255_1_234
10
21.5037275
20
44.8047405
40
0.5341121
50
206.1129412
51
207.4916643
0
ARC
8
DEFAULT_255_1_234
10
21.563419
20
44.8301488
40
0.5989041
50
188.6921119
51
205.7821245
0
ARC
8
DEFAULT_255_1_234
10
21.7490552
20
44.861723
40
0.7871862
50
180.3882829
51
188.9219216
0
ARC
8
DEFAULT_255_1_234
10
21.8718366
20
44.9640464
40
0.909967
50
170.2024264
51
180.3560651
0
ARC
8
DEFAULT_255_1_234
10
21.5554884
20
45.0206237
40
0.5886083
50
154.2857445
51
170.3893044
0
ARC
8
DEFAULT_255_1_234
10
21.4273087
20
45.079295
40
0.4476743
50
139.8401567
51
153.9332699
0
ARC
8
DEFAULT_255_1_234
10
21.3913823
20
45.1080577
40
0.4016697
50
98.4190291
51
139.6707122
0
ARC
8
DEFAULT_255_1_234
10
21.4293341
20
44.9235328
40
0.5898566
50
89.7659205
51
99.4415478
0
ARC
8
DEFAULT_255_1_234
10
21.435859
20
44.9300844
40
0.5833147
50
78.0551672
51
90.4042112
0
ARC
8
DEFAULT_255_1_234
10
21.47631
20
45.1119644
40
0.3970055
50
54.6380464
51
78.3339173
0
ARC
8
DEFAULT_255_1_234
10
21.4953156
20
45.1439795
40
0.3599102
50
50.031736
51
54.1558201
0
ARC
8
DEFAULT_255_1_234
10
21.4845944
20
45.1343766
40
0.3741624
50
18.1092409
51
49.7180913
0
ARC
8
DEFAULT_255_1_234
10
21.3389144
20
45.0810089
40
0.5292424
50
7.9672797
51
18.6984571
0
ARC
8
DEFAULT_255_1_234
10
21.3539622
20
45.0933504
40
0.3600838
50
9.7557294
51
27.3215714
0
ARC
8
DEFAULT_255_1_234
10
21.4667094
20
45.1496912
40
0.2340608
50
27.7361077
51
84.5257964
0
ARC
8
DEFAULT_255_1_234
10
21.4339481
20
44.985364
40
0.4011215
50
82.106034
51
90.2001166
0
ARC
8
DEFAULT_255_1_234
10
21.4289698
20
45.0361215
40
0.3503799
50
89.4150119
51
105.5823402
0
ARC
8
DEFAULT_255_1_234
10
21.4032696
20
45.1296867
40
0.2533503
50
105.6678618
51
144.2648758
0
ARC
8
DEFAULT_255_1_234
10
21.4925951
20
45.0661289
40
0.3629787
50
144.3561283
51
162.8564086
0
ARC
8
DEFAULT_255_1_234
10
21.700986
20
44.9992017
40
0.5818441
50
162.6076014
51
173.6780284
0
ARC
8
DEFAULT_255_1_234
10
22.0071004
20
44.961989
40
0.8902007
50
173.4670142
51
179.9730753
0
ARC
8
DEFAULT_255_1_234
10
21.8162675
20
44.862626
40
0.6993804
50
179.6556203
51
190.0080463
0
ARC
8
DEFAULT_255_1_234
10
21.5846504
20
44.8201375
40
0.4639066
50
189.8116607
51
206.6796816
0
ARC
8
DEFAULT_255_1_234
10
21.5001656
20
44.7807503
40
0.3707421
50
207.1031645
51
217.7074368
0
ARC
8
DEFAULT_255_1_234
10
21.4367345
20
44.7255559
40
0.2868417
50
216.7345547
51
265.6812148
0
ARC
8
DEFAULT_255_1_234
10
21.4498136
20
44.8159855
40
0.3780509
50
264.7366618
51
270.0611241
0
ARC
8
DEFAULT_255_1_234
10
21.4521399
20
45.1000111
40
0.662079
50
269.8335834
51
276.0539546
0
ARC
8
DEFAULT_255_1_234
10
21.4728404
20
44.909856
40
0.4708016
50
275.9894168
51
284.4615085
0
ARC
8
DEFAULT_255_1_234
10
21.4926411
20
44.8265663
40
0.3852094
50
284.7034461
51
286.4953897
0
ARC
8
DEFAULT_255_1_234
10
21.5333424
20
44.6954965
40
0.2479842
50
286.0770838
51
304.2625829
0
ARC
8
DEFAULT_255_1_234
10
21.5466838
20
44.6736594
40
0.2224291
50
304.5891602
51
317.1073298
0
LINE
8
DEFAULT_255_1_234
10
23.0188154
20
45.4973211
11
23.0188154
21
44.3279
0
LINE
8
DEFAULT_255_1_234
10
23.0188154
20
44.3279
11
22.8638028
21
44.3279
0
LINE
8
DEFAULT_255_1_234
10
22.8638028
20
44.3279
11
22.2750764
21
45.229061
0
LINE
8
DEFAULT_255_1_234
10
22.2750764
20
45.229061
11
22.2750764
21
44.3279
0
LINE
8
DEFAULT_255_1_234
10
22.2750764
20
44.3279
11
22.1200639
21
44.3279
0
LINE
8
DEFAULT_255_1_234
10
22.1200639
20
44.3279
11
22.1200639
21
45.4973211
0
LINE
8
DEFAULT_255_1_234
10
22.1200639
20
45.4973211
11
22.2750764
21
45.4973211
0
LINE
8
DEFAULT_255_1_234
10
22.2750764
20
45.4973211
11
22.8654092
21
44.5921442
0
LINE
8
DEFAULT_255_1_234
10
22.8654092
20
44.5921442
11
22.8654092
21
45.4973211
0
LINE
8
DEFAULT_255_1_234
10
22.8654092
20
45.4973211
11
23.0188154
21
45.4973211
0
LINE
8
DEFAULT_255_1_234
10
23.6163767
20
44.3279
11
23.2926977
21
44.3279
0
LINE
8
DEFAULT_255_1_234
10
23.2926977
20
44.3279
11
23.2926977
21
45.4973211
0
LINE
8
DEFAULT_255_1_234
10
23.2926977
20
45.4973211
11
23.6228021
21
45.4973211
0
LINE
8
DEFAULT_255_1_234
10
24.1384397
20
44.9519661
11
24.1384397
21
44.8772709
0
LINE
8
DEFAULT_255_1_234
10
23.626818
20
45.3704196
11
23.446907
21
45.3704196
0
LINE
8
DEFAULT_255_1_234
10
23.446907
20
45.3704196
11
23.446907
21
44.4539983
0
LINE
8
DEFAULT_255_1_234
10
23.446907
20
44.4539983
11
23.6091481
21
44.4539983
0
LINE
8
DEFAULT_255_1_234
10
23.9858367
20
44.8804836
11
23.9858367
21
44.9487534
0
ARC
8
DEFAULT_255_1_234
10
23.6266963
20
44.9107894
40
0.5865446
50
75.4101064
51
90.3804066
0
ARC
8
DEFAULT_255_1_234
10
23.6496477
20
45.0064492
40
0.4881916
50
60.145586
51
75.1888407
0
ARC
8
DEFAULT_255_1_234
10
23.6655252
20
45.0341199
40
0.4562893
50
26.5253612
51
60.1450928
0
ARC
8
DEFAULT_255_1_234
10
23.5535002
20
44.9747158
40
0.5830602
50
7.4030428
51
26.8320788
0
ARC
8
DEFAULT_255_1_234
10
23.3940758
20
44.9498804
40
0.7443669
50
0.1605367
51
7.7176192
0
ARC
8
DEFAULT_255_1_234
10
23.4104663
20
44.8734434
40
0.7279835
50
348.7289388
51
0.3012466
0
ARC
8
DEFAULT_255_1_234
10
23.5761093
20
44.8405386
40
0.559104
50
333.0706509
51
348.7181832
0
ARC
8
DEFAULT_255_1_234
10
23.6727851
20
44.7880319
40
0.4491417
50
299.2531685
51
333.4571258
0
ARC
8
DEFAULT_255_1_234
10
23.6366991
20
44.8565828
40
0.5265881
50
278.107187
51
299.0339503
0
ARC
8
DEFAULT_255_1_234
10
23.611107
20
45.0073216
40
0.679442
50
270.4443897
51
278.4511052
0
ARC
8
DEFAULT_255_1_234
10
23.61319
20
44.9144213
40
0.4604407
50
269.4970433
51
284.0205042
0
ARC
8
DEFAULT_255_1_234
10
23.6487201
20
44.7778978
40
0.3193797
50
283.7700273
51
318.1555492
0
ARC
8
DEFAULT_255_1_234
10
23.6149959
20
44.8031367
40
0.3613588
50
318.7415601
51
343.6873628
0
ARC
8
DEFAULT_255_1_234
10
23.4345982
20
44.8594832
40
0.5503313
50
343.3325091
51
355.8548958
0
ARC
8
DEFAULT_255_1_234
10
23.2247666
20
44.8794319
40
0.7610708
50
355.4988528
51
0.0791727
0
ARC
8
DEFAULT_255_1_234
10
23.3030289
20
44.952978
40
0.6828208
50
359.6455037
51
9.8607896
0
ARC
8
DEFAULT_255_1_234
10
23.5390987
20
44.9956099
40
0.4429406
50
9.6571907
51
26.1932807
0
ARC
8
DEFAULT_255_1_234
10
23.6318975
20
45.0387118
40
0.3406537
50
26.5777228
51
40.1532208
0
ARC
8
DEFAULT_255_1_234
10
23.6574702
20
45.0586619
40
0.308246
50
40.3840491
51
80.1431104
0
ARC
8
DEFAULT_255_1_234
10
23.624782
20
44.9137333
40
0.4566909
50
79.2152159
51
89.7445637
0
LINE
8
DEFAULT_255_1_234
10
20.3120292
20
5.8098211
11
20.3120292
21
5.6829196
0
LINE
8
DEFAULT_255_1_234
10
20.3120292
20
5.6829196
11
19.9361439
21
5.6829196
0
LINE
8
DEFAULT_255_1_234
10
19.9361439
20
5.6829196
11
19.9361439
21
4.6404
0
LINE
8
DEFAULT_255_1_234
10
19.9361439
20
4.6404
11
19.7827377
21
4.6404
0
LINE
8
DEFAULT_255_1_234
10
19.7827377
20
4.6404
11
19.7827377
21
5.6829196
0
LINE
8
DEFAULT_255_1_234
10
19.7827377
20
5.6829196
11
19.4076555
21
5.6829196
0
LINE
8
DEFAULT_255_1_234
10
19.4076555
20
5.6829196
11
19.4076555
21
5.8098211
0
LINE
8
DEFAULT_255_1_234
10
19.4076555
20
5.8098211
11
20.3120292
21
5.8098211
0
LINE
8
DEFAULT_255_1_234
10
20.5851083
20
5.8098211
11
20.8670224
21
5.3616501
0
LINE
8
DEFAULT_255_1_234
10
20.8670224
20
5.3616501
11
21.14733
21
5.8098211
0
LINE
8
DEFAULT_255_1_234
10
21.14733
20
5.8098211
11
21.3288473
21
5.8098211
0
LINE
8
DEFAULT_255_1_234
10
21.3288473
20
5.8098211
11
20.9593874
21
5.2299296
0
LINE
8
DEFAULT_255_1_234
10
20.9593874
20
5.2299296
11
21.3376822
21
4.6404
0
LINE
8
DEFAULT_255_1_234
10
21.3376822
20
4.6404
11
21.1545586
21
4.6404
0
LINE
8
DEFAULT_255_1_234
10
21.1545586
20
4.6404
11
20.8670224
21
5.0966027
0
LINE
8
DEFAULT_255_1_234
10
20.8670224
20
5.0966027
11
20.5778798
21
4.6404
0
LINE
8
DEFAULT_255_1_234
10
20.5778798
20
4.6404
11
20.3955593
21
4.6404
0
LINE
8
DEFAULT_255_1_234
10
20.3955593
20
4.6404
11
20.7746574
21
5.2299296
0
LINE
8
DEFAULT_255_1_234
10
20.7746574
20
5.2299296
11
20.4043942
21
5.8098211
0
LINE
8
DEFAULT_255_1_234
10
20.4043942
20
5.8098211
11
20.5851083
21
5.8098211
0
LINE
8
DEFAULT_255_1_234
10
22.0107419
20
5.8098211
11
21.5232154
21
4.5400033
0
LINE
8
DEFAULT_255_1_234
10
21.5232154
20
4.5400033
11
21.3955107
21
4.5400033
0
LINE
8
DEFAULT_255_1_234
10
21.3955107
20
4.5400033
11
21.8838404
21
5.8098211
0
LINE
8
DEFAULT_255_1_234
10
21.8838404
20
5.8098211
11
22.0107419
21
5.8098211
0
LINE
8
DEFAULT_255_1_234
10
22.5183478
20
4.6404
11
22.1946687
21
4.6404
0
LINE
8
DEFAULT_255_1_234
10
22.1946687
20
4.6404
11
22.1946687
21
5.8098211
0
LINE
8
DEFAULT_255_1_234
10
22.1946687
20
5.8098211
11
22.5247731
21
5.8098211
0
LINE
8
DEFAULT_255_1_234
10
23.0404107
20
5.2644661
11
23.0404107
21
5.1897709
0
LINE
8
DEFAULT_255_1_234
10
22.528789
20
5.6829196
11
22.3488781
21
5.6829196
0
LINE
8
DEFAULT_255_1_234
10
22.3488781
20
5.6829196
11
22.3488781
21
4.7664983
0
LINE
8
DEFAULT_255_1_234
10
22.3488781
20
4.7664983
11
22.5111192
21
4.7664983
0
LINE
8
DEFAULT_255_1_234
10
22.8878077
20
5.1929836
11
22.8878077
21
5.2612534
0
ARC
8
DEFAULT_255_1_234
10
22.5286674
20
5.2232894
40
0.5865446
50
75.4101064
51
90.3804066
0
ARC
8
DEFAULT_255_1_234
10
22.5516188
20
5.3189492
40
0.4881916
50
60.145586
51
75.1888407
0
ARC
8
DEFAULT_255_1_234
10
22.5674963
20
5.3466199
40
0.4562893
50
26.5253612
51
60.1450928
0
ARC
8
DEFAULT_255_1_234
10
22.4554712
20
5.2872158
40
0.5830602
50
7.4030428
51
26.8320788
0
ARC
8
DEFAULT_255_1_234
10
22.2960469
20
5.2623804
40
0.7443669
50
0.1605367
51
7.7176192
0
ARC
8
DEFAULT_255_1_234
10
22.3124373
20
5.1859434
40
0.7279835
50
348.7289388
51
0.3012466
0
ARC
8
DEFAULT_255_1_234
10
22.4780804
20
5.1530386
40
0.559104
50
333.0706509
51
348.7181832
0
ARC
8
DEFAULT_255_1_234
10
22.5747562
20
5.1005319
40
0.4491417
50
299.2531685
51
333.4571258
0
ARC
8
DEFAULT_255_1_234
10
22.5386701
20
5.1690828
40
0.5265881
50
278.107187
51
299.0339503
0
ARC
8
DEFAULT_255_1_234
10
22.513078
20
5.3198216
40
0.679442
50
270.4443897
51
278.4511052
0
ARC
8
DEFAULT_255_1_234
10
22.515161
20
5.2269213
40
0.4604407
50
269.4970433
51
284.0205042
0
ARC
8
DEFAULT_255_1_234
10
22.5506911
20
5.0903978
40
0.3193797
50
283.7700273
51
318.1555492
0
ARC
8
DEFAULT_255_1_234
10
22.5169669
20
5.1156367
40
0.3613588
50
318.7415601
51
343.6873628
0
ARC
8
DEFAULT_255_1_234
10
22.3365693
20
5.1719832
40
0.5503313
50
343.3325091
51
355.8548958
0
ARC
8
DEFAULT_255_1_234
10
22.1267377
20
5.1919319
40
0.7610708
50
355.4988528
51
0.0791727
0
ARC
8
DEFAULT_255_1_234
10
22.205
20
5.265478
40
0.6828208
50
359.6455037
51
9.8607896
0
ARC
8
DEFAULT_255_1_234
10
22.4410697
20
5.3081099
40
0.4429406
50
9.6571907
51
26.1932807
0
ARC
8
DEFAULT_255_1_234
10
22.5338686
20
5.3512118
40
0.3406537
50
26.5777228
51
40.1532208
0
ARC
8
DEFAULT_255_1_234
10
22.5594412
20
5.3711619
40
0.308246
50
40.3840491
51
80.1431104
0
ARC
8
DEFAULT_255_1_234
10
22.526753
20
5.2262333
40
0.4566909
50
79.2152159
51
89.7445637
0
LINE
8
DEFAULT_255_1_234
10
23.6757212
20
5.6090276
11
23.6757212
21
5.2676788
0
LINE
8
DEFAULT_255_1_234
10
23.6757212
20
5.2676788
11
24.0018098
21
5.2676788
0
LINE
8
DEFAULT_255_1_234
10
24.0018098
20
5.2676788
11
24.0018098
21
5.1271233
0
LINE
8
DEFAULT_255_1_234
10
24.0018098
20
5.1271233
11
23.6757212
21
5.1271233
0
LINE
8
DEFAULT_255_1_234
10
23.6757212
20
5.1271233
11
23.6757212
21
4.7576634
0
LINE
8
DEFAULT_255_1_234
10
23.6757212
20
4.7576634
11
23.5263309
21
4.7576634
0
LINE
8
DEFAULT_255_1_234
10
23.5263309
20
4.7576634
11
23.5263309
21
5.1271233
0
LINE
8
DEFAULT_255_1_234
10
23.5263309
20
5.1271233
11
23.2002423
21
5.1271233
0
LINE
8
DEFAULT_255_1_234
10
23.2002423
20
5.1271233
11
23.2002423
21
5.2676788
0
LINE
8
DEFAULT_255_1_234
10
23.2002423
20
5.2676788
11
23.5263309
21
5.2676788
0
LINE
8
DEFAULT_255_1_234
10
23.5263309
20
5.2676788
11
23.5263309
21
5.6090276
0
LINE
8
DEFAULT_255_1_234
10
23.5263309
20
5.6090276
11
23.6757212
21
5.6090276
0
LINE
8
DEFAULT_255_1_234
10
20.7098341
20
12.5779
11
20.4560312
21
13.0509694
0
LINE
8
DEFAULT_255_1_234
10
20.4560312
20
13.0509694
11
20.1813458
21
13.0509694
0
LINE
8
DEFAULT_255_1_234
10
20.1813458
20
13.0509694
11
20.1813458
21
12.5779
0
LINE
8
DEFAULT_255_1_234
10
20.1813458
20
12.5779
11
20.0263332
21
12.5779
0
LINE
8
DEFAULT_255_1_234
10
20.0263332
20
12.5779
11
20.0263332
21
13.7473211
0
LINE
8
DEFAULT_255_1_234
10
20.0263332
20
13.7473211
11
20.413463
21
13.7473211
0
LINE
8
DEFAULT_255_1_234
10
20.6006025
20
13.0838995
11
20.8752879
21
12.5875381
0
LINE
8
DEFAULT_255_1_234
10
20.8752879
20
12.5875381
11
20.8752879
21
12.5779
0
LINE
8
DEFAULT_255_1_234
10
20.8752879
20
12.5779
11
20.7098341
21
12.5779
0
LINE
8
DEFAULT_255_1_234
10
20.1813458
20
13.6204196
11
20.1813458
21
13.1770677
0
LINE
8
DEFAULT_255_1_234
10
20.1813458
20
13.1770677
11
20.418282
21
13.1770677
0
LINE
8
DEFAULT_255_1_234
10
20.4174789
20
13.6204196
11
20.1813458
21
13.6204196
0
ARC
8
DEFAULT_255_1_234
10
20.4176269
20
13.0511761
40
0.6961575
50
80.653586
51
90.3427061
0
ARC
8
DEFAULT_255_1_234
10
20.4595744
20
13.2974348
40
0.4463577
50
65.6987447
51
80.8329603
0
ARC
8
DEFAULT_255_1_234
10
20.5073385
20
13.4069322
40
0.3269094
50
50.0017161
51
65.4305835
0
ARC
8
DEFAULT_255_1_234
10
20.5291849
20
13.4364482
40
0.2902647
50
11.628416
51
49.5603263
0
ARC
8
DEFAULT_255_1_234
10
20.3756185
20
13.3989299
40
0.4482792
50
359.5655735
51
12.3691
0
ARC
8
DEFAULT_255_1_234
10
20.4833045
20
13.3926644
40
0.3405924
50
341.9983148
51
0.4822259
0
ARC
8
DEFAULT_255_1_234
10
20.5227885
20
13.3819471
40
0.2997359
50
323.8609373
51
341.61416
0
ARC
8
DEFAULT_255_1_234
10
20.4926129
20
13.4052484
40
0.3378487
50
296.7018614
51
323.6876402
0
ARC
8
DEFAULT_255_1_234
10
20.4485024
20
13.4841235
40
0.4281516
50
290.8086567
51
297.2323311
0
ARC
8
DEFAULT_255_1_234
10
20.4208554
20
13.5364351
40
0.3593766
50
269.589728
51
281.8058135
0
ARC
8
DEFAULT_255_1_234
10
20.4459453
20
13.4216743
40
0.2419125
50
281.5501019
51
303.9357432
0
ARC
8
DEFAULT_255_1_234
10
20.4596641
20
13.3978936
40
0.2145323
50
304.4415616
51
311.2106213
0
ARC
8
DEFAULT_255_1_234
10
20.4728746
20
13.3839632
40
0.1953505
50
310.9875673
51
356.2715578
0
ARC
8
DEFAULT_255_1_234
10
20.3972395
20
13.3952422
40
0.2716331
50
354.9348262
51
0.0609027
0
ARC
8
DEFAULT_255_1_234
10
20.3785269
20
13.3979435
40
0.2903554
50
359.5239371
51
12.8808918
0
ARC
8
DEFAULT_255_1_234
10
20.4762824
20
13.4218728
40
0.1897315
50
12.4173452
51
43.1022135
0
ARC
8
DEFAULT_255_1_234
10
20.4824429
20
13.4255724
40
0.1827118
50
43.5751728
51
48.203944
0
ARC
8
DEFAULT_255_1_234
10
20.4654921
20
13.4034302
40
0.2105272
50
48.7809703
51
72.6969569
0
ARC
8
DEFAULT_255_1_234
10
20.4300546
20
13.295882
40
0.3237537
50
72.3702241
51
84.8791103
0
ARC
8
DEFAULT_255_1_234
10
20.4153022
20
13.1616769
40
0.4587478
50
84.5400526
51
89.7281406
0
LINE
8
DEFAULT_255_1_234
10
21.1395321
20
13.7473211
11
21.4214461
21
13.2991501
0
LINE
8
DEFAULT_255_1_234
10
21.4214461
20
13.2991501
11
21.7017538
21
13.7473211
0
LINE
8
DEFAULT_255_1_234
10
21.7017538
20
13.7473211
11
21.8832711
21
13.7473211
0
LINE
8
DEFAULT_255_1_234
10
21.8832711
20
13.7473211
11
21.5138111
21
13.1674296
0
LINE
8
DEFAULT_255_1_234
10
21.5138111
20
13.1674296
11
21.892106
21
12.5779
0
LINE
8
DEFAULT_255_1_234
10
21.892106
20
12.5779
11
21.7089824
21
12.5779
0
LINE
8
DEFAULT_255_1_234
10
21.7089824
20
12.5779
11
21.4214461
21
13.0341027
0
LINE
8
DEFAULT_255_1_234
10
21.4214461
20
13.0341027
11
21.1323036
21
12.5779
0
LINE
8
DEFAULT_255_1_234
10
21.1323036
20
12.5779
11
20.9499831
21
12.5779
0
LINE
8
DEFAULT_255_1_234
10
20.9499831
20
12.5779
11
21.3290812
21
13.1674296
0
LINE
8
DEFAULT_255_1_234
10
21.3290812
20
13.1674296
11
20.958818
21
13.7473211
0
LINE
8
DEFAULT_255_1_234
10
20.958818
20
13.7473211
11
21.1395321
21
13.7473211
0
LINE
8
DEFAULT_255_1_234
10
22.5651657
20
13.7473211
11
22.0776392
21
12.4775033
0
LINE
8
DEFAULT_255_1_234
10
22.0776392
20
12.4775033
11
21.9499345
21
12.4775033
0
LINE
8
DEFAULT_255_1_234
10
21.9499345
20
12.4775033
11
22.4382642
21
13.7473211
0
LINE
8
DEFAULT_255_1_234
10
22.4382642
20
13.7473211
11
22.5651657
21
13.7473211
0
LINE
8
DEFAULT_255_1_234
10
23.0727715
20
12.5779
11
22.7490925
21
12.5779
0
LINE
8
DEFAULT_255_1_234
10
22.7490925
20
12.5779
11
22.7490925
21
13.7473211
0
LINE
8
DEFAULT_255_1_234
10
22.7490925
20
13.7473211
11
23.0791969
21
13.7473211
0
LINE
8
DEFAULT_255_1_234
10
23.5948345
20
13.2019661
11
23.5948345
21
13.1272709
0
LINE
8
DEFAULT_255_1_234
10
23.0832128
20
13.6204196
11
22.9033019
21
13.6204196
0
LINE
8
DEFAULT_255_1_234
10
22.9033019
20
13.6204196
11
22.9033019
21
12.7039983
0
LINE
8
DEFAULT_255_1_234
10
22.9033019
20
12.7039983
11
23.065543
21
12.7039983
0
LINE
8
DEFAULT_255_1_234
10
23.4422315
20
13.1304836
11
23.4422315
21
13.1987534
0
ARC
8
DEFAULT_255_1_234
10
23.0830912
20
13.1607894
40
0.5865446
50
75.4101064
51
90.3804066
0
ARC
8
DEFAULT_255_1_234
10
23.1060425
20
13.2564492
40
0.4881916
50
60.145586
51
75.1888407
0
ARC
8
DEFAULT_255_1_234
10
23.1219201
20
13.2841199
40
0.4562893
50
26.5253612
51
60.1450928
0
ARC
8
DEFAULT_255_1_234
10
23.009895
20
13.2247158
40
0.5830602
50
7.4030428
51
26.8320788
0
ARC
8
DEFAULT_255_1_234
10
22.8504707
20
13.1998804
40
0.7443669
50
0.1605367
51
7.7176192
0
ARC
8
DEFAULT_255_1_234
10
22.8668611
20
13.1234434
40
0.7279835
50
348.7289388
51
0.3012466
0
ARC
8
DEFAULT_255_1_234
10
23.0325042
20
13.0905386
40
0.559104
50
333.0706509
51
348.7181832
0
ARC
8
DEFAULT_255_1_234
10
23.1291799
20
13.0380319
40
0.4491417
50
299.2531685
51
333.4571258
0
ARC
8
DEFAULT_255_1_234
10
23.0930939
20
13.1065828
40
0.5265881
50
278.107187
51
299.0339503
0
ARC
8
DEFAULT_255_1_234
10
23.0675018
20
13.2573216
40
0.679442
50
270.4443897
51
278.4511052
0
ARC
8
DEFAULT_255_1_234
10
23.0695848
20
13.1644213
40
0.4604407
50
269.4970433
51
284.0205042
0
ARC
8
DEFAULT_255_1_234
10
23.1051149
20
13.0278978
40
0.3193797
50
283.7700273
51
318.1555492
0
ARC
8
DEFAULT_255_1_234
10
23.0713907
20
13.0531367
40
0.3613588
50
318.7415601
51
343.6873628
0
ARC
8
DEFAULT_255_1_234
10
22.890993
20
13.1094832
40
0.5503313
50
343.3325091
51
355.8548958
0
ARC
8
DEFAULT_255_1_234
10
22.6811615
20
13.1294319
40
0.7610708
50
355.4988528
51
0.0791727
0
ARC
8
DEFAULT_255_1_234
10
22.7594237
20
13.202978
40
0.6828208
50
359.6455037
51
9.8607896
0
ARC
8
DEFAULT_255_1_234
10
22.9954935
20
13.2456099
40
0.4429406
50
9.6571907
51
26.1932807
0
ARC
8
DEFAULT_255_1_234
10
23.0882924
20
13.2887118
40
0.3406537
50
26.5777228
51
40.1532208
0
ARC
8
DEFAULT_255_1_234
10
23.113865
20
13.3086619
40
0.308246
50
40.3840491
51
80.1431104
0
ARC
8
DEFAULT_255_1_234
10
23.0811768
20
13.1637333
40
0.4566909
50
79.2152159
51
89.7445637
0
LINE
8
DEFAULT_255_1_234
10
24.1136848
20
13.1353026
11
24.1136848
21
13.0140234
0
LINE
8
DEFAULT_255_1_234
10
24.1136848
20
13.0140234
11
23.721736
21
13.0140234
0
LINE
8
DEFAULT_255_1_234
10
23.721736
20
13.0140234
11
23.721736
21
13.1353026
0
LINE
8
DEFAULT_255_1_234
10
23.721736
20
13.1353026
11
24.1136848
21
13.1353026
0
LINE
8
DEFAULT_255_1_234
10
21.8630482
20
21.097701
11
21.8630482
21
20.6688062
0
LINE
8
DEFAULT_255_1_234
10
20.9618872
20
21.0438884
11
20.9618872
21
21.1458915
0
LINE
8
DEFAULT_255_1_234
10
21.8630482
20
21.3418659
11
21.7088389
21
21.3418659
0
LINE
8
DEFAULT_255_1_234
10
21.1168998
20
21.1499073
11
21.1168998
21
21.0543296
0
LINE
8
DEFAULT_255_1_234
10
21.709642
20
20.7097681
11
21.709642
21
20.9724059
0
LINE
8
DEFAULT_255_1_234
10
21.709642
20
20.9724059
11
21.4389725
21
20.9724059
0
LINE
8
DEFAULT_255_1_234
10
21.4389725
20
20.9724059
11
21.4389725
21
21.097701
0
LINE
8
DEFAULT_255_1_234
10
21.4389725
20
21.097701
11
21.8630482
21
21.097701
0
ARC
8
DEFAULT_255_1_234
10
21.5798989
20
20.8681396
40
0.3462765
50
295.8437914
51
324.8549609
0
ARC
8
DEFAULT_255_1_234
10
21.5382956
20
20.9434567
40
0.4322211
50
291.5695085
51
296.4549398
0
ARC
8
DEFAULT_255_1_234
10
21.4872207
20
21.0799275
40
0.5779178
50
278.6622409
51
291.3045483
0
ARC
8
DEFAULT_255_1_234
10
21.4532699
20
21.2947408
40
0.7953952
50
270.020006
51
278.7494541
0
ARC
8
DEFAULT_255_1_234
10
21.4494623
20
21.4264036
40
0.927067
50
269.9969998
51
270.2524872
0
ARC
8
DEFAULT_255_1_234
10
21.4456336
20
21.0180589
40
0.5187361
50
253.5786322
51
270.4175299
0
ARC
8
DEFAULT_255_1_234
10
21.4282992
20
20.9509236
40
0.4494451
50
238.8203306
51
253.2788235
0
ARC
8
DEFAULT_255_1_234
10
21.4263365
20
20.9458231
40
0.4440665
50
206.7883783
51
238.6962764
0
ARC
8
DEFAULT_255_1_234
10
21.5037275
20
20.9922405
40
0.5341121
50
206.1129412
51
207.4916643
0
ARC
8
DEFAULT_255_1_234
10
21.563419
20
21.0176488
40
0.5989041
50
188.6921119
51
205.7821245
0
ARC
8
DEFAULT_255_1_234
10
21.7490552
20
21.049223
40
0.7871862
50
180.3882829
51
188.9219216
0
ARC
8
DEFAULT_255_1_234
10
21.8718366
20
21.1515464
40
0.909967
50
170.2024264
51
180.3560651
0
ARC
8
DEFAULT_255_1_234
10
21.5554884
20
21.2081237
40
0.5886083
50
154.2857445
51
170.3893044
0
ARC
8
DEFAULT_255_1_234
10
21.4273087
20
21.266795
40
0.4476743
50
139.8401567
51
153.9332699
0
ARC
8
DEFAULT_255_1_234
10
21.3913823
20
21.2955577
40
0.4016697
50
98.4190291
51
139.6707122
0
ARC
8
DEFAULT_255_1_234
10
21.4293341
20
21.1110328
40
0.5898566
50
89.7659205
51
99.4415478
0
ARC
8
DEFAULT_255_1_234
10
21.435859
20
21.1175844
40
0.5833147
50
78.0551672
51
90.4042112
0
ARC
8
DEFAULT_255_1_234
10
21.47631
20
21.2994644
40
0.3970055
50
54.6380464
51
78.3339173
0
ARC
8
DEFAULT_255_1_234
10
21.4953156
20
21.3314795
40
0.3599102
50
50.031736
51
54.1558201
0
ARC
8
DEFAULT_255_1_234
10
21.4845944
20
21.3218766
40
0.3741624
50
18.1092409
51
49.7180913
0
ARC
8
DEFAULT_255_1_234
10
21.3389144
20
21.2685089
40
0.5292424
50
7.9672797
51
18.6984571
0
ARC
8
DEFAULT_255_1_234
10
21.3539622
20
21.2808504
40
0.3600838
50
9.7557294
51
27.3215714
0
ARC
8
DEFAULT_255_1_234
10
21.4667094
20
21.3371912
40
0.2340608
50
27.7361077
51
84.5257964
0
ARC
8
DEFAULT_255_1_234
10
21.4339481
20
21.172864
40
0.4011215
50
82.106034
51
90.2001166
0
ARC
8
DEFAULT_255_1_234
10
21.4289698
20
21.2236215
40
0.3503799
50
89.4150119
51
105.5823402
0
ARC
8
DEFAULT_255_1_234
10
21.4032696
20
21.3171867
40
0.2533503
50
105.6678618
51
144.2648758
0
ARC
8
DEFAULT_255_1_234
10
21.4925951
20
21.2536289
40
0.3629787
50
144.3561283
51
162.8564086
0
ARC
8
DEFAULT_255_1_234
10
21.700986
20
21.1867017
40
0.5818441
50
162.6076014
51
173.6780284
0
ARC
8
DEFAULT_255_1_234
10
22.0071004
20
21.149489
40
0.8902007
50
173.4670142
51
179.9730753
0
ARC
8
DEFAULT_255_1_234
10
21.8162675
20
21.050126
40
0.6993804
50
179.6556203
51
190.0080463
0
ARC
8
DEFAULT_255_1_234
10
21.5846504
20
21.0076375
40
0.4639066
50
189.8116607
51
206.6796816
0
ARC
8
DEFAULT_255_1_234
10
21.5001656
20
20.9682503
40
0.3707421
50
207.1031645
51
217.7074368
0
ARC
8
DEFAULT_255_1_234
10
21.4367345
20
20.9130559
40
0.2868417
50
216.7345547
51
265.6812148
0
ARC
8
DEFAULT_255_1_234
10
21.4498136
20
21.0034855
40
0.3780509
50
264.7366618
51
270.0611241
0
ARC
8
DEFAULT_255_1_234
10
21.4521399
20
21.2875111
40
0.662079
50
269.8335834
51
276.0539546
0
ARC
8
DEFAULT_255_1_234
10
21.4728404
20
21.097356
40
0.4708016
50
275.9894168
51
284.4615085
0
ARC
8
DEFAULT_255_1_234
10
21.4926411
20
21.0140663
40
0.3852094
50
284.7034461
51
286.4953897
0
ARC
8
DEFAULT_255_1_234
10
21.5333424
20
20.8829965
40
0.2479842
50
286.0770838
51
304.2625829
0
ARC
8
DEFAULT_255_1_234
10
21.5466838
20
20.8611594
40
0.2224291
50
304.5891602
51
317.1073298
0
LINE
8
DEFAULT_255_1_234
10
23.0188154
20
21.6848211
11
23.0188154
21
20.5154
0
LINE
8
DEFAULT_255_1_234
10
23.0188154
20
20.5154
11
22.8638028
21
20.5154
0
LINE
8
DEFAULT_255_1_234
10
22.8638028
20
20.5154
11
22.2750764
21
21.416561
0
LINE
8
DEFAULT_255_1_234
10
22.2750764
20
21.416561
11
22.2750764
21
20.5154
0
LINE
8
DEFAULT_255_1_234
10
22.2750764
20
20.5154
11
22.1200639
21
20.5154
0
LINE
8
DEFAULT_255_1_234
10
22.1200639
20
20.5154
11
22.1200639
21
21.6848211
0
LINE
8
DEFAULT_255_1_234
10
22.1200639
20
21.6848211
11
22.2750764
21
21.6848211
0
LINE
8
DEFAULT_255_1_234
10
22.2750764
20
21.6848211
11
22.8654092
21
20.7796442
0
LINE
8
DEFAULT_255_1_234
10
22.8654092
20
20.7796442
11
22.8654092
21
21.6848211
0
LINE
8
DEFAULT_255_1_234
10
22.8654092
20
21.6848211
11
23.0188154
21
21.6848211
0
LINE
8
DEFAULT_255_1_234
10
23.6163767
20
20.5154
11
23.2926977
21
20.5154
0
LINE
8
DEFAULT_255_1_234
10
23.2926977
20
20.5154
11
23.2926977
21
21.6848211
0
LINE
8
DEFAULT_255_1_234
10
23.2926977
20
21.6848211
11
23.6228021
21
21.6848211
0
LINE
8
DEFAULT_255_1_234
10
24.1384397
20
21.1394661
11
24.1384397
21
21.0647709
0
LINE
8
DEFAULT_255_1_234
10
23.626818
20
21.5579196
11
23.446907
21
21.5579196
0
LINE
8
DEFAULT_255_1_234
10
23.446907
20
21.5579196
11
23.446907
21
20.6414983
0
LINE
8
DEFAULT_255_1_234
10
23.446907
20
20.6414983
11
23.6091481
21
20.6414983
0
LINE
8
DEFAULT_255_1_234
10
23.9858367
20
21.0679836
11
23.9858367
21
21.1362534
0
ARC
8
DEFAULT_255_1_234
10
23.6266963
20
21.0982894
40
0.5865446
50
75.4101064
51
90.3804066
0
ARC
8
DEFAULT_255_1_234
10
23.6496477
20
21.1939492
40
0.4881916
50
60.145586
51
75.1888407
0
ARC
8
DEFAULT_255_1_234
10
23.6655252
20
21.2216199
40
0.4562893
50
26.5253612
51
60.1450928
0
ARC
8
DEFAULT_255_1_234
10
23.5535002
20
21.1622158
40
0.5830602
50
7.4030428
51
26.8320788
0
ARC
8
DEFAULT_255_1_234
10
23.3940758
20
21.1373804
40
0.7443669
50
0.1605367
51
7.7176192
0
ARC
8
DEFAULT_255_1_234
10
23.4104663
20
21.0609434
40
0.7279835
50
348.7289388
51
0.3012466
0
ARC
8
DEFAULT_255_1_234
10
23.5761093
20
21.0280386
40
0.559104
50
333.0706509
51
348.7181832
0
ARC
8
DEFAULT_255_1_234
10
23.6727851
20
20.9755319
40
0.4491417
50
299.2531685
51
333.4571258
0
ARC
8
DEFAULT_255_1_234
10
23.6366991
20
21.0440828
40
0.5265881
50
278.107187
51
299.0339503
0
ARC
8
DEFAULT_255_1_234
10
23.611107
20
21.1948216
40
0.679442
50
270.4443897
51
278.4511052
0
ARC
8
DEFAULT_255_1_234
10
23.61319
20
21.1019213
40
0.4604407
50
269.4970433
51
284.0205042
0
ARC
8
DEFAULT_255_1_234
10
23.6487201
20
20.9653978
40
0.3193797
50
283.7700273
51
318.1555492
0
ARC
8
DEFAULT_255_1_234
10
23.6149959
20
20.9906367
40
0.3613588
50
318.7415601
51
343.6873628
0
ARC
8
DEFAULT_255_1_234
10
23.4345982
20
21.0469832
40
0.5503313
50
343.3325091
51
355.8548958
0
ARC
8
DEFAULT_255_1_234
10
23.2247666
20
21.0669319
40
0.7610708
50
355.4988528
51
0.0791727
0
ARC
8
DEFAULT_255_1_234
10
23.3030289
20
21.140478
40
0.6828208
50
359.6455037
51
9.8607896
0
ARC
8
DEFAULT_255_1_234
10
23.5390987
20
21.1831099
40
0.4429406
50
9.6571907
51
26.1932807
0
ARC
8
DEFAULT_255_1_234
10
23.6318975
20
21.2262118
40
0.3406537
50
26.5777228
51
40.1532208
0
ARC
8
DEFAULT_255_1_234
10
23.6574702
20
21.2461619
40
0.308246
50
40.3840491
51
80.1431104
0
ARC
8
DEFAULT_255_1_234
10
23.624782
20
21.1012333
40
0.4566909
50
79.2152159
51
89.7445637
0
LINE
8
DEFAULT_255_1_234
10
20.3120292
20
29.6223211
11
20.3120292
21
29.4954196
0
LINE
8
DEFAULT_255_1_234
10
20.3120292
20
29.4954196
11
19.9361439
21
29.4954196
0
LINE
8
DEFAULT_255_1_234
10
19.9361439
20
29.4954196
11
19.9361439
21
28.4529
0
LINE
8
DEFAULT_255_1_234
10
19.9361439
20
28.4529
11
19.7827377
21
28.4529
0
LINE
8
DEFAULT_255_1_234
10
19.7827377
20
28.4529
11
19.7827377
21
29.4954196
0
LINE
8
DEFAULT_255_1_234
10
19.7827377
20
29.4954196
11
19.4076555
21
29.4954196
0
LINE
8
DEFAULT_255_1_234
10
19.4076555
20
29.4954196
11
19.4076555
21
29.6223211
0
LINE
8
DEFAULT_255_1_234
10
19.4076555
20
29.6223211
11
20.3120292
21
29.6223211
0
LINE
8
DEFAULT_255_1_234
10
20.5851083
20
29.6223211
11
20.8670224
21
29.1741501
0
LINE
8
DEFAULT_255_1_234
10
20.8670224
20
29.1741501
11
21.14733
21
29.6223211
0
LINE
8
DEFAULT_255_1_234
10
21.14733
20
29.6223211
11
21.3288473
21
29.6223211
0
LINE
8
DEFAULT_255_1_234
10
21.3288473
20
29.6223211
11
20.9593874
21
29.0424296
0
LINE
8
DEFAULT_255_1_234
10
20.9593874
20
29.0424296
11
21.3376822
21
28.4529
0
LINE
8
DEFAULT_255_1_234
10
21.3376822
20
28.4529
11
21.1545586
21
28.4529
0
LINE
8
DEFAULT_255_1_234
10
21.1545586
20
28.4529
11
20.8670224
21
28.9091027
0
LINE
8
DEFAULT_255_1_234
10
20.8670224
20
28.9091027
11
20.5778798
21
28.4529
0
LINE
8
DEFAULT_255_1_234
10
20.5778798
20
28.4529
11
20.3955593
21
28.4529
0
LINE
8
DEFAULT_255_1_234
10
20.3955593
20
28.4529
11
20.7746574
21
29.0424296
0
LINE
8
DEFAULT_255_1_234
10
20.7746574
20
29.0424296
11
20.4043942
21
29.6223211
0
LINE
8
DEFAULT_255_1_234
10
20.4043942
20
29.6223211
11
20.5851083
21
29.6223211
0
LINE
8
DEFAULT_255_1_234
10
22.0107419
20
29.6223211
11
21.5232154
21
28.3525033
0
LINE
8
DEFAULT_255_1_234
10
21.5232154
20
28.3525033
11
21.3955107
21
28.3525033
0
LINE
8
DEFAULT_255_1_234
10
21.3955107
20
28.3525033
11
21.8838404
21
29.6223211
0
LINE
8
DEFAULT_255_1_234
10
21.8838404
20
29.6223211
11
22.0107419
21
29.6223211
0
LINE
8
DEFAULT_255_1_234
10
22.5183478
20
28.4529
11
22.1946687
21
28.4529
0
LINE
8
DEFAULT_255_1_234
10
22.1946687
20
28.4529
11
22.1946687
21
29.6223211
0
LINE
8
DEFAULT_255_1_234
10
22.1946687
20
29.6223211
11
22.5247731
21
29.6223211
0
LINE
8
DEFAULT_255_1_234
10
23.0404107
20
29.0769661
11
23.0404107
21
29.0022709
0
LINE
8
DEFAULT_255_1_234
10
22.528789
20
29.4954196
11
22.3488781
21
29.4954196
0
LINE
8
DEFAULT_255_1_234
10
22.3488781
20
29.4954196
11
22.3488781
21
28.5789983
0
LINE
8
DEFAULT_255_1_234
10
22.3488781
20
28.5789983
11
22.5111192
21
28.5789983
0
LINE
8
DEFAULT_255_1_234
10
22.8878077
20
29.0054836
11
22.8878077
21
29.0737534
0
ARC
8
DEFAULT_255_1_234
10
22.5286674
20
29.0357894
40
0.5865446
50
75.4101064
51
90.3804066
0
ARC
8
DEFAULT_255_1_234
10
22.5516188
20
29.1314492
40
0.4881916
50
60.145586
51
75.1888407
0
ARC
8
DEFAULT_255_1_234
10
22.5674963
20
29.1591199
40
0.4562893
50
26.5253612
51
60.1450928
0
ARC
8
DEFAULT_255_1_234
10
22.4554712
20
29.0997158
40
0.5830602
50
7.4030428
51
26.8320788
0
ARC
8
DEFAULT_255_1_234
10
22.2960469
20
29.0748804
40
0.7443669
50
0.1605367
51
7.7176192
0
ARC
8
DEFAULT_255_1_234
10
22.3124373
20
28.9984434
40
0.7279835
50
348.7289388
51
0.3012466
0
ARC
8
DEFAULT_255_1_234
10
22.4780804
20
28.9655386
40
0.559104
50
333.0706509
51
348.7181832
0
ARC
8
DEFAULT_255_1_234
10
22.5747562
20
28.9130319
40
0.4491417
50
299.2531685
51
333.4571258
0
ARC
8
DEFAULT_255_1_234
10
22.5386701
20
28.9815828
40
0.5265881
50
278.107187
51
299.0339503
0
ARC
8
DEFAULT_255_1_234
10
22.513078
20
29.1323216
40
0.679442
50
270.4443897
51
278.4511052
0
ARC
8
DEFAULT_255_1_234
10
22.515161
20
29.0394213
40
0.4604407
50
269.4970433
51
284.0205042
0
ARC
8
DEFAULT_255_1_234
10
22.5506911
20
28.9028978
40
0.3193797
50
283.7700273
51
318.1555492
0
ARC
8
DEFAULT_255_1_234
10
22.5169669
20
28.9281367
40
0.3613588
50
318.7415601
51
343.6873628
0
ARC
8
DEFAULT_255_1_234
10
22.3365693
20
28.9844832
40
0.5503313
50
343.3325091
51
355.8548958
0
ARC
8
DEFAULT_255_1_234
10
22.1267377
20
29.0044319
40
0.7610708
50
355.4988528
51
0.0791727
0
ARC
8
DEFAULT_255_1_234
10
22.205
20
29.077978
40
0.6828208
50
359.6455037
51
9.8607896
0
ARC
8
DEFAULT_255_1_234
10
22.4410697
20
29.1206099
40
0.4429406
50
9.6571907
51
26.1932807
0
ARC
8
DEFAULT_255_1_234
10
22.5338686
20
29.1637118
40
0.3406537
50
26.5777228
51
40.1532208
0
ARC
8
DEFAULT_255_1_234
10
22.5594412
20
29.1836619
40
0.308246
50
40.3840491
51
80.1431104
0
ARC
8
DEFAULT_255_1_234
10
22.526753
20
29.0387333
40
0.4566909
50
79.2152159
51
89.7445637
0
LINE
8
DEFAULT_255_1_234
10
23.6757212
20
29.4215276
11
23.6757212
21
29.0801788
0
LINE
8
DEFAULT_255_1_234
10
23.6757212
20
29.0801788
11
24.0018098
21
29.0801788
0
LINE
8
DEFAULT_255_1_234
10
24.0018098
20
29.0801788
11
24.0018098
21
28.9396233
0
LINE
8
DEFAULT_255_1_234
10
24.0018098
20
28.9396233
11
23.6757212
21
28.9396233
0
LINE
8
DEFAULT_255_1_234
10
23.6757212
20
28.9396233
11
23.6757212
21
28.5701634
0
LINE
8
DEFAULT_255_1_234
10
23.6757212
20
28.5701634
11
23.5263309
21
28.5701634
0
LINE
8
DEFAULT_255_1_234
10
23.5263309
20
28.5701634
11
23.5263309
21
28.9396233
0
LINE
8
DEFAULT_255_1_234
10
23.5263309
20
28.9396233
11
23.2002423
21
28.9396233
0
LINE
8
DEFAULT_255_1_234
10
23.2002423
20
28.9396233
11
23.2002423
21
29.0801788
0
LINE
8
DEFAULT_255_1_234
10
23.2002423
20
29.0801788
11
23.5263309
21
29.0801788
0
LINE
8
DEFAULT_255_1_234
10
23.5263309
20
29.0801788
11
23.5263309
21
29.4215276
0
LINE
8
DEFAULT_255_1_234
10
23.5263309
20
29.4215276
11
23.6757212
21
29.4215276
0
LINE
8
DEFAULT_255_1_234
10
20.7098341
20
36.3904
11
20.4560312
21
36.8634694
0
LINE
8
DEFAULT_255_1_234
10
20.4560312
20
36.8634694
11
20.1813458
21
36.8634694
0
LINE
8
DEFAULT_255_1_234
10
20.1813458
20
36.8634694
11
20.1813458
21
36.3904
0
LINE
8
DEFAULT_255_1_234
10
20.1813458
20
36.3904
11
20.0263332
21
36.3904
0
LINE
8
DEFAULT_255_1_234
10
20.0263332
20
36.3904
11
20.0263332
21
37.5598211
0
LINE
8
DEFAULT_255_1_234
10
20.0263332
20
37.5598211
11
20.413463
21
37.5598211
0
LINE
8
DEFAULT_255_1_234
10
20.6006025
20
36.8963995
11
20.8752879
21
36.4000381
0
LINE
8
DEFAULT_255_1_234
10
20.8752879
20
36.4000381
11
20.8752879
21
36.3904
0
LINE
8
DEFAULT_255_1_234
10
20.8752879
20
36.3904
11
20.7098341
21
36.3904
0
LINE
8
DEFAULT_255_1_234
10
20.1813458
20
37.4329196
11
20.1813458
21
36.9895677
0
LINE
8
DEFAULT_255_1_234
10
20.1813458
20
36.9895677
11
20.418282
21
36.9895677
0
LINE
8
DEFAULT_255_1_234
10
20.4174789
20
37.4329196
11
20.1813458
21
37.4329196
0
ARC
8
DEFAULT_255_1_234
10
20.4176269
20
36.8636761
40
0.6961575
50
80.653586
51
90.3427061
0
ARC
8
DEFAULT_255_1_234
10
20.4595744
20
37.1099348
40
0.4463577
50
65.6987447
51
80.8329603
0
ARC
8
DEFAULT_255_1_234
10
20.5073385
20
37.2194322
40
0.3269094
50
50.0017161
51
65.4305835
0
ARC
8
DEFAULT_255_1_234
10
20.5291849
20
37.2489482
40
0.2902647
50
11.628416
51
49.5603263
0
ARC
8
DEFAULT_255_1_234
10
20.3756185
20
37.2114299
40
0.4482792
50
359.5655735
51
12.3691
0
ARC
8
DEFAULT_255_1_234
10
20.4833045
20
37.2051644
40
0.3405924
50
341.9983148
51
0.4822259
0
ARC
8
DEFAULT_255_1_234
10
20.5227885
20
37.1944471
40
0.2997359
50
323.8609373
51
341.61416
0
ARC
8
DEFAULT_255_1_234
10
20.4926129
20
37.2177484
40
0.3378487
50
296.7018614
51
323.6876402
0
ARC
8
DEFAULT_255_1_234
10
20.4485024
20
37.2966235
40
0.4281516
50
290.8086567
51
297.2323311
0
ARC
8
DEFAULT_255_1_234
10
20.4208554
20
37.3489351
40
0.3593766
50
269.589728
51
281.8058135
0
ARC
8
DEFAULT_255_1_234
10
20.4459453
20
37.2341743
40
0.2419125
50
281.5501019
51
303.9357432
0
ARC
8
DEFAULT_255_1_234
10
20.4596641
20
37.2103936
40
0.2145323
50
304.4415616
51
311.2106213
0
ARC
8
DEFAULT_255_1_234
10
20.4728746
20
37.1964632
40
0.1953505
50
310.9875673
51
356.2715578
0
ARC
8
DEFAULT_255_1_234
10
20.3972395
20
37.2077422
40
0.2716331
50
354.9348262
51
0.0609027
0
ARC
8
DEFAULT_255_1_234
10
20.3785269
20
37.2104435
40
0.2903554
50
359.5239371
51
12.8808918
0
ARC
8
DEFAULT_255_1_234
10
20.4762824
20
37.2343728
40
0.1897315
50
12.4173452
51
43.1022135
0
ARC
8
DEFAULT_255_1_234
10
20.4824429
20
37.2380724
40
0.1827118
50
43.5751728
51
48.203944
0
ARC
8
DEFAULT_255_1_234
10
20.4654921
20
37.2159302
40
0.2105272
50
48.7809703
51
72.6969569
0
ARC
8
DEFAULT_255_1_234
10
20.4300546
20
37.108382
40
0.3237537
50
72.3702241
51
84.8791103
0
ARC
8
DEFAULT_255_1_234
10
20.4153022
20
36.9741769
40
0.4587478
50
84.5400526
51
89.7281406
0
LINE
8
DEFAULT_255_1_234
10
21.1395321
20
37.5598211
11
21.4214461
21
37.1116501
0
LINE
8
DEFAULT_255_1_234
10
21.4214461
20
37.1116501
11
21.7017538
21
37.5598211
0
LINE
8
DEFAULT_255_1_234
10
21.7017538
20
37.5598211
11
21.8832711
21
37.5598211
0
LINE
8
DEFAULT_255_1_234
10
21.8832711
20
37.5598211
11
21.5138111
21
36.9799296
0
LINE
8
DEFAULT_255_1_234
10
21.5138111
20
36.9799296
11
21.892106
21
36.3904
0
LINE
8
DEFAULT_255_1_234
10
21.892106
20
36.3904
11
21.7089824
21
36.3904
0
LINE
8
DEFAULT_255_1_234
10
21.7089824
20
36.3904
11
21.4214461
21
36.8466027
0
LINE
8
DEFAULT_255_1_234
10
21.4214461
20
36.8466027
11
21.1323036
21
36.3904
0
LINE
8
DEFAULT_255_1_234
10
21.1323036
20
36.3904
11
20.9499831
21
36.3904
0
LINE
8
DEFAULT_255_1_234
10
20.9499831
20
36.3904
11
21.3290812
21
36.9799296
0
LINE
8
DEFAULT_255_1_234
10
21.3290812
20
36.9799296
11
20.958818
21
37.5598211
0
LINE
8
DEFAULT_255_1_234
10
20.958818
20
37.5598211
11
21.1395321
21
37.5598211
0
LINE
8
DEFAULT_255_1_234
10
22.5651657
20
37.5598211
11
22.0776392
21
36.2900033
0
LINE
8
DEFAULT_255_1_234
10
22.0776392
20
36.2900033
11
21.9499345
21
36.2900033
0
LINE
8
DEFAULT_255_1_234
10
21.9499345
20
36.2900033
11
22.4382642
21
37.5598211
0
LINE
8
DEFAULT_255_1_234
10
22.4382642
20
37.5598211
11
22.5651657
21
37.5598211
0
LINE
8
DEFAULT_255_1_234
10
23.0727715
20
36.3904
11
22.7490925
21
36.3904
0
LINE
8
DEFAULT_255_1_234
10
22.7490925
20
36.3904
11
22.7490925
21
37.5598211
0
LINE
8
DEFAULT_255_1_234
10
22.7490925
20
37.5598211
11
23.0791969
21
37.5598211
0
LINE
8
DEFAULT_255_1_234
10
23.5948345
20
37.0144661
11
23.5948345
21
36.9397709
0
LINE
8
DEFAULT_255_1_234
10
23.0832128
20
37.4329196
11
22.9033019
21
37.4329196
0
LINE
8
DEFAULT_255_1_234
10
22.9033019
20
37.4329196
11
22.9033019
21
36.5164983
0
LINE
8
DEFAULT_255_1_234
10
22.9033019
20
36.5164983
11
23.065543
21
36.5164983
0
LINE
8
DEFAULT_255_1_234
10
23.4422315
20
36.9429836
11
23.4422315
21
37.0112534
0
ARC
8
DEFAULT_255_1_234
10
23.0830912
20
36.9732894
40
0.5865446
50
75.4101064
51
90.3804066
0
ARC
8
DEFAULT_255_1_234
10
23.1060425
20
37.0689492
40
0.4881916
50
60.145586
51
75.1888407
0
ARC
8
DEFAULT_255_1_234
10
23.1219201
20
37.0966199
40
0.4562893
50
26.5253612
51
60.1450928
0
ARC
8
DEFAULT_255_1_234
10
23.009895
20
37.0372158
40
0.5830602
50
7.4030428
51
26.8320788
0
ARC
8
DEFAULT_255_1_234
10
22.8504707
20
37.0123804
40
0.7443669
50
0.1605367
51
7.7176192
0
ARC
8
DEFAULT_255_1_234
10
22.8668611
20
36.9359434
40
0.7279835
50
348.7289388
51
0.3012466
0
ARC
8
DEFAULT_255_1_234
10
23.0325042
20
36.9030386
40
0.559104
50
333.0706509
51
348.7181832
0
ARC
8
DEFAULT_255_1_234
10
23.1291799
20
36.8505319
40
0.4491417
50
299.2531685
51
333.4571258
0
ARC
8
DEFAULT_255_1_234
10
23.0930939
20
36.9190828
40
0.5265881
50
278.107187
51
299.0339503
0
ARC
8
DEFAULT_255_1_234
10
23.0675018
20
37.0698216
40
0.679442
50
270.4443897
51
278.4511052
0
ARC
8
DEFAULT_255_1_234
10
23.0695848
20
36.9769213
40
0.4604407
50
269.4970433
51
284.0205042
0
ARC
8
DEFAULT_255_1_234
10
23.1051149
20
36.8403978
40
0.3193797
50
283.7700273
51
318.1555492
0
ARC
8
DEFAULT_255_1_234
10
23.0713907
20
36.8656367
40
0.3613588
50
318.7415601
51
343.6873628
0
ARC
8
DEFAULT_255_1_234
10
22.890993
20
36.9219832
40
0.5503313
50
343.3325091
51
355.8548958
0
ARC
8
DEFAULT_255_1_234
10
22.6811615
20
36.9419319
40
0.7610708
50
355.4988528
51
0.0791727
0
ARC
8
DEFAULT_255_1_234
10
22.7594237
20
37.015478
40
0.6828208
50
359.6455037
51
9.8607896
0
ARC
8
DEFAULT_255_1_234
10
22.9954935
20
37.0581099
40
0.4429406
50
9.6571907
51
26.1932807
0
ARC
8
DEFAULT_255_1_234
10
23.0882924
20
37.1012118
40
0.3406537
50
26.5777228
51
40.1532208
0
ARC
8
DEFAULT_255_1_234
10
23.113865
20
37.1211619
40
0.308246
50
40.3840491
51
80.1431104
0
ARC
8
DEFAULT_255_1_234
10
23.0811768
20
36.9762333
40
0.4566909
50
79.2152159
51
89.7445637
0
LINE
8
DEFAULT_255_1_234
10
24.1136848
20
36.9478026
11
24.1136848
21
36.8265234
0
LINE
8
DEFAULT_255_1_234
10
24.1136848
20
36.8265234
11
23.721736
21
36.8265234
0
LINE
8
DEFAULT_255_1_234
10
23.721736
20
36.8265234
11
23.721736
21
36.9478026
0
LINE
8
DEFAULT_255_1_234
10
23.721736
20
36.9478026
11
24.1136848
21
36.9478026
0
ENDSEC
0
EOF