0
SECTION
2
HEADER
9
$MEASUREMENT
70
1
0
ENDSEC
0
SECTION
2
TABLES
0
TABLE
2
LTYPE
0
LTYPE
72
65
70
64
2
CONTINUOUS
3
______
73
0
40
0
0
ENDTAB
0
TABLE
2
LAYER
0
LAYER
2
DEFAULT_255_2_778
70
0
62
255
6
CONTINUOUS
0
LAYER
2
DEFAULT_255_1_234
70
0
62
255
6
CONTINUOUS
0
ENDTAB
0
ENDSEC
0
SECTION
2
ENTITIES
0
ARC
8
DEFAULT_255_2_778
10
3.5700693
20
28.1802037
40
0.7914215
50
129.1312896
51
180.1450914
0
ARC
8
DEFAULT_255_2_778
10
3.5703345
20
28.1806908
40
0.7912112
50
89.854026
51
129.1684493
0
ARC
8
DEFAULT_255_2_778
10
25.7993937
20
28.1803773
40
0.7915249
50
39.4792447
51
90.147911
0
ARC
8
DEFAULT_255_2_778
10
25.7999935
20
28.180224
40
0.7911595
50
359.8533901
51
39.5154338
0
ARC
8
DEFAULT_255_2_778
10
25.7996693
20
-1.9863486
40
0.7914836
50
309.4761667
51
0.1482649
0
ARC
8
DEFAULT_255_2_778
10
25.799398
20
-1.9867797
40
0.7913235
50
269.8517415
51
309.511178
0
ARC
8
DEFAULT_255_2_778
10
3.570342
20
-1.9867215
40
0.7913815
50
219.1282118
51
270.1454017
0
ARC
8
DEFAULT_255_2_778
10
3.5700247
20
-1.986339
40
0.7913769
50
179.8524075
51
219.1641908
0
LINE
8
DEFAULT_255_2_778
10
3.5723503
20
28.9718996
11
25.7973503
21
28.9718996
0
LINE
8
DEFAULT_255_2_778
10
26.5911503
20
28.1781996
11
26.5911503
21
-1.9843004
0
LINE
8
DEFAULT_255_2_778
10
25.7973503
20
-2.7781004
11
3.5723503
21
-2.7781004
0
LINE
8
DEFAULT_255_2_778
10
2.7786503
20
-1.9843004
11
2.7786503
21
28.1781996
0
LINE
8
DEFAULT_255_1_234
10
9.7311392
20
-0.6513
11
9.3255364
21
-0.6513
0
LINE
8
DEFAULT_255_1_234
10
9.3255364
20
-0.6513
11
9.3255364
21
0.5181211
0
LINE
8
DEFAULT_255_1_234
10
9.3255364
20
0.5181211
11
9.7078471
21
0.5181211
0
LINE
8
DEFAULT_255_1_234
10
9.7367614
20
-0.1043386
11
9.4797458
21
-0.1043386
0
LINE
8
DEFAULT_255_1_234
10
9.4797458
20
-0.1043386
11
9.4797458
21
-0.5252017
0
LINE
8
DEFAULT_255_1_234
10
9.4797458
20
-0.5252017
11
9.7343519
21
-0.5252017
0
LINE
8
DEFAULT_255_1_234
10
9.4797458
20
0.3912196
11
9.4797458
21
0.0193501
0
LINE
8
DEFAULT_255_1_234
10
9.4797458
20
0.0193501
11
9.7126662
21
0.0193501
0
LINE
8
DEFAULT_255_1_234
10
9.7078471
20
0.3912196
11
9.4797458
21
0.3912196
0
ARC
8
DEFAULT_255_1_234
10
9.711618
20
-0.2186099
40
0.7367406
50
82.1257326
51
90.2932599
0
ARC
8
DEFAULT_255_1_234
10
9.7505135
20
0.0532013
40
0.4621653
50
69.9044149
51
82.2857423
0
ARC
8
DEFAULT_255_1_234
10
9.8075813
20
0.2074637
40
0.2976871
50
51.1838526
51
70.0181538
0
ARC
8
DEFAULT_255_1_234
10
9.8330779
20
0.244524
40
0.2528517
50
12.1017251
51
50.4214761
0
ARC
8
DEFAULT_255_1_234
10
9.6946653
20
0.2097676
40
0.3955061
50
359.5251267
51
12.8211707
0
ARC
8
DEFAULT_255_1_234
10
9.8526579
20
0.2028344
40
0.2375281
50
323.4908128
51
0.8817314
0
ARC
8
DEFAULT_255_1_234
10
9.8108266
20
0.235155
40
0.2903817
50
298.6825083
51
323.2756573
0
ARC
8
DEFAULT_255_1_234
10
9.7746629
20
0.2952649
40
0.3604842
50
293.1999386
51
299.1396394
0
ARC
8
DEFAULT_255_1_234
10
9.8419602
20
-0.3132874
40
0.2871098
50
54.0011765
51
74.9167975
0
ARC
8
DEFAULT_255_1_234
10
9.8535961
20
-0.2935668
40
0.2643248
50
36.3580696
51
53.5291921
0
ARC
8
DEFAULT_255_1_234
10
9.8409203
20
-0.3026002
40
0.2798884
50
4.8189881
51
36.3089977
0
ARC
8
DEFAULT_255_1_234
10
9.7630038
20
-0.313573
40
0.358478
50
359.9370252
51
5.5204067
0
ARC
8
DEFAULT_255_1_234
10
9.730556
20
-0.3176333
40
0.3909429
50
344.7478609
51
0.5373281
0
ARC
8
DEFAULT_255_1_234
10
9.8296531
20
-0.3443456
40
0.2883093
50
311.1786488
51
344.6886812
0
ARC
8
DEFAULT_255_1_234
10
9.8004578
20
-0.3080013
40
0.3348923
50
286.0418249
51
310.8441291
0
ARC
8
DEFAULT_255_1_234
10
9.749741
20
-0.1433193
40
0.5071869
50
274.1042341
51
286.4071509
0
ARC
8
DEFAULT_255_1_234
10
9.7320666
20
0.0450229
40
0.6963234
50
269.9236873
51
274.445647
0
ARC
8
DEFAULT_255_1_234
10
9.7366667
20
-0.1889463
40
0.3362634
50
269.6055768
51
281.3740047
0
ARC
8
DEFAULT_255_1_234
10
9.7597305
20
-0.2982647
40
0.224546
50
281.1055983
51
302.5132223
0
ARC
8
DEFAULT_255_1_234
10
9.7744204
20
-0.3246177
40
0.1944357
50
303.0368945
51
311.8811219
0
ARC
8
DEFAULT_255_1_234
10
9.7815611
20
-0.333111
40
0.1833454
50
311.9916004
51
351.7143462
0
ARC
8
DEFAULT_255_1_234
10
9.6998841
20
-0.316607
40
0.2665871
50
350.7339597
51
0.2221581
0
ARC
8
DEFAULT_255_1_234
10
9.6891287
20
-0.3109533
40
0.2773789
50
359.0456241
51
17.2296242
0
ARC
8
DEFAULT_255_1_234
10
9.7930404
20
-0.2800837
40
0.1689915
50
17.6685481
51
78.9940892
0
ARC
8
DEFAULT_255_1_234
10
9.7413568
20
-0.4655776
40
0.3612658
50
76.5635957
51
90.6980921
0
LINE
8
DEFAULT_255_1_234
10
9.7369552
20
-0.1043387
11
9.7367614
21
-0.1043386
0
ARC
8
DEFAULT_255_1_234
10
9.7149228
20
0.3479036
40
0.3285612
50
269.6064736
51
281.4533503
0
ARC
8
DEFAULT_255_1_234
10
9.7372048
20
0.2427688
40
0.2210975
50
281.2041486
51
302.5148063
0
ARC
8
DEFAULT_255_1_234
10
9.7508898
20
0.2181241
40
0.1929674
50
303.021671
51
309.8369575
0
ARC
8
DEFAULT_255_1_234
10
9.7692359
20
0.1975488
40
0.1654181
50
309.5228395
51
356.9509836
0
ARC
8
DEFAULT_255_1_234
10
9.7028942
20
0.2070932
40
0.2322512
50
355.4701227
51
0.0492546
0
ARC
8
DEFAULT_255_1_234
10
9.6750033
20
0.2093094
40
0.2601498
50
359.5558597
51
11.2096359
0
ARC
8
DEFAULT_255_1_234
10
9.7707323
20
0.229123
40
0.1623975
50
10.9182341
51
31.3230275
0
ARC
8
DEFAULT_255_1_234
10
9.7993056
20
0.2450214
40
0.1297302
50
31.8852677
51
52.1412565
0
ARC
8
DEFAULT_255_1_234
10
9.7718789
20
0.206275
40
0.1771663
50
52.8285564
51
71.9850297
0
ARC
8
DEFAULT_255_1_234
10
9.7342965
20
0.0956664
40
0.2939794
50
71.6863486
51
82.8455995
0
ARC
8
DEFAULT_255_1_234
10
9.7103501
20
-0.0852851
40
0.476506
50
82.6984714
51
90.1729175
0
ARC
8
DEFAULT_255_1_234
10
9.7081136
20
0.0370623
40
0.3541573
50
89.8708275
51
90.0431131
0
LINE
8
DEFAULT_255_1_234
10
10.4491766
20
0.5181211
11
10.7310906
21
0.0699501
0
LINE
8
DEFAULT_255_1_234
10
10.7310906
20
0.0699501
11
11.0113982
21
0.5181211
0
LINE
8
DEFAULT_255_1_234
10
11.0113982
20
0.5181211
11
11.1929155
21
0.5181211
0
LINE
8
DEFAULT_255_1_234
10
11.1929155
20
0.5181211
11
10.8234556
21
-0.0617704
0
LINE
8
DEFAULT_255_1_234
10
10.8234556
20
-0.0617704
11
11.2017504
21
-0.6513
0
LINE
8
DEFAULT_255_1_234
10
11.2017504
20
-0.6513
11
11.0186268
21
-0.6513
0
LINE
8
DEFAULT_255_1_234
10
11.0186268
20
-0.6513
11
10.7310906
21
-0.1950973
0
LINE
8
DEFAULT_255_1_234
10
10.7310906
20
-0.1950973
11
10.441948
21
-0.6513
0
LINE
8
DEFAULT_255_1_234
10
10.441948
20
-0.6513
11
10.2596275
21
-0.6513
0
LINE
8
DEFAULT_255_1_234
10
10.2596275
20
-0.6513
11
10.6387256
21
-0.0617704
0
LINE
8
DEFAULT_255_1_234
10
10.6387256
20
-0.0617704
11
10.2684625
21
0.5181211
0
LINE
8
DEFAULT_255_1_234
10
10.2684625
20
0.5181211
11
10.4491766
21
0.5181211
0
LINE
8
DEFAULT_255_1_234
10
11.6298421
20
-0.0938974
11
11.6298421
21
-0.2151766
0
LINE
8
DEFAULT_255_1_234
10
11.6298421
20
-0.2151766
11
11.2378933
21
-0.2151766
0
LINE
8
DEFAULT_255_1_234
10
11.2378933
20
-0.2151766
11
11.2378933
21
-0.0938974
0
LINE
8
DEFAULT_255_1_234
10
11.2378933
20
-0.0938974
11
11.6298421
21
-0.0938974
0
LINE
8
DEFAULT_255_1_234
10
11.7977054
20
0.5181211
11
11.9968925
21
0.5181211
0
LINE
8
DEFAULT_255_1_234
10
11.9968925
20
0.5181211
11
12.3792033
21
-0.4360494
0
LINE
8
DEFAULT_255_1_234
10
12.3792033
20
-0.4360494
11
12.761514
21
0.5181211
0
LINE
8
DEFAULT_255_1_234
10
12.761514
20
0.5181211
11
12.9615043
21
0.5181211
0
LINE
8
DEFAULT_255_1_234
10
12.9615043
20
0.5181211
11
12.9615043
21
-0.6513
0
LINE
8
DEFAULT_255_1_234
10
12.9615043
20
-0.6513
11
12.8072949
21
-0.6513
0
LINE
8
DEFAULT_255_1_234
10
12.8072949
20
-0.6513
11
12.8072949
21
-0.1959004
0
LINE
8
DEFAULT_255_1_234
10
12.8072949
20
-0.1959004
11
12.8217521
21
0.2956419
0
LINE
8
DEFAULT_255_1_234
10
12.8217521
20
0.2956419
11
12.437835
21
-0.6513
0
LINE
8
DEFAULT_255_1_234
10
12.437835
20
-0.6513
11
12.3197684
21
-0.6513
0
LINE
8
DEFAULT_255_1_234
10
12.3197684
20
-0.6513
11
11.9366545
21
0.2932324
0
LINE
8
DEFAULT_255_1_234
10
11.9366545
20
0.2932324
11
11.9519148
21
-0.1959004
0
LINE
8
DEFAULT_255_1_234
10
11.9519148
20
-0.1959004
11
11.9519148
21
-0.6513
0
LINE
8
DEFAULT_255_1_234
10
11.9519148
20
-0.6513
11
11.7977054
21
-0.6513
0
LINE
8
DEFAULT_255_1_234
10
11.7977054
20
-0.6513
11
11.7977054
21
0.5181211
0
LINE
8
DEFAULT_255_1_234
10
13.639383
20
-0.6513
11
13.2337802
21
-0.6513
0
LINE
8
DEFAULT_255_1_234
10
13.2337802
20
-0.6513
11
13.2337802
21
0.5181211
0
LINE
8
DEFAULT_255_1_234
10
13.2337802
20
0.5181211
11
13.616091
21
0.5181211
0
LINE
8
DEFAULT_255_1_234
10
13.6450052
20
-0.1043386
11
13.3879896
21
-0.1043386
0
LINE
8
DEFAULT_255_1_234
10
13.3879896
20
-0.1043386
11
13.3879896
21
-0.5252017
0
LINE
8
DEFAULT_255_1_234
10
13.3879896
20
-0.5252017
11
13.6425957
21
-0.5252017
0
LINE
8
DEFAULT_255_1_234
10
13.3879896
20
0.3912196
11
13.3879896
21
0.0193501
0
LINE
8
DEFAULT_255_1_234
10
13.3879896
20
0.0193501
11
13.62091
21
0.0193501
0
LINE
8
DEFAULT_255_1_234
10
13.616091
20
0.3912196
11
13.3879896
21
0.3912196
0
ARC
8
DEFAULT_255_1_234
10
13.6198618
20
-0.2186099
40
0.7367406
50
82.1257326
51
90.2932599
0
ARC
8
DEFAULT_255_1_234
10
13.6587573
20
0.0532013
40
0.4621653
50
69.9044149
51
82.2857423
0
ARC
8
DEFAULT_255_1_234
10
13.7158251
20
0.2074637
40
0.2976871
50
51.1838526
51
70.0181538
0
ARC
8
DEFAULT_255_1_234
10
13.7413217
20
0.244524
40
0.2528517
50
12.1017251
51
50.4214761
0
ARC
8
DEFAULT_255_1_234
10
13.6029091
20
0.2097676
40
0.3955061
50
359.5251267
51
12.8211707
0
ARC
8
DEFAULT_255_1_234
10
13.7609018
20
0.2028344
40
0.2375281
50
323.4908128
51
0.8817314
0
ARC
8
DEFAULT_255_1_234
10
13.7190704
20
0.235155
40
0.2903817
50
298.6825083
51
323.2756573
0
ARC
8
DEFAULT_255_1_234
10
13.6829067
20
0.2952649
40
0.3604842
50
293.1999386
51
299.1396394
0
ARC
8
DEFAULT_255_1_234
10
13.750204
20
-0.3132874
40
0.2871098
50
54.0011765
51
74.9167975
0
ARC
8
DEFAULT_255_1_234
10
13.7618399
20
-0.2935668
40
0.2643248
50
36.3580696
51
53.5291921
0
ARC
8
DEFAULT_255_1_234
10
13.7491642
20
-0.3026002
40
0.2798884
50
4.8189881
51
36.3089977
0
ARC
8
DEFAULT_255_1_234
10
13.6712477
20
-0.313573
40
0.358478
50
359.9370252
51
5.5204067
0
ARC
8
DEFAULT_255_1_234
10
13.6387998
20
-0.3176333
40
0.3909429
50
344.7478609
51
0.5373281
0
ARC
8
DEFAULT_255_1_234
10
13.737897
20
-0.3443456
40
0.2883093
50
311.1786488
51
344.6886812
0
ARC
8
DEFAULT_255_1_234
10
13.7087017
20
-0.3080013
40
0.3348923
50
286.0418249
51
310.8441291
0
ARC
8
DEFAULT_255_1_234
10
13.6579849
20
-0.1433193
40
0.5071869
50
274.1042341
51
286.4071509
0
ARC
8
DEFAULT_255_1_234
10
13.6403104
20
0.0450229
40
0.6963234
50
269.9236873
51
274.445647
0
ARC
8
DEFAULT_255_1_234
10
13.6449105
20
-0.1889463
40
0.3362634
50
269.6055768
51
281.3740047
0
ARC
8
DEFAULT_255_1_234
10
13.6679743
20
-0.2982647
40
0.224546
50
281.1055983
51
302.5132223
0
ARC
8
DEFAULT_255_1_234
10
13.6826643
20
-0.3246177
40
0.1944357
50
303.0368945
51
311.8811219
0
ARC
8
DEFAULT_255_1_234
10
13.6898049
20
-0.333111
40
0.1833454
50
311.9916004
51
351.7143462
0
ARC
8
DEFAULT_255_1_234
10
13.6081279
20
-0.316607
40
0.2665871
50
350.7339597
51
0.2221581
0
ARC
8
DEFAULT_255_1_234
10
13.5973725
20
-0.3109533
40
0.2773789
50
359.0456241
51
17.2296242
0
ARC
8
DEFAULT_255_1_234
10
13.7012842
20
-0.2800837
40
0.1689915
50
17.6685481
51
78.9940892
0
ARC
8
DEFAULT_255_1_234
10
13.6496006
20
-0.4655776
40
0.3612658
50
76.5635957
51
90.6980921
0
LINE
8
DEFAULT_255_1_234
10
13.6451991
20
-0.1043387
11
13.6450052
21
-0.1043386
0
ARC
8
DEFAULT_255_1_234
10
13.6231667
20
0.3479036
40
0.3285612
50
269.6064736
51
281.4533503
0
ARC
8
DEFAULT_255_1_234
10
13.6454486
20
0.2427688
40
0.2210975
50
281.2041486
51
302.5148063
0
ARC
8
DEFAULT_255_1_234
10
13.6591336
20
0.2181241
40
0.1929674
50
303.021671
51
309.8369575
0
ARC
8
DEFAULT_255_1_234
10
13.6774798
20
0.1975488
40
0.1654181
50
309.5228395
51
356.9509836
0
ARC
8
DEFAULT_255_1_234
10
13.611138
20
0.2070932
40
0.2322512
50
355.4701227
51
0.0492546
0
ARC
8
DEFAULT_255_1_234
10
13.5832471
20
0.2093094
40
0.2601498
50
359.5558597
51
11.2096359
0
ARC
8
DEFAULT_255_1_234
10
13.6789761
20
0.229123
40
0.1623975
50
10.9182341
51
31.3230275
0
ARC
8
DEFAULT_255_1_234
10
13.7075495
20
0.2450214
40
0.1297302
50
31.8852677
51
52.1412565
0
ARC
8
DEFAULT_255_1_234
10
13.6801227
20
0.206275
40
0.1771663
50
52.8285564
51
71.9850297
0
ARC
8
DEFAULT_255_1_234
10
13.6425404
20
0.0956664
40
0.2939794
50
71.6863486
51
82.8455995
0
ARC
8
DEFAULT_255_1_234
10
13.618594
20
-0.0852851
40
0.476506
50
82.6984714
51
90.1729175
0
ARC
8
DEFAULT_255_1_234
10
13.6163575
20
0.0370623
40
0.3541573
50
89.8708275
51
90.0431131
0
LINE
8
DEFAULT_255_1_234
10
14.4232807
20
0.5181211
11
14.4232807
21
-0.6513
0
LINE
8
DEFAULT_255_1_234
10
14.4232807
20
-0.6513
11
14.2690713
21
-0.6513
0
LINE
8
DEFAULT_255_1_234
10
14.2690713
20
-0.6513
11
14.2690713
21
0.5181211
0
LINE
8
DEFAULT_255_1_234
10
14.2690713
20
0.5181211
11
14.4232807
21
0.5181211
0
LINE
8
DEFAULT_255_1_234
10
15.6047494
20
-0.0304466
11
15.6047494
21
-0.1043386
0
LINE
8
DEFAULT_255_1_234
10
14.6642328
20
-0.1147799
11
14.6642328
21
-0.0304466
0
LINE
8
DEFAULT_255_1_234
10
15.4513432
20
-0.1155831
11
15.4513432
21
-0.0288403
0
LINE
8
DEFAULT_255_1_234
10
14.817639
20
-0.018399
11
14.817639
21
-0.1043386
0
ARC
8
DEFAULT_255_1_234
10
14.740552
20
-0.1082985
40
0.8642064
50
350.487711
51
0.2625388
0
ARC
8
DEFAULT_255_1_234
10
14.9698761
20
-0.1477422
40
0.631518
50
336.0277639
51
350.5787438
0
ARC
8
DEFAULT_255_1_234
10
15.1043585
20
-0.2085108
40
0.4839466
50
319.8877444
51
336.1328423
0
ARC
8
DEFAULT_255_1_234
10
15.1646226
20
-0.256742
40
0.4067874
50
302.4806467
51
319.6143626
0
ARC
8
DEFAULT_255_1_234
10
15.1531236
20
-0.2345798
40
0.4316636
50
275.8195682
51
302.1884709
0
ARC
8
DEFAULT_255_1_234
10
15.1364869
20
-0.1203335
40
0.5470306
50
269.9171439
51
276.3397983
0
ARC
8
DEFAULT_255_1_234
10
15.1320079
20
-0.1889319
40
0.4784458
50
252.5219675
51
270.4416499
0
ARC
8
DEFAULT_255_1_234
10
15.1176338
20
-0.2428408
40
0.422716
50
237.5352116
51
252.1857531
0
ARC
8
DEFAULT_255_1_234
10
15.1265534
20
-0.2314637
40
0.4371052
50
209.063312
51
237.3492538
0
ARC
8
DEFAULT_255_1_234
10
15.2135382
20
-0.1768315
40
0.5397041
50
205.1183774
51
209.6470015
0
ARC
8
DEFAULT_255_1_234
10
15.2932419
20
-0.143017
40
0.6262326
50
188.7215458
51
204.8240747
0
ARC
8
DEFAULT_255_1_234
10
15.4929947
20
-0.1093933
40
0.8287794
50
180.3723947
51
188.9252049
0
ARC
8
DEFAULT_255_1_234
10
15.4902699
20
-0.0264598
40
0.8260467
50
169.5253763
51
180.2765336
0
ARC
8
DEFAULT_255_1_234
10
15.3000147
20
0.0085309
40
0.6326007
50
155.8315255
51
169.5089989
0
ARC
8
DEFAULT_255_1_234
10
15.1719649
20
0.0679348
40
0.4914567
50
139.6258461
51
156.0379525
0
ARC
8
DEFAULT_255_1_234
10
15.1129982
20
0.1153799
40
0.4158054
50
122.6416387
51
139.3430715
0
ARC
8
DEFAULT_255_1_234
10
15.1230602
20
0.0970451
40
0.4366739
50
93.0223692
51
122.455762
0
ARC
8
DEFAULT_255_1_234
10
15.1338599
20
0.0005709
40
0.5336137
50
89.975342
51
93.6341897
0
ARC
8
DEFAULT_255_1_234
10
15.1377378
20
0.0404242
40
0.4937738
50
73.746375
51
90.4233405
0
ARC
8
DEFAULT_255_1_234
10
15.1552956
20
0.1084287
40
0.4235786
50
57.662753
51
73.4518111
0
ARC
8
DEFAULT_255_1_234
10
15.1544963
20
0.1105832
40
0.4221899
50
29.1440151
51
57.414694
0
ARC
8
DEFAULT_255_1_234
10
15.0610157
20
0.0522005
40
0.5322966
50
24.0982783
51
29.7323517
0
ARC
8
DEFAULT_255_1_234
10
14.9576433
20
0.0093399
40
0.6441673
50
8.6655297
51
23.8241346
0
ARC
8
DEFAULT_255_1_234
10
14.7342171
20
-0.0271146
40
0.8705386
50
359.7806941
51
8.8218784
0
ARC
8
DEFAULT_255_1_234
10
14.6195169
20
-0.0245655
40
0.8318373
50
359.7055579
51
8.036044
0
ARC
8
DEFAULT_255_1_234
10
14.9195175
20
0.0191239
40
0.5286768
50
7.8928306
51
20.2962107
0
ARC
8
DEFAULT_255_1_234
10
15.0822745
20
0.0791395
40
0.3552073
50
20.3231126
51
36.4992797
0
ARC
8
DEFAULT_255_1_234
10
15.1508291
20
0.1319402
40
0.2686974
50
36.1437156
51
85.6627023
0
ARC
8
DEFAULT_255_1_234
10
15.1345837
20
0.0279221
40
0.373739
50
84.3852322
51
90.0757696
0
ARC
8
DEFAULT_255_1_234
10
15.130351
20
0.0939839
40
0.3076997
50
89.3038458
51
109.9045693
0
ARC
8
DEFAULT_255_1_234
10
15.1210901
20
0.1322062
40
0.2686424
50
110.8228367
51
143.9179474
0
ARC
8
DEFAULT_255_1_234
10
15.2144561
20
0.0609236
40
0.3860887
50
143.5289163
51
163.2980757
0
ARC
8
DEFAULT_255_1_234
10
15.4052382
20
0.0009433
40
0.5860659
50
163.0418846
51
174.3140048
0
ARC
8
DEFAULT_255_1_234
10
15.6456494
20
-0.0268146
40
0.8280531
50
174.0509143
51
179.4176892
0
ARC
8
DEFAULT_255_1_234
10
15.5952233
20
-0.1085046
40
0.7775954
50
179.6930361
51
188.7906598
0
ARC
8
DEFAULT_255_1_234
10
15.3288712
20
-0.1511065
40
0.5078633
50
188.6331305
51
202.5629587
0
ARC
8
DEFAULT_255_1_234
10
15.2034304
20
-0.2015004
40
0.3726913
50
202.8081362
51
216.1193925
0
ARC
8
DEFAULT_255_1_234
10
15.1224874
20
-0.2666324
40
0.2689577
50
215.0755913
51
264.6379694
0
ARC
8
DEFAULT_255_1_234
10
15.1351823
20
-0.1835487
40
0.3528978
50
263.846392
51
270.0833719
0
ARC
8
DEFAULT_255_1_234
10
15.1393214
20
-0.2093626
40
0.3271036
50
269.3649385
51
287.5152008
0
ARC
8
DEFAULT_255_1_234
10
15.1571371
20
-0.2740762
40
0.2600406
50
288.0630309
51
323.8113348
0
ARC
8
DEFAULT_255_1_234
10
15.0700213
20
-0.2090951
40
0.3687189
50
323.6547608
51
342.6590488
0
ARC
8
DEFAULT_255_1_234
10
14.8668828
20
-0.1430048
40
0.5823286
50
342.4091907
51
353.6451149
0
ARC
8
DEFAULT_255_1_234
10
14.5837339
20
-0.107781
40
0.8676442
50
353.4029884
51
359.4847795
0
LINE
8
DEFAULT_255_1_234
10
16.1219933
20
-0.0938974
11
16.1219933
21
-0.2151766
0
LINE
8
DEFAULT_255_1_234
10
16.1219933
20
-0.2151766
11
15.7300445
21
-0.2151766
0
LINE
8
DEFAULT_255_1_234
10
15.7300445
20
-0.2151766
11
15.7300445
21
-0.0938974
0
LINE
8
DEFAULT_255_1_234
10
15.7300445
20
-0.0938974
11
16.1219933
21
-0.0938974
0
LINE
8
DEFAULT_255_1_234
10
16.2898566
20
0.5181211
11
16.4890438
21
0.5181211
0
LINE
8
DEFAULT_255_1_234
10
16.4890438
20
0.5181211
11
16.8713545
21
-0.4360494
0
LINE
8
DEFAULT_255_1_234
10
16.8713545
20
-0.4360494
11
17.2536652
21
0.5181211
0
LINE
8
DEFAULT_255_1_234
10
17.2536652
20
0.5181211
11
17.4536555
21
0.5181211
0
LINE
8
DEFAULT_255_1_234
10
17.4536555
20
0.5181211
11
17.4536555
21
-0.6513
0
LINE
8
DEFAULT_255_1_234
10
17.4536555
20
-0.6513
11
17.2994461
21
-0.6513
0
LINE
8
DEFAULT_255_1_234
10
17.2994461
20
-0.6513
11
17.2994461
21
-0.1959004
0
LINE
8
DEFAULT_255_1_234
10
17.2994461
20
-0.1959004
11
17.3139033
21
0.2956419
0
LINE
8
DEFAULT_255_1_234
10
17.3139033
20
0.2956419
11
16.9299862
21
-0.6513
0
LINE
8
DEFAULT_255_1_234
10
16.9299862
20
-0.6513
11
16.8119196
21
-0.6513
0
LINE
8
DEFAULT_255_1_234
10
16.8119196
20
-0.6513
11
16.4288057
21
0.2932324
0
LINE
8
DEFAULT_255_1_234
10
16.4288057
20
0.2932324
11
16.444066
21
-0.1959004
0
LINE
8
DEFAULT_255_1_234
10
16.444066
20
-0.1959004
11
16.444066
21
-0.6513
0
LINE
8
DEFAULT_255_1_234
10
16.444066
20
-0.6513
11
16.2898566
21
-0.6513
0
LINE
8
DEFAULT_255_1_234
10
16.2898566
20
-0.6513
11
16.2898566
21
0.5181211
0
LINE
8
DEFAULT_255_1_234
10
18.0118613
20
-0.0938974
11
18.0118613
21
-0.2151766
0
LINE
8
DEFAULT_255_1_234
10
18.0118613
20
-0.2151766
11
17.6199125
21
-0.2151766
0
LINE
8
DEFAULT_255_1_234
10
17.6199125
20
-0.2151766
11
17.6199125
21
-0.0938974
0
LINE
8
DEFAULT_255_1_234
10
17.6199125
20
-0.0938974
11
18.0118613
21
-0.0938974
0
LINE
8
DEFAULT_255_1_234
10
18.5034037
20
-0.6513
11
18.1797247
21
-0.6513
0
LINE
8
DEFAULT_255_1_234
10
18.1797247
20
-0.6513
11
18.1797247
21
0.5181211
0
LINE
8
DEFAULT_255_1_234
10
18.1797247
20
0.5181211
11
18.5098291
21
0.5181211
0
LINE
8
DEFAULT_255_1_234
10
19.0254667
20
-0.0272339
11
19.0254667
21
-0.1019291
0
LINE
8
DEFAULT_255_1_234
10
18.513845
20
0.3912196
11
18.333934
21
0.3912196
0
LINE
8
DEFAULT_255_1_234
10
18.333934
20
0.3912196
11
18.333934
21
-0.5252017
0
LINE
8
DEFAULT_255_1_234
10
18.333934
20
-0.5252017
11
18.4961751
21
-0.5252017
0
LINE
8
DEFAULT_255_1_234
10
18.8728637
20
-0.0987164
11
18.8728637
21
-0.0304466
0
ARC
8
DEFAULT_255_1_234
10
18.5137233
20
-0.0684106
40
0.5865446
50
75.4101064
51
90.3804066
0
ARC
8
DEFAULT_255_1_234
10
18.5366747
20
0.0272492
40
0.4881916
50
60.145586
51
75.1888407
0
ARC
8
DEFAULT_255_1_234
10
18.5525522
20
0.0549199
40
0.4562893
50
26.5253612
51
60.1450928
0
ARC
8
DEFAULT_255_1_234
10
18.4405272
20
-0.0044842
40
0.5830602
50
7.4030428
51
26.8320788
0
ARC
8
DEFAULT_255_1_234
10
18.2811028
20
-0.0293196
40
0.7443669
50
0.1605367
51
7.7176192
0
ARC
8
DEFAULT_255_1_234
10
18.2974933
20
-0.1057566
40
0.7279835
50
348.7289388
51
0.3012466
0
ARC
8
DEFAULT_255_1_234
10
18.4631363
20
-0.1386614
40
0.559104
50
333.0706509
51
348.7181832
0
ARC
8
DEFAULT_255_1_234
10
18.5598121
20
-0.1911681
40
0.4491417
50
299.2531685
51
333.4571258
0
ARC
8
DEFAULT_255_1_234
10
18.5237261
20
-0.1226172
40
0.5265881
50
278.107187
51
299.0339503
0
ARC
8
DEFAULT_255_1_234
10
18.498134
20
0.0281216
40
0.679442
50
270.4443897
51
278.4511052
0
ARC
8
DEFAULT_255_1_234
10
18.500217
20
-0.0647787
40
0.4604407
50
269.4970433
51
284.0205042
0
ARC
8
DEFAULT_255_1_234
10
18.5357471
20
-0.2013022
40
0.3193797
50
283.7700273
51
318.1555492
0
ARC
8
DEFAULT_255_1_234
10
18.5020229
20
-0.1760633
40
0.3613588
50
318.7415601
51
343.6873628
0
ARC
8
DEFAULT_255_1_234
10
18.3216252
20
-0.1197168
40
0.5503313
50
343.3325091
51
355.8548958
0
ARC
8
DEFAULT_255_1_234
10
18.1117936
20
-0.0997681
40
0.7610708
50
355.4988528
51
0.0791727
0
ARC
8
DEFAULT_255_1_234
10
18.1900559
20
-0.026222
40
0.6828208
50
359.6455037
51
9.8607896
0
ARC
8
DEFAULT_255_1_234
10
18.4261257
20
0.0164099
40
0.4429406
50
9.6571907
51
26.1932807
0
ARC
8
DEFAULT_255_1_234
10
18.5189246
20
0.0595118
40
0.3406537
50
26.5777228
51
40.1532208
0
ARC
8
DEFAULT_255_1_234
10
18.5444972
20
0.0794619
40
0.308246
50
40.3840491
51
80.1431104
0
ARC
8
DEFAULT_255_1_234
10
18.511809
20
-0.0654667
40
0.4566909
50
79.2152159
51
89.7445637
0
ARC
8
DEFAULT_255_2_778
10
20.2534188
20
25.3616525
40
0.3580657
50
89.9945037
51
180.0054963
0
ARC
8
DEFAULT_255_2_778
10
20.2534875
20
25.3616525
40
0.3580657
50
359.9945037
51
90.0054963
0
ARC
8
DEFAULT_255_2_778
10
20.2534875
20
25.3615838
40
0.3580657
50
269.9945037
51
0.0054963
0
ARC
8
DEFAULT_255_2_778
10
20.2534188
20
25.3615838
40
0.3580657
50
179.9945037
51
270.0054963
0
ARC
8
DEFAULT_255_2_778
10
22.9622406
20
25.093282
40
2.3282817
50
111.9150345
51
128.7655504
0
ARC
8
DEFAULT_255_2_778
10
22.8791007
20
25.225352
40
2.1733214
50
129.2366206
51
154.7721516
0
ARC
8
DEFAULT_255_2_778
10
23.480657
20
24.9295583
40
2.8435961
50
154.5467617
51
165.9285636
0
ARC
8
DEFAULT_255_2_778
10
23.9646902
20
24.7921212
40
3.3465569
50
165.6609748
51
166.525375
0
ARC
8
DEFAULT_255_2_778
10
21.5282291
20
26.0103171
40
1.414623
50
156.0627036
51
175.7189082
0
ARC
8
DEFAULT_255_2_778
10
22.1164502
20
25.756783
40
2.0551309
50
144.7505594
51
156.2560535
0
ARC
8
DEFAULT_255_2_778
10
22.8861799
20
25.2214863
40
2.9926766
50
137.345293
51
144.8863205
0
ARC
8
DEFAULT_255_2_778
10
23.8131446
20
24.3723407
40
4.2497776
50
131.6389266
51
137.393651
0
ARC
8
DEFAULT_255_2_778
10
24.5393492
20
23.5756248
40
5.3277326
50
130.1334351
51
131.7826198
0
LINE
8
DEFAULT_255_2_778
10
19.8953532
20
25.3616182
11
19.8953532
21
25.3616182
0
LINE
8
DEFAULT_255_2_778
10
21.1052532
20
27.6489182
11
22.0932532
21
27.2533182
0
LINE
8
DEFAULT_255_2_778
10
20.7102532
20
25.5719182
11
20.1175532
21
26.1159182
0
LINE
8
DEFAULT_255_2_778
10
21.1052532
20
27.6489182
11
21.1052532
21
27.6489182
0
ARC
8
DEFAULT_255_2_778
10
13.7594907
20
26.1851437
40
0.8717226
50
88.9281645
51
133.9885749
0
ARC
8
DEFAULT_255_2_778
10
13.7757454
20
25.9600604
40
1.0966534
50
88.9487005
51
89.9972984
0
ARC
8
DEFAULT_255_2_778
10
13.7953
20
26.2555011
40
0.8010283
50
72.1310318
51
89.9594908
0
ARC
8
DEFAULT_255_2_778
10
13.8705373
20
26.5125083
40
0.5333823
50
60.6505783
51
71.3519493
0
ARC
8
DEFAULT_255_2_778
10
13.9543387
20
26.6396349
40
0.3816498
50
20.3938858
51
62.2625554
0
ARC
8
DEFAULT_255_2_778
10
14.9704645
20
26.1516628
40
0.9050345
50
89.7568633
51
136.6758865
0
ARC
8
DEFAULT_255_2_778
10
14.9742773
20
26.0340709
40
1.0226182
50
88.9864436
51
89.9984426
0
ARC
8
DEFAULT_255_2_778
10
14.992248
20
26.273192
40
0.7833372
50
71.373585
51
89.9913488
0
ARC
8
DEFAULT_255_2_778
10
15.0841803
20
26.552042
40
0.489734
50
42.2193789
51
71.1458349
0
ARC
8
DEFAULT_255_2_778
10
15.0590908
20
26.5445658
40
0.5134635
50
8.5226311
51
40.9558105
0
ARC
8
DEFAULT_255_2_778
10
14.7367896
20
26.4793045
40
0.8420446
50
359.6942069
51
9.6641803
0
ARC
8
DEFAULT_255_2_778
10
14.4472507
20
26.4763277
40
1.1315727
50
355.5855084
51
359.923173
0
ARC
8
DEFAULT_255_2_778
10
14.2502845
20
26.4486289
40
0.7547163
50
352.4548626
51
359.7652122
0
ARC
8
DEFAULT_255_2_778
10
14.4078893
20
26.4457192
40
0.5971052
50
359.9824407
51
2.1700815
0
ARC
8
DEFAULT_255_2_778
10
14.8167551
20
26.4615752
40
0.1879327
50
2.0595693
51
88.944897
0
ARC
8
DEFAULT_255_2_778
10
14.7529878
20
26.1742725
40
0.4799353
50
81.9476992
51
88.9638763
0
ARC
8
DEFAULT_255_2_778
10
14.7641352
20
26.1681844
40
0.4859511
50
90.2910974
51
140.7094043
0
ARC
8
DEFAULT_255_2_778
10
14.950423
20
25.9753111
40
0.7529164
50
138.3264016
51
141.8088804
0
ARC
8
DEFAULT_255_2_778
10
13.0111845
20
26.4452289
40
0.7547163
50
352.4548626
51
359.7652122
0
ARC
8
DEFAULT_255_2_778
10
13.1687893
20
26.4423192
40
0.5971052
50
359.9824407
51
2.1700815
0
ARC
8
DEFAULT_255_2_778
10
13.5767327
20
26.4591775
40
0.1888212
50
1.7455696
51
88.6065628
0
ARC
8
DEFAULT_255_2_778
10
13.5151974
20
26.1828897
40
0.469731
50
81.9072271
51
88.8693446
0
ARC
8
DEFAULT_255_2_778
10
13.5126914
20
26.1428568
40
0.5098084
50
88.6765396
51
89.9981553
0
ARC
8
DEFAULT_255_2_778
10
13.5179114
20
26.1464569
40
0.5062351
50
90.5889431
51
134.9317856
0
ARC
8
DEFAULT_255_2_778
10
13.6708307
20
25.9560835
40
0.749469
50
132.9288129
51
135.7848647
0
LINE
8
DEFAULT_255_2_778
10
12.6682663
20
27.0224292
11
13.2005663
21
27.0240292
0
LINE
8
DEFAULT_255_2_778
10
13.2005663
20
27.0240292
11
13.1540663
21
26.8123292
0
LINE
8
DEFAULT_255_2_778
10
15.5754663
20
26.3892292
11
15.5715663
21
26.3464292
0
LINE
8
DEFAULT_255_2_778
10
15.5715663
20
26.3464292
11
15.3386663
21
25.1610292
0
LINE
8
DEFAULT_255_2_778
10
15.3386663
20
25.1610292
11
14.7655663
21
25.1610292
0
LINE
8
DEFAULT_255_2_778
10
14.7655663
20
25.1610292
11
14.9984663
21
26.3495292
0
LINE
8
DEFAULT_255_2_778
10
14.3586663
20
26.4408292
11
14.3525663
21
26.4014292
0
LINE
8
DEFAULT_255_2_778
10
14.3525663
20
26.4014292
11
14.0975663
21
25.1610292
0
LINE
8
DEFAULT_255_2_778
10
14.0975663
20
25.1610292
11
13.5265663
21
25.1610292
0
LINE
8
DEFAULT_255_2_778
10
13.5265663
20
25.1610292
11
13.7593663
21
26.3461292
0
LINE
8
DEFAULT_255_2_778
10
13.1336663
20
26.4787292
11
12.8603663
21
25.1610292
0
LINE
8
DEFAULT_255_2_778
10
12.8603663
20
25.1610292
11
12.2893663
21
25.1610292
0
LINE
8
DEFAULT_255_2_778
10
12.2893663
20
25.1610292
11
12.6679663
21
27.0221292
0
LINE
8
DEFAULT_255_2_778
10
12.6679663
20
27.0221292
11
12.6682663
21
27.0224292
0
ARC
8
DEFAULT_255_2_778
10
16.6196053
20
25.8706974
40
1.1843517
50
72.4959718
51
89.9898173
0
ARC
8
DEFAULT_255_2_778
10
16.6943099
20
26.1335251
40
0.9112583
50
60.3350936
51
72.0051619
0
ARC
8
DEFAULT_255_2_778
10
16.7749673
20
26.2552792
40
0.7656054
50
24.9513793
51
61.0705157
0
ARC
8
DEFAULT_255_2_778
10
16.6824605
20
26.2139093
40
0.8669314
50
359.4887328
51
24.8512384
0
ARC
8
DEFAULT_255_2_778
10
16.4761349
20
26.2075613
40
1.0732233
50
353.5741487
51
359.9259073
0
ARC
8
DEFAULT_255_2_778
10
16.4716228
20
26.1768768
40
1.0747201
50
309.8384697
51
355.2268883
0
ARC
8
DEFAULT_255_2_778
10
16.4133732
20
26.2432792
40
1.1630257
50
274.0087174
51
309.9462649
0
ARC
8
DEFAULT_255_2_778
10
16.3622118
20
26.6113469
40
1.5339783
50
269.9463719
51
274.9539392
0
ARC
8
DEFAULT_255_2_778
10
16.3608389
20
26.7362055
40
1.6588361
50
269.1564
51
269.9978262
0
ARC
8
DEFAULT_255_2_778
10
16.3361786
20
26.2475777
40
1.1700287
50
252.1169151
51
270.0116144
0
ARC
8
DEFAULT_255_2_778
10
16.2640737
20
25.9974983
40
0.9099269
50
240.5370005
51
251.6023302
0
ARC
8
DEFAULT_255_2_778
10
16.1851932
20
25.8761956
40
0.7655666
50
205.2400495
51
241.211713
0
ARC
8
DEFAULT_255_2_778
10
16.2644058
20
25.9133619
40
0.8530649
50
179.5368594
51
205.2293562
0
ARC
8
DEFAULT_255_2_778
10
16.4511104
20
25.9189615
40
1.0397424
50
173.5174505
51
179.9285896
0
ARC
8
DEFAULT_255_2_778
10
16.6391803
20
25.9076625
40
1.2279263
50
153.4099026
51
173.9843619
0
ARC
8
DEFAULT_255_2_778
10
16.479574
20
25.9754316
40
1.0549233
50
129.6863931
51
152.8211827
0
ARC
8
DEFAULT_255_2_778
10
16.5416695
20
25.9049288
40
1.1488354
50
92.7647679
51
129.8242239
0
ARC
8
DEFAULT_255_2_778
10
16.5841385
20
25.5620027
40
1.493635
50
89.9700537
51
93.7575078
0
ARC
8
DEFAULT_255_2_778
10
16.5848078
20
25.4604988
40
1.5951388
50
88.7352629
51
89.9960004
0
ARC
8
DEFAULT_255_2_778
10
16.4400633
20
25.8515898
40
0.4277578
50
179.6036168
51
209.4859363
0
ARC
8
DEFAULT_255_2_778
10
16.339418
20
25.8046704
40
0.3171735
50
211.0570865
51
223.1755117
0
ARC
8
DEFAULT_255_2_778
10
16.3473332
20
25.8226661
40
0.3353476
50
224.4925211
51
268.7887171
0
ARC
8
DEFAULT_255_2_778
10
16.3774447
20
26.0353734
40
0.5492412
50
266.1163412
51
268.8180997
0
ARC
8
DEFAULT_255_2_778
10
16.3835472
20
26.1637785
40
0.6777536
50
268.526223
51
269.9955091
0
ARC
8
DEFAULT_255_2_778
10
16.3990701
20
25.973644
40
0.4878678
50
268.1704265
51
325.4339242
0
ARC
8
DEFAULT_255_2_778
10
16.1704695
20
26.1403456
40
0.7707306
50
324.8706977
51
351.0886768
0
ARC
8
DEFAULT_255_2_778
10
15.7623184
20
26.2192458
40
1.1862684
50
350.3775551
51
0.2885744
0
ARC
8
DEFAULT_255_2_778
10
15.4717188
20
26.2249413
40
1.4768528
50
0.0108339
51
1.7075744
0
ARC
8
DEFAULT_255_2_778
10
16.4934642
20
26.2598667
40
0.4545424
50
1.1449321
51
31.2379075
0
ARC
8
DEFAULT_255_2_778
10
16.5879741
20
26.3067655
40
0.3495266
50
32.6990639
51
41.7808189
0
ARC
8
DEFAULT_255_2_778
10
16.6096806
20
26.3157907
40
0.3274181
50
43.1340936
51
88.7627262
0
ARC
8
DEFAULT_255_2_778
10
16.5789521
20
26.1032982
40
0.541156
50
85.9947762
51
88.8708975
0
ARC
8
DEFAULT_255_2_778
10
16.5725564
20
26.0011831
40
0.6433922
50
88.4806373
51
89.9943348
0
ARC
8
DEFAULT_255_2_778
10
16.5615164
20
26.1550029
40
0.4896983
50
88.700744
51
145.0333048
0
ARC
8
DEFAULT_255_2_778
10
16.7601178
20
26.0017114
40
0.7403948
50
144.1199924
51
170.2822726
0
ARC
8
DEFAULT_255_2_778
10
17.186428
20
25.9146587
40
1.1753635
50
169.6073612
51
180.3524876
0
ARC
8
DEFAULT_255_2_778
10
17.5222715
20
25.9078311
40
1.5111849
50
180.0152873
51
182.0091954
0
LINE
8
DEFAULT_255_2_778
10
16.6200158
20
27.0552491
11
16.6198158
21
27.0550491
0
LINE
8
DEFAULT_255_2_778
10
16.0120158
20
25.8548491
11
16.0123158
21
25.8545491
0
ARC
8
DEFAULT_255_2_778
10
18.587937
20
24.9330854
40
1.642039
50
81.2830361
51
86.628458
0
ARC
8
DEFAULT_255_2_778
10
18.6429757
20
25.7715313
40
0.8018272
50
87.0310432
51
89.8986713
0
ARC
8
DEFAULT_255_2_778
10
18.6242064
20
25.6828997
40
0.8906863
50
88.7012797
51
89.9954117
0
ARC
8
DEFAULT_255_2_778
10
18.6103452
20
25.9271623
40
0.6465738
50
88.765285
51
116.6201427
0
ARC
8
DEFAULT_255_2_778
10
18.5802548
20
26.0111694
40
0.5580924
50
117.7228833
51
138.7756782
0
ARC
8
DEFAULT_255_2_778
10
18.7590475
20
26.3773707
40
0.6980151
50
116.489914
51
143.0810972
0
ARC
8
DEFAULT_255_2_778
10
18.7053938
20
26.4574223
40
0.6025621
50
89.4580016
51
115.3188873
0
ARC
8
DEFAULT_255_2_778
10
18.6965205
20
26.1226885
40
0.9373821
50
77.9674605
51
89.1092017
0
ARC
8
DEFAULT_255_2_778
10
18.6028478
20
25.5921466
40
1.4759175
50
78.008513
51
78.7045202
0
LINE
8
DEFAULT_255_2_778
10
18.9094938
20
27.0361573
11
18.8367938
21
26.5561573
0
LINE
8
DEFAULT_255_2_778
10
18.1604938
20
26.3789573
11
17.9072938
21
25.1610573
0
LINE
8
DEFAULT_255_2_778
10
17.9072938
20
25.1610573
11
17.3362938
21
25.1610573
0
LINE
8
DEFAULT_255_2_778
10
17.3362938
20
25.1610573
11
17.7169938
21
27.0221573
0
LINE
8
DEFAULT_255_2_778
10
17.7169938
20
27.0221573
11
18.2535938
21
27.0237573
0
LINE
8
DEFAULT_255_2_778
10
18.2535938
20
27.0237573
11
18.2009938
21
26.7966573
0
LINE
8
DEFAULT_255_2_778
10
18.9094938
20
27.0358573
11
18.9094938
21
27.0361573
0
ARC
8
DEFAULT_255_2_778
10
19.1571128
20
26.2475762
40
1.1700739
50
250.1384534
51
270.3253519
0
ARC
8
DEFAULT_255_2_778
10
19.1018273
20
26.0667495
40
0.9812659
50
242.0400724
51
249.5873206
0
ARC
8
DEFAULT_255_2_778
10
19.001531
20
25.9083015
40
0.794417
50
208.3292132
51
243.0715083
0
ARC
8
DEFAULT_255_2_778
10
18.9937252
20
25.8992929
40
0.7832826
50
179.5739013
51
208.0201199
0
ARC
8
DEFAULT_255_2_778
10
19.1404713
20
25.9043153
40
0.9300073
50
174.3657638
51
179.9505495
0
ARC
8
DEFAULT_255_2_778
10
19.322969
20
25.9456913
40
1.1082855
50
145.24933
51
173.7565404
0
ARC
8
DEFAULT_255_2_778
10
19.3043239
20
25.9706177
40
1.0788028
50
116.4826416
51
145.7726174
0
ARC
8
DEFAULT_255_2_778
10
19.3348976
20
25.9009316
40
1.1548163
50
89.3335424
51
116.2986099
0
ARC
8
DEFAULT_255_2_778
10
19.3482483
20
25.6585133
40
1.3971563
50
88.7200635
51
89.9966493
0
ARC
8
DEFAULT_255_2_778
10
19.3739264
20
25.9429187
40
1.1124162
50
73.6937809
51
89.7151452
0
ARC
8
DEFAULT_255_2_778
10
19.4851962
20
26.3148827
40
0.7241771
50
40.439997
51
73.880282
0
ARC
8
DEFAULT_255_2_778
10
19.4514712
20
26.2929387
40
0.7640962
50
0.3370816
51
40.0519836
0
ARC
8
DEFAULT_255_2_778
10
19.2137457
20
26.269313
40
1.0022031
50
359.994028
51
1.6078833
0
ARC
8
DEFAULT_255_2_778
10
19.0846833
20
26.2714808
40
1.1312679
50
353.167063
51
359.8849147
0
ARC
8
DEFAULT_255_2_778
10
18.9406155
20
26.2862227
40
1.2760687
50
352.3939633
51
353.279462
0
ARC
8
DEFAULT_255_2_778
10
19.1530478
20
25.8475308
40
0.3604224
50
171.5294964
51
179.9003766
0
ARC
8
DEFAULT_255_2_778
10
19.1259641
20
25.8517602
40
0.3333577
50
180.6192204
51
227.8732743
0
ARC
8
DEFAULT_255_2_778
10
19.2039834
20
26.1125848
40
0.5908529
50
239.3033103
51
268.7295305
0
ARC
8
DEFAULT_255_2_778
10
19.2271224
20
26.3465887
40
0.8255073
50
267.4839269
51
270.0168707
0
ARC
8
DEFAULT_255_2_778
10
19.2268753
20
26.4314158
40
0.9103345
50
270.0308514
51
273.2230324
0
ARC
8
DEFAULT_255_2_778
10
19.2542379
20
25.7702649
40
0.2488861
50
275.4917641
51
302.3582203
0
ARC
8
DEFAULT_255_2_778
10
19.3200418
20
25.6543063
40
0.115896
50
305.561706
51
314.7657745
0
ARC
8
DEFAULT_255_2_778
10
19.3095773
20
25.6871064
40
0.1473882
50
308.6632861
51
359.3837416
0
ARC
8
DEFAULT_255_2_778
10
17.807225
20
27.4097828
40
2.962762
50
318.8021847
51
324.4102292
0
ARC
8
DEFAULT_255_2_778
10
18.7925821
20
26.5414505
40
1.6494092
50
310.4033061
51
318.953359
0
ARC
8
DEFAULT_255_2_778
10
19.3188808
20
25.9148187
40
0.831118
50
295.9312381
51
310.7744109
0
ARC
8
DEFAULT_255_2_778
10
19.4407027
20
25.6859771
40
0.5721233
50
294.3678437
51
294.9811966
0
ARC
8
DEFAULT_255_2_778
10
19.1940828
20
26.4529614
40
1.3756016
50
269.5724547
51
290.5412856
0
ARC
8
DEFAULT_255_2_778
10
19.1838577
20
26.6712488
40
1.5938505
50
269.2881822
51
269.9985732
0
ARC
8
DEFAULT_255_2_778
10
19.3390649
20
26.0846819
40
0.5598634
50
88.7931239
51
89.9984438
0
ARC
8
DEFAULT_255_2_778
10
19.3326983
20
26.1815553
40
0.463034
50
89.2102909
51
125.5845733
0
ARC
8
DEFAULT_255_2_778
10
19.4008068
20
26.1098825
40
0.5611219
50
126.9818839
51
147.669232
0
ARC
8
DEFAULT_255_2_778
10
19.876359
20
25.7901894
40
1.1340353
50
146.870707
51
156.2884785
0
ARC
8
DEFAULT_255_2_778
10
19.2351279
20
26.3680109
40
0.4275542
50
349.7487379
51
359.8271594
0
ARC
8
DEFAULT_255_2_778
10
19.2975857
20
26.367282
40
0.3650948
50
359.9119884
51
9.2266083
0
ARC
8
DEFAULT_255_2_778
10
19.4133961
20
26.3823643
40
0.2483918
50
10.0759194
51
54.8339385
0
ARC
8
DEFAULT_255_2_778
10
19.3593417
20
26.2862413
40
0.3582778
50
56.6210187
51
91.3472693
0
LINE
8
DEFAULT_255_2_778
10
18.2149569
20
25.9956211
11
18.2212569
21
26.0662211
0
LINE
8
DEFAULT_255_2_778
10
20.2054569
20
26.1173211
11
20.1723569
21
25.9006211
0
LINE
8
DEFAULT_255_2_778
10
20.1723569
20
25.9006211
11
18.7965569
21
25.9006211
0
LINE
8
DEFAULT_255_2_778
10
19.4569569
20
25.6855211
11
20.2165569
21
25.6855211
0
LINE
8
DEFAULT_255_2_778
10
18.8380569
20
26.2462211
11
19.6434569
21
26.2462211
0
LINE
8
DEFAULT_255_2_778
10
19.6434569
20
26.2462211
11
19.6558569
21
26.2919211
0
LINE
8
DEFAULT_255_2_778
10
11.4252281
20
26.8330177
11
12.8081281
21
26.0170177
0
LINE
8
DEFAULT_255_2_778
10
12.8081281
20
26.0170177
11
11.2770281
21
25.4236177
0
LINE
8
DEFAULT_255_2_778
10
11.2770281
20
25.4236177
11
11.5979281
21
26.1406177
0
LINE
8
DEFAULT_255_2_778
10
11.5979281
20
26.1406177
11
11.4252281
21
26.8330177
0
ARC
8
DEFAULT_255_2_778
10
7.8633492
20
26.5526349
40
1.734445
50
345.0500681
51
0.450213
0
ARC
8
DEFAULT_255_2_778
10
8.1424128
20
26.4884315
40
1.4482985
50
339.8011311
51
344.6559926
0
ARC
8
DEFAULT_255_2_778
10
8.2241959
20
26.4429595
40
1.3559213
50
318.9869254
51
340.4112117
0
ARC
8
DEFAULT_255_2_778
10
8.3403786
20
26.3550223
40
1.2105876
50
317.7755753
51
318.5188915
0
ARC
8
DEFAULT_255_2_778
10
8.3677776
20
26.3291224
40
1.1728926
50
293.4453171
51
317.8130059
0
ARC
8
DEFAULT_255_2_778
10
8.3381728
20
26.4073502
40
1.2564472
50
269.4376299
51
293.2645473
0
ARC
8
DEFAULT_255_2_778
10
8.6390116
20
26.6154305
40
1.0182316
50
68.112945
51
90.7974227
0
ARC
8
DEFAULT_255_2_778
10
8.6827218
20
26.7507759
40
0.8764035
50
66.6600337
51
67.4660887
0
ARC
8
DEFAULT_255_2_778
10
8.6950616
20
26.7625129
40
0.860764
50
41.8199578
51
67.1046866
0
ARC
8
DEFAULT_255_2_778
10
8.5939144
20
26.6862866
40
0.9870277
50
18.4442061
51
41.2024761
0
ARC
8
DEFAULT_255_2_778
10
8.2913394
20
26.5826986
40
1.3068358
50
359.9236227
51
18.5554774
0
ARC
8
DEFAULT_255_2_778
10
7.9767371
20
26.5662824
40
1.6215036
50
359.9993331
51
0.5185192
0
ARC
8
DEFAULT_255_2_778
10
8.1161265
20
26.5724191
40
1.1556879
50
359.3527282
51
15.3461488
0
ARC
8
DEFAULT_255_2_778
10
8.3555709
20
26.6275091
40
0.9102591
50
15.9909101
51
17.2384514
0
ARC
8
DEFAULT_255_2_778
10
8.5215656
20
26.6909942
40
0.7329962
50
16.3441173
51
39.0583428
0
ARC
8
DEFAULT_255_2_778
10
8.6385861
20
26.7765513
40
0.5882641
50
39.7694118
51
66.0014919
0
ARC
8
DEFAULT_255_2_778
10
8.6052911
20
26.6835083
40
0.6868457
50
66.6208799
51
90.9301944
0
ARC
8
DEFAULT_255_2_778
10
8.3674619
20
26.2785777
40
0.865983
50
269.2774049
51
294.6427005
0
ARC
8
DEFAULT_255_2_778
10
8.3809787
20
26.2305801
40
0.8167574
50
295.184769
51
321.1699914
0
ARC
8
DEFAULT_255_2_778
10
8.188821
20
26.3770326
40
1.0582969
50
321.5163412
51
341.7776814
0
ARC
8
DEFAULT_255_2_778
10
7.8940618
20
26.4925931
40
1.374523
50
341.044332
51
342.4824039
0
ARC
8
DEFAULT_255_2_778
10
7.7898077
20
26.5142334
40
1.4804949
50
342.8981919
51
356.6952858
0
ARC
8
DEFAULT_255_2_778
10
7.2862441
20
26.5579849
40
1.9857973
50
356.2725814
51
0.0484329
0
LINE
8
DEFAULT_255_2_778
10
8.3258407
20
25.1509635
11
7.2765407
21
25.1266635
0
LINE
8
DEFAULT_255_2_778
10
7.2765407
20
25.1266635
11
7.7858407
21
27.6335635
0
LINE
8
DEFAULT_255_2_778
10
7.7858407
20
27.6335635
11
8.6248407
21
27.6335635
0
LINE
8
DEFAULT_255_2_778
10
9.5982407
20
26.5662635
11
9.5977407
21
26.5662635
0
LINE
8
DEFAULT_255_2_778
10
8.5941407
20
27.3702635
11
7.9962407
21
27.3522635
0
LINE
8
DEFAULT_255_2_778
10
7.9962407
20
27.3522635
11
7.6363407
21
25.3740635
0
LINE
8
DEFAULT_255_2_778
10
7.6363407
20
25.3740635
11
8.3565407
21
25.4126635
0
LINE
8
DEFAULT_255_2_778
10
9.2720407
20
26.5596635
11
9.2717407
21
26.5593635
0
ARC
8
DEFAULT_255_2_778
10
10.302374
20
25.954919
40
0.5777251
50
269.3131992
51
298.9193317
0
ARC
8
DEFAULT_255_2_778
10
10.2422898
20
26.0595114
40
0.6983333
50
299.0845099
51
323.1838183
0
ARC
8
DEFAULT_255_2_778
10
10.0730419
20
26.1834915
40
0.9081244
50
323.3206017
51
342.9705556
0
ARC
8
DEFAULT_255_2_778
10
9.9076255
20
26.2409416
40
1.0831324
50
342.6274164
51
0.2324268
0
ARC
8
DEFAULT_255_2_778
10
10.2433391
20
26.2580185
40
0.7475175
50
359.0278167
51
16.1300251
0
ARC
8
DEFAULT_255_2_778
10
10.5672449
20
26.3511392
40
0.4104922
50
16.2042834
51
41.9480466
0
ARC
8
DEFAULT_255_2_778
10
10.5796118
20
26.3429262
40
0.4070383
50
43.9719544
51
85.3997935
0
ARC
8
DEFAULT_255_2_778
10
10.5322186
20
26.0672297
40
0.686108
50
83.300847
51
90.1477804
0
ARC
8
DEFAULT_255_2_778
10
10.5219616
20
26.1719474
40
0.58145
50
89.163628
51
118.6648078
0
ARC
8
DEFAULT_255_2_778
10
10.581079
20
26.0749564
40
0.6949321
50
119.1056578
51
143.2104754
0
ARC
8
DEFAULT_255_2_778
10
10.7542438
20
25.9479766
40
0.9096571
50
143.3373192
51
162.9538381
0
ARC
8
DEFAULT_255_2_778
10
10.9180519
20
25.8909321
40
1.0830106
50
162.6089297
51
180.2167337
0
ARC
8
DEFAULT_255_2_778
10
10.590132
20
25.8741465
40
0.7551896
50
179.037255
51
196.0102976
0
ARC
8
DEFAULT_255_2_778
10
10.2623689
20
25.7806213
40
0.4143448
50
196.0798237
51
221.5429745
0
ARC
8
DEFAULT_255_2_778
10
10.2435386
20
25.7822741
40
0.4015819
50
223.501568
51
264.945498
0
ARC
8
DEFAULT_255_2_778
10
10.2934062
20
26.062423
40
0.6854906
50
262.8561454
51
270.170743
0
ARC
8
DEFAULT_255_2_778
10
10.2496801
20
26.1201733
40
0.993603
50
251.4783364
51
270.6555979
0
ARC
8
DEFAULT_255_2_778
10
10.1671823
20
25.8744369
40
0.7343883
50
228.2272369
51
251.4910714
0
ARC
8
DEFAULT_255_2_778
10
10.1298392
20
25.8237077
40
0.671704
50
202.6960886
51
227.720176
0
ARC
8
DEFAULT_255_2_778
10
10.2495562
20
25.8690656
40
0.7996635
50
179.6456167
51
202.3846702
0
ARC
8
DEFAULT_255_2_778
10
10.5173927
20
25.8852351
40
1.0675438
50
179.9999853
51
180.6023814
0
ARC
8
DEFAULT_255_2_778
10
10.5536721
20
25.892223
40
1.1038452
50
157.230675
51
180.3627006
0
ARC
8
DEFAULT_255_2_778
10
10.5843324
20
25.8826196
40
1.135837
50
135.6908415
51
157.3825693
0
ARC
8
DEFAULT_255_2_778
10
10.5546282
20
25.909315
40
1.0959349
50
113.1058727
51
135.604761
0
ARC
8
DEFAULT_255_2_778
10
10.5551078
20
25.9135049
40
1.0922713
50
89.5047522
51
113.2152626
0
ARC
8
DEFAULT_255_2_778
10
10.5759287
20
26.0104295
40
0.9953709
50
71.5130801
51
90.6550541
0
ARC
8
DEFAULT_255_2_778
10
10.6573575
20
26.2562115
40
0.7364524
50
48.2602918
51
71.4580165
0
ARC
8
DEFAULT_255_2_778
10
10.6956984
20
26.3096961
40
0.6710546
50
22.5497085
51
47.6627683
0
ARC
8
DEFAULT_255_2_778
10
10.5670556
20
26.2603328
40
0.8088011
50
359.0650515
51
22.2845409
0
ARC
8
DEFAULT_255_2_778
10
10.2767028
20
26.2410709
40
1.0990629
50
337.1812514
51
0.316152
0
ARC
8
DEFAULT_255_2_778
10
10.2412655
20
26.2516512
40
1.135837
50
315.6908415
51
337.3825693
0
ARC
8
DEFAULT_255_2_778
10
10.2631229
20
26.2336107
40
1.1075969
50
293.2336194
51
315.5688359
0
ARC
8
DEFAULT_255_2_778
10
10.268874
20
26.2129991
40
1.0863919
50
269.5873092
51
293.383724
0
LINE
8
DEFAULT_255_2_778
10
10.295449
20
25.3769354
11
10.295449
21
25.3772354
0
LINE
8
DEFAULT_255_2_778
10
10.261049
20
25.1266354
11
10.261049
21
25.1266354
0
LINE
8
DEFAULT_255_1_234
10
10.6985392
20
22.4997
11
10.2929364
21
22.4997
0
LINE
8
DEFAULT_255_1_234
10
10.2929364
20
22.4997
11
10.2929364
21
23.6691211
0
LINE
8
DEFAULT_255_1_234
10
10.2929364
20
23.6691211
11
10.6752471
21
23.6691211
0
LINE
8
DEFAULT_255_1_234
10
10.7041614
20
23.0466614
11
10.4471458
21
23.0466614
0
LINE
8
DEFAULT_255_1_234
10
10.4471458
20
23.0466614
11
10.4471458
21
22.6257983
0
LINE
8
DEFAULT_255_1_234
10
10.4471458
20
22.6257983
11
10.7017519
21
22.6257983
0
LINE
8
DEFAULT_255_1_234
10
10.4471458
20
23.5422196
11
10.4471458
21
23.1703501
0
LINE
8
DEFAULT_255_1_234
10
10.4471458
20
23.1703501
11
10.6800662
21
23.1703501
0
LINE
8
DEFAULT_255_1_234
10
10.6752471
20
23.5422196
11
10.4471458
21
23.5422196
0
ARC
8
DEFAULT_255_1_234
10
10.679018
20
22.9323901
40
0.7367406
50
82.1257326
51
90.2932599
0
ARC
8
DEFAULT_255_1_234
10
10.7179135
20
23.2042013
40
0.4621653
50
69.9044149
51
82.2857423
0
ARC
8
DEFAULT_255_1_234
10
10.7749813
20
23.3584637
40
0.2976871
50
51.1838526
51
70.0181538
0
ARC
8
DEFAULT_255_1_234
10
10.8004779
20
23.395524
40
0.2528517
50
12.1017251
51
50.4214761
0
ARC
8
DEFAULT_255_1_234
10
10.6620653
20
23.3607676
40
0.3955061
50
359.5251267
51
12.8211707
0
ARC
8
DEFAULT_255_1_234
10
10.8200579
20
23.3538344
40
0.2375281
50
323.4908128
51
0.8817314
0
ARC
8
DEFAULT_255_1_234
10
10.7782266
20
23.386155
40
0.2903817
50
298.6825083
51
323.2756573
0
ARC
8
DEFAULT_255_1_234
10
10.7420629
20
23.4462649
40
0.3604842
50
293.1999386
51
299.1396394
0
ARC
8
DEFAULT_255_1_234
10
10.8093602
20
22.8377126
40
0.2871098
50
54.0011765
51
74.9167975
0
ARC
8
DEFAULT_255_1_234
10
10.8209961
20
22.8574332
40
0.2643248
50
36.3580696
51
53.5291921
0
ARC
8
DEFAULT_255_1_234
10
10.8083203
20
22.8483998
40
0.2798884
50
4.8189881
51
36.3089977
0
ARC
8
DEFAULT_255_1_234
10
10.7304038
20
22.837427
40
0.358478
50
359.9370252
51
5.5204067
0
ARC
8
DEFAULT_255_1_234
10
10.697956
20
22.8333667
40
0.3909429
50
344.7478609
51
0.5373281
0
ARC
8
DEFAULT_255_1_234
10
10.7970531
20
22.8066544
40
0.2883093
50
311.1786488
51
344.6886812
0
ARC
8
DEFAULT_255_1_234
10
10.7678578
20
22.8429987
40
0.3348923
50
286.0418249
51
310.8441291
0
ARC
8
DEFAULT_255_1_234
10
10.717141
20
23.0076807
40
0.5071869
50
274.1042341
51
286.4071509
0
ARC
8
DEFAULT_255_1_234
10
10.6994666
20
23.1960229
40
0.6963234
50
269.9236873
51
274.445647
0
ARC
8
DEFAULT_255_1_234
10
10.7040667
20
22.9620537
40
0.3362634
50
269.6055768
51
281.3740047
0
ARC
8
DEFAULT_255_1_234
10
10.7271305
20
22.8527353
40
0.224546
50
281.1055983
51
302.5132223
0
ARC
8
DEFAULT_255_1_234
10
10.7418204
20
22.8263823
40
0.1944357
50
303.0368945
51
311.8811219
0
ARC
8
DEFAULT_255_1_234
10
10.7489611
20
22.817889
40
0.1833454
50
311.9916004
51
351.7143462
0
ARC
8
DEFAULT_255_1_234
10
10.6672841
20
22.834393
40
0.2665871
50
350.7339597
51
0.2221581
0
ARC
8
DEFAULT_255_1_234
10
10.6565287
20
22.8400467
40
0.2773789
50
359.0456241
51
17.2296242
0
ARC
8
DEFAULT_255_1_234
10
10.7604404
20
22.8709163
40
0.1689915
50
17.6685481
51
78.9940892
0
ARC
8
DEFAULT_255_1_234
10
10.7087568
20
22.6854224
40
0.3612658
50
76.5635957
51
90.6980921
0
LINE
8
DEFAULT_255_1_234
10
10.7043552
20
23.0466613
11
10.7041614
21
23.0466614
0
ARC
8
DEFAULT_255_1_234
10
10.6823228
20
23.4989036
40
0.3285612
50
269.6064736
51
281.4533503
0
ARC
8
DEFAULT_255_1_234
10
10.7046048
20
23.3937688
40
0.2210975
50
281.2041486
51
302.5148063
0
ARC
8
DEFAULT_255_1_234
10
10.7182898
20
23.3691241
40
0.1929674
50
303.021671
51
309.8369575
0
ARC
8
DEFAULT_255_1_234
10
10.7366359
20
23.3485488
40
0.1654181
50
309.5228395
51
356.9509836
0
ARC
8
DEFAULT_255_1_234
10
10.6702942
20
23.3580932
40
0.2322512
50
355.4701227
51
0.0492546
0
ARC
8
DEFAULT_255_1_234
10
10.6424033
20
23.3603094
40
0.2601498
50
359.5558597
51
11.2096359
0
ARC
8
DEFAULT_255_1_234
10
10.7381323
20
23.380123
40
0.1623975
50
10.9182341
51
31.3230275
0
ARC
8
DEFAULT_255_1_234
10
10.7667056
20
23.3960214
40
0.1297302
50
31.8852677
51
52.1412565
0
ARC
8
DEFAULT_255_1_234
10
10.7392789
20
23.357275
40
0.1771663
50
52.8285564
51
71.9850297
0
ARC
8
DEFAULT_255_1_234
10
10.7016965
20
23.2466664
40
0.2939794
50
71.6863486
51
82.8455995
0
ARC
8
DEFAULT_255_1_234
10
10.6777501
20
23.0657149
40
0.476506
50
82.6984714
51
90.1729175
0
ARC
8
DEFAULT_255_1_234
10
10.6755136
20
23.1880623
40
0.3541573
50
89.8708275
51
90.0431131
0
LINE
8
DEFAULT_255_1_234
10
11.9996808
20
22.4997
11
11.7458778
21
22.9727694
0
LINE
8
DEFAULT_255_1_234
10
11.7458778
20
22.9727694
11
11.4711924
21
22.9727694
0
LINE
8
DEFAULT_255_1_234
10
11.4711924
20
22.9727694
11
11.4711924
21
22.4997
0
LINE
8
DEFAULT_255_1_234
10
11.4711924
20
22.4997
11
11.3161798
21
22.4997
0
LINE
8
DEFAULT_255_1_234
10
11.3161798
20
22.4997
11
11.3161798
21
23.6691211
0
LINE
8
DEFAULT_255_1_234
10
11.3161798
20
23.6691211
11
11.7033096
21
23.6691211
0
LINE
8
DEFAULT_255_1_234
10
11.8904491
20
23.0056995
11
12.1651346
21
22.5093381
0
LINE
8
DEFAULT_255_1_234
10
12.1651346
20
22.5093381
11
12.1651346
21
22.4997
0
LINE
8
DEFAULT_255_1_234
10
12.1651346
20
22.4997
11
11.9996808
21
22.4997
0
LINE
8
DEFAULT_255_1_234
10
11.4711924
20
23.5422196
11
11.4711924
21
23.0988677
0
LINE
8
DEFAULT_255_1_234
10
11.4711924
20
23.0988677
11
11.7081287
21
23.0988677
0
LINE
8
DEFAULT_255_1_234
10
11.7073255
20
23.5422196
11
11.4711924
21
23.5422196
0
ARC
8
DEFAULT_255_1_234
10
11.7074736
20
22.9729761
40
0.6961575
50
80.653586
51
90.3427061
0
ARC
8
DEFAULT_255_1_234
10
11.749421
20
23.2192348
40
0.4463577
50
65.6987447
51
80.8329603
0
ARC
8
DEFAULT_255_1_234
10
11.7971851
20
23.3287322
40
0.3269094
50
50.0017161
51
65.4305835
0
ARC
8
DEFAULT_255_1_234
10
11.8190315
20
23.3582482
40
0.2902647
50
11.628416
51
49.5603263
0
ARC
8
DEFAULT_255_1_234
10
11.6654651
20
23.3207299
40
0.4482792
50
359.5655735
51
12.3691
0
ARC
8
DEFAULT_255_1_234
10
11.7731511
20
23.3144644
40
0.3405924
50
341.9983148
51
0.4822259
0
ARC
8
DEFAULT_255_1_234
10
11.8126351
20
23.3037471
40
0.2997359
50
323.8609373
51
341.61416
0
ARC
8
DEFAULT_255_1_234
10
11.7824595
20
23.3270484
40
0.3378487
50
296.7018614
51
323.6876402
0
ARC
8
DEFAULT_255_1_234
10
11.7383491
20
23.4059235
40
0.4281516
50
290.8086567
51
297.2323311
0
ARC
8
DEFAULT_255_1_234
10
11.710702
20
23.4582351
40
0.3593766
50
269.589728
51
281.8058135
0
ARC
8
DEFAULT_255_1_234
10
11.7357919
20
23.3434743
40
0.2419125
50
281.5501019
51
303.9357432
0
ARC
8
DEFAULT_255_1_234
10
11.7495107
20
23.3196936
40
0.2145323
50
304.4415616
51
311.2106213
0
ARC
8
DEFAULT_255_1_234
10
11.7627212
20
23.3057632
40
0.1953505
50
310.9875673
51
356.2715578
0
ARC
8
DEFAULT_255_1_234
10
11.6870861
20
23.3170422
40
0.2716331
50
354.9348262
51
0.0609027
0
ARC
8
DEFAULT_255_1_234
10
11.6683735
20
23.3197435
40
0.2903554
50
359.5239371
51
12.8808918
0
ARC
8
DEFAULT_255_1_234
10
11.7661291
20
23.3436728
40
0.1897315
50
12.4173452
51
43.1022135
0
ARC
8
DEFAULT_255_1_234
10
11.7722895
20
23.3473724
40
0.1827118
50
43.5751728
51
48.203944
0
ARC
8
DEFAULT_255_1_234
10
11.7553387
20
23.3252302
40
0.2105272
50
48.7809703
51
72.6969569
0
ARC
8
DEFAULT_255_1_234
10
11.7199012
20
23.217682
40
0.3237537
50
72.3702241
51
84.8791103
0
ARC
8
DEFAULT_255_1_234
10
11.7051488
20
23.0834769
40
0.4587478
50
84.5400526
51
89.7281406
0
LINE
8
DEFAULT_255_1_234
10
12.4293788
20
23.6691211
11
12.7112928
21
23.2209501
0
LINE
8
DEFAULT_255_1_234
10
12.7112928
20
23.2209501
11
12.9916004
21
23.6691211
0
LINE
8
DEFAULT_255_1_234
10
12.9916004
20
23.6691211
11
13.1731177
21
23.6691211
0
LINE
8
DEFAULT_255_1_234
10
13.1731177
20
23.6691211
11
12.8036578
21
23.0892296
0
LINE
8
DEFAULT_255_1_234
10
12.8036578
20
23.0892296
11
13.1819526
21
22.4997
0
LINE
8
DEFAULT_255_1_234
10
13.1819526
20
22.4997
11
12.998829
21
22.4997
0
LINE
8
DEFAULT_255_1_234
10
12.998829
20
22.4997
11
12.7112928
21
22.9559027
0
LINE
8
DEFAULT_255_1_234
10
12.7112928
20
22.9559027
11
12.4221502
21
22.4997
0
LINE
8
DEFAULT_255_1_234
10
12.4221502
20
22.4997
11
12.2398297
21
22.4997
0
LINE
8
DEFAULT_255_1_234
10
12.2398297
20
22.4997
11
12.6189278
21
23.0892296
0
LINE
8
DEFAULT_255_1_234
10
12.6189278
20
23.0892296
11
12.2486646
21
23.6691211
0
LINE
8
DEFAULT_255_1_234
10
12.2486646
20
23.6691211
11
12.4293788
21
23.6691211
0
LINE
8
DEFAULT_255_1_234
10
14.5441354
20
23.3309849
11
14.3891229
21
23.3309849
0
LINE
8
DEFAULT_255_1_234
10
13.6967871
20
22.8386394
11
13.8517996
21
22.8386394
0
ARC
8
DEFAULT_255_1_234
10
14.4550042
20
24.2256768
40
1.252368
50
248.9199003
51
254.1439814
0
ARC
8
DEFAULT_255_1_234
10
14.2869537
20
23.7930234
40
0.788226
50
241.633709
51
249.0064503
0
ARC
8
DEFAULT_255_1_234
10
14.1340931
20
23.5129317
40
0.4691427
50
230.498225
51
241.8087113
0
ARC
8
DEFAULT_255_1_234
10
14.0556505
20
23.4129906
40
0.3421437
50
227.4064532
51
229.9881192
0
ARC
8
DEFAULT_255_1_234
10
14.0069026
20
23.3654088
40
0.2741476
50
200.6781896
51
228.1763934
0
ARC
8
DEFAULT_255_1_234
10
14.0141337
20
23.3639077
40
0.2804109
50
179.5061581
51
199.8694617
0
ARC
8
DEFAULT_255_1_234
10
14.0132088
20
23.371321
40
0.2795204
50
132.4834203
51
181.0242172
0
ARC
8
DEFAULT_255_1_234
10
14.0727671
20
23.3150704
40
0.3612768
50
129.2532479
51
133.4242687
0
ARC
8
DEFAULT_255_1_234
10
14.087412
20
23.2930965
40
0.3875675
50
101.98776
51
128.8742646
0
ARC
8
DEFAULT_255_1_234
10
14.1272731
20
23.1209741
40
0.5642249
50
89.5906553
51
102.3169264
0
ARC
8
DEFAULT_255_1_234
10
14.1343223
20
23.1528148
40
0.5323783
50
77.2360837
51
90.3248275
0
ARC
8
DEFAULT_255_1_234
10
14.1550302
20
23.24954
40
0.4334697
50
63.837784
51
77.0809408
0
ARC
8
DEFAULT_255_1_234
10
14.1828064
20
23.3012911
40
0.3747796
50
45.9864267
51
64.1607727
0
ARC
8
DEFAULT_255_1_234
10
14.2088945
20
23.3310866
40
0.3352302
50
32.2747395
51
45.6547121
0
ARC
8
DEFAULT_255_1_234
10
14.2155386
20
23.332988
40
0.328603
50
359.6507365
51
32.6130309
0
ARC
8
DEFAULT_255_1_234
10
14.1212481
20
23.333466
40
0.2678863
50
359.469343
51
14.9832209
0
ARC
8
DEFAULT_255_1_234
10
14.1917544
20
23.3523539
40
0.1948938
50
14.9781179
51
48.2004265
0
ARC
8
DEFAULT_255_1_234
10
14.1753188
20
23.3316983
40
0.2212521
50
48.5927837
51
74.1241538
0
ARC
8
DEFAULT_255_1_234
10
14.1419677
20
23.2216248
40
0.3362561
50
73.7888341
51
86.6652678
0
ARC
8
DEFAULT_255_1_234
10
14.1317243
20
23.1008881
40
0.4573953
50
86.2640471
51
90.0526343
0
ARC
8
DEFAULT_255_1_234
10
14.1288955
20
23.1404192
40
0.4178709
50
89.6697524
51
99.2309573
0
ARC
8
DEFAULT_255_1_234
10
14.1046406
20
23.2848964
40
0.2713749
50
99.069534
51
113.7658566
0
ARC
8
DEFAULT_255_1_234
10
14.0772597
20
23.3494677
40
0.2012469
50
114.0401004
51
127.9850673
0
ARC
8
DEFAULT_255_1_234
10
14.0532161
20
23.379073
40
0.1631167
50
127.7287463
51
176.7105154
0
ARC
8
DEFAULT_255_1_234
10
14.1210879
20
23.3689693
40
0.2315392
50
175.1779447
51
180.0581938
0
ARC
8
DEFAULT_255_1_234
10
14.0367726
20
23.3677428
40
0.1472271
50
179.6142195
51
228.1246017
0
ARC
8
DEFAULT_255_1_234
10
14.0809394
20
23.4086308
40
0.2072299
50
226.5779593
51
230.8800004
0
ARC
8
DEFAULT_255_1_234
10
14.1280473
20
23.4711636
40
0.2854818
50
231.4635071
51
241.9260842
0
ARC
8
DEFAULT_255_1_234
10
14.2477651
20
23.69148
40
0.53622
50
241.7178533
51
248.3259551
0
ARC
8
DEFAULT_255_1_234
10
14.3863023
20
24.0347064
40
0.9063478
50
248.2007737
51
252.4528373
0
ARC
8
DEFAULT_255_1_234
10
14.5066748
20
24.4068441
40
1.2974635
50
252.3391078
51
254.3469452
0
ARC
8
DEFAULT_255_1_234
10
13.752445
20
21.7091148
40
1.5037162
50
71.0197183
51
74.4087047
0
ARC
8
DEFAULT_255_1_234
10
13.9219136
20
22.1983111
40
0.9859993
50
66.1847285
51
71.086374
0
ARC
8
DEFAULT_255_1_234
10
14.0775448
20
22.54872
40
0.6025855
50
59.3536294
51
66.2691831
0
ARC
8
DEFAULT_255_1_234
10
14.16641
20
22.6990609
40
0.4279449
50
49.1020879
51
59.3293958
0
ARC
8
DEFAULT_255_1_234
10
14.248284
20
22.7923834
40
0.3038015
50
32.7919921
51
49.2505539
0
ARC
8
DEFAULT_255_1_234
10
14.280393
20
22.8152191
40
0.264448
50
31.1181161
51
32.4005348
0
ARC
8
DEFAULT_255_1_234
10
14.2715468
20
22.8116779
40
0.2738556
50
8.1116974
51
30.7958831
0
ARC
8
DEFAULT_255_1_234
10
14.1905136
20
22.7978753
40
0.3560327
50
359.8389159
51
8.4706516
0
ARC
8
DEFAULT_255_1_234
10
14.2530927
20
22.7930137
40
0.2934776
50
337.4731098
51
0.7537279
0
ARC
8
DEFAULT_255_1_234
10
14.2709622
20
22.7910387
40
0.2762607
50
307.5917067
51
336.4315538
0
ARC
8
DEFAULT_255_1_234
10
14.224945
20
22.8423102
40
0.3449979
50
307.6551545
51
308.4529766
0
ARC
8
DEFAULT_255_1_234
10
14.2019169
20
22.877825
40
0.3871988
50
284.3734338
51
307.1424381
0
ARC
8
DEFAULT_255_1_234
10
14.1523999
20
23.0599932
40
0.5759636
50
272.4382747
51
284.646547
0
ARC
8
DEFAULT_255_1_234
10
14.1397208
20
23.2399893
40
0.7563528
50
269.9708387
51
272.8178037
0
ARC
8
DEFAULT_255_1_234
10
14.1354248
20
23.0361716
40
0.5525489
50
248.2707594
51
270.4055579
0
ARC
8
DEFAULT_255_1_234
10
14.1299989
20
23.0171192
40
0.5328452
50
246.1383403
51
248.0542782
0
ARC
8
DEFAULT_255_1_234
10
14.0881368
20
22.9291843
40
0.4355005
50
233.1670131
51
246.4950969
0
ARC
8
DEFAULT_255_1_234
10
14.0327273
20
22.8543812
40
0.3424126
50
215.3403242
51
233.0843104
0
ARC
8
DEFAULT_255_1_234
10
14.0054704
20
22.8345549
40
0.3087104
50
179.2419209
51
215.2648451
0
ARC
8
DEFAULT_255_1_234
10
14.0822298
20
22.8359666
40
0.2304457
50
179.335461
51
199.1045811
0
ARC
8
DEFAULT_255_1_234
10
14.0489974
20
22.8272766
40
0.1962176
50
199.8828939
51
232.7063202
0
ARC
8
DEFAULT_255_1_234
10
14.0962243
20
22.8866788
40
0.2720938
50
232.3738199
51
255.5136649
0
ARC
8
DEFAULT_255_1_234
10
14.1303109
20
23.0110835
40
0.4010747
50
255.2446292
51
267.5320849
0
ARC
8
DEFAULT_255_1_234
10
14.1390733
20
23.1343702
40
0.5246356
50
267.1557994
51
270.0286766
0
ARC
8
DEFAULT_255_1_234
10
14.1418505
20
23.089995
40
0.4802668
50
269.7000017
51
278.1660162
0
ARC
8
DEFAULT_255_1_234
10
14.167451
20
22.9169515
40
0.3053425
50
278.0231263
51
290.625471
0
ARC
8
DEFAULT_255_1_234
10
14.2022197
20
22.8242025
40
0.206291
50
290.6619762
51
307.0370976
0
ARC
8
DEFAULT_255_1_234
10
14.2322586
20
22.7873504
40
0.1587906
50
306.3943566
51
355.3030547
0
ARC
8
DEFAULT_255_1_234
10
14.1810518
20
22.7950113
40
0.2104809
50
354.3660432
51
0.0698737
0
ARC
8
DEFAULT_255_1_234
10
14.1952863
20
22.7972617
40
0.1962563
50
359.417946
51
16.1971788
0
ARC
8
DEFAULT_255_1_234
10
14.2408173
20
22.8097418
40
0.149053
50
16.4723299
51
52.6262157
0
ARC
8
DEFAULT_255_1_234
10
14.1587227
20
22.7013433
40
0.2850296
50
52.7386432
51
62.4979148
0
ARC
8
DEFAULT_255_1_234
10
14.0202304
20
22.4407283
40
0.5801521
50
62.2515216
51
68.1220564
0
ARC
8
DEFAULT_255_1_234
10
13.8482215
20
22.0179872
40
1.0365451
50
68.0062803
51
71.8053402
0
ARC
8
DEFAULT_255_1_234
10
13.6686586
20
21.4794758
40
1.6042013
50
71.7183119
51
73.9258742
0
LINE
8
DEFAULT_255_1_234
10
14.6830845
20
22.9101218
11
14.6830845
21
22.9374297
0
LINE
8
DEFAULT_255_1_234
10
15.4203981
20
22.9534932
11
15.4203981
21
22.8916488
0
LINE
8
DEFAULT_255_1_234
10
15.4203981
20
22.8916488
11
14.8316717
21
22.8916488
0
LINE
8
DEFAULT_255_1_234
10
15.318395
20
22.7221792
11
15.4091537
21
22.6514999
0
LINE
8
DEFAULT_255_1_234
10
14.8364907
20
23.0137313
11
15.2718109
21
23.0137313
0
LINE
8
DEFAULT_255_1_234
10
15.2718109
20
23.0137313
11
15.2718109
21
23.0249757
0
ARC
8
DEFAULT_255_1_234
10
15.077021
20
22.9212332
40
0.4376191
50
252.3266134
51
270.5810217
0
ARC
8
DEFAULT_255_1_234
10
15.0565299
20
22.8471644
40
0.3608374
50
223.3000567
51
251.8561855
0
ARC
8
DEFAULT_255_1_234
10
15.077666
20
22.8676937
40
0.3902993
50
190.9374509
51
223.3654032
0
ARC
8
DEFAULT_255_1_234
10
15.2501632
20
22.9066885
40
0.5670891
50
179.6531105
51
191.4989439
0
ARC
8
DEFAULT_255_1_234
10
15.2623645
20
22.9406417
40
0.5792888
50
167.4007466
51
180.3176909
0
ARC
8
DEFAULT_255_1_234
10
15.1571706
20
22.9628885
40
0.471777
50
154.1835823
51
167.250763
0
ARC
8
DEFAULT_255_1_234
10
15.0940174
20
22.9961417
40
0.4004528
50
134.3149965
51
154.5315275
0
ARC
8
DEFAULT_255_1_234
10
15.0722669
20
23.0152228
40
0.371612
50
122.8616532
51
133.9707695
0
ARC
8
DEFAULT_255_1_234
10
15.0619243
20
23.0374703
40
0.3473289
50
89.8249009
51
123.4199222
0
ARC
8
DEFAULT_255_1_234
10
15.0669284
20
22.9727967
40
0.4120197
50
74.7876118
51
90.5482747
0
ARC
8
DEFAULT_255_1_234
10
15.0963027
20
23.081303
40
0.2996077
50
39.8178249
51
74.7633718
0
ARC
8
DEFAULT_255_1_234
10
15.0450347
20
23.0413351
40
0.3645855
50
16.8990863
51
39.4829761
0
ARC
8
DEFAULT_255_1_234
10
14.8555644
20
22.9806526
40
0.5635218
50
4.9636328
51
17.2026414
0
ARC
8
DEFAULT_255_1_234
10
14.6137714
20
22.955134
40
0.8066286
50
359.8834553
51
5.2834307
0
ARC
8
DEFAULT_255_1_234
10
15.2175238
20
22.8982803
40
0.3859091
50
180.9846213
51
194.9401313
0
ARC
8
DEFAULT_255_1_234
10
15.1125516
20
22.8695849
40
0.2770883
50
194.80314
51
222.0412631
0
ARC
8
DEFAULT_255_1_234
10
15.0821398
20
22.8394116
40
0.2343055
50
221.5417084
51
268.8614402
0
ARC
8
DEFAULT_255_1_234
10
15.0894393
20
22.9070686
40
0.3021528
50
267.732405
51
270.0097136
0
ARC
8
DEFAULT_255_1_234
10
15.0912203
20
22.9272105
40
0.3222994
50
269.6924892
51
280.4117579
0
ARC
8
DEFAULT_255_1_234
10
15.1088609
20
22.8353193
40
0.2287344
50
280.2255091
51
298.6338936
0
ARC
8
DEFAULT_255_1_234
10
15.1205401
20
22.8109223
40
0.2017294
50
299.0430333
51
300.4643464
0
ARC
8
DEFAULT_255_1_234
10
15.0525407
20
22.9243038
40
0.3339357
50
300.6577328
51
322.0378878
0
ARC
8
DEFAULT_255_1_234
10
15.0174946
20
22.9547021
40
0.3802736
50
321.6750233
51
322.3046845
0
ARC
8
DEFAULT_255_1_234
10
15.1105907
20
22.838037
40
0.3520454
50
276.9728461
51
328.0035423
0
ARC
8
DEFAULT_255_1_234
10
15.082896
20
22.9860841
40
0.5024498
50
269.8361028
51
278.0581756
0
ARC
8
DEFAULT_255_1_234
10
15.0601698
20
23.0605757
40
0.202159
50
89.2018686
51
117.2851756
0
ARC
8
DEFAULT_255_1_234
10
15.0654867
20
23.0563752
40
0.2083484
50
118.0551165
51
137.4540413
0
ARC
8
DEFAULT_255_1_234
10
15.1029607
20
23.0223304
40
0.2589774
50
137.5109581
51
158.8516286
0
ARC
8
DEFAULT_255_1_234
10
15.2167442
20
22.9764074
40
0.38167
50
158.5845963
51
170.1721436
0
ARC
8
DEFAULT_255_1_234
10
15.3336831
20
22.9531823
40
0.5008657
50
169.8376422
51
173.0566086
0
ARC
8
DEFAULT_255_1_234
10
14.8639905
20
23.0042509
40
0.4083467
50
2.9091802
51
12.8847116
0
ARC
8
DEFAULT_255_1_234
10
15.0010582
20
23.0365101
40
0.2675383
50
12.6957781
51
28.6404489
0
ARC
8
DEFAULT_255_1_234
10
15.0552253
20
23.0645458
40
0.2065654
50
29.0169854
51
41.1487595
0
ARC
8
DEFAULT_255_1_234
10
15.0755038
20
23.0822003
40
0.1796786
50
41.1646065
51
85.0013516
0
ARC
8
DEFAULT_255_1_234
10
15.0634134
20
23.0087431
40
0.2539726
50
83.7280015
51
90.0964893
0
LINE
8
DEFAULT_255_1_234
10
16.0123372
20
23.3735531
11
16.0123372
21
23.2354072
0
LINE
8
DEFAULT_255_1_234
10
15.7408645
20
23.1165375
11
15.7408645
21
22.4997
0
LINE
8
DEFAULT_255_1_234
10
15.7408645
20
22.4997
11
15.5922773
21
22.4997
0
LINE
8
DEFAULT_255_1_234
10
15.5922773
20
22.4997
11
15.5922773
21
23.3687341
0
LINE
8
DEFAULT_255_1_234
10
15.5922773
20
23.3687341
11
15.7368486
21
23.3687341
0
LINE
8
DEFAULT_255_1_234
10
15.7368486
20
23.3687341
11
15.7392581
21
23.2683374
0
ARC
8
DEFAULT_255_1_234
10
15.9456778
20
22.8294342
40
0.4114092
50
80.6754243
51
86.8932892
0
ARC
8
DEFAULT_255_1_234
10
15.9396312
20
22.73267
40
0.5083596
50
86.8038578
51
90.0431435
0
ARC
8
DEFAULT_255_1_234
10
15.9359293
20
22.9783866
40
0.2626638
50
89.2759698
51
106.6213787
0
ARC
8
DEFAULT_255_1_234
10
15.9154857
20
23.052683
40
0.1856317
50
107.1346045
51
157.6458115
0
ARC
8
DEFAULT_255_1_234
10
15.9846458
20
23.0143311
40
0.2643398
50
155.6586782
51
157.2539184
0
ARC
8
DEFAULT_255_1_234
10
15.964166
20
23.1312157
40
0.2634121
50
127.8165941
51
148.6302098
0
ARC
8
DEFAULT_255_1_234
10
15.9388129
20
23.1572218
40
0.2273596
50
91.3329982
51
126.7875809
0
ARC
8
DEFAULT_255_1_234
10
15.946407
20
23.0857195
40
0.299078
50
89.986594
51
92.4688449
0
ARC
8
DEFAULT_255_1_234
10
15.9472465
20
23.1132078
40
0.2715908
50
85.3589899
51
90.1623399
0
ARC
8
DEFAULT_255_1_234
10
15.955698
20
23.2136164
40
0.1708278
50
78.401942
51
85.4594656
0
ARC
8
DEFAULT_255_1_234
10
15.9701864
20
23.2827236
40
0.1002194
50
67.7858312
51
78.5728455
0
ARC
8
DEFAULT_255_1_234
10
15.9809717
20
23.3106887
40
0.0702548
50
63.4835954
51
67.3062642
0
LINE
8
DEFAULT_255_1_234
10
16.3103147
20
23.3687341
11
16.3103147
21
22.4997
0
LINE
8
DEFAULT_255_1_234
10
16.3103147
20
22.4997
11
16.1617275
21
22.4997
0
LINE
8
DEFAULT_255_1_234
10
16.1617275
20
22.4997
11
16.1617275
21
23.3687341
0
LINE
8
DEFAULT_255_1_234
10
16.1617275
20
23.3687341
11
16.3103147
21
23.3687341
0
ARC
8
DEFAULT_255_1_234
10
16.2475424
20
23.6001889
40
0.097867
50
161.415052
51
180.5526306
0
ARC
8
DEFAULT_255_1_234
10
16.2351202
20
23.6036077
40
0.0850062
50
138.1827368
51
160.9307106
0
ARC
8
DEFAULT_255_1_234
10
16.2241148
20
23.6131588
40
0.0704362
50
104.6368899
51
138.0039868
0
ARC
8
DEFAULT_255_1_234
10
16.2348303
20
23.5764963
40
0.1086221
50
92.0600725
51
105.2189128
0
ARC
8
DEFAULT_255_1_234
10
16.2371651
20
23.5422117
40
0.1429728
50
89.9756393
51
92.5012496
0
ARC
8
DEFAULT_255_1_234
10
16.238167
20
23.5647731
40
0.1204151
50
78.0235316
51
90.4478182
0
ARC
8
DEFAULT_255_1_234
10
16.2473762
20
23.6061295
40
0.0780493
50
55.051506
51
78.3369085
0
ARC
8
DEFAULT_255_1_234
10
16.2524037
20
23.6145711
40
0.0682538
50
42.0501187
51
54.4513741
0
ARC
8
DEFAULT_255_1_234
10
16.2388904
20
23.6021798
40
0.0865878
50
1.7497075
51
42.1496013
0
ARC
8
DEFAULT_255_1_234
10
16.2134237
20
23.5992738
40
0.1121515
50
359.9852656
51
2.8364544
0
ARC
8
DEFAULT_255_1_234
10
16.2300229
20
23.5983229
40
0.0955566
50
342.1070653
51
0.552888
0
ARC
8
DEFAULT_255_1_234
10
16.2442926
20
23.5943904
40
0.0807713
50
316.7107116
51
341.6516965
0
ARC
8
DEFAULT_255_1_234
10
16.2509963
20
23.5883823
40
0.0717724
50
285.4397031
51
316.5324284
0
ARC
8
DEFAULT_255_1_234
10
16.239988
20
23.6249554
40
0.1099597
50
272.3547054
51
285.8953117
0
ARC
8
DEFAULT_255_1_234
10
16.2373038
20
23.6615048
40
0.1465932
50
269.9695369
51
272.8160237
0
ARC
8
DEFAULT_255_1_234
10
16.236322
20
23.6395863
40
0.1246779
50
258.8431134
51
270.4153935
0
ARC
8
DEFAULT_255_1_234
10
16.2273262
20
23.5960414
40
0.0802162
50
238.5431189
51
259.1288175
0
ARC
8
DEFAULT_255_1_234
10
16.2205147
20
23.5836856
40
0.0661247
50
222.5062634
51
237.9906969
0
ARC
8
DEFAULT_255_1_234
10
16.2332734
20
23.5952889
40
0.0833707
50
184.1069131
51
222.460413
0
ARC
8
DEFAULT_255_1_234
10
16.2601975
20
23.5991349
40
0.1105176
50
179.9429482
51
185.0960898
0
LINE
8
DEFAULT_255_1_234
10
16.510305
20
22.9101218
11
16.510305
21
22.9374297
0
LINE
8
DEFAULT_255_1_234
10
17.2476186
20
22.9534932
11
17.2476186
21
22.8916488
0
LINE
8
DEFAULT_255_1_234
10
17.2476186
20
22.8916488
11
16.6588921
21
22.8916488
0
LINE
8
DEFAULT_255_1_234
10
17.1456155
20
22.7221792
11
17.2363741
21
22.6514999
0
LINE
8
DEFAULT_255_1_234
10
16.6637112
20
23.0137313
11
17.0990314
21
23.0137313
0
LINE
8
DEFAULT_255_1_234
10
17.0990314
20
23.0137313
11
17.0990314
21
23.0249757
0
ARC
8
DEFAULT_255_1_234
10
16.9042415
20
22.9212332
40
0.4376191
50
252.3266134
51
270.5810217
0
ARC
8
DEFAULT_255_1_234
10
16.8837504
20
22.8471644
40
0.3608374
50
223.3000567
51
251.8561855
0
ARC
8
DEFAULT_255_1_234
10
16.9048865
20
22.8676937
40
0.3902993
50
190.9374509
51
223.3654032
0
ARC
8
DEFAULT_255_1_234
10
17.0773837
20
22.9066885
40
0.5670891
50
179.6531105
51
191.4989439
0
ARC
8
DEFAULT_255_1_234
10
17.0895849
20
22.9406417
40
0.5792888
50
167.4007466
51
180.3176909
0
ARC
8
DEFAULT_255_1_234
10
16.9843911
20
22.9628885
40
0.471777
50
154.1835823
51
167.250763
0
ARC
8
DEFAULT_255_1_234
10
16.9212378
20
22.9961417
40
0.4004528
50
134.3149965
51
154.5315275
0
ARC
8
DEFAULT_255_1_234
10
16.8994873
20
23.0152228
40
0.371612
50
122.8616532
51
133.9707695
0
ARC
8
DEFAULT_255_1_234
10
16.8891447
20
23.0374703
40
0.3473289
50
89.8249009
51
123.4199222
0
ARC
8
DEFAULT_255_1_234
10
16.8941488
20
22.9727967
40
0.4120197
50
74.7876118
51
90.5482747
0
ARC
8
DEFAULT_255_1_234
10
16.9235232
20
23.081303
40
0.2996077
50
39.8178249
51
74.7633718
0
ARC
8
DEFAULT_255_1_234
10
16.8722552
20
23.0413351
40
0.3645855
50
16.8990863
51
39.4829761
0
ARC
8
DEFAULT_255_1_234
10
16.6827848
20
22.9806526
40
0.5635218
50
4.9636328
51
17.2026414
0
ARC
8
DEFAULT_255_1_234
10
16.4409918
20
22.955134
40
0.8066286
50
359.8834553
51
5.2834307
0
ARC
8
DEFAULT_255_1_234
10
17.0447443
20
22.8982803
40
0.3859091
50
180.9846213
51
194.9401313
0
ARC
8
DEFAULT_255_1_234
10
16.9397721
20
22.8695849
40
0.2770883
50
194.80314
51
222.0412631
0
ARC
8
DEFAULT_255_1_234
10
16.9093603
20
22.8394116
40
0.2343055
50
221.5417084
51
268.8614402
0
ARC
8
DEFAULT_255_1_234
10
16.9166597
20
22.9070686
40
0.3021528
50
267.732405
51
270.0097136
0
ARC
8
DEFAULT_255_1_234
10
16.9184407
20
22.9272105
40
0.3222994
50
269.6924892
51
280.4117579
0
ARC
8
DEFAULT_255_1_234
10
16.9360814
20
22.8353193
40
0.2287344
50
280.2255091
51
298.6338936
0
ARC
8
DEFAULT_255_1_234
10
16.9477606
20
22.8109223
40
0.2017294
50
299.0430333
51
300.4643464
0
ARC
8
DEFAULT_255_1_234
10
16.8797611
20
22.9243038
40
0.3339357
50
300.6577328
51
322.0378878
0
ARC
8
DEFAULT_255_1_234
10
16.8447151
20
22.9547021
40
0.3802736
50
321.6750233
51
322.3046845
0
ARC
8
DEFAULT_255_1_234
10
16.9378112
20
22.838037
40
0.3520454
50
276.9728461
51
328.0035423
0
ARC
8
DEFAULT_255_1_234
10
16.9101165
20
22.9860841
40
0.5024498
50
269.8361028
51
278.0581756
0
ARC
8
DEFAULT_255_1_234
10
16.8873902
20
23.0605757
40
0.202159
50
89.2018686
51
117.2851756
0
ARC
8
DEFAULT_255_1_234
10
16.8927071
20
23.0563752
40
0.2083484
50
118.0551165
51
137.4540413
0
ARC
8
DEFAULT_255_1_234
10
16.9301811
20
23.0223304
40
0.2589774
50
137.5109581
51
158.8516286
0
ARC
8
DEFAULT_255_1_234
10
17.0439647
20
22.9764074
40
0.38167
50
158.5845963
51
170.1721436
0
ARC
8
DEFAULT_255_1_234
10
17.1609036
20
22.9531823
40
0.5008657
50
169.8376422
51
173.0566086
0
ARC
8
DEFAULT_255_1_234
10
16.691211
20
23.0042509
40
0.4083467
50
2.9091802
51
12.8847116
0
ARC
8
DEFAULT_255_1_234
10
16.8282786
20
23.0365101
40
0.2675383
50
12.6957781
51
28.6404489
0
ARC
8
DEFAULT_255_1_234
10
16.8824457
20
23.0645458
40
0.2065654
50
29.0169854
51
41.1487595
0
ARC
8
DEFAULT_255_1_234
10
16.9027242
20
23.0822003
40
0.1796786
50
41.1646065
51
85.0013516
0
ARC
8
DEFAULT_255_1_234
10
16.8906339
20
23.0087431
40
0.2539726
50
83.7280015
51
90.0964893
0
LINE
8
DEFAULT_255_1_234
10
18.0660527
20
23.1133248
11
17.9166624
21
23.1133248
0
LINE
8
DEFAULT_255_1_234
10
17.3833549
20
22.7671569
11
17.5319421
21
22.7671569
0
ARC
8
DEFAULT_255_1_234
10
17.7978442
20
22.7316959
40
0.1276617
50
359.3334982
51
18.5871358
0
ARC
8
DEFAULT_255_1_234
10
17.8187079
20
22.7372133
40
0.1061371
50
19.3540742
51
54.6485071
0
ARC
8
DEFAULT_255_1_234
10
17.7682981
20
22.6676919
40
0.1920087
50
54.3827097
51
65.0622807
0
ARC
8
DEFAULT_255_1_234
10
17.6914378
20
22.50599
40
0.3710447
50
64.8282493
51
71.4200025
0
ARC
8
DEFAULT_255_1_234
10
17.6012253
20
22.2413107
40
0.6506741
50
71.3164301
51
75.8006402
0
ARC
8
DEFAULT_255_1_234
10
17.5171073
20
21.9172561
40
0.9854641
50
75.6809531
51
78.0061883
0
ARC
8
DEFAULT_255_1_234
10
17.9619606
20
24.015177
40
1.1591028
50
254.6901892
51
258.0466452
0
ARC
8
DEFAULT_255_1_234
10
17.8581515
20
23.6392781
40
0.7691345
50
249.9010773
51
254.755261
0
ARC
8
DEFAULT_255_1_234
10
17.7577857
20
23.3666982
40
0.478665
50
243.3097214
51
249.9709442
0
ARC
8
DEFAULT_255_1_234
10
17.6948878
20
23.2412778
40
0.3383568
50
234.4047477
51
243.2862168
0
ARC
8
DEFAULT_255_1_234
10
17.6326401
20
23.1553232
40
0.2322322
50
220.8667099
51
234.5493881
0
ARC
8
DEFAULT_255_1_234
10
17.5984342
20
23.1241817
40
0.1859923
50
214.3062465
51
220.5065136
0
ARC
8
DEFAULT_255_1_234
10
17.5958422
20
23.121088
40
0.1821108
50
186.912965
51
213.9618616
0
ARC
8
DEFAULT_255_1_234
10
17.6490516
20
23.1297009
40
0.2359799
50
179.8808832
51
187.4339886
0
ARC
8
DEFAULT_255_1_234
10
17.633565
20
23.1317088
40
0.2204978
50
132.005434
51
180.3942919
0
ARC
8
DEFAULT_255_1_234
10
17.6992263
20
23.0711083
40
0.3095791
50
129.2319861
51
133.5302299
0
ARC
8
DEFAULT_255_1_234
10
17.7045771
20
23.0616928
40
0.3202615
50
100.4410011
51
128.9081242
0
ARC
8
DEFAULT_255_1_234
10
17.7319655
20
22.9331455
40
0.4516583
50
89.6985377
51
100.9026564
0
ARC
8
DEFAULT_255_1_234
10
17.7376697
20
22.9171166
40
0.4676928
50
77.6965325
51
90.4076836
0
ARC
8
DEFAULT_255_1_234
10
17.7707681
20
23.0598413
40
0.3211988
50
50.7276602
51
78.0399361
0
ARC
8
DEFAULT_255_1_234
10
17.815214
20
23.1116296
40
0.2529778
50
25.7545084
51
51.0957453
0
ARC
8
DEFAULT_255_1_234
10
17.8153364
20
23.1166206
40
0.250738
50
359.2468627
51
24.7394243
0
ARC
8
DEFAULT_255_1_234
10
17.7868816
20
23.1137664
40
0.1297815
50
359.8050318
51
45.1544908
0
ARC
8
DEFAULT_255_1_234
10
17.7461958
20
23.0789794
40
0.1831883
50
43.8047702
51
49.6271585
0
ARC
8
DEFAULT_255_1_234
10
17.746986
20
23.0790678
40
0.18261
50
49.7980766
51
82.1218353
0
ARC
8
DEFAULT_255_1_234
10
17.7350831
20
23.0143998
40
0.2483163
50
81.4465357
51
90.1710293
0
ARC
8
DEFAULT_255_1_234
10
17.7326434
20
22.961788
40
0.300932
50
89.6766211
51
99.1264602
0
ARC
8
DEFAULT_255_1_234
10
17.7154896
20
23.0651537
40
0.1961547
50
98.968313
51
113.4570237
0
ARC
8
DEFAULT_255_1_234
10
17.6958981
20
23.1119965
40
0.1453859
50
113.722589
51
127.4763106
0
ARC
8
DEFAULT_255_1_234
10
17.6790627
20
23.1320124
40
0.1192639
50
126.9083309
51
150.3165862
0
ARC
8
DEFAULT_255_1_234
10
17.674296
20
23.1370981
40
0.112623
50
151.3635175
51
180.0701457
0
ARC
8
DEFAULT_255_1_234
10
17.7051745
20
23.134999
40
0.1435149
50
179.2169974
51
179.9954013
0
ARC
8
DEFAULT_255_1_234
10
17.6690802
20
23.1337056
40
0.1074286
50
179.3040112
51
198.4225446
0
ARC
8
DEFAULT_255_1_234
10
17.6498936
20
23.1287127
40
0.0876573
50
199.2895851
51
238.6034594
0
ARC
8
DEFAULT_255_1_234
10
17.7101782
20
23.223345
40
0.1998512
50
237.9846301
51
246.8744712
0
ARC
8
DEFAULT_255_1_234
10
17.7959727
20
23.4196205
40
0.4140547
50
246.6234531
51
251.8168941
0
ARC
8
DEFAULT_255_1_234
10
17.8990271
20
23.7290905
40
0.7402308
50
251.713434
51
255.0778414
0
ARC
8
DEFAULT_255_1_234
10
18.0189533
20
24.1757563
40
1.2027155
50
255.0367487
51
257.4705983
0
ARC
8
DEFAULT_255_1_234
10
17.5081543
20
21.8743863
40
1.1546601
50
73.6837552
51
77.5016755
0
ARC
8
DEFAULT_255_1_234
10
17.6170318
20
22.2443581
40
0.7690009
50
68.7044154
51
73.7249639
0
ARC
8
DEFAULT_255_1_234
10
17.7073339
20
22.4770654
40
0.5193873
50
63.590599
51
68.6626804
0
ARC
8
DEFAULT_255_1_234
10
17.7844358
20
22.6308123
40
0.3473927
50
54.7106439
51
63.7013633
0
ARC
8
DEFAULT_255_1_234
10
17.8468812
20
22.71804
40
0.2401192
50
41.0622434
51
54.8487496
0
ARC
8
DEFAULT_255_1_234
10
17.8810199
20
22.7493592
40
0.1938094
50
34.4950568
51
40.7105546
0
ARC
8
DEFAULT_255_1_234
10
17.8857006
20
22.7542078
40
0.1872106
50
9.3763373
51
34.0833615
0
ARC
8
DEFAULT_255_1_234
10
17.8203876
20
22.7416728
40
0.2536988
50
359.7694872
51
9.7663171
0
ARC
8
DEFAULT_255_1_234
10
17.8401377
20
22.7373764
40
0.2339696
50
335.8654732
51
0.8022045
0
ARC
8
DEFAULT_255_1_234
10
17.8476422
20
22.7387197
40
0.2277108
50
307.7357725
51
334.7849066
0
ARC
8
DEFAULT_255_1_234
10
17.8075597
20
22.7837645
40
0.2878951
50
307.0241536
51
308.5578354
0
ARC
8
DEFAULT_255_1_234
10
17.7817929
20
22.8223801
40
0.3342515
50
282.9362969
51
306.5646424
0
ARC
8
DEFAULT_255_1_234
10
17.7456226
20
22.9691108
40
0.4853615
50
271.1026298
51
283.2200835
0
ARC
8
DEFAULT_255_1_234
10
17.739247
20
23.0932418
40
0.6096052
50
269.9919117
51
271.4772449
0
ARC
8
DEFAULT_255_1_234
10
17.7366225
20
22.9854436
40
0.5018135
50
259.0723564
51
270.289833
0
ARC
8
DEFAULT_255_1_234
10
17.7153957
20
22.8737271
40
0.388099
50
245.4963068
51
259.0227342
0
ARC
8
DEFAULT_255_1_234
10
17.6875914
20
22.8155615
40
0.3236422
50
228.9684658
51
245.7044727
0
ARC
8
DEFAULT_255_1_234
10
17.6610357
20
22.7828575
40
0.2815426
50
214.4011705
51
228.6759915
0
ARC
8
DEFAULT_255_1_234
10
17.6321098
20
22.767029
40
0.2487548
50
179.9705531
51
215.1572795
0
ARC
8
DEFAULT_255_1_234
10
17.7021698
20
22.7743806
40
0.1703809
50
182.4299387
51
203.0329699
0
ARC
8
DEFAULT_255_1_234
10
17.6837355
20
22.7687396
40
0.1512226
50
203.798802
51
232.548466
0
ARC
8
DEFAULT_255_1_234
10
17.7113877
20
22.8038826
40
0.1959374
50
232.3782728
51
256.3934612
0
ARC
8
DEFAULT_255_1_234
10
17.7344238
20
22.8928842
40
0.2878639
50
256.104506
51
268.4626716
0
ARC
8
DEFAULT_255_1_234
10
17.7390723
20
22.9725487
40
0.3676329
50
268.0715632
51
270.0138206
0
ARC
8
DEFAULT_255_1_234
10
17.7409247
20
22.9453083
40
0.3403971
50
269.7031147
51
278.8341955
0
ARC
8
DEFAULT_255_1_234
10
17.7591341
20
22.8322876
40
0.2259217
50
278.6728789
51
292.8232582
0
ARC
8
DEFAULT_255_1_234
10
17.7791879
20
22.7821449
40
0.171929
50
293.1452328
51
303.6655899
0
ARC
8
DEFAULT_255_1_234
10
17.8056758
20
22.7445204
40
0.1259367
50
303.1248165
51
321.742847
0
ARC
8
DEFAULT_255_1_234
10
17.8242638
20
22.7282156
40
0.1012531
50
322.4748573
51
1.1291126
0
LINE
8
DEFAULT_255_1_234
10
4.9274119
20
20.6366792
11
4.9274119
21
20.5154
0
LINE
8
DEFAULT_255_1_234
10
4.9274119
20
20.5154
11
4.161184
21
20.5154
0
LINE
8
DEFAULT_255_1_234
10
4.161184
20
20.5154
11
4.161184
21
20.6222221
0
LINE
8
DEFAULT_255_1_234
10
4.161184
20
20.6222221
11
4.5659836
21
21.0719995
0
LINE
8
DEFAULT_255_1_234
10
4.2872823
20
21.3402595
11
4.1386952
21
21.3402595
0
LINE
8
DEFAULT_255_1_234
10
4.6535296
20
20.9764218
11
4.3402918
21
20.6366792
0
LINE
8
DEFAULT_255_1_234
10
4.3402918
20
20.6366792
11
4.9274119
21
20.6366792
0
ARC
8
DEFAULT_255_1_234
10
3.216967
20
22.2649527
40
1.8008286
50
318.5132453
51
320.7828378
0
ARC
8
DEFAULT_255_1_234
10
3.7456644
20
21.8346426
40
1.1191493
50
320.7372736
51
323.9737074
0
ARC
8
DEFAULT_255_1_234
10
4.1376501
20
21.5506361
40
0.6350923
50
323.8961724
51
328.6421089
0
ARC
8
DEFAULT_255_1_234
10
4.3423096
20
21.4244031
40
0.3946393
50
328.8299013
51
331.789948
0
ARC
8
DEFAULT_255_1_234
10
4.4420274
20
21.3729509
40
0.2824501
50
331.4255242
51
352.9364833
0
ARC
8
DEFAULT_255_1_234
10
4.4556775
20
21.3698976
40
0.2685315
50
353.2248685
51
0.0169286
0
ARC
8
DEFAULT_255_1_234
10
4.4766652
20
21.372195
40
0.2475536
50
359.4866256
51
15.9339782
0
ARC
8
DEFAULT_255_1_234
10
4.5273637
20
21.3858286
40
0.1950618
50
16.1714718
51
43.5284424
0
ARC
8
DEFAULT_255_1_234
10
4.5350946
20
21.3935573
40
0.184134
50
43.4415429
51
83.1661404
0
ARC
8
DEFAULT_255_1_234
10
4.5216864
20
21.3198771
40
0.258926
50
82.160215
51
90.1505798
0
ARC
8
DEFAULT_255_1_234
10
4.5185291
20
21.2661865
40
0.3126255
50
89.5460705
51
102.5418777
0
ARC
8
DEFAULT_255_1_234
10
4.4942377
20
21.3692665
40
0.2067346
50
102.1739365
51
129.2061916
0
ARC
8
DEFAULT_255_1_234
10
4.4863449
20
21.3817094
40
0.1921118
50
129.7279328
51
135.7542026
0
ARC
8
DEFAULT_255_1_234
10
4.4984977
20
21.3720045
40
0.2075944
50
136.175737
51
166.3674722
0
ARC
8
DEFAULT_255_1_234
10
4.5991896
20
21.3450182
40
0.3118201
50
165.9092917
51
178.8683903
0
ARC
8
DEFAULT_255_1_234
10
4.6856757
20
21.3403179
40
0.3983935
50
178.438168
51
180.0083905
0
ARC
8
DEFAULT_255_1_234
10
4.5455359
20
21.3442231
40
0.4068601
50
163.2878735
51
180.5581814
0
ARC
8
DEFAULT_255_1_234
10
4.4653621
20
21.366284
40
0.3237344
50
133.454115
51
162.9470031
0
ARC
8
DEFAULT_255_1_234
10
4.4832162
20
21.3473
40
0.349795
50
100.7869394
51
133.4384016
0
ARC
8
DEFAULT_255_1_234
10
4.5179934
20
21.1924319
40
0.5084616
50
89.6605301
51
101.3704185
0
ARC
8
DEFAULT_255_1_234
10
4.5246273
20
21.1985496
40
0.502348
50
78.2171172
51
90.4130393
0
ARC
8
DEFAULT_255_1_234
10
4.5601351
20
21.3609637
40
0.3361092
50
55.9268222
51
78.4888551
0
ARC
8
DEFAULT_255_1_234
10
4.5797791
20
21.3948324
40
0.2970617
50
47.9292255
51
55.4054003
0
ARC
8
DEFAULT_255_1_234
10
4.5899352
20
21.4051502
40
0.2825983
50
4.3347696
51
48.0560701
0
ARC
8
DEFAULT_255_1_234
10
4.4803745
20
21.3881601
40
0.393225
50
359.925209
51
5.5967654
0
ARC
8
DEFAULT_255_1_234
10
4.5232637
20
21.3937816
40
0.3503892
50
337.8914096
51
358.9967724
0
ARC
8
DEFAULT_255_1_234
10
4.2519049
20
21.4984706
40
0.6412172
50
326.9135351
51
338.3505194
0
ARC
8
DEFAULT_255_1_234
10
3.8533353
20
21.7539284
40
1.1146189
50
319.6472867
51
327.095818
0
ARC
8
DEFAULT_255_1_234
10
3.4700356
20
22.0701
40
1.6114559
50
317.2586784
51
319.9046139
0
LINE
8
DEFAULT_255_1_234
10
5.7121127
20
21.6848211
11
5.7121127
21
20.908152
0
LINE
8
DEFAULT_255_1_234
10
5.7121127
20
20.908152
11
5.8743538
21
20.908152
0
LINE
8
DEFAULT_255_1_234
10
5.8743538
20
20.908152
11
5.8743538
21
20.7868728
0
LINE
8
DEFAULT_255_1_234
10
5.8743538
20
20.7868728
11
5.7121127
21
20.7868728
0
LINE
8
DEFAULT_255_1_234
10
5.7121127
20
20.7868728
11
5.7121127
21
20.5154
0
LINE
8
DEFAULT_255_1_234
10
5.7121127
20
20.5154
11
5.5627224
21
20.5154
0
LINE
8
DEFAULT_255_1_234
10
5.5627224
20
20.5154
11
5.5627224
21
20.7868728
0
LINE
8
DEFAULT_255_1_234
10
5.5627224
20
20.7868728
11
5.0302181
21
20.7868728
0
LINE
8
DEFAULT_255_1_234
10
5.0302181
20
20.7868728
11
5.0302181
21
20.8744187
0
LINE
8
DEFAULT_255_1_234
10
5.0302181
20
20.8744187
11
5.5538875
21
21.6848211
0
LINE
8
DEFAULT_255_1_234
10
5.5538875
20
21.6848211
11
5.7121127
21
21.6848211
0
LINE
8
DEFAULT_255_1_234
10
5.5450525
20
21.4494912
11
5.1988846
21
20.908152
0
LINE
8
DEFAULT_255_1_234
10
5.1988846
20
20.908152
11
5.5627224
21
20.908152
0
LINE
8
DEFAULT_255_1_234
10
5.5627224
20
20.908152
11
5.5627224
21
21.4816181
0
LINE
8
DEFAULT_255_1_234
10
5.5627224
20
21.4816181
11
5.5450525
21
21.4494912
0
LINE
8
DEFAULT_255_1_234
10
6.101652
20
21.6848211
11
6.434166
21
20.7202093
0
LINE
8
DEFAULT_255_1_234
10
6.434166
20
20.7202093
11
6.7682863
21
21.6848211
0
LINE
8
DEFAULT_255_1_234
10
6.7682863
20
21.6848211
11
6.9369528
21
21.6848211
0
LINE
8
DEFAULT_255_1_234
10
6.9369528
20
21.6848211
11
6.5032389
21
20.5154
0
LINE
8
DEFAULT_255_1_234
10
6.5032389
20
20.5154
11
6.3666994
21
20.5154
0
LINE
8
DEFAULT_255_1_234
10
6.3666994
20
20.5154
11
5.9337887
21
21.6848211
0
LINE
8
DEFAULT_255_1_234
10
5.9337887
20
21.6848211
11
6.101652
21
21.6848211
0
LINE
8
DEFAULT_255_1_234
10
4.6856344
20
13.0357091
11
4.4101458
21
13.0357091
0
LINE
8
DEFAULT_255_1_234
10
4.4101458
20
13.0357091
11
4.4101458
21
12.5779
0
LINE
8
DEFAULT_255_1_234
10
4.4101458
20
12.5779
11
4.2559364
21
12.5779
0
LINE
8
DEFAULT_255_1_234
10
4.2559364
20
12.5779
11
4.2559364
21
13.7473211
0
LINE
8
DEFAULT_255_1_234
10
4.2559364
20
13.7473211
11
4.6872407
21
13.7473211
0
LINE
8
DEFAULT_255_1_234
10
4.4101458
20
13.6204196
11
4.4101458
21
13.1618074
0
LINE
8
DEFAULT_255_1_234
10
4.4101458
20
13.1618074
11
4.6872407
21
13.1618074
0
LINE
8
DEFAULT_255_1_234
10
4.6960756
20
13.6204196
11
4.4101458
21
13.6204196
0
ARC
8
DEFAULT_255_1_234
10
4.6914534
20
13.1414195
40
0.6059162
50
78.8378113
51
90.3983573
0
ARC
8
DEFAULT_255_1_234
10
4.7330548
20
13.3434879
40
0.3996205
50
58.9632738
51
79.0810598
0
ARC
8
DEFAULT_255_1_234
10
4.763209
20
13.3994721
40
0.3361177
50
48.0197965
51
58.447194
0
ARC
8
DEFAULT_255_1_234
10
4.7720951
20
13.4080225
40
0.3238191
50
3.3375044
51
48.1766626
0
ARC
8
DEFAULT_255_1_234
10
4.649079
20
13.3903171
40
0.4477806
50
359.9477528
51
4.6829065
0
ARC
8
DEFAULT_255_1_234
10
4.6614107
20
13.3860628
40
0.4354656
50
346.1877825
51
0.5060252
0
ARC
8
DEFAULT_255_1_234
10
4.7972975
20
13.3507731
40
0.295089
50
310.8831995
51
346.5426355
0
ARC
8
DEFAULT_255_1_234
10
4.7664395
20
13.3924695
40
0.3468331
50
286.6925341
51
310.2288297
0
ARC
8
DEFAULT_255_1_234
10
4.7095226
20
13.5714882
40
0.5346654
50
274.6850312
51
287.0245141
0
ARC
8
DEFAULT_255_1_234
10
4.6869949
20
13.7923932
40
0.7566852
50
269.8969846
51
275.018904
0
ARC
8
DEFAULT_255_1_234
10
4.689754
20
13.5844707
40
0.4226708
50
269.6593078
51
279.4153575
0
ARC
8
DEFAULT_255_1_234
10
4.7154815
20
13.4354133
40
0.2714146
50
279.2049762
51
294.9900808
0
ARC
8
DEFAULT_255_1_234
10
4.7445141
20
13.3706508
40
0.2004525
50
295.2888114
51
311.2911209
0
ARC
8
DEFAULT_255_1_234
10
4.7516035
20
13.360122
40
0.1878703
50
311.7854996
51
347.2861051
0
ARC
8
DEFAULT_255_1_234
10
4.6532194
20
13.3854092
40
0.2894234
50
346.6893224
51
0.1059443
0
ARC
8
DEFAULT_255_1_234
10
4.5777089
20
13.3882685
40
0.3649409
50
359.6350983
51
0.0053152
0
ARC
8
DEFAULT_255_1_234
10
4.6747417
20
13.3907937
40
0.2679199
50
359.4672059
51
15.5933957
0
ARC
8
DEFAULT_255_1_234
10
4.7372306
20
13.4076779
40
0.2031932
50
15.7442113
51
46.6203375
0
ARC
8
DEFAULT_255_1_234
10
4.7224527
20
13.3906484
40
0.2257226
50
46.8628658
51
75.6676503
0
ARC
8
DEFAULT_255_1_234
10
4.6930347
20
13.2847718
40
0.3355939
50
75.276167
51
88.2915297
0
ARC
8
DEFAULT_255_1_234
10
4.6872054
20
13.1969524
40
0.4235602
50
87.8575022
51
88.8000139
0
LINE
8
DEFAULT_255_1_234
10
5.3611036
20
13.7473211
11
5.5458335
21
12.9465568
0
LINE
8
DEFAULT_255_1_234
10
5.5458335
20
12.9465568
11
5.5683224
21
12.7923474
0
LINE
8
DEFAULT_255_1_234
10
5.5683224
20
12.7923474
11
5.6012525
21
12.9312965
0
LINE
8
DEFAULT_255_1_234
10
5.6012525
20
12.9312965
11
5.8325666
21
13.7473211
0
LINE
8
DEFAULT_255_1_234
10
5.8325666
20
13.7473211
11
5.9626808
21
13.7473211
0
LINE
8
DEFAULT_255_1_234
10
5.9626808
20
13.7473211
11
6.1883726
21
12.9312965
0
LINE
8
DEFAULT_255_1_234
10
6.1883726
20
12.9312965
11
6.2204996
21
12.7899379
0
LINE
8
DEFAULT_255_1_234
10
6.2204996
20
12.7899379
11
6.2453979
21
12.94736
0
LINE
8
DEFAULT_255_1_234
10
6.2453979
20
12.94736
11
6.4269152
21
13.7473211
0
LINE
8
DEFAULT_255_1_234
10
6.4269152
20
13.7473211
11
6.5819278
21
13.7473211
0
LINE
8
DEFAULT_255_1_234
10
6.5819278
20
13.7473211
11
6.2984074
21
12.5779
0
LINE
8
DEFAULT_255_1_234
10
6.2984074
20
12.5779
11
6.157852
21
12.5779
0
LINE
8
DEFAULT_255_1_234
10
6.157852
20
12.5779
11
5.9168999
21
13.4300674
0
LINE
8
DEFAULT_255_1_234
10
5.9168999
20
13.4300674
11
5.8984269
21
13.5192197
0
LINE
8
DEFAULT_255_1_234
10
5.8984269
20
13.5192197
11
5.8799539
21
13.4300674
0
LINE
8
DEFAULT_255_1_234
10
5.8799539
20
13.4300674
11
5.6301668
21
12.5779
0
LINE
8
DEFAULT_255_1_234
10
5.6301668
20
12.5779
11
5.4896114
21
12.5779
0
LINE
8
DEFAULT_255_1_234
10
5.4896114
20
12.5779
11
5.2068942
21
13.7473211
0
LINE
8
DEFAULT_255_1_234
10
5.2068942
20
13.7473211
11
5.3611036
21
13.7473211
0
LINE
8
DEFAULT_255_1_234
10
7.4357016
20
12.5779
11
7.1818986
21
13.0509694
0
LINE
8
DEFAULT_255_1_234
10
7.1818986
20
13.0509694
11
6.9072132
21
13.0509694
0
LINE
8
DEFAULT_255_1_234
10
6.9072132
20
13.0509694
11
6.9072132
21
12.5779
0
LINE
8
DEFAULT_255_1_234
10
6.9072132
20
12.5779
11
6.7522006
21
12.5779
0
LINE
8
DEFAULT_255_1_234
10
6.7522006
20
12.5779
11
6.7522006
21
13.7473211
0
LINE
8
DEFAULT_255_1_234
10
6.7522006
20
13.7473211
11
7.1393304
21
13.7473211
0
LINE
8
DEFAULT_255_1_234
10
7.3264699
20
13.0838995
11
7.6011554
21
12.5875381
0
LINE
8
DEFAULT_255_1_234
10
7.6011554
20
12.5875381
11
7.6011554
21
12.5779
0
LINE
8
DEFAULT_255_1_234
10
7.6011554
20
12.5779
11
7.4357016
21
12.5779
0
LINE
8
DEFAULT_255_1_234
10
6.9072132
20
13.6204196
11
6.9072132
21
13.1770677
0
LINE
8
DEFAULT_255_1_234
10
6.9072132
20
13.1770677
11
7.1441495
21
13.1770677
0
LINE
8
DEFAULT_255_1_234
10
7.1433463
20
13.6204196
11
6.9072132
21
13.6204196
0
ARC
8
DEFAULT_255_1_234
10
7.1434944
20
13.0511761
40
0.6961575
50
80.653586
51
90.3427061
0
ARC
8
DEFAULT_255_1_234
10
7.1854418
20
13.2974348
40
0.4463577
50
65.6987447
51
80.8329603
0
ARC
8
DEFAULT_255_1_234
10
7.2332059
20
13.4069322
40
0.3269094
50
50.0017161
51
65.4305835
0
ARC
8
DEFAULT_255_1_234
10
7.2550523
20
13.4364482
40
0.2902647
50
11.628416
51
49.5603263
0
ARC
8
DEFAULT_255_1_234
10
7.1014859
20
13.3989299
40
0.4482792
50
359.5655735
51
12.3691
0
ARC
8
DEFAULT_255_1_234
10
7.2091719
20
13.3926644
40
0.3405924
50
341.9983148
51
0.4822259
0
ARC
8
DEFAULT_255_1_234
10
7.2486559
20
13.3819471
40
0.2997359
50
323.8609373
51
341.61416
0
ARC
8
DEFAULT_255_1_234
10
7.2184803
20
13.4052484
40
0.3378487
50
296.7018614
51
323.6876402
0
ARC
8
DEFAULT_255_1_234
10
7.1743699
20
13.4841235
40
0.4281516
50
290.8086567
51
297.2323311
0
ARC
8
DEFAULT_255_1_234
10
7.1467228
20
13.5364351
40
0.3593766
50
269.589728
51
281.8058135
0
ARC
8
DEFAULT_255_1_234
10
7.1718127
20
13.4216743
40
0.2419125
50
281.5501019
51
303.9357432
0
ARC
8
DEFAULT_255_1_234
10
7.1855315
20
13.3978936
40
0.2145323
50
304.4415616
51
311.2106213
0
ARC
8
DEFAULT_255_1_234
10
7.198742
20
13.3839632
40
0.1953505
50
310.9875673
51
356.2715578
0
ARC
8
DEFAULT_255_1_234
10
7.1231069
20
13.3952422
40
0.2716331
50
354.9348262
51
0.0609027
0
ARC
8
DEFAULT_255_1_234
10
7.1043943
20
13.3979435
40
0.2903554
50
359.5239371
51
12.8808918
0
ARC
8
DEFAULT_255_1_234
10
7.2021499
20
13.4218728
40
0.1897315
50
12.4173452
51
43.1022135
0
ARC
8
DEFAULT_255_1_234
10
7.2083103
20
13.4255724
40
0.1827118
50
43.5751728
51
48.203944
0
ARC
8
DEFAULT_255_1_234
10
7.1913595
20
13.4034302
40
0.2105272
50
48.7809703
51
72.6969569
0
ARC
8
DEFAULT_255_1_234
10
7.155922
20
13.295882
40
0.3237537
50
72.3702241
51
84.8791103
0
ARC
8
DEFAULT_255_1_234
10
7.1411696
20
13.1616769
40
0.4587478
50
84.5400526
51
89.7281406
0
LINE
8
DEFAULT_255_1_234
10
8.1681961
20
13.5465276
11
8.1681961
21
13.2051788
0
LINE
8
DEFAULT_255_1_234
10
8.1681961
20
13.2051788
11
8.4942847
21
13.2051788
0
LINE
8
DEFAULT_255_1_234
10
8.4942847
20
13.2051788
11
8.4942847
21
13.0646233
0
LINE
8
DEFAULT_255_1_234
10
8.4942847
20
13.0646233
11
8.1681961
21
13.0646233
0
LINE
8
DEFAULT_255_1_234
10
8.1681961
20
13.0646233
11
8.1681961
21
12.6951634
0
LINE
8
DEFAULT_255_1_234
10
8.1681961
20
12.6951634
11
8.0188058
21
12.6951634
0
LINE
8
DEFAULT_255_1_234
10
8.0188058
20
12.6951634
11
8.0188058
21
13.0646233
0
LINE
8
DEFAULT_255_1_234
10
8.0188058
20
13.0646233
11
7.6927172
21
13.0646233
0
LINE
8
DEFAULT_255_1_234
10
7.6927172
20
13.0646233
11
7.6927172
21
13.2051788
0
LINE
8
DEFAULT_255_1_234
10
7.6927172
20
13.2051788
11
8.0188058
21
13.2051788
0
LINE
8
DEFAULT_255_1_234
10
8.0188058
20
13.2051788
11
8.0188058
21
13.5465276
0
LINE
8
DEFAULT_255_1_234
10
8.0188058
20
13.5465276
11
8.1681961
21
13.5465276
0
LINE
8
DEFAULT_255_1_234
10
23.1659817
20
21.2069327
11
23.1659817
21
21.0141709
0
LINE
8
DEFAULT_255_1_234
10
22.427865
20
20.9940916
11
22.427865
21
21.1924755
0
LINE
8
DEFAULT_255_1_234
10
23.0173946
20
20.9740123
11
23.0173946
21
21.2173739
0
LINE
8
DEFAULT_255_1_234
10
22.5764521
20
21.2286184
11
22.5764521
21
20.9908789
0
ARC
8
DEFAULT_255_1_234
10
21.9412707
20
21.0092805
40
1.2247208
50
353.8441951
51
0.2287902
0
ARC
8
DEFAULT_255_1_234
10
22.4052211
20
20.9574806
40
0.7578929
50
344.4934747
51
353.9765454
0
ARC
8
DEFAULT_255_1_234
10
22.7044801
20
20.8723981
40
0.4467846
50
329.2803592
51
344.7472793
0
ARC
8
DEFAULT_255_1_234
10
22.8037626
20
20.8179018
40
0.3336173
50
324.9352394
51
328.6160465
0
ARC
8
DEFAULT_255_1_234
10
22.8414734
20
20.7915427
40
0.2876076
50
280.580143
51
324.9173126
0
ARC
8
DEFAULT_255_1_234
10
22.8013527
20
20.9586099
40
0.4592847
50
269.5977311
51
281.6734359
0
ARC
8
DEFAULT_255_1_234
10
22.7941433
20
20.9466173
40
0.4472986
50
256.6228859
51
270.51044
0
ARC
8
DEFAULT_255_1_234
10
22.753941
20
20.7917877
40
0.2873874
50
215.8618325
51
257.2788573
0
ARC
8
DEFAULT_255_1_234
10
22.8560442
20
20.8602977
40
0.4102928
50
197.9693508
51
215.2623606
0
ARC
8
DEFAULT_255_1_234
10
23.1045558
20
20.9441709
40
0.6725652
50
187.8816417
51
198.2346507
0
ARC
8
DEFAULT_255_1_234
10
23.5003766
20
21.0013079
40
1.0724845
50
180.8976217
51
188.0055519
0
ARC
8
DEFAULT_255_1_234
10
23.7803954
20
21.0116777
40
1.3526448
50
180.7449369
51
181.1510016
0
ARC
8
DEFAULT_255_1_234
10
23.6226683
20
21.1973042
40
1.1948131
50
173.7675579
51
180.231553
0
ARC
8
DEFAULT_255_1_234
10
23.170883
20
21.2483666
40
0.7401564
50
164.3058563
51
173.9002247
0
ARC
8
DEFAULT_255_1_234
10
22.8796899
20
21.3322656
40
0.4371288
50
148.7922025
51
164.568378
0
ARC
8
DEFAULT_255_1_234
10
22.7845351
20
21.3853929
40
0.3282386
50
144.5883898
51
148.1176286
0
ARC
8
DEFAULT_255_1_234
10
22.7502249
20
21.4093315
40
0.2864044
50
101.6440918
51
144.514236
0
ARC
8
DEFAULT_255_1_234
10
22.7927315
20
21.2404069
40
0.4604934
50
89.5284041
51
102.5819763
0
ARC
8
DEFAULT_255_1_234
10
22.8006403
20
21.2365018
40
0.464401
50
77.0437873
51
90.5081339
0
ARC
8
DEFAULT_255_1_234
10
22.8408405
20
21.4007615
40
0.2953195
50
48.2778575
51
77.4994676
0
ARC
8
DEFAULT_255_1_234
10
22.8481036
20
21.4136746
40
0.2808655
50
36.3142134
51
47.6305865
0
ARC
8
DEFAULT_255_1_234
10
22.7612343
20
21.3551515
40
0.3855453
50
18.2931786
51
35.6769206
0
ARC
8
DEFAULT_255_1_234
10
22.5069102
20
21.2678593
40
0.654423
50
8.024666
51
18.5605216
0
ARC
8
DEFAULT_255_1_234
10
22.0906022
20
21.2063792
40
1.0752407
50
1.1274072
51
8.1718305
0
ARC
8
DEFAULT_255_1_234
10
21.7670213
20
21.1936885
40
1.3990231
50
0.5424119
51
1.3863029
0
ARC
8
DEFAULT_255_1_234
10
21.949159
20
21.2209342
40
1.0682415
50
359.8090433
51
4.9407866
0
ARC
8
DEFAULT_255_1_234
10
22.3701604
20
21.2585113
40
0.6455691
50
4.8362157
51
12.2904523
0
ARC
8
DEFAULT_255_1_234
10
22.6456719
20
21.3198965
40
0.3633074
50
12.0805627
51
23.8173984
0
ARC
8
DEFAULT_255_1_234
10
22.7630425
20
21.3695919
40
0.2358723
50
24.2871213
51
31.3935614
0
ARC
8
DEFAULT_255_1_234
10
22.8155122
20
21.4039233
40
0.1732111
50
30.7407893
51
82.4657128
0
ARC
8
DEFAULT_255_1_234
10
22.7975256
20
21.3155691
40
0.263235
50
81.1060089
51
90.2184952
0
ARC
8
DEFAULT_255_1_234
10
22.7939555
20
21.3413924
40
0.2374236
50
89.3806855
51
105.6762551
0
ARC
8
DEFAULT_255_1_234
10
22.7756186
20
21.4080567
40
0.1682847
50
105.7981136
51
149.7388061
0
ARC
8
DEFAULT_255_1_234
10
22.8820264
20
21.344095
40
0.2924306
50
149.4208916
51
163.6286378
0
ARC
8
DEFAULT_255_1_234
10
23.0911152
20
21.280325
40
0.5110213
50
163.3763315
51
172.1410975
0
ARC
8
DEFAULT_255_1_234
10
23.4211871
20
21.2330518
40
0.8444586
50
172.0259487
51
178.0703232
0
ARC
8
DEFAULT_255_1_234
10
23.724196
20
21.2186906
40
1.1477868
50
177.8631668
51
179.5044149
0
ARC
8
DEFAULT_255_1_234
10
23.6169365
20
20.9872389
40
1.0404907
50
179.7995573
51
185.2460446
0
ARC
8
DEFAULT_255_1_234
10
23.2126404
20
20.9489513
40
0.6343885
50
185.1411642
51
193.0079639
0
ARC
8
DEFAULT_255_1_234
10
22.9482877
20
20.8864641
40
0.3627568
50
192.7897626
51
205.2507664
0
ARC
8
DEFAULT_255_1_234
10
22.8436424
20
20.8397415
40
0.2481908
50
205.8005384
51
211.2537509
0
ARC
8
DEFAULT_255_1_234
10
22.7912864
20
20.804658
40
0.1852521
50
210.3789793
51
238.4008143
0
ARC
8
DEFAULT_255_1_234
10
22.7893386
20
20.8093376
40
0.1882621
50
239.6520629
51
265.9793761
0
ARC
8
DEFAULT_255_1_234
10
22.7978586
20
20.8765427
40
0.2559272
50
265.1315437
51
270.060332
0
ARC
8
DEFAULT_255_1_234
10
22.8007365
20
20.8441534
40
0.2235528
50
269.3314664
51
287.2178029
0
ARC
8
DEFAULT_255_1_234
10
22.8145217
20
20.7938279
40
0.1714108
50
287.7958004
51
329.080874
0
ARC
8
DEFAULT_255_1_234
10
22.7187674
20
20.853593
40
0.2842745
50
328.6634704
51
343.3325132
0
ARC
8
DEFAULT_255_1_234
10
22.5014694
20
20.9212863
40
0.5118644
50
343.0499468
51
351.9393422
0
ARC
8
DEFAULT_255_1_234
10
22.1547994
20
20.9723949
40
0.8622784
50
351.8069023
51
357.7959224
0
ARC
8
DEFAULT_255_1_234
10
21.831255
20
20.9891721
40
1.1862365
50
357.5871873
51
359.2677531
0
LINE
8
DEFAULT_255_1_234
10
23.4495021
20
21.6848211
11
23.7820161
21
20.7202093
0
LINE
8
DEFAULT_255_1_234
10
23.7820161
20
20.7202093
11
24.1161364
21
21.6848211
0
LINE
8
DEFAULT_255_1_234
10
24.1161364
20
21.6848211
11
24.2848029
21
21.6848211
0
LINE
8
DEFAULT_255_1_234
10
24.2848029
20
21.6848211
11
23.851089
21
20.5154
0
LINE
8
DEFAULT_255_1_234
10
23.851089
20
20.5154
11
23.7145495
21
20.5154
0
LINE
8
DEFAULT_255_1_234
10
23.7145495
20
20.5154
11
23.2816388
21
21.6848211
0
LINE
8
DEFAULT_255_1_234
10
23.2816388
20
21.6848211
11
23.4495021
21
21.6848211
0
LINE
8
DEFAULT_255_1_234
10
21.8631482
20
5.222701
11
21.8631482
21
4.7938062
0
LINE
8
DEFAULT_255_1_234
10
20.9619872
20
5.1688884
11
20.9619872
21
5.2708915
0
LINE
8
DEFAULT_255_1_234
10
21.8631482
20
5.4668659
11
21.7089389
21
5.4668659
0
LINE
8
DEFAULT_255_1_234
10
21.1169998
20
5.2749073
11
21.1169998
21
5.1793296
0
LINE
8
DEFAULT_255_1_234
10
21.709742
20
4.8347681
11
21.709742
21
5.0974059
0
LINE
8
DEFAULT_255_1_234
10
21.709742
20
5.0974059
11
21.4390725
21
5.0974059
0
LINE
8
DEFAULT_255_1_234
10
21.4390725
20
5.0974059
11
21.4390725
21
5.222701
0
LINE
8
DEFAULT_255_1_234
10
21.4390725
20
5.222701
11
21.8631482
21
5.222701
0
ARC
8
DEFAULT_255_1_234
10
21.5799989
20
4.9931396
40
0.3462765
50
295.8437914
51
324.8549609
0
ARC
8
DEFAULT_255_1_234
10
21.5383956
20
5.0684567
40
0.4322211
50
291.5695085
51
296.4549398
0
ARC
8
DEFAULT_255_1_234
10
21.4873207
20
5.2049275
40
0.5779178
50
278.6622409
51
291.3045483
0
ARC
8
DEFAULT_255_1_234
10
21.4533699
20
5.4197408
40
0.7953952
50
270.020006
51
278.7494541
0
ARC
8
DEFAULT_255_1_234
10
21.4495623
20
5.5514036
40
0.927067
50
269.9969998
51
270.2524872
0
ARC
8
DEFAULT_255_1_234
10
21.4457336
20
5.1430589
40
0.5187361
50
253.5786322
51
270.4175299
0
ARC
8
DEFAULT_255_1_234
10
21.4283992
20
5.0759236
40
0.4494451
50
238.8203306
51
253.2788235
0
ARC
8
DEFAULT_255_1_234
10
21.4264365
20
5.0708231
40
0.4440665
50
206.7883783
51
238.6962764
0
ARC
8
DEFAULT_255_1_234
10
21.5038275
20
5.1172405
40
0.5341121
50
206.1129412
51
207.4916643
0
ARC
8
DEFAULT_255_1_234
10
21.563519
20
5.1426488
40
0.5989041
50
188.6921119
51
205.7821245
0
ARC
8
DEFAULT_255_1_234
10
21.7491552
20
5.174223
40
0.7871862
50
180.3882829
51
188.9219216
0
ARC
8
DEFAULT_255_1_234
10
21.8719366
20
5.2765464
40
0.909967
50
170.2024264
51
180.3560651
0
ARC
8
DEFAULT_255_1_234
10
21.5555884
20
5.3331237
40
0.5886083
50
154.2857445
51
170.3893044
0
ARC
8
DEFAULT_255_1_234
10
21.4274087
20
5.391795
40
0.4476743
50
139.8401567
51
153.9332699
0
ARC
8
DEFAULT_255_1_234
10
21.3914823
20
5.4205577
40
0.4016697
50
98.4190291
51
139.6707122
0
ARC
8
DEFAULT_255_1_234
10
21.4294341
20
5.2360328
40
0.5898566
50
89.7659205
51
99.4415478
0
ARC
8
DEFAULT_255_1_234
10
21.435959
20
5.2425844
40
0.5833147
50
78.0551672
51
90.4042112
0
ARC
8
DEFAULT_255_1_234
10
21.47641
20
5.4244644
40
0.3970055
50
54.6380464
51
78.3339173
0
ARC
8
DEFAULT_255_1_234
10
21.4954156
20
5.4564795
40
0.3599102
50
50.031736
51
54.1558201
0
ARC
8
DEFAULT_255_1_234
10
21.4846944
20
5.4468766
40
0.3741624
50
18.1092409
51
49.7180913
0
ARC
8
DEFAULT_255_1_234
10
21.3390144
20
5.3935089
40
0.5292424
50
7.9672797
51
18.6984571
0
ARC
8
DEFAULT_255_1_234
10
21.3540622
20
5.4058504
40
0.3600838
50
9.7557294
51
27.3215714
0
ARC
8
DEFAULT_255_1_234
10
21.4668094
20
5.4621912
40
0.2340608
50
27.7361077
51
84.5257964
0
ARC
8
DEFAULT_255_1_234
10
21.4340481
20
5.297864
40
0.4011215
50
82.106034
51
90.2001166
0
ARC
8
DEFAULT_255_1_234
10
21.4290698
20
5.3486215
40
0.3503799
50
89.4150119
51
105.5823402
0
ARC
8
DEFAULT_255_1_234
10
21.4033696
20
5.4421867
40
0.2533503
50
105.6678618
51
144.2648758
0
ARC
8
DEFAULT_255_1_234
10
21.4926951
20
5.3786289
40
0.3629787
50
144.3561283
51
162.8564086
0
ARC
8
DEFAULT_255_1_234
10
21.701086
20
5.3117017
40
0.5818441
50
162.6076014
51
173.6780284
0
ARC
8
DEFAULT_255_1_234
10
22.0072004
20
5.274489
40
0.8902007
50
173.4670142
51
179.9730753
0
ARC
8
DEFAULT_255_1_234
10
21.8163675
20
5.175126
40
0.6993804
50
179.6556203
51
190.0080463
0
ARC
8
DEFAULT_255_1_234
10
21.5847504
20
5.1326375
40
0.4639066
50
189.8116607
51
206.6796816
0
ARC
8
DEFAULT_255_1_234
10
21.5002656
20
5.0932503
40
0.3707421
50
207.1031645
51
217.7074368
0
ARC
8
DEFAULT_255_1_234
10
21.4368345
20
5.0380559
40
0.2868417
50
216.7345547
51
265.6812148
0
ARC
8
DEFAULT_255_1_234
10
21.4499136
20
5.1284855
40
0.3780509
50
264.7366618
51
270.0611241
0
ARC
8
DEFAULT_255_1_234
10
21.4522399
20
5.4125111
40
0.662079
50
269.8335834
51
276.0539546
0
ARC
8
DEFAULT_255_1_234
10
21.4729404
20
5.222356
40
0.4708016
50
275.9894168
51
284.4615085
0
ARC
8
DEFAULT_255_1_234
10
21.4927411
20
5.1390663
40
0.3852094
50
284.7034461
51
286.4953897
0
ARC
8
DEFAULT_255_1_234
10
21.5334424
20
5.0079965
40
0.2479842
50
286.0770838
51
304.2625829
0
ARC
8
DEFAULT_255_1_234
10
21.5467838
20
4.9861594
40
0.2224291
50
304.5891602
51
317.1073298
0
LINE
8
DEFAULT_255_1_234
10
23.0189154
20
5.8098211
11
23.0189154
21
4.6404
0
LINE
8
DEFAULT_255_1_234
10
23.0189154
20
4.6404
11
22.8639028
21
4.6404
0
LINE
8
DEFAULT_255_1_234
10
22.8639028
20
4.6404
11
22.2751764
21
5.541561
0
LINE
8
DEFAULT_255_1_234
10
22.2751764
20
5.541561
11
22.2751764
21
4.6404
0
LINE
8
DEFAULT_255_1_234
10
22.2751764
20
4.6404
11
22.1201639
21
4.6404
0
LINE
8
DEFAULT_255_1_234
10
22.1201639
20
4.6404
11
22.1201639
21
5.8098211
0
LINE
8
DEFAULT_255_1_234
10
22.1201639
20
5.8098211
11
22.2751764
21
5.8098211
0
LINE
8
DEFAULT_255_1_234
10
22.2751764
20
5.8098211
11
22.8655092
21
4.9046442
0
LINE
8
DEFAULT_255_1_234
10
22.8655092
20
4.9046442
11
22.8655092
21
5.8098211
0
LINE
8
DEFAULT_255_1_234
10
22.8655092
20
5.8098211
11
23.0189154
21
5.8098211
0
LINE
8
DEFAULT_255_1_234
10
23.6164767
20
4.6404
11
23.2927977
21
4.6404
0
LINE
8
DEFAULT_255_1_234
10
23.2927977
20
4.6404
11
23.2927977
21
5.8098211
0
LINE
8
DEFAULT_255_1_234
10
23.2927977
20
5.8098211
11
23.6229021
21
5.8098211
0
LINE
8
DEFAULT_255_1_234
10
24.1385397
20
5.2644661
11
24.1385397
21
5.1897709
0
LINE
8
DEFAULT_255_1_234
10
23.626918
20
5.6829196
11
23.447007
21
5.6829196
0
LINE
8
DEFAULT_255_1_234
10
23.447007
20
5.6829196
11
23.447007
21
4.7664983
0
LINE
8
DEFAULT_255_1_234
10
23.447007
20
4.7664983
11
23.6092481
21
4.7664983
0
LINE
8
DEFAULT_255_1_234
10
23.9859367
20
5.1929836
11
23.9859367
21
5.2612534
0
ARC
8
DEFAULT_255_1_234
10
23.6267963
20
5.2232894
40
0.5865446
50
75.4101064
51
90.3804066
0
ARC
8
DEFAULT_255_1_234
10
23.6497477
20
5.3189492
40
0.4881916
50
60.145586
51
75.1888407
0
ARC
8
DEFAULT_255_1_234
10
23.6656252
20
5.3466199
40
0.4562893
50
26.5253612
51
60.1450928
0
ARC
8
DEFAULT_255_1_234
10
23.5536002
20
5.2872158
40
0.5830602
50
7.4030428
51
26.8320788
0
ARC
8
DEFAULT_255_1_234
10
23.3941758
20
5.2623804
40
0.7443669
50
0.1605367
51
7.7176192
0
ARC
8
DEFAULT_255_1_234
10
23.4105663
20
5.1859434
40
0.7279835
50
348.7289388
51
0.3012466
0
ARC
8
DEFAULT_255_1_234
10
23.5762093
20
5.1530386
40
0.559104
50
333.0706509
51
348.7181832
0
ARC
8
DEFAULT_255_1_234
10
23.6728851
20
5.1005319
40
0.4491417
50
299.2531685
51
333.4571258
0
ARC
8
DEFAULT_255_1_234
10
23.6367991
20
5.1690828
40
0.5265881
50
278.107187
51
299.0339503
0
ARC
8
DEFAULT_255_1_234
10
23.611207
20
5.3198216
40
0.679442
50
270.4443897
51
278.4511052
0
ARC
8
DEFAULT_255_1_234
10
23.61329
20
5.2269213
40
0.4604407
50
269.4970433
51
284.0205042
0
ARC
8
DEFAULT_255_1_234
10
23.6488201
20
5.0903978
40
0.3193797
50
283.7700273
51
318.1555492
0
ARC
8
DEFAULT_255_1_234
10
23.6150959
20
5.1156367
40
0.3613588
50
318.7415601
51
343.6873628
0
ARC
8
DEFAULT_255_1_234
10
23.4346982
20
5.1719832
40
0.5503313
50
343.3325091
51
355.8548958
0
ARC
8
DEFAULT_255_1_234
10
23.2248666
20
5.1919319
40
0.7610708
50
355.4988528
51
0.0791727
0
ARC
8
DEFAULT_255_1_234
10
23.3031289
20
5.265478
40
0.6828208
50
359.6455037
51
9.8607896
0
ARC
8
DEFAULT_255_1_234
10
23.5391987
20
5.3081099
40
0.4429406
50
9.6571907
51
26.1932807
0
ARC
8
DEFAULT_255_1_234
10
23.6319975
20
5.3512118
40
0.3406537
50
26.5777228
51
40.1532208
0
ARC
8
DEFAULT_255_1_234
10
23.6575702
20
5.3711619
40
0.308246
50
40.3840491
51
80.1431104
0
ARC
8
DEFAULT_255_1_234
10
23.624882
20
5.2262333
40
0.4566909
50
79.2152159
51
89.7445637
0
LINE
8
DEFAULT_255_1_234
10
20.7658344
20
13.0357091
11
20.4903458
21
13.0357091
0
LINE
8
DEFAULT_255_1_234
10
20.4903458
20
13.0357091
11
20.4903458
21
12.5779
0
LINE
8
DEFAULT_255_1_234
10
20.4903458
20
12.5779
11
20.3361364
21
12.5779
0
LINE
8
DEFAULT_255_1_234
10
20.3361364
20
12.5779
11
20.3361364
21
13.7473211
0
LINE
8
DEFAULT_255_1_234
10
20.3361364
20
13.7473211
11
20.7674407
21
13.7473211
0
LINE
8
DEFAULT_255_1_234
10
20.4903458
20
13.6204196
11
20.4903458
21
13.1618074
0
LINE
8
DEFAULT_255_1_234
10
20.4903458
20
13.1618074
11
20.7674407
21
13.1618074
0
LINE
8
DEFAULT_255_1_234
10
20.7762756
20
13.6204196
11
20.4903458
21
13.6204196
0
ARC
8
DEFAULT_255_1_234
10
20.7716534
20
13.1414195
40
0.6059162
50
78.8378113
51
90.3983573
0
ARC
8
DEFAULT_255_1_234
10
20.8132548
20
13.3434879
40
0.3996205
50
58.9632738
51
79.0810598
0
ARC
8
DEFAULT_255_1_234
10
20.843409
20
13.3994721
40
0.3361177
50
48.0197965
51
58.447194
0
ARC
8
DEFAULT_255_1_234
10
20.8522951
20
13.4080225
40
0.3238191
50
3.3375044
51
48.1766626
0
ARC
8
DEFAULT_255_1_234
10
20.729279
20
13.3903171
40
0.4477806
50
359.9477528
51
4.6829065
0
ARC
8
DEFAULT_255_1_234
10
20.7416107
20
13.3860628
40
0.4354656
50
346.1877825
51
0.5060252
0
ARC
8
DEFAULT_255_1_234
10
20.8774975
20
13.3507731
40
0.295089
50
310.8831995
51
346.5426355
0
ARC
8
DEFAULT_255_1_234
10
20.8466395
20
13.3924695
40
0.3468331
50
286.6925341
51
310.2288297
0
ARC
8
DEFAULT_255_1_234
10
20.7897226
20
13.5714882
40
0.5346654
50
274.6850312
51
287.0245141
0
ARC
8
DEFAULT_255_1_234
10
20.7671949
20
13.7923932
40
0.7566852
50
269.8969846
51
275.018904
0
ARC
8
DEFAULT_255_1_234
10
20.769954
20
13.5844707
40
0.4226708
50
269.6593078
51
279.4153575
0
ARC
8
DEFAULT_255_1_234
10
20.7956815
20
13.4354133
40
0.2714146
50
279.2049762
51
294.9900808
0
ARC
8
DEFAULT_255_1_234
10
20.8247141
20
13.3706508
40
0.2004525
50
295.2888114
51
311.2911209
0
ARC
8
DEFAULT_255_1_234
10
20.8318035
20
13.360122
40
0.1878703
50
311.7854996
51
347.2861051
0
ARC
8
DEFAULT_255_1_234
10
20.7334194
20
13.3854092
40
0.2894234
50
346.6893224
51
0.1059443
0
ARC
8
DEFAULT_255_1_234
10
20.6579089
20
13.3882685
40
0.3649409
50
359.6350983
51
0.0053152
0
ARC
8
DEFAULT_255_1_234
10
20.7549417
20
13.3907937
40
0.2679199
50
359.4672059
51
15.5933957
0
ARC
8
DEFAULT_255_1_234
10
20.8174306
20
13.4076779
40
0.2031932
50
15.7442113
51
46.6203375
0
ARC
8
DEFAULT_255_1_234
10
20.8026527
20
13.3906484
40
0.2257226
50
46.8628658
51
75.6676503
0
ARC
8
DEFAULT_255_1_234
10
20.7732347
20
13.2847718
40
0.3355939
50
75.276167
51
88.2915297
0
ARC
8
DEFAULT_255_1_234
10
20.7674054
20
13.1969524
40
0.4235602
50
87.8575022
51
88.8000139
0
LINE
8
DEFAULT_255_1_234
10
21.4413036
20
13.7473211
11
21.6260335
21
12.9465568
0
LINE
8
DEFAULT_255_1_234
10
21.6260335
20
12.9465568
11
21.6485224
21
12.7923474
0
LINE
8
DEFAULT_255_1_234
10
21.6485224
20
12.7923474
11
21.6814525
21
12.9312965
0
LINE
8
DEFAULT_255_1_234
10
21.6814525
20
12.9312965
11
21.9127666
21
13.7473211
0
LINE
8
DEFAULT_255_1_234
10
21.9127666
20
13.7473211
11
22.0428808
21
13.7473211
0
LINE
8
DEFAULT_255_1_234
10
22.0428808
20
13.7473211
11
22.2685726
21
12.9312965
0
LINE
8
DEFAULT_255_1_234
10
22.2685726
20
12.9312965
11
22.3006996
21
12.7899379
0
LINE
8
DEFAULT_255_1_234
10
22.3006996
20
12.7899379
11
22.3255979
21
12.94736
0
LINE
8
DEFAULT_255_1_234
10
22.3255979
20
12.94736
11
22.5071152
21
13.7473211
0
LINE
8
DEFAULT_255_1_234
10
22.5071152
20
13.7473211
11
22.6621278
21
13.7473211
0
LINE
8
DEFAULT_255_1_234
10
22.6621278
20
13.7473211
11
22.3786074
21
12.5779
0
LINE
8
DEFAULT_255_1_234
10
22.3786074
20
12.5779
11
22.238052
21
12.5779
0
LINE
8
DEFAULT_255_1_234
10
22.238052
20
12.5779
11
21.9970999
21
13.4300674
0
LINE
8
DEFAULT_255_1_234
10
21.9970999
20
13.4300674
11
21.9786269
21
13.5192197
0
LINE
8
DEFAULT_255_1_234
10
21.9786269
20
13.5192197
11
21.9601539
21
13.4300674
0
LINE
8
DEFAULT_255_1_234
10
21.9601539
20
13.4300674
11
21.7103668
21
12.5779
0
LINE
8
DEFAULT_255_1_234
10
21.7103668
20
12.5779
11
21.5698114
21
12.5779
0
LINE
8
DEFAULT_255_1_234
10
21.5698114
20
12.5779
11
21.2870942
21
13.7473211
0
LINE
8
DEFAULT_255_1_234
10
21.2870942
20
13.7473211
11
21.4413036
21
13.7473211
0
LINE
8
DEFAULT_255_1_234
10
23.5159016
20
12.5779
11
23.2620986
21
13.0509694
0
LINE
8
DEFAULT_255_1_234
10
23.2620986
20
13.0509694
11
22.9874132
21
13.0509694
0
LINE
8
DEFAULT_255_1_234
10
22.9874132
20
13.0509694
11
22.9874132
21
12.5779
0
LINE
8
DEFAULT_255_1_234
10
22.9874132
20
12.5779
11
22.8324006
21
12.5779
0
LINE
8
DEFAULT_255_1_234
10
22.8324006
20
12.5779
11
22.8324006
21
13.7473211
0
LINE
8
DEFAULT_255_1_234
10
22.8324006
20
13.7473211
11
23.2195304
21
13.7473211
0
LINE
8
DEFAULT_255_1_234
10
23.4066699
20
13.0838995
11
23.6813554
21
12.5875381
0
LINE
8
DEFAULT_255_1_234
10
23.6813554
20
12.5875381
11
23.6813554
21
12.5779
0
LINE
8
DEFAULT_255_1_234
10
23.6813554
20
12.5779
11
23.5159016
21
12.5779
0
LINE
8
DEFAULT_255_1_234
10
22.9874132
20
13.6204196
11
22.9874132
21
13.1770677
0
LINE
8
DEFAULT_255_1_234
10
22.9874132
20
13.1770677
11
23.2243495
21
13.1770677
0
LINE
8
DEFAULT_255_1_234
10
23.2235463
20
13.6204196
11
22.9874132
21
13.6204196
0
ARC
8
DEFAULT_255_1_234
10
23.2236944
20
13.0511761
40
0.6961575
50
80.653586
51
90.3427061
0
ARC
8
DEFAULT_255_1_234
10
23.2656418
20
13.2974348
40
0.4463577
50
65.6987447
51
80.8329603
0
ARC
8
DEFAULT_255_1_234
10
23.3134059
20
13.4069322
40
0.3269094
50
50.0017161
51
65.4305835
0
ARC
8
DEFAULT_255_1_234
10
23.3352523
20
13.4364482
40
0.2902647
50
11.628416
51
49.5603263
0
ARC
8
DEFAULT_255_1_234
10
23.1816859
20
13.3989299
40
0.4482792
50
359.5655735
51
12.3691
0
ARC
8
DEFAULT_255_1_234
10
23.2893719
20
13.3926644
40
0.3405924
50
341.9983148
51
0.4822259
0
ARC
8
DEFAULT_255_1_234
10
23.3288559
20
13.3819471
40
0.2997359
50
323.8609373
51
341.61416
0
ARC
8
DEFAULT_255_1_234
10
23.2986803
20
13.4052484
40
0.3378487
50
296.7018614
51
323.6876402
0
ARC
8
DEFAULT_255_1_234
10
23.2545699
20
13.4841235
40
0.4281516
50
290.8086567
51
297.2323311
0
ARC
8
DEFAULT_255_1_234
10
23.2269228
20
13.5364351
40
0.3593766
50
269.589728
51
281.8058135
0
ARC
8
DEFAULT_255_1_234
10
23.2520127
20
13.4216743
40
0.2419125
50
281.5501019
51
303.9357432
0
ARC
8
DEFAULT_255_1_234
10
23.2657315
20
13.3978936
40
0.2145323
50
304.4415616
51
311.2106213
0
ARC
8
DEFAULT_255_1_234
10
23.278942
20
13.3839632
40
0.1953505
50
310.9875673
51
356.2715578
0
ARC
8
DEFAULT_255_1_234
10
23.2033069
20
13.3952422
40
0.2716331
50
354.9348262
51
0.0609027
0
ARC
8
DEFAULT_255_1_234
10
23.1845943
20
13.3979435
40
0.2903554
50
359.5239371
51
12.8808918
0
ARC
8
DEFAULT_255_1_234
10
23.2823499
20
13.4218728
40
0.1897315
50
12.4173452
51
43.1022135
0
ARC
8
DEFAULT_255_1_234
10
23.2885103
20
13.4255724
40
0.1827118
50
43.5751728
51
48.203944
0
ARC
8
DEFAULT_255_1_234
10
23.2715595
20
13.4034302
40
0.2105272
50
48.7809703
51
72.6969569
0
ARC
8
DEFAULT_255_1_234
10
23.236122
20
13.295882
40
0.3237537
50
72.3702241
51
84.8791103
0
ARC
8
DEFAULT_255_1_234
10
23.2213696
20
13.1616769
40
0.4587478
50
84.5400526
51
89.7281406
0
LINE
8
DEFAULT_255_1_234
10
24.1319359
20
13.1353026
11
24.1319359
21
13.0140234
0
LINE
8
DEFAULT_255_1_234
10
24.1319359
20
13.0140234
11
23.7399871
21
13.0140234
0
LINE
8
DEFAULT_255_1_234
10
23.7399871
20
13.0140234
11
23.7399871
21
13.1353026
0
LINE
8
DEFAULT_255_1_234
10
23.7399871
20
13.1353026
11
24.1319359
21
13.1353026
0
ENDSEC
0
EOF