0
SECTION
2
HEADER
9
$MEASUREMENT
70
1
0
ENDSEC
0
SECTION
2
TABLES
0
TABLE
2
LTYPE
0
LTYPE
72
65
70
64
2
CONTINUOUS
3
______
73
0
40
0
0
ENDTAB
0
TABLE
2
LAYER
0
LAYER
2
DEFAULT_255_2_778
70
0
62
255
6
CONTINUOUS
0
ENDTAB
0
ENDSEC
0
SECTION
2
ENTITIES
0
ARC
8
DEFAULT_255_2_778
10
76.2450269
20
42.93705
40
2.7272799
50
91.7139421
51
102.3016772
0
ARC
8
DEFAULT_255_2_778
10
76.2460978
20
48.621481
40
2.7360196
50
257.7152809
51
268.2690994
0
ARC
8
DEFAULT_255_2_778
10
75.7872799
20
45.6070313
40
0.1233256
50
180.2422958
51
251.4545912
0
ARC
8
DEFAULT_255_2_778
10
76.2145861
20
43.364754
40
2.1759567
50
91.3464607
51
102.380478
0
ARC
8
DEFAULT_255_2_778
10
76.2107971
20
48.1541993
40
2.1444122
50
257.538149
51
268.7349919
0
ARC
8
DEFAULT_255_2_778
10
75.7871919
20
45.9434518
40
0.1232374
50
108.5160426
51
179.7870881
0
ARC
8
DEFAULT_255_2_778
10
76.2463919
20
44.4248867
40
2.7359713
50
91.7308087
51
102.2848143
0
ARC
8
DEFAULT_255_2_778
10
76.2453268
20
50.1092674
40
2.7272778
50
257.6983167
51
268.2860602
0
ARC
8
DEFAULT_255_2_778
10
75.7873533
20
47.1033675
40
0.1230984
50
180.1665447
51
251.5303553
0
ARC
8
DEFAULT_255_2_778
10
76.2147722
20
44.862191
40
2.1750172
50
91.3440413
51
102.3828393
0
ARC
8
DEFAULT_255_2_778
10
76.2124414
20
49.6575627
40
2.1514039
50
257.5426346
51
268.703294
0
ARC
8
DEFAULT_255_2_778
10
75.7873913
20
47.4400249
40
0.1231361
50
108.4824469
51
179.867481
0
ARC
8
DEFAULT_255_2_778
10
76.2465802
20
45.9213559
40
2.7359989
50
91.7284501
51
102.2844367
0
ARC
8
DEFAULT_255_2_778
10
76.2455117
20
51.6057784
40
2.7272854
50
257.6986751
51
268.2884831
0
ARC
8
DEFAULT_255_2_778
10
75.7877754
20
48.6000617
40
0.1233212
50
180.256465
51
251.5051121
0
ARC
8
DEFAULT_255_2_778
10
76.2150696
20
46.3587122
40
2.1749959
50
91.3439857
51
102.382892
0
ARC
8
DEFAULT_255_2_778
10
76.2131661
20
51.1617885
40
2.1591374
50
257.5764258
51
268.6966654
0
ARC
8
DEFAULT_255_2_778
10
75.7874625
20
48.9364842
40
0.1230075
50
108.3901201
51
179.8483485
0
ARC
8
DEFAULT_255_2_778
10
76.2468975
20
60.8819412
40
2.7360169
50
91.7308963
51
102.2847254
0
ARC
8
DEFAULT_255_2_778
10
76.2458266
20
66.5663665
40
2.7272769
50
257.6983159
51
268.2860627
0
ARC
8
DEFAULT_255_2_778
10
75.7878536
20
63.5604677
40
0.1230987
50
180.1666061
51
251.530241
0
ARC
8
DEFAULT_255_2_778
10
76.2152715
20
61.3193011
40
2.1750071
50
91.3440285
51
102.3828777
0
ARC
8
DEFAULT_255_2_778
10
76.2133635
20
66.1223676
40
2.1591164
50
257.5763731
51
268.6967211
0
ARC
8
DEFAULT_255_2_778
10
75.7878025
20
63.8970886
40
0.1230475
50
108.4526414
51
179.8504893
0
ARC
8
DEFAULT_255_2_778
10
76.2473444
20
62.3763017
40
2.7381599
50
91.7326171
51
102.2802484
0
ARC
8
DEFAULT_255_2_778
10
76.2467895
20
68.0735647
40
2.7379902
50
257.7308617
51
268.2788926
0
ARC
8
DEFAULT_255_2_778
10
75.7884015
20
65.0571524
40
0.1234472
50
180.2518629
51
251.4629773
0
ARC
8
DEFAULT_255_2_778
10
76.2146135
20
62.8236556
40
2.1670324
50
91.3236405
51
102.4032397
0
ARC
8
DEFAULT_255_2_778
10
76.2136619
20
67.6188576
40
2.1591064
50
257.5763602
51
268.6967599
0
ARC
8
DEFAULT_255_2_778
10
75.7879625
20
65.393584
40
0.1230076
50
108.3901067
51
179.8482985
0
ARC
8
DEFAULT_255_2_778
10
76.2484696
20
63.8662192
40
2.7447674
50
91.7477677
51
102.2678554
0
ARC
8
DEFAULT_255_2_778
10
76.2484697
20
69.5767003
40
2.7447675
50
257.7321447
51
268.2522321
0
ARC
8
DEFAULT_255_2_778
10
75.7885391
20
66.5535354
40
0.1232848
50
180.2443047
51
251.5172197
0
ARC
8
DEFAULT_255_2_778
10
76.2148021
20
64.3211815
40
2.1660065
50
91.3239647
51
102.4061893
0
ARC
8
DEFAULT_255_2_778
10
76.2129112
20
69.1065324
40
2.1502619
50
257.5531093
51
268.7167366
0
ARC
8
DEFAULT_255_2_778
10
75.7883571
20
66.8900158
40
0.1231022
50
108.4218478
51
179.8166655
0
ARC
8
DEFAULT_255_2_778
10
77.0126251
20
80.2013796
40
0.2494304
50
0.052868
51
90.0849288
0
LINE
8
DEFAULT_255_2_778
10
72.5709554
20
68.4644097
11
72.5707703
21
68.4644098
0
ARC
8
DEFAULT_255_2_778
10
72.5707418
20
67.9431227
40
0.5212871
50
89.9968708
51
179.9025022
0
ARC
8
DEFAULT_255_2_778
10
72.5706136
20
62.5027685
40
0.5211588
50
180.0834152
51
269.9968774
0
LINE
8
DEFAULT_255_2_778
10
72.5705852
20
61.9816096
11
72.5709554
21
61.9816097
0
LINE
8
DEFAULT_255_2_778
10
72.5709554
20
50.5121097
11
72.5705852
21
50.5121099
0
ARC
8
DEFAULT_255_2_778
10
72.5706136
20
49.990951
40
0.5211589
50
90.0031226
51
179.9165848
0
ARC
8
DEFAULT_255_2_778
10
72.5707629
20
44.5506178
40
0.5213081
50
180.0888134
51
270.0008108
0
LINE
8
DEFAULT_255_2_778
10
72.5707703
20
44.0293097
11
72.5709554
21
44.0293097
0
ARC
8
DEFAULT_255_2_778
10
77.0121334
20
32.292532
40
0.2496224
50
269.9591541
51
359.9030835
0
ARC
8
DEFAULT_255_2_778
10
63.0080644
20
32.2923186
40
0.249409
50
180.0479806
51
270.0668636
0
ARC
8
DEFAULT_255_2_778
10
63.0081919
20
80.201273
40
0.2495367
50
89.9624616
51
179.9226942
0
ARC
8
DEFAULT_255_2_778
10
74.4786173
20
77.6719751
40
0.9966358
50
48.7653273
51
90.0897907
0
ARC
8
DEFAULT_255_2_778
10
74.4823053
20
77.6722046
40
0.9940358
50
1.5645877
51
48.9164685
0
ARC
8
DEFAULT_255_2_778
10
74.4632185
20
77.6714249
40
1.013137
50
359.9991414
51
1.5791942
0
ARC
8
DEFAULT_255_2_778
10
74.4805099
20
70.5588013
40
0.9958455
50
314.9248972
51
0.0004854
0
ARC
8
DEFAULT_255_2_778
10
74.4772895
20
70.5619802
40
1.0003705
50
270.0082258
51
314.9269182
0
LINE
8
DEFAULT_255_2_778
10
74.4774331
20
69.5616097
11
74.4770554
21
69.5616097
0
ARC
8
DEFAULT_255_2_778
10
71.449442
20
69.062323
40
0.499287
50
89.9410872
51
179.9326727
0
ARC
8
DEFAULT_255_2_778
10
71.4485073
20
61.3834336
40
0.4983519
50
180.0142365
51
225.0546274
0
ARC
8
DEFAULT_255_2_778
10
71.4495781
20
61.3844072
40
0.4997975
50
225.046591
51
270.0088606
0
ARC
8
DEFAULT_255_2_778
10
74.478331
20
59.8880976
40
0.9965134
50
48.760193
51
90.0905907
0
ARC
8
DEFAULT_255_2_778
10
74.4816518
20
59.8880189
40
0.9943866
50
1.5583172
51
48.9070648
0
ARC
8
DEFAULT_255_2_778
10
74.4618428
20
59.8871251
40
1.0142127
50
359.9991329
51
1.5783578
0
ARC
8
DEFAULT_255_2_778
10
74.480211
20
52.6066008
40
0.9958445
50
314.9248746
51
0.0005149
0
ARC
8
DEFAULT_255_2_778
10
74.477236
20
52.6091842
40
0.9997745
50
269.9941346
51
314.9410345
0
LINE
8
DEFAULT_255_2_778
10
74.4771337
20
51.6094097
11
74.4767554
21
51.6094097
0
ARC
8
DEFAULT_255_2_778
10
71.4491634
20
51.1101018
40
0.4993081
50
89.9435421
51
179.9417196
0
ARC
8
DEFAULT_255_2_778
10
71.4488583
20
43.4314035
40
0.4990029
50
180.033736
51
225.0236226
0
ARC
8
DEFAULT_255_2_778
10
71.4493842
20
43.4327062
40
0.5002964
50
225.0864633
51
269.9967071
0
ARC
8
DEFAULT_255_2_778
10
74.4780313
20
41.9357792
40
0.9966318
50
48.759772
51
90.0905956
0
ARC
8
DEFAULT_255_2_778
10
74.4814462
20
41.9357665
40
0.9943936
50
1.5610423
51
48.9082109
0
ARC
8
DEFAULT_255_2_778
10
74.4619887
20
41.9349249
40
1.0138668
50
359.999142
51
1.5786277
0
ARC
8
DEFAULT_255_2_778
10
74.4801007
20
34.8223633
40
0.9957547
50
314.9146041
51
0.0026739
0
ARC
8
DEFAULT_255_2_778
10
74.4766587
20
34.8255549
40
1.0004451
50
269.988357
51
314.9251457
0
ARC
8
DEFAULT_255_2_778
10
65.5421255
20
34.8217655
40
0.9966569
50
228.5882478
51
270.0879504
0
ARC
8
DEFAULT_255_2_778
10
65.5386243
20
34.8217778
40
0.9943538
50
181.5567587
51
228.740022
0
ARC
8
DEFAULT_255_2_778
10
65.5582792
20
34.8226023
40
1.0140239
50
179.9995789
51
181.5731568
0
ARC
8
DEFAULT_255_2_778
10
65.537052
20
77.6728759
40
0.9927974
50
137.601318
51
180.0730717
0
ARC
8
DEFAULT_255_2_778
10
65.542264
20
77.6714972
40
0.997579
50
91.8859049
51
137.7446899
0
ARC
8
DEFAULT_255_2_778
10
65.543631
20
77.6498228
40
1.0192868
50
89.9986254
51
91.9226083
0
ARC
8
DEFAULT_255_2_778
10
65.5427342
20
34.8231691
40
0.4986788
50
180.0298052
51
225.0552989
0
ARC
8
DEFAULT_255_2_778
10
65.5437523
20
34.8243292
40
0.5002193
50
225.0666247
51
269.9889006
0
ARC
8
DEFAULT_255_2_778
10
74.4763623
20
34.8245619
40
0.5004522
50
270.0106561
51
314.9223576
0
ARC
8
DEFAULT_255_2_778
10
74.4775747
20
34.8229869
40
0.4984807
50
314.9515207
51
359.9911305
0
ARC
8
DEFAULT_255_2_778
10
74.4766195
20
41.9347735
40
0.4994363
50
0.072993
51
90.0417649
0
LINE
8
DEFAULT_255_2_778
10
71.4491554
20
42.4342097
11
71.4487772
21
42.4342097
0
ARC
8
DEFAULT_255_2_778
10
71.4486027
20
43.4338096
40
0.9996
50
225.0548217
51
270.0099999
0
ARC
8
DEFAULT_255_2_778
10
71.4463941
20
43.4318303
40
0.9966388
50
180.0241757
51
225.0643024
0
ARC
8
DEFAULT_255_2_778
10
71.4420757
20
51.1122247
40
0.9923211
50
137.5906512
51
180.0759231
0
ARC
8
DEFAULT_255_2_778
10
71.4476658
20
51.1103729
40
0.9977003
50
91.8800357
51
137.7286421
0
ARC
8
DEFAULT_255_2_778
10
71.4491369
20
51.0881121
40
1.0199977
50
89.9989612
51
91.9216028
0
ARC
8
DEFAULT_255_2_778
10
74.4762607
20
52.6080815
40
0.4999718
50
269.9994001
51
314.94514
0
ARC
8
DEFAULT_255_2_778
10
74.4776934
20
52.6068133
40
0.4980621
50
314.9315431
51
0.0110901
0
ARC
8
DEFAULT_255_2_778
10
74.4764688
20
59.886823
40
0.499287
50
0.0673273
51
90.0589128
0
LINE
8
DEFAULT_255_2_778
10
71.4488554
20
60.3861097
11
71.4484777
21
60.3861097
0
ARC
8
DEFAULT_255_2_778
10
71.4486213
20
61.3864802
40
1.0003705
50
225.0730818
51
269.9917742
0
ARC
8
DEFAULT_255_2_778
10
71.4464438
20
61.383734
40
0.9968884
50
180.024383
51
225.0502275
0
ARC
8
DEFAULT_255_2_778
10
71.4424332
20
69.0641543
40
0.9928786
50
137.6070128
51
180.0718174
0
ARC
8
DEFAULT_255_2_778
10
71.4474819
20
69.0629634
40
0.9974133
50
91.8872381
51
137.7520235
0
ARC
8
DEFAULT_255_2_778
10
71.448825
20
69.0418366
40
1.0185731
50
89.9982886
51
91.9236127
0
ARC
8
DEFAULT_255_2_778
10
74.4759987
20
70.5605321
40
0.5001224
50
269.9950445
51
314.9217753
0
ARC
8
DEFAULT_255_2_778
10
74.4773947
20
70.5590128
40
0.4980608
50
314.9314816
51
0.0111491
0
ARC
8
DEFAULT_255_2_778
10
74.4761476
20
77.6711019
40
0.4993081
50
0.0582747
51
90.0564798
0
ARC
8
DEFAULT_255_2_778
10
65.5423635
20
77.6711017
40
0.4993083
50
89.9435479
51
179.9417057
0
ARC
8
DEFAULT_255_2_778
10
74.4834836
20
34.820933
40
1.0743728
50
320.5257504
51
0.0787514
0
ARC
8
DEFAULT_255_2_778
10
74.4769604
20
34.8231999
40
1.0808519
50
273.4694677
51
320.6528273
0
ARC
8
DEFAULT_255_2_778
10
74.4757273
20
34.8430675
40
1.1007577
50
269.9962574
51
273.4709492
0
ARC
8
DEFAULT_255_2_778
10
65.5410881
20
34.8211381
40
1.0788298
50
231.8527762
51
270.0938589
0
ARC
8
DEFAULT_255_2_778
10
65.5384498
20
34.8218924
40
1.0777965
50
183.3868141
51
231.9878459
0
ARC
8
DEFAULT_255_2_778
10
65.5550421
20
34.8223432
40
1.0943867
50
179.9965165
51
183.359054
0
ARC
8
DEFAULT_255_2_778
10
65.540517
20
77.6709167
40
1.0798618
50
134.9462932
51
179.9632279
0
ARC
8
DEFAULT_255_2_778
10
65.5427588
20
77.6686836
40
1.083026
50
89.9948866
51
134.946777
0
ARC
8
DEFAULT_255_2_778
10
74.4774227
20
77.6728813
40
1.0788298
50
51.8527762
51
90.0938589
0
ARC
8
DEFAULT_255_2_778
10
74.4800611
20
77.672127
40
1.0777965
50
3.3868141
51
51.9878459
0
ARC
8
DEFAULT_255_2_778
10
74.4634688
20
77.6716763
40
1.0943867
50
359.9965165
51
3.359054
0
ARC
8
DEFAULT_255_2_778
10
74.4784148
20
70.559628
40
1.0794407
50
314.9370341
51
359.9724918
0
ARC
8
DEFAULT_255_2_778
10
74.4759641
20
70.5618653
40
1.0827556
50
269.9836635
51
314.945208
0
ARC
8
DEFAULT_255_2_778
10
71.4482617
20
69.0627035
40
0.4164064
50
89.9595786
51
179.9441011
0
ARC
8
DEFAULT_255_2_778
10
71.4476025
20
61.3836177
40
0.415747
50
180.0010935
51
225.0449132
0
ARC
8
DEFAULT_255_2_778
10
71.4481246
20
61.3843292
40
0.4166195
50
225.0632304
51
270.0592436
0
ARC
8
DEFAULT_255_2_778
10
74.4774189
20
59.8888423
40
1.0788689
50
51.8541455
51
90.0936536
0
ARC
8
DEFAULT_255_2_778
10
74.4801609
20
59.8881802
40
1.0776991
50
3.3890588
51
51.9905328
0
ARC
8
DEFAULT_255_2_778
10
74.4638148
20
59.8877761
40
1.0940407
50
359.9965247
51
3.3595785
0
ARC
8
DEFAULT_255_2_778
10
74.4784142
20
52.6076282
40
1.0794413
50
314.9370486
51
359.9724827
0
ARC
8
DEFAULT_255_2_778
10
74.4757899
20
52.6102865
40
1.0831768
50
269.9928887
51
314.9359957
0
ARC
8
DEFAULT_255_2_778
10
71.4482404
20
51.1107246
40
0.4163852
50
89.9566462
51
179.933249
0
ARC
8
DEFAULT_255_2_778
10
71.4476025
20
43.4316177
40
0.415747
50
180.0010935
51
225.0449132
0
ARC
8
DEFAULT_255_2_778
10
71.448299
20
43.432751
40
0.4170413
50
225.0872052
51
270.0352315
0
ARC
8
DEFAULT_255_2_778
10
74.4774189
20
41.9368423
40
1.0788689
50
51.8541455
51
90.0936536
0
ARC
8
DEFAULT_255_2_778
10
74.4801609
20
41.9361802
40
1.0776991
50
3.3890588
51
51.9905328
0
ARC
8
DEFAULT_255_2_778
10
74.4638148
20
41.9357761
40
1.0940407
50
359.9965247
51
3.3595785
0
ARC
8
DEFAULT_255_2_778
10
74.4765448
20
59.8880244
40
0.4391106
50
359.9850355
51
45.0530273
0
ARC
8
DEFAULT_255_2_778
10
74.4766171
20
59.8881149
40
0.4389955
50
45.0513685
51
90.0268173
0
LINE
8
DEFAULT_255_2_778
10
74.4764117
20
60.3271104
11
74.4756554
21
60.3271097
0
ARC
8
DEFAULT_255_2_778
10
71.4482856
20
61.3865409
40
1.0594312
50
225.0535783
51
270.0145944
0
ARC
8
DEFAULT_255_2_778
10
71.445098
20
61.3839456
40
1.0553425
50
180.0019473
51
225.0765232
0
ARC
8
DEFAULT_255_2_778
10
71.443835
20
69.0633823
40
1.0540796
50
140.3655345
51
179.9985114
0
ARC
8
DEFAULT_255_2_778
10
71.4471747
20
69.0637938
40
1.056392
50
92.8510875
51
140.4982662
0
ARC
8
DEFAULT_255_2_778
10
71.4481377
20
69.0444666
40
1.0757431
50
89.9974788
51
92.8511136
0
LINE
8
DEFAULT_255_2_778
10
71.4481851
20
70.1202098
11
71.4485554
21
70.1202097
0
ARC
8
DEFAULT_255_2_778
10
74.4765025
20
70.4391015
40
0.3188928
50
269.8478122
51
270.0507725
0
ARC
8
DEFAULT_255_2_778
10
74.4767882
20
70.5587885
40
0.4385802
50
269.9995858
51
314.9712176
0
ARC
8
DEFAULT_255_2_778
10
74.4767181
20
70.5592232
40
0.4389373
50
314.9375959
51
0.0243525
0
ARC
8
DEFAULT_255_2_778
10
74.4769178
20
77.6719791
40
0.4387376
50
359.9909413
51
45.0547614
0
ARC
8
DEFAULT_255_2_778
10
74.475606
20
77.670153
40
0.4409569
50
45.1017406
51
89.9935762
0
ARC
8
DEFAULT_255_2_778
10
65.542905
20
77.6701528
40
0.440957
50
90.0064368
51
134.8982503
0
ARC
8
DEFAULT_255_2_778
10
65.5420131
20
77.6718048
40
0.4391576
50
134.967957
51
179.9863049
0
ARC
8
DEFAULT_255_2_778
10
65.5418394
20
34.8229426
40
0.438984
50
180.0042946
51
225.0414324
0
ARC
8
DEFAULT_255_2_778
10
65.5429051
20
34.8246673
40
0.4409576
50
225.1017919
51
269.9935484
0
ARC
8
DEFAULT_255_2_778
10
74.4756059
20
34.8246671
40
0.4409573
50
270.0064405
51
314.8982212
0
ARC
8
DEFAULT_255_2_778
10
74.47709
20
34.822769
40
0.4385653
50
314.935902
51
0.0183906
0
ARC
8
DEFAULT_255_2_778
10
74.4765448
20
41.9355244
40
0.4391106
50
359.9850355
51
45.0530273
0
ARC
8
DEFAULT_255_2_778
10
74.4766171
20
41.9356149
40
0.4389955
50
45.0513685
51
90.0268173
0
LINE
8
DEFAULT_255_2_778
10
74.4764117
20
42.3746104
11
74.4756554
21
42.3746097
0
LINE
8
DEFAULT_255_2_778
10
71.4485554
20
42.3746097
11
71.4480001
21
42.3746096
0
ARC
8
DEFAULT_255_2_778
10
71.4464447
20
43.4284188
40
1.0538104
50
230.4509169
51
270.0845644
0
ARC
8
DEFAULT_255_2_778
10
71.4462054
20
43.4320028
40
1.0564244
50
182.9383601
51
230.5846938
0
ARC
8
DEFAULT_255_2_778
10
71.4653764
20
43.4330148
40
1.0756222
50
180.0854969
51
182.939848
0
ARC
8
DEFAULT_255_2_778
10
71.4450975
20
51.1108741
40
1.0553421
50
134.9234676
51
179.9980628
0
ARC
8
DEFAULT_255_2_778
10
71.4485062
20
51.1074025
40
1.0602072
50
89.9973414
51
134.9214168
0
ARC
8
DEFAULT_255_2_778
10
74.4756064
20
52.6085658
40
0.440956
50
270.006368
51
314.8982882
0
ARC
8
DEFAULT_255_2_778
10
74.4766849
20
52.606837
40
0.4389705
50
314.9578452
51
0.009487
0
ARC
8
DEFAULT_255_2_778
10
68.3867111
20
75.4810731
40
0.5012367
50
90.0406526
51
109.9905838
0
ARC
8
DEFAULT_255_2_778
10
73.3837049
20
76.4816606
40
0.499351
50
269.9484309
51
359.9253234
0
ARC
8
DEFAULT_255_2_778
10
73.3837049
20
76.480359
40
0.499351
50
0.0746651
51
90.0515692
0
ARC
8
DEFAULT_255_2_778
10
68.387327
20
75.4805107
40
1.4991992
50
89.9798048
51
109.9762203
0
ARC
8
DEFAULT_255_2_778
10
66.6363866
20
75.908561
40
0.4991382
50
109.9286636
51
179.9377798
0
ARC
8
DEFAULT_255_2_778
10
66.6305462
20
75.9091056
40
0.4932975
50
180.0002937
51
188.4075186
0
ARC
8
DEFAULT_255_2_778
10
66.6363365
20
75.9101363
40
0.4991764
50
188.4273723
51
200.0975219
0
ARC
8
DEFAULT_255_2_778
10
66.6371686
20
75.9105027
40
0.5000837
50
200.1041879
51
269.9879509
0
ARC
8
DEFAULT_255_2_778
10
66.6370585
20
75.9067515
40
0.4963324
50
270.0005721
51
278.4179302
0
ARC
8
DEFAULT_255_2_778
10
66.6360176
20
75.9126365
40
0.5023066
50
278.4371076
51
290.0289953
0
ARC
8
DEFAULT_255_2_778
10
68.3864161
20
72.9876819
40
0.5011277
50
90.0069381
51
109.9592342
0
ARC
8
DEFAULT_255_2_778
10
73.3836834
20
73.9881819
40
0.4993723
50
269.9508907
51
359.9343571
0
ARC
8
DEFAULT_255_2_778
10
73.3837049
20
73.986959
40
0.499351
50
0.0746651
51
90.0515692
0
ARC
8
DEFAULT_255_2_778
10
68.387327
20
72.9871107
40
1.4991992
50
89.9798048
51
109.9762203
0
ARC
8
DEFAULT_255_2_778
10
66.636402
20
73.4151503
40
0.4991536
50
109.929903
51
179.9420435
0
ARC
8
DEFAULT_255_2_778
10
66.6307905
20
73.4156569
40
0.4935419
50
180.0001968
51
188.442216
0
ARC
8
DEFAULT_255_2_778
10
66.6367161
20
73.4167085
40
0.4995577
50
188.4617442
51
200.0903389
0
ARC
8
DEFAULT_255_2_778
10
66.6372566
20
73.4171457
40
0.5002156
50
200.1161016
51
269.9842657
0
ARC
8
DEFAULT_255_2_778
10
66.637115
20
73.4131569
40
0.4962267
50
270.0004963
51
278.4131458
0
ARC
8
DEFAULT_255_2_778
10
66.6360861
20
73.4189464
40
0.5021045
50
278.4326346
51
290.0290867
0
ARC
8
DEFAULT_255_2_778
10
68.3862871
20
70.4965736
40
0.4988361
50
89.9921544
51
110.0390801
0
ARC
8
DEFAULT_255_2_778
10
73.3837049
20
71.4947606
40
0.499351
50
269.9484309
51
359.9253234
0
ARC
8
DEFAULT_255_2_778
10
73.3836835
20
71.4935377
40
0.4993722
50
0.0656274
51
90.0491191
0
ARC
8
DEFAULT_255_2_778
10
68.3877482
20
70.4913146
40
1.5015952
50
89.9959097
51
109.9600921
0
ARC
8
DEFAULT_255_2_778
10
66.6362027
20
70.92179
40
0.4989544
50
109.9138556
51
179.9466986
0
ARC
8
DEFAULT_255_2_778
10
66.6307763
20
70.9222551
40
0.4935276
50
180.0001176
51
188.4475481
0
ARC
8
DEFAULT_255_2_778
10
66.6367108
20
70.9233076
40
0.4995524
50
188.4669569
51
200.0904539
0
ARC
8
DEFAULT_255_2_778
10
66.6372566
20
70.9237457
40
0.5002156
50
200.1161016
51
269.9842657
0
ARC
8
DEFAULT_255_2_778
10
66.637115
20
70.9197569
40
0.4962267
50
270.0004963
51
278.4131458
0
ARC
8
DEFAULT_255_2_778
10
66.6360861
20
70.9255464
40
0.5021045
50
278.4326346
51
290.0290867
0
ARC
8
DEFAULT_255_2_778
10
68.3878622
20
37.0099045
40
0.4986948
50
249.9580444
51
269.9992214
0
ARC
8
DEFAULT_255_2_778
10
66.6360918
20
36.5813917
40
0.502085
50
69.9707999
51
81.5676984
0
ARC
8
DEFAULT_255_2_778
10
66.6371242
20
36.587214
40
0.4961742
50
81.5870402
51
89.9995262
0
ARC
8
DEFAULT_255_2_778
10
66.6372839
20
36.5831857
40
0.5002026
50
90.017818
51
159.8970109
0
ARC
8
DEFAULT_255_2_778
10
66.6363365
20
36.5835832
40
0.4991764
50
159.9024781
51
171.5726277
0
ARC
8
DEFAULT_255_2_778
10
66.6305462
20
36.5846139
40
0.4932976
50
171.5924814
51
179.9997063
0
ARC
8
DEFAULT_255_2_778
10
66.6363866
20
36.5851584
40
0.4991383
50
180.0622202
51
250.0713364
0
ARC
8
DEFAULT_255_2_778
10
68.3873271
20
37.0132098
40
1.4992002
50
250.0237882
51
270.0201901
0
LINE
8
DEFAULT_255_2_778
10
73.3848554
20
35.5140097
11
73.3851368
21
35.5140097
0
ARC
8
DEFAULT_255_2_778
10
73.3850785
20
36.0140563
40
0.5000467
50
270.0066799
51
329.8910267
0
ARC
8
DEFAULT_255_2_778
10
73.3878689
20
36.0124686
40
0.4968364
50
329.8879921
51
0.0119493
0
LINE
8
DEFAULT_255_2_778
10
73.8847054
20
36.0125722
11
73.8847053
21
36.0129307
0
ARC
8
DEFAULT_255_2_778
10
73.3874633
20
36.0126414
40
0.4972421
50
0.0333341
51
30.0994717
0
ARC
8
DEFAULT_255_2_778
10
73.3850785
20
36.0111632
40
0.5000468
50
30.1089733
51
89.9933201
0
LINE
8
DEFAULT_255_2_778
10
73.3851368
20
36.5112098
11
73.3848554
21
36.5112097
0
ARC
8
DEFAULT_255_2_778
10
68.3879916
20
41.999099
40
0.5009893
50
250.0379932
51
269.9844276
0
ARC
8
DEFAULT_255_2_778
10
66.6360176
20
41.567983
40
0.5023065
50
69.9710047
51
81.5628924
0
ARC
8
DEFAULT_255_2_778
10
66.6370585
20
41.573868
40
0.4963326
50
81.5820698
51
89.9994279
0
ARC
8
DEFAULT_255_2_778
10
66.6371686
20
41.5701168
40
0.5000837
50
90.0120491
51
159.8958121
0
ARC
8
DEFAULT_255_2_778
10
66.6367325
20
41.5704031
40
0.4995758
50
159.9094522
51
171.5059849
0
ARC
8
DEFAULT_255_2_778
10
66.6307009
20
41.5714747
40
0.4934522
50
171.5256059
51
179.9997985
0
ARC
8
DEFAULT_255_2_778
10
66.6363147
20
41.5720081
40
0.4990664
50
180.0610315
51
250.0771248
0
ARC
8
DEFAULT_255_2_778
10
68.3876194
20
42.0001091
40
1.4992994
50
250.0132809
51
270.0090186
0
ARC
8
DEFAULT_255_2_778
10
73.3849668
20
41.0009501
40
0.5001404
50
269.9872436
51
329.8980643
0
ARC
8
DEFAULT_255_2_778
10
73.3878804
20
40.9993656
40
0.496825
50
329.8876331
51
0.0108583
0
ARC
8
DEFAULT_255_2_778
10
73.3878819
20
40.9995545
40
0.4968236
50
359.9890689
51
30.112392
0
ARC
8
DEFAULT_255_2_778
10
73.3849669
20
40.9979697
40
0.50014
50
30.1019065
51
90.012772
0
ARC
8
DEFAULT_255_2_778
10
68.3882866
20
39.5057063
40
0.5010968
50
250.0065682
51
269.9506957
0
ARC
8
DEFAULT_255_2_778
10
66.6360861
20
39.0747731
40
0.5021045
50
69.9709133
51
81.5673654
0
ARC
8
DEFAULT_255_2_778
10
66.637115
20
39.0805626
40
0.4962267
50
81.5868542
51
89.9995037
0
ARC
8
DEFAULT_255_2_778
10
66.6372566
20
39.0765738
40
0.5002155
50
90.0157343
51
159.8838984
0
ARC
8
DEFAULT_255_2_778
10
66.6367161
20
39.077011
40
0.4995577
50
159.9096611
51
171.5382558
0
ARC
8
DEFAULT_255_2_778
10
66.6307905
20
39.0780626
40
0.4935419
50
171.557784
51
179.9998032
0
ARC
8
DEFAULT_255_2_778
10
66.636402
20
39.0785692
40
0.4991537
50
180.0579565
51
250.070097
0
ARC
8
DEFAULT_255_2_778
10
68.3873271
20
39.5066098
40
1.4992002
50
250.0237882
51
270.0201901
0
LINE
8
DEFAULT_255_2_778
10
73.3848554
20
38.0074097
11
73.3851368
21
38.0074097
0
ARC
8
DEFAULT_255_2_778
10
73.3850785
20
38.5074563
40
0.5000467
50
270.0066799
51
329.8910267
0
ARC
8
DEFAULT_255_2_778
10
73.3874633
20
38.5059781
40
0.4972423
50
329.9005283
51
359.9666659
0
LINE
8
DEFAULT_255_2_778
10
73.8847053
20
38.5056888
11
73.8847054
21
38.5060472
0
ARC
8
DEFAULT_255_2_778
10
73.3878704
20
38.5061515
40
0.496835
50
359.987978
51
30.112033
0
ARC
8
DEFAULT_255_2_778
10
73.3850785
20
38.5045632
40
0.5000468
50
30.1089733
51
89.9933201
0
LINE
8
DEFAULT_255_2_778
10
73.3851368
20
39.0046098
11
73.3848554
21
39.0046097
0
LINE
8
DEFAULT_255_2_778
10
76.5828554
20
45.8867097
11
76.1634554
21
45.8867097
0
LINE
8
DEFAULT_255_2_778
10
76.1634554
20
45.8867097
11
76.1634554
21
45.6631097
0
LINE
8
DEFAULT_255_2_778
10
76.1634554
20
45.6631097
11
76.5828554
21
45.6631097
0
LINE
8
DEFAULT_255_2_778
10
76.3989554
20
45.5398097
11
76.1634554
21
45.5398097
0
LINE
8
DEFAULT_255_2_778
10
76.1634554
20
45.5398097
11
76.1634554
21
45.6631097
0
LINE
8
DEFAULT_255_2_778
10
75.6639554
20
45.6017097
11
75.6639554
21
45.9481097
0
LINE
8
DEFAULT_255_2_778
10
75.6639554
20
45.9481097
11
75.7480554
21
46.0600097
0
LINE
8
DEFAULT_255_2_778
10
75.7480554
20
46.0600097
11
75.7896554
21
46.0632097
0
LINE
8
DEFAULT_255_2_778
10
75.7896554
20
46.0632097
11
76.3992554
21
46.0100097
0
LINE
8
DEFAULT_255_2_778
10
76.3992554
20
46.0100097
11
76.5831554
21
45.8867097
0
LINE
8
DEFAULT_255_2_778
10
76.5831554
20
45.8867097
11
76.5831554
21
45.6631097
0
LINE
8
DEFAULT_255_2_778
10
76.5831554
20
45.6631097
11
76.3992554
21
45.5398097
0
LINE
8
DEFAULT_255_2_778
10
76.3992554
20
45.5398097
11
75.7896554
21
45.4867097
0
LINE
8
DEFAULT_255_2_778
10
75.7896554
20
45.4867097
11
75.7480554
21
45.4898097
0
LINE
8
DEFAULT_255_2_778
10
75.7480554
20
45.4898097
11
75.6639554
21
45.6017097
0
LINE
8
DEFAULT_255_2_778
10
76.3989554
20
46.0100097
11
76.1634554
21
46.0100097
0
LINE
8
DEFAULT_255_2_778
10
76.1634554
20
46.0100097
11
76.1634554
21
45.8867097
0
LINE
8
DEFAULT_255_2_778
10
76.5831554
20
47.3832097
11
76.1637554
21
47.3832097
0
LINE
8
DEFAULT_255_2_778
10
76.1637554
20
47.3832097
11
76.1637554
21
47.1596097
0
LINE
8
DEFAULT_255_2_778
10
76.1637554
20
47.1596097
11
76.5831554
21
47.1596097
0
LINE
8
DEFAULT_255_2_778
10
76.3992554
20
47.0363097
11
76.1637554
21
47.0363097
0
LINE
8
DEFAULT_255_2_778
10
76.1637554
20
47.0363097
11
76.1637554
21
47.1596097
0
LINE
8
DEFAULT_255_2_778
10
75.6642554
20
47.0982097
11
75.6642554
21
47.4446097
0
LINE
8
DEFAULT_255_2_778
10
75.6642554
20
47.4446097
11
75.7483554
21
47.5565097
0
LINE
8
DEFAULT_255_2_778
10
75.7483554
20
47.5565097
11
75.7898554
21
47.5597097
0
LINE
8
DEFAULT_255_2_778
10
75.7898554
20
47.5597097
11
76.3994554
21
47.5065097
0
LINE
8
DEFAULT_255_2_778
10
76.3994554
20
47.5065097
11
76.5833554
21
47.3832097
0
LINE
8
DEFAULT_255_2_778
10
76.5833554
20
47.3832097
11
76.5833554
21
47.1596097
0
LINE
8
DEFAULT_255_2_778
10
76.5833554
20
47.1596097
11
76.3994554
21
47.0363097
0
LINE
8
DEFAULT_255_2_778
10
76.3994554
20
47.0363097
11
75.7898554
21
46.9831097
0
LINE
8
DEFAULT_255_2_778
10
75.7898554
20
46.9831097
11
75.7483554
21
46.9863097
0
LINE
8
DEFAULT_255_2_778
10
75.7483554
20
46.9863097
11
75.6642554
21
47.0982097
0
LINE
8
DEFAULT_255_2_778
10
76.3992554
20
47.5065097
11
76.1637554
21
47.5065097
0
LINE
8
DEFAULT_255_2_778
10
76.1637554
20
47.5065097
11
76.1637554
21
47.3832097
0
LINE
8
DEFAULT_255_2_778
10
75.6642554
20
48.5947097
11
75.6642554
21
48.9411097
0
LINE
8
DEFAULT_255_2_778
10
75.6642554
20
48.9411097
11
75.7483554
21
49.0530097
0
LINE
8
DEFAULT_255_2_778
10
75.7483554
20
49.0530097
11
75.7898554
21
49.0561097
0
LINE
8
DEFAULT_255_2_778
10
75.7898554
20
49.0561097
11
76.3994554
21
49.0030097
0
LINE
8
DEFAULT_255_2_778
10
76.3994554
20
49.0030097
11
76.5833554
21
48.8797097
0
LINE
8
DEFAULT_255_2_778
10
76.5833554
20
48.8797097
11
76.5833554
21
48.6561097
0
LINE
8
DEFAULT_255_2_778
10
76.5833554
20
48.6561097
11
76.3994554
21
48.5328097
0
LINE
8
DEFAULT_255_2_778
10
76.3994554
20
48.5328097
11
75.7898554
21
48.4796097
0
LINE
8
DEFAULT_255_2_778
10
75.7898554
20
48.4796097
11
75.7483554
21
48.4828097
0
LINE
8
DEFAULT_255_2_778
10
75.7483554
20
48.4828097
11
75.6642554
21
48.5947097
0
LINE
8
DEFAULT_255_2_778
10
76.5833554
20
48.8797097
11
76.1640554
21
48.8797097
0
LINE
8
DEFAULT_255_2_778
10
76.1640554
20
48.8797097
11
76.1640554
21
48.6561097
0
LINE
8
DEFAULT_255_2_778
10
76.1640554
20
48.6561097
11
76.5833554
21
48.6561097
0
LINE
8
DEFAULT_255_2_778
10
76.1640554
20
48.6561097
11
76.1640554
21
48.5328097
0
LINE
8
DEFAULT_255_2_778
10
76.1640554
20
48.5328097
11
76.3994554
21
48.5328097
0
LINE
8
DEFAULT_255_2_778
10
76.3994554
20
49.0030097
11
76.1640554
21
49.0030097
0
LINE
8
DEFAULT_255_2_778
10
76.1640554
20
49.0030097
11
76.1640554
21
48.8797097
0
LINE
8
DEFAULT_255_2_778
10
76.5836554
20
63.8403097
11
76.1642554
21
63.8403097
0
LINE
8
DEFAULT_255_2_778
10
76.1642554
20
63.8403097
11
76.1642554
21
63.6167097
0
LINE
8
DEFAULT_255_2_778
10
76.1642554
20
63.6167097
11
76.5836554
21
63.6167097
0
LINE
8
DEFAULT_255_2_778
10
76.3997554
20
63.4934097
11
76.1642554
21
63.4934097
0
LINE
8
DEFAULT_255_2_778
10
76.1642554
20
63.4934097
11
76.1642554
21
63.6167097
0
LINE
8
DEFAULT_255_2_778
10
75.6647554
20
63.5553097
11
75.6647554
21
63.9017097
0
LINE
8
DEFAULT_255_2_778
10
75.6647554
20
63.9017097
11
75.7488554
21
64.0136097
0
LINE
8
DEFAULT_255_2_778
10
75.7488554
20
64.0136097
11
75.7904554
21
64.0167097
0
LINE
8
DEFAULT_255_2_778
10
75.7904554
20
64.0167097
11
76.4000554
21
63.9636097
0
LINE
8
DEFAULT_255_2_778
10
76.4000554
20
63.9636097
11
76.5838554
21
63.8403097
0
LINE
8
DEFAULT_255_2_778
10
76.5838554
20
63.8403097
11
76.5838554
21
63.6167097
0
LINE
8
DEFAULT_255_2_778
10
76.5838554
20
63.6167097
11
76.4000554
21
63.4934097
0
LINE
8
DEFAULT_255_2_778
10
76.4000554
20
63.4934097
11
75.7904554
21
63.4402097
0
LINE
8
DEFAULT_255_2_778
10
75.7904554
20
63.4402097
11
75.7488554
21
63.4434097
0
LINE
8
DEFAULT_255_2_778
10
75.7488554
20
63.4434097
11
75.6647554
21
63.5553097
0
LINE
8
DEFAULT_255_2_778
10
76.3997554
20
63.9636097
11
76.1642554
21
63.9636097
0
LINE
8
DEFAULT_255_2_778
10
76.1642554
20
63.9636097
11
76.1642554
21
63.8403097
0
LINE
8
DEFAULT_255_2_778
10
76.5838554
20
65.3368097
11
76.1645554
21
65.3368097
0
LINE
8
DEFAULT_255_2_778
10
76.1645554
20
65.3368097
11
76.1645554
21
65.1132097
0
LINE
8
DEFAULT_255_2_778
10
76.1645554
20
65.1132097
11
76.5838554
21
65.1132097
0
LINE
8
DEFAULT_255_2_778
10
76.4000554
20
64.9899097
11
76.1645554
21
64.9899097
0
LINE
8
DEFAULT_255_2_778
10
76.1645554
20
64.9899097
11
76.1645554
21
65.1132097
0
LINE
8
DEFAULT_255_2_778
10
75.6649554
20
65.0518097
11
75.6649554
21
65.3981097
0
LINE
8
DEFAULT_255_2_778
10
75.6649554
20
65.3981097
11
75.7491554
21
65.5101097
0
LINE
8
DEFAULT_255_2_778
10
75.7491554
20
65.5101097
11
75.7906554
21
65.5132097
0
LINE
8
DEFAULT_255_2_778
10
75.7906554
20
65.5132097
11
76.4002554
21
65.4600097
0
LINE
8
DEFAULT_255_2_778
10
76.4002554
20
65.4600097
11
76.5841554
21
65.3368097
0
LINE
8
DEFAULT_255_2_778
10
76.5841554
20
65.3368097
11
76.5841554
21
65.1132097
0
LINE
8
DEFAULT_255_2_778
10
76.5841554
20
65.1132097
11
76.4002554
21
64.9899097
0
LINE
8
DEFAULT_255_2_778
10
76.4002554
20
64.9899097
11
75.7906554
21
64.9367097
0
LINE
8
DEFAULT_255_2_778
10
75.7906554
20
64.9367097
11
75.7491554
21
64.9399097
0
LINE
8
DEFAULT_255_2_778
10
75.7491554
20
64.9399097
11
75.6649554
21
65.0518097
0
LINE
8
DEFAULT_255_2_778
10
76.4000554
20
65.4600097
11
76.1645554
21
65.4600097
0
LINE
8
DEFAULT_255_2_778
10
76.1645554
20
65.4600097
11
76.1645554
21
65.3368097
0
LINE
8
DEFAULT_255_2_778
10
76.5841554
20
66.8332097
11
76.1647554
21
66.8332097
0
LINE
8
DEFAULT_255_2_778
10
76.1647554
20
66.8332097
11
76.1647554
21
66.6097097
0
LINE
8
DEFAULT_255_2_778
10
76.1647554
20
66.6097097
11
76.5841554
21
66.6097097
0
LINE
8
DEFAULT_255_2_778
10
76.4002554
20
66.4864097
11
76.1647554
21
66.4864097
0
LINE
8
DEFAULT_255_2_778
10
76.1647554
20
66.4864097
11
76.1647554
21
66.6097097
0
LINE
8
DEFAULT_255_2_778
10
75.6652554
20
66.5483097
11
75.6652554
21
66.8946097
0
LINE
8
DEFAULT_255_2_778
10
75.6652554
20
66.8946097
11
75.7494554
21
67.0065097
0
LINE
8
DEFAULT_255_2_778
10
75.7494554
20
67.0065097
11
75.7909554
21
67.0097097
0
LINE
8
DEFAULT_255_2_778
10
75.7909554
20
67.0097097
11
76.4005554
21
66.9565097
0
LINE
8
DEFAULT_255_2_778
10
76.4005554
20
66.9565097
11
76.5844554
21
66.8332097
0
LINE
8
DEFAULT_255_2_778
10
76.5844554
20
66.8332097
11
76.5844554
21
66.6097097
0
LINE
8
DEFAULT_255_2_778
10
76.5844554
20
66.6097097
11
76.4005554
21
66.4864097
0
LINE
8
DEFAULT_255_2_778
10
76.4005554
20
66.4864097
11
75.7909554
21
66.4332097
0
LINE
8
DEFAULT_255_2_778
10
75.7909554
20
66.4332097
11
75.7494554
21
66.4364097
0
LINE
8
DEFAULT_255_2_778
10
75.7494554
20
66.4364097
11
75.6652554
21
66.5483097
0
LINE
8
DEFAULT_255_2_778
10
76.4002554
20
66.9565097
11
76.1647554
21
66.9565097
0
LINE
8
DEFAULT_255_2_778
10
76.1647554
20
66.9565097
11
76.1647554
21
66.8332097
0
LINE
8
DEFAULT_255_2_778
10
76.9305554
20
49.0919097
11
77.7639554
21
49.0191097
0
LINE
8
DEFAULT_255_2_778
10
77.7639554
20
49.0191097
11
77.7639554
21
45.5285097
0
LINE
8
DEFAULT_255_2_778
10
77.7639554
20
45.5285097
11
76.9305554
21
45.4557097
0
LINE
8
DEFAULT_255_2_778
10
76.9305554
20
45.4557097
11
76.9305554
21
49.0919097
0
LINE
8
DEFAULT_255_2_778
10
76.9305554
20
49.0919097
11
75.6652554
21
49.2025097
0
LINE
8
DEFAULT_255_2_778
10
75.6652554
20
49.2025097
11
75.6652554
21
45.3454097
0
LINE
8
DEFAULT_255_2_778
10
75.6652554
20
45.3454097
11
76.9305554
21
45.4560097
0
LINE
8
DEFAULT_255_2_778
10
77.2644554
20
49.0630097
11
77.2644554
21
45.4851097
0
LINE
8
DEFAULT_255_2_778
10
75.4742554
20
49.2191097
11
75.4742554
21
45.3287097
0
LINE
8
DEFAULT_255_2_778
10
74.1492554
20
45.2131097
11
74.1492554
21
49.3348097
0
LINE
8
DEFAULT_255_2_778
10
74.2185554
20
45.2189097
11
74.2185554
21
49.3287097
0
LINE
8
DEFAULT_255_2_778
10
74.9860554
20
45.2861097
11
74.9860554
21
49.2617097
0
LINE
8
DEFAULT_255_2_778
10
76.9305554
20
63.4079097
11
77.7639554
21
63.4807097
0
LINE
8
DEFAULT_255_2_778
10
77.7639554
20
63.4807097
11
77.7639554
21
66.9713097
0
LINE
8
DEFAULT_255_2_778
10
77.7639554
20
66.9713097
11
75.6652554
21
67.1547097
0
LINE
8
DEFAULT_255_2_778
10
75.6652554
20
67.1547097
11
75.6652554
21
63.2976097
0
LINE
8
DEFAULT_255_2_778
10
75.6652554
20
63.2976097
11
76.9305554
21
63.4082097
0
LINE
8
DEFAULT_255_2_778
10
76.9305554
20
63.4082097
11
76.9305554
21
67.0444097
0
LINE
8
DEFAULT_255_2_778
10
77.2644554
20
63.4373097
11
77.2644554
21
67.0153097
0
LINE
8
DEFAULT_255_2_778
10
75.4742554
20
63.2812097
11
75.4742554
21
67.1716097
0
LINE
8
DEFAULT_255_2_778
10
74.1492554
20
63.1656097
11
74.1492554
21
67.2873097
0
LINE
8
DEFAULT_255_2_778
10
74.2185554
20
63.1714097
11
74.2185554
21
67.2812097
0
LINE
8
DEFAULT_255_2_778
10
74.9860554
20
63.2386097
11
74.9860554
21
67.2142097
0
LINE
8
DEFAULT_255_2_778
10
71.0337554
20
61.3833097
11
70.9509554
21
61.3833097
0
LINE
8
DEFAULT_255_2_778
10
70.3915554
20
61.3833097
11
70.4511554
21
61.3833097
0
LINE
8
DEFAULT_255_2_778
10
71.0337554
20
69.0629097
11
70.9509554
21
69.0629097
0
LINE
8
DEFAULT_255_2_778
10
70.3915554
20
69.0629097
11
70.4511554
21
69.0629097
0
LINE
8
DEFAULT_255_2_778
10
71.0337554
20
51.1106097
11
70.9509554
21
51.1106097
0
LINE
8
DEFAULT_255_2_778
10
70.3915554
20
51.1106097
11
70.4511554
21
51.1106097
0
LINE
8
DEFAULT_255_2_778
10
71.0337554
20
43.4311097
11
70.9509554
21
43.4311097
0
LINE
8
DEFAULT_255_2_778
10
70.3915554
20
43.4311097
11
70.4511554
21
43.4311097
0
LINE
8
DEFAULT_255_2_778
10
64.4622554
20
34.8226097
11
64.5450554
21
34.8226097
0
LINE
8
DEFAULT_255_2_778
10
65.1044554
20
34.8226097
11
65.0448554
21
34.8226097
0
LINE
8
DEFAULT_255_2_778
10
74.4775554
20
60.9674097
11
74.4775554
21
60.8846097
0
LINE
8
DEFAULT_255_2_778
10
74.4775554
20
60.3266097
11
74.4775554
21
60.3861097
0
LINE
8
DEFAULT_255_2_778
10
71.4504554
20
60.9674097
11
71.4504554
21
60.8846097
0
LINE
8
DEFAULT_255_2_778
10
71.4504554
20
60.3266097
11
71.4504554
21
60.3861097
0
LINE
8
DEFAULT_255_2_778
10
74.4775554
20
43.0152097
11
74.4775554
21
42.9324097
0
LINE
8
DEFAULT_255_2_778
10
74.4775554
20
42.3744097
11
74.4775554
21
42.4339097
0
LINE
8
DEFAULT_255_2_778
10
71.4504554
20
43.0152097
11
71.4504554
21
42.9324097
0
LINE
8
DEFAULT_255_2_778
10
71.4504554
20
42.3744097
11
71.4504554
21
42.4339097
0
LINE
8
DEFAULT_255_2_778
10
65.5446554
20
33.7423097
11
65.5446554
21
33.8251097
0
LINE
8
DEFAULT_255_2_778
10
65.5446554
20
34.3831097
11
65.5446554
21
34.3236097
0
LINE
8
DEFAULT_255_2_778
10
74.4775554
20
33.7423097
11
74.4775554
21
33.8251097
0
LINE
8
DEFAULT_255_2_778
10
74.4775554
20
34.3831097
11
74.4775554
21
34.3236097
0
LINE
8
DEFAULT_255_2_778
10
75.5596554
20
41.9349097
11
75.4768554
21
41.9349097
0
LINE
8
DEFAULT_255_2_778
10
74.9175554
20
41.9349097
11
74.9770554
21
41.9349097
0
LINE
8
DEFAULT_255_2_778
10
75.4768554
20
77.6714097
11
75.5596554
21
77.6714097
0
LINE
8
DEFAULT_255_2_778
10
74.9175554
20
77.6714097
11
74.9770554
21
77.6714097
0
LINE
8
DEFAULT_255_2_778
10
75.5596554
20
70.5588097
11
75.4768554
21
70.5588097
0
LINE
8
DEFAULT_255_2_778
10
74.9175554
20
70.5588097
11
74.9770554
21
70.5588097
0
LINE
8
DEFAULT_255_2_778
10
74.4772554
20
69.4788097
11
74.4772554
21
69.5616097
0
LINE
8
DEFAULT_255_2_778
10
74.4772554
20
70.1196097
11
74.4772554
21
70.0601097
0
LINE
8
DEFAULT_255_2_778
10
71.4501554
20
69.4788097
11
71.4501554
21
69.5616097
0
LINE
8
DEFAULT_255_2_778
10
71.4501554
20
70.1196097
11
71.4501554
21
70.0601097
0
LINE
8
DEFAULT_255_2_778
10
75.5594554
20
52.6066097
11
75.4766554
21
52.6066097
0
LINE
8
DEFAULT_255_2_778
10
74.9172554
20
52.6066097
11
74.9768554
21
52.6066097
0
LINE
8
DEFAULT_255_2_778
10
74.4770554
20
51.5266097
11
74.4770554
21
51.6094097
0
LINE
8
DEFAULT_255_2_778
10
74.4770554
20
52.1674097
11
74.4770554
21
52.1078097
0
LINE
8
DEFAULT_255_2_778
10
71.4499554
20
51.5266097
11
71.4499554
21
51.6094097
0
LINE
8
DEFAULT_255_2_778
10
71.4499554
20
52.1674097
11
71.4499554
21
52.1078097
0
LINE
8
DEFAULT_255_2_778
10
77.2620554
20
80.2016097
11
77.2620554
21
68.4644097
0
LINE
8
DEFAULT_255_2_778
10
77.2620554
20
68.4644097
11
72.5709554
21
68.4644097
0
LINE
8
DEFAULT_255_2_778
10
72.0494554
20
67.9440097
11
72.0494554
21
62.5020097
0
LINE
8
DEFAULT_255_2_778
10
72.5709554
20
61.9816097
11
77.0619554
21
61.9816097
0
LINE
8
DEFAULT_255_2_778
10
77.0619554
20
61.9816097
11
77.0619554
21
50.5121097
0
LINE
8
DEFAULT_255_2_778
10
77.0619554
20
50.5121097
11
72.5709554
21
50.5121097
0
LINE
8
DEFAULT_255_2_778
10
72.0494554
20
49.9917097
11
72.0494554
21
44.5498097
0
LINE
8
DEFAULT_255_2_778
10
72.5709554
20
44.0293097
11
77.0619554
21
44.0293097
0
LINE
8
DEFAULT_255_2_778
10
77.0619554
20
44.0293097
11
77.2617554
21
44.0293097
0
LINE
8
DEFAULT_255_2_778
10
77.2617554
20
44.0293097
11
77.2617554
21
32.2921097
0
LINE
8
DEFAULT_255_2_778
10
77.0119554
20
32.0429097
11
63.0083554
21
32.0429097
0
LINE
8
DEFAULT_255_2_778
10
62.7586554
20
32.2921097
11
62.7586554
21
80.2016097
0
LINE
8
DEFAULT_255_2_778
10
63.0083554
20
80.4508097
11
77.0122554
21
80.4508097
0
LINE
8
DEFAULT_255_2_778
10
75.4763554
20
77.6714097
11
75.4763554
21
70.5588097
0
LINE
8
DEFAULT_255_2_778
10
74.4770554
20
69.5616097
11
71.4499554
21
69.5616097
0
LINE
8
DEFAULT_255_2_778
10
70.9501554
20
69.0629097
11
70.9501554
21
61.3833097
0
LINE
8
DEFAULT_255_2_778
10
71.4496554
20
60.8846097
11
74.4767554
21
60.8846097
0
LINE
8
DEFAULT_255_2_778
10
75.4760554
20
59.8871097
11
75.4760554
21
52.6066097
0
LINE
8
DEFAULT_255_2_778
10
74.4767554
20
51.6094097
11
71.4496554
21
51.6094097
0
LINE
8
DEFAULT_255_2_778
10
70.9498554
20
51.1106097
11
70.9498554
21
43.4311097
0
LINE
8
DEFAULT_255_2_778
10
71.4493554
20
42.9324097
11
74.4764554
21
42.9324097
0
LINE
8
DEFAULT_255_2_778
10
75.4758554
20
41.9349097
11
75.4758554
21
34.8224097
0
LINE
8
DEFAULT_255_2_778
10
74.4764554
20
33.8251097
11
65.5436554
21
33.8251097
0
LINE
8
DEFAULT_255_2_778
10
64.5442554
20
34.8226097
11
64.5442554
21
77.6716097
0
LINE
8
DEFAULT_255_2_778
10
65.1036554
20
77.6719097
11
65.0440554
21
77.6719097
0
LINE
8
DEFAULT_255_2_778
10
65.0440554
20
77.6719097
11
65.0440554
21
34.8229097
0
LINE
8
DEFAULT_255_2_778
10
65.5436554
20
34.3241097
11
74.4764554
21
34.3241097
0
LINE
8
DEFAULT_255_2_778
10
74.9760554
20
34.8229097
11
74.9760554
21
41.9354097
0
LINE
8
DEFAULT_255_2_778
10
74.4762554
20
42.4342097
11
71.4491554
21
42.4342097
0
LINE
8
DEFAULT_255_2_778
10
70.4497554
20
43.4314097
11
70.4497554
21
51.1109097
0
LINE
8
DEFAULT_255_2_778
10
71.4491554
20
52.1081097
11
74.4762554
21
52.1081097
0
LINE
8
DEFAULT_255_2_778
10
74.9757554
20
52.6069097
11
74.9757554
21
59.8874097
0
LINE
8
DEFAULT_255_2_778
10
74.4759554
20
60.3861097
11
71.4488554
21
60.3861097
0
LINE
8
DEFAULT_255_2_778
10
70.4495554
20
61.3833097
11
70.4495554
21
69.0629097
0
LINE
8
DEFAULT_255_2_778
10
71.4488554
20
70.0604097
11
74.4759554
21
70.0604097
0
LINE
8
DEFAULT_255_2_778
10
74.9754554
20
70.5591097
11
74.9754554
21
77.6716097
0
LINE
8
DEFAULT_255_2_778
10
74.4756554
20
78.1704097
11
65.5428554
21
78.1704097
0
LINE
8
DEFAULT_255_2_778
10
76.8087554
20
45.4425097
11
76.8087554
21
44.1195097
0
LINE
8
DEFAULT_255_2_778
10
76.8087554
20
44.1195097
11
77.5932554
21
44.1195097
0
LINE
8
DEFAULT_255_2_778
10
77.5932554
20
44.1195097
11
77.5932554
21
31.6950097
0
LINE
8
DEFAULT_255_2_778
10
77.5932554
20
31.6950097
11
62.4252554
21
31.6950097
0
LINE
8
DEFAULT_255_2_778
10
62.4252554
20
31.6950097
11
62.4252554
21
80.7990097
0
LINE
8
DEFAULT_255_2_778
10
62.4252554
20
80.7990097
11
77.5932554
21
80.7990097
0
LINE
8
DEFAULT_255_2_778
10
77.5932554
20
80.7990097
11
77.5932554
21
68.3744097
0
LINE
8
DEFAULT_255_2_778
10
77.5932554
20
68.3744097
11
76.8087554
21
68.3744097
0
LINE
8
DEFAULT_255_2_778
10
76.8087554
20
68.3744097
11
76.8087554
21
67.0515097
0
LINE
8
DEFAULT_255_2_778
10
74.4756554
20
33.7423097
11
65.5428554
21
33.7423097
0
LINE
8
DEFAULT_255_2_778
10
64.4606554
20
34.8224097
11
64.4606554
21
77.6716097
0
LINE
8
DEFAULT_255_2_778
10
65.5428554
20
78.7517097
11
74.4756554
21
78.7517097
0
LINE
8
DEFAULT_255_2_778
10
75.5578554
20
77.6716097
11
75.5578554
21
70.5591097
0
LINE
8
DEFAULT_255_2_778
10
74.4756554
20
69.4791097
11
71.4485554
21
69.4791097
0
LINE
8
DEFAULT_255_2_778
10
71.0318554
20
69.0631097
11
71.0318554
21
61.3836097
0
LINE
8
DEFAULT_255_2_778
10
71.4485554
20
60.9677097
11
74.4756554
21
60.9677097
0
LINE
8
DEFAULT_255_2_778
10
75.5578554
20
59.8877097
11
75.5578554
21
52.6071097
0
LINE
8
DEFAULT_255_2_778
10
74.4756554
20
51.5271097
11
71.4485554
21
51.5271097
0
LINE
8
DEFAULT_255_2_778
10
71.0318554
20
51.1112097
11
71.0318554
21
43.4316097
0
LINE
8
DEFAULT_255_2_778
10
71.4485554
20
43.0157097
11
74.4756554
21
43.0157097
0
LINE
8
DEFAULT_255_2_778
10
75.5578554
20
41.9357097
11
75.5578554
21
34.8231097
0
LINE
8
DEFAULT_255_2_778
10
75.5578554
20
34.8231097
11
75.4750554
21
34.8231097
0
LINE
8
DEFAULT_255_2_778
10
74.9752554
20
59.8879097
11
74.9156554
21
59.8879097
0
LINE
8
DEFAULT_255_2_778
10
74.4756554
20
60.3271097
11
71.4485554
21
60.3271097
0
LINE
8
DEFAULT_255_2_778
10
70.3897554
20
61.3839097
11
70.3897554
21
69.0634097
0
LINE
8
DEFAULT_255_2_778
10
71.4485554
20
70.1202097
11
74.4756554
21
70.1202097
0
LINE
8
DEFAULT_255_2_778
10
74.9156554
20
70.5594097
11
74.9156554
21
77.6719097
0
LINE
8
DEFAULT_255_2_778
10
74.4756554
20
78.1111097
11
65.5428554
21
78.1111097
0
LINE
8
DEFAULT_255_2_778
10
65.1028554
20
77.6719097
11
65.1028554
21
34.8229097
0
LINE
8
DEFAULT_255_2_778
10
65.5428554
20
34.3837097
11
74.4756554
21
34.3837097
0
LINE
8
DEFAULT_255_2_778
10
74.9156554
20
34.8229097
11
74.9156554
21
41.9354097
0
LINE
8
DEFAULT_255_2_778
10
74.4756554
20
42.3746097
11
71.4485554
21
42.3746097
0
LINE
8
DEFAULT_255_2_778
10
70.3897554
20
43.4314097
11
70.3897554
21
51.1109097
0
LINE
8
DEFAULT_255_2_778
10
71.4485554
20
52.1676097
11
74.4756554
21
52.1676097
0
LINE
8
DEFAULT_255_2_778
10
74.9156554
20
52.6069097
11
74.9156554
21
59.8874097
0
LINE
8
DEFAULT_255_2_778
10
76.6587554
20
67.0647097
11
76.6587554
21
68.3744097
0
LINE
8
DEFAULT_255_2_778
10
76.6587554
20
62.0721097
11
76.6587554
21
63.3817097
0
LINE
8
DEFAULT_255_2_778
10
76.6587554
20
44.1198097
11
76.6587554
21
45.4295097
0
LINE
8
DEFAULT_255_2_778
10
76.6587554
20
49.1125097
11
76.6587554
21
50.4222097
0
LINE
8
DEFAULT_255_2_778
10
76.1605554
20
62.0721097
11
76.1605554
21
63.3384097
0
LINE
8
DEFAULT_255_2_778
10
76.1605554
20
67.1084097
11
76.1605554
21
68.3747097
0
LINE
8
DEFAULT_255_2_778
10
76.1605554
20
44.1201097
11
76.1605554
21
45.3864097
0
LINE
8
DEFAULT_255_2_778
10
76.1605554
20
49.1564097
11
76.1605554
21
50.4227097
0
LINE
8
DEFAULT_255_2_778
10
72.0481554
20
49.5954097
11
72.8511554
21
49.5954097
0
LINE
8
DEFAULT_255_2_778
10
72.8511554
20
49.5954097
11
72.8511554
21
50.2335097
0
LINE
8
DEFAULT_255_2_778
10
72.8511554
20
50.2335097
11
72.1076554
21
50.2335097
0
LINE
8
DEFAULT_255_2_778
10
73.3049554
20
49.4057097
11
73.8176554
21
49.4057097
0
LINE
8
DEFAULT_255_2_778
10
73.8176554
20
49.4057097
11
73.8176554
21
50.4230097
0
LINE
8
DEFAULT_255_2_778
10
73.8176554
20
50.4230097
11
72.2770554
21
50.4230097
0
LINE
8
DEFAULT_255_2_778
10
72.1076554
20
62.2615097
11
72.8511554
21
62.2615097
0
LINE
8
DEFAULT_255_2_778
10
72.8511554
20
62.2615097
11
72.8511554
21
62.8994097
0
LINE
8
DEFAULT_255_2_778
10
72.8511554
20
62.8994097
11
72.0481554
21
62.8994097
0
LINE
8
DEFAULT_255_2_778
10
72.8511554
20
67.9659097
11
73.0509554
21
67.7664097
0
LINE
8
DEFAULT_255_2_778
10
73.0509554
20
67.7664097
11
73.0509554
21
67.5270097
0
LINE
8
DEFAULT_255_2_778
10
73.0509554
20
67.5270097
11
72.9151554
21
67.3915097
0
LINE
8
DEFAULT_255_2_778
10
72.8511554
20
62.8994097
11
73.0509554
21
62.6999097
0
LINE
8
DEFAULT_255_2_778
10
73.0509554
20
62.6999097
11
73.0509554
21
62.4605097
0
LINE
8
DEFAULT_255_2_778
10
73.0509554
20
62.4605097
11
72.8511554
21
62.2610097
0
LINE
8
DEFAULT_255_2_778
10
72.2770554
20
62.0715097
11
73.8176554
21
62.0715097
0
LINE
8
DEFAULT_255_2_778
10
73.8176554
20
62.0715097
11
73.8176554
21
63.0889097
0
LINE
8
DEFAULT_255_2_778
10
73.8176554
20
63.0889097
11
73.3049554
21
63.0889097
0
LINE
8
DEFAULT_255_2_778
10
72.8514554
20
50.2330097
11
73.0511554
21
50.0335097
0
LINE
8
DEFAULT_255_2_778
10
73.0511554
20
50.0335097
11
73.0511554
21
49.7941097
0
LINE
8
DEFAULT_255_2_778
10
73.0511554
20
49.7941097
11
72.8514554
21
49.5946097
0
LINE
8
DEFAULT_255_2_778
10
72.9154554
20
45.1025097
11
73.0511554
21
44.9670097
0
LINE
8
DEFAULT_255_2_778
10
73.0511554
20
44.9670097
11
73.0511554
21
44.7276097
0
LINE
8
DEFAULT_255_2_778
10
73.0511554
20
44.7276097
11
72.8514554
21
44.5281097
0
LINE
8
DEFAULT_255_2_778
10
72.0484554
20
62.9790097
11
75.6618554
21
63.2944097
0
LINE
8
DEFAULT_255_2_778
10
75.6618554
20
67.1515097
11
72.0484554
21
67.4669097
0
LINE
8
DEFAULT_255_2_778
10
72.0484554
20
45.0265097
11
75.6618554
21
45.3419097
0
LINE
8
DEFAULT_255_2_778
10
75.6618554
20
49.1990097
11
72.0484554
21
49.5144097
0
LINE
8
DEFAULT_255_2_778
10
68.3863554
20
75.9823097
11
73.3832554
21
75.9823097
0
LINE
8
DEFAULT_255_2_778
10
73.3832554
20
76.9797097
11
68.3878554
21
76.9797097
0
LINE
8
DEFAULT_255_2_778
10
67.8751554
20
76.8895097
11
66.4662554
21
76.3778097
0
LINE
8
DEFAULT_255_2_778
10
66.8080554
20
75.4407097
11
68.2153554
21
75.9521097
0
LINE
8
DEFAULT_255_2_778
10
68.3863554
20
73.4888097
11
73.3832554
21
73.4888097
0
LINE
8
DEFAULT_255_2_778
10
73.3832554
20
74.4863097
11
68.3878554
21
74.4863097
0
LINE
8
DEFAULT_255_2_778
10
67.8751554
20
74.3961097
11
66.4662554
21
73.8844097
0
LINE
8
DEFAULT_255_2_778
10
66.8080554
20
72.9472097
11
68.2153554
21
73.4587097
0
LINE
8
DEFAULT_255_2_778
10
68.3863554
20
70.9954097
11
73.3832554
21
70.9954097
0
LINE
8
DEFAULT_255_2_778
10
73.3832554
20
71.9929097
11
68.3878554
21
71.9929097
0
LINE
8
DEFAULT_255_2_778
10
67.8751554
20
71.9027097
11
66.4662554
21
71.3909097
0
LINE
8
DEFAULT_255_2_778
10
66.8080554
20
70.4538097
11
68.2153554
21
70.9652097
0
LINE
8
DEFAULT_255_2_778
10
65.5430554
20
78.7509097
11
65.5430554
21
78.6680097
0
LINE
8
DEFAULT_255_2_778
10
65.5430554
20
78.6680097
11
74.4759554
21
78.6680097
0
LINE
8
DEFAULT_255_2_778
10
74.4759554
20
78.6680097
11
74.4759554
21
78.7509097
0
LINE
8
DEFAULT_255_2_778
10
68.2169554
20
36.5414097
11
66.8080554
21
37.0531097
0
LINE
8
DEFAULT_255_2_778
10
66.4662554
20
36.1159097
11
67.8751554
21
35.6042097
0
LINE
8
DEFAULT_255_2_778
10
68.3878554
20
35.5140097
11
73.3848554
21
35.5140097
0
LINE
8
DEFAULT_255_2_778
10
73.3848554
20
36.5112097
11
68.3878554
21
36.5112097
0
LINE
8
DEFAULT_255_2_778
10
68.2169554
20
41.5282097
11
66.8080554
21
42.0399097
0
LINE
8
DEFAULT_255_2_778
10
66.4662554
20
41.1028097
11
67.8751554
21
40.5911097
0
LINE
8
DEFAULT_255_2_778
10
68.3878554
20
40.5008097
11
73.3848554
21
40.5008097
0
LINE
8
DEFAULT_255_2_778
10
73.3848554
20
41.4981097
11
68.3878554
21
41.4981097
0
LINE
8
DEFAULT_255_2_778
10
68.2169554
20
39.0348097
11
66.8080554
21
39.5465097
0
LINE
8
DEFAULT_255_2_778
10
66.4662554
20
38.6093097
11
67.8751554
21
38.0976097
0
LINE
8
DEFAULT_255_2_778
10
68.3878554
20
38.0074097
11
73.3848554
21
38.0074097
0
LINE
8
DEFAULT_255_2_778
10
73.3848554
20
39.0046097
11
68.3878554
21
39.0046097
0
LINE
8
DEFAULT_255_2_778
10
74.9175554
20
34.8224097
11
74.9770554
21
34.8224097
0
LINE
8
DEFAULT_255_2_778
10
65.5444554
20
78.1106097
11
65.5444554
21
78.1701097
0
LINE
8
DEFAULT_255_2_778
10
74.4772554
20
78.1106097
11
74.4772554
21
78.1701097
0
LINE
8
DEFAULT_255_2_778
10
75.5594554
20
59.8871097
11
75.4766554
21
59.8871097
0
LINE
8
DEFAULT_255_2_778
10
64.4620554
20
77.6714097
11
64.5448554
21
77.6714097
0
LINE
8
DEFAULT_255_2_778
10
73.0525554
20
68.1551097
11
73.0525554
21
68.4644097
0
LINE
8
DEFAULT_255_2_778
10
73.0525554
20
61.9816097
11
73.0525554
21
62.0713097
0
LINE
8
DEFAULT_255_2_778
10
73.0525554
20
50.4222097
11
73.0525554
21
50.5119097
0
LINE
8
DEFAULT_255_2_778
10
73.0525554
20
44.0291097
11
73.0525554
21
44.3384097
0
LINE
8
DEFAULT_255_2_778
10
72.0944554
20
44.3384097
11
73.8190554
21
44.3384097
0
LINE
8
DEFAULT_255_2_778
10
73.8190554
20
44.3384097
11
73.8190554
21
45.1811097
0
LINE
8
DEFAULT_255_2_778
10
73.8190554
20
67.3124097
11
73.8190554
21
68.1551097
0
LINE
8
DEFAULT_255_2_778
10
73.8190554
20
68.1551097
11
72.0944554
21
68.1551097
0
LINE
8
DEFAULT_255_2_778
10
72.0571554
20
44.5278097
11
72.8524554
21
44.5278097
0
LINE
8
DEFAULT_255_2_778
10
72.8524554
20
44.5278097
11
72.8524554
21
45.0967097
0
LINE
8
DEFAULT_255_2_778
10
72.8524554
20
67.3968097
11
72.8524554
21
67.9657097
0
LINE
8
DEFAULT_255_2_778
10
72.8524554
20
67.9657097
11
72.0587554
21
67.9657097
0
LINE
8
DEFAULT_255_2_778
10
76.8098554
20
44.1195097
11
76.1031554
21
44.1195097
0
LINE
8
DEFAULT_255_2_778
10
76.1031554
20
44.1195097
11
76.1031554
21
44.0293097
0
LINE
8
DEFAULT_255_2_778
10
76.8098554
20
62.0718097
11
76.1031554
21
62.0718097
0
LINE
8
DEFAULT_255_2_778
10
76.1031554
20
62.0718097
11
76.1031554
21
61.9816097
0
LINE
8
DEFAULT_255_2_778
10
76.8098554
20
50.4219097
11
76.1031554
21
50.4219097
0
LINE
8
DEFAULT_255_2_778
10
76.1031554
20
50.4219097
11
76.1031554
21
50.5121097
0
LINE
8
DEFAULT_255_2_778
10
76.8098554
20
68.3742097
11
76.1031554
21
68.3742097
0
LINE
8
DEFAULT_255_2_778
10
76.1031554
20
68.3742097
11
76.1031554
21
68.4644097
0
LINE
8
DEFAULT_255_2_778
10
76.8101554
20
63.3947097
11
76.8101554
21
62.0718097
0
LINE
8
DEFAULT_255_2_778
10
76.8101554
20
62.0718097
11
77.5946554
21
62.0718097
0
LINE
8
DEFAULT_255_2_778
10
77.5946554
20
62.0718097
11
77.5946554
21
50.4219097
0
LINE
8
DEFAULT_255_2_778
10
77.5946554
20
50.4219097
11
76.8101554
21
50.4219097
0
LINE
8
DEFAULT_255_2_778
10
76.8101554
20
50.4219097
11
76.8101554
21
49.0990097
0
ARC
8
DEFAULT_255_2_778
10
6.7221309
20
18.9628104
40
2.2144675
50
180.0000003
51
180.0487005
0
ARC
8
DEFAULT_255_2_778
10
6.4973375
20
18.9626787
40
1.9896742
50
134.937364
51
179.9962093
0
ARC
8
DEFAULT_255_2_778
10
6.4974607
20
18.9626686
40
1.9897685
50
90.0006316
51
134.9396697
0
ARC
8
DEFAULT_255_2_778
10
6.4975037
20
18.9789162
40
1.973521
50
89.8269538
51
90.0018856
0
ARC
8
DEFAULT_255_2_778
10
6.5061847
20
18.968164
40
1.984266
50
65.6914963
51
90.0785537
0
ARC
8
DEFAULT_255_2_778
10
6.5011882
20
18.9593874
40
1.9943216
50
9.7327699
51
65.6644723
0
ARC
8
DEFAULT_255_2_778
10
6.4903243
20
18.9617139
40
2.0046399
50
359.9775404
51
9.6147385
0
ARC
8
DEFAULT_255_2_778
10
6.5106998
20
18.9581988
40
1.9842663
50
335.6904155
51
0.078808
0
ARC
8
DEFAULT_255_2_778
10
6.5019122
20
18.9632273
40
1.9943449
50
279.7322514
51
335.6626906
0
ARC
8
DEFAULT_255_2_778
10
6.5042494
20
18.9739738
40
2.0045459
50
269.9775558
51
279.6144844
0
ARC
8
DEFAULT_255_2_778
10
6.4970645
20
18.9384456
40
1.9690279
50
270.0000171
51
270.186222
0
ARC
8
DEFAULT_255_2_778
10
6.4971499
20
18.9586744
40
1.9892566
50
225.0582602
51
269.9975569
0
ARC
8
DEFAULT_255_2_778
10
6.497395
20
18.9591014
40
1.9897318
50
180.0016095
51
225.0619494
0
ARC
8
DEFAULT_255_2_778
10
6.7232551
20
18.9590454
40
2.2155918
50
179.9513112
51
179.9999958
0
ARC
8
DEFAULT_255_2_778
10
6.4957883
20
18.9640288
40
1.4883273
50
151.1761897
51
180.1193662
0
ARC
8
DEFAULT_255_2_778
10
6.4987105
20
18.9611871
40
1.4922579
50
98.8395466
51
151.1346954
0
ARC
8
DEFAULT_255_2_778
10
6.5028612
20
18.9313154
40
1.5224128
50
89.9773058
51
98.8211438
0
ARC
8
DEFAULT_255_2_778
10
6.5066165
20
18.9574841
40
1.4962473
50
61.6299934
51
90.1207119
0
ARC
8
DEFAULT_255_2_778
10
6.5098614
20
18.9634461
40
1.4894597
50
7.9792325
51
61.6308484
0
ARC
8
DEFAULT_255_2_778
10
6.4851484
20
18.9614162
40
1.5142158
50
359.9815325
51
7.9254933
0
ARC
8
DEFAULT_255_2_778
10
6.5112587
20
18.9578983
40
1.4881085
50
331.1742905
51
0.1166572
0
ARC
8
DEFAULT_255_2_778
10
6.5079122
20
18.9608338
40
1.4924561
50
278.8492217
51
331.1375018
0
ARC
8
DEFAULT_255_2_778
10
6.5040637
20
18.9896136
40
1.5214855
50
269.9774245
51
278.8256999
0
ARC
8
DEFAULT_255_2_778
10
6.5002995
20
18.9645903
40
1.4964655
50
241.6321042
51
270.1211671
0
ARC
8
DEFAULT_255_2_778
10
6.4969331
20
18.9584072
40
1.4894256
50
187.9793041
51
241.6330428
0
ARC
8
DEFAULT_255_2_778
10
6.52168
20
18.9604401
40
1.5142158
50
179.9815325
51
187.9254935
0
LINE
8
DEFAULT_255_2_778
10
4.5076642
20
18.9609281
11
4.5076642
21
18.9609281
0
LINE
8
DEFAULT_255_2_778
10
5.0074642
20
18.9609281
11
5.0074642
21
18.9609281
0
ARC
8
DEFAULT_255_2_778
10
76.3259889
20
18.9636337
40
1.9915855
50
155.6914344
51
180.0787985
0
ARC
8
DEFAULT_255_2_778
10
76.3347421
20
18.9586174
40
2.001628
50
99.7980725
51
155.663717
0
ARC
8
DEFAULT_255_2_778
10
76.3324059
20
18.9478391
40
2.0118557
50
89.9772356
51
99.6802736
0
ARC
8
DEFAULT_255_2_778
10
76.3359443
20
18.9681111
40
1.9915855
50
65.6914344
51
90.0787985
0
ARC
8
DEFAULT_255_2_778
10
76.330928
20
18.9593579
40
2.001628
50
9.7980725
51
65.663717
0
ARC
8
DEFAULT_255_2_778
10
76.3201497
20
18.9616941
40
2.0118557
50
359.9772356
51
9.6802736
0
ARC
8
DEFAULT_255_2_778
10
76.3404216
20
18.9581557
40
1.9915855
50
335.6914344
51
0.0787985
0
ARC
8
DEFAULT_255_2_778
10
76.3316684
20
18.963172
40
2.001628
50
279.7980725
51
335.663717
0
ARC
8
DEFAULT_255_2_778
10
76.3340046
20
18.9739503
40
2.0118557
50
269.9772356
51
279.6802736
0
ARC
8
DEFAULT_255_2_778
10
76.3304663
20
18.9536784
40
1.9915855
50
245.6914344
51
270.0787985
0
ARC
8
DEFAULT_255_2_778
10
76.3354826
20
18.9624316
40
2.001628
50
189.7980725
51
245.663717
0
ARC
8
DEFAULT_255_2_778
10
76.3462609
20
18.9600954
40
2.0118557
50
179.9772356
51
189.6802736
0
ARC
8
DEFAULT_255_2_778
10
76.3257121
20
18.9639762
40
1.49151
50
151.1782585
51
180.1183723
0
ARC
8
DEFAULT_255_2_778
10
76.3286587
20
18.9611682
40
1.4954458
50
98.8414041
51
151.1384282
0
ARC
8
DEFAULT_255_2_778
10
76.3327996
20
18.9312466
40
1.5256484
50
89.9772544
51
98.8223541
0
ARC
8
DEFAULT_255_2_778
10
76.3366072
20
18.957213
40
1.4996851
50
61.6342882
51
90.1223291
0
ARC
8
DEFAULT_255_2_778
10
76.3400314
20
18.9636325
40
1.4924096
50
7.9732951
51
61.6328748
0
ARC
8
DEFAULT_255_2_778
10
76.3144046
20
18.9613858
40
1.5181008
50
359.9814674
51
7.9231099
0
ARC
8
DEFAULT_255_2_778
10
76.3410968
20
18.957806
40
1.4914117
50
331.1775403
51
0.1186611
0
ARC
8
DEFAULT_255_2_778
10
76.338153
20
18.9606275
40
1.4953515
50
278.8409052
51
331.1372001
0
ARC
8
DEFAULT_255_2_778
10
76.3340122
20
18.9905218
40
1.5255272
50
269.9772064
51
278.8220202
0
ARC
8
DEFAULT_255_2_778
10
76.3301825
20
18.9650309
40
1.5000397
50
241.6395741
51
270.1230965
0
ARC
8
DEFAULT_255_2_778
10
76.3264877
20
18.9581352
40
1.4922164
50
187.9734082
51
241.6386445
0
ARC
8
DEFAULT_255_2_778
10
76.352259
20
18.9604025
40
1.5180538
50
179.9814232
51
187.9232329
0
LINE
8
DEFAULT_255_2_778
10
74.3344053
20
18.9608947
11
74.3344053
21
18.9608947
0
LINE
8
DEFAULT_255_2_778
10
74.8342053
20
18.9608947
11
74.8342053
21
18.9608947
0
ARC
8
DEFAULT_255_2_778
10
6.7221309
20
93.5348104
40
2.2144675
50
180.0000003
51
180.0487005
0
ARC
8
DEFAULT_255_2_778
10
6.4973375
20
93.5346787
40
1.9896742
50
134.937364
51
179.9962093
0
ARC
8
DEFAULT_255_2_778
10
6.4974607
20
93.5346686
40
1.9897685
50
90.0006316
51
134.9396697
0
ARC
8
DEFAULT_255_2_778
10
6.4975037
20
93.5509162
40
1.973521
50
89.8269538
51
90.0018856
0
ARC
8
DEFAULT_255_2_778
10
6.5061847
20
93.540164
40
1.984266
50
65.6914963
51
90.0785537
0
ARC
8
DEFAULT_255_2_778
10
6.5011882
20
93.5313874
40
1.9943216
50
9.7327699
51
65.6644723
0
ARC
8
DEFAULT_255_2_778
10
6.4903243
20
93.5337139
40
2.0046399
50
359.9775404
51
9.6147385
0
ARC
8
DEFAULT_255_2_778
10
6.5106998
20
93.5301988
40
1.9842663
50
335.6904155
51
0.078808
0
ARC
8
DEFAULT_255_2_778
10
6.5019122
20
93.5352273
40
1.9943449
50
279.7322514
51
335.6626906
0
ARC
8
DEFAULT_255_2_778
10
6.5042494
20
93.5459738
40
2.0045459
50
269.9775558
51
279.6144844
0
ARC
8
DEFAULT_255_2_778
10
6.4970645
20
93.5104456
40
1.9690279
50
270.0000171
51
270.186222
0
ARC
8
DEFAULT_255_2_778
10
6.4971499
20
93.5306744
40
1.9892566
50
225.0582602
51
269.9975569
0
ARC
8
DEFAULT_255_2_778
10
6.497395
20
93.5311014
40
1.9897318
50
180.0016095
51
225.0619494
0
ARC
8
DEFAULT_255_2_778
10
6.7232551
20
93.5310454
40
2.2155918
50
179.9513112
51
179.9999958
0
ARC
8
DEFAULT_255_2_778
10
6.4957883
20
93.5360288
40
1.4883273
50
151.1761897
51
180.1193662
0
ARC
8
DEFAULT_255_2_778
10
6.4987105
20
93.5331871
40
1.4922579
50
98.8395466
51
151.1346954
0
ARC
8
DEFAULT_255_2_778
10
6.5028612
20
93.5033154
40
1.5224128
50
89.9773058
51
98.8211438
0
ARC
8
DEFAULT_255_2_778
10
6.5066165
20
93.5294841
40
1.4962473
50
61.6299934
51
90.1207119
0
ARC
8
DEFAULT_255_2_778
10
6.5098614
20
93.5354461
40
1.4894597
50
7.9792325
51
61.6308484
0
ARC
8
DEFAULT_255_2_778
10
6.4851484
20
93.5334162
40
1.5142158
50
359.9815325
51
7.9254933
0
ARC
8
DEFAULT_255_2_778
10
6.5112587
20
93.5298983
40
1.4881085
50
331.1742905
51
0.1166572
0
ARC
8
DEFAULT_255_2_778
10
6.5079122
20
93.5328338
40
1.4924561
50
278.8492217
51
331.1375018
0
ARC
8
DEFAULT_255_2_778
10
6.5040637
20
93.5616136
40
1.5214855
50
269.9774245
51
278.8256999
0
ARC
8
DEFAULT_255_2_778
10
6.5002995
20
93.5365903
40
1.4964655
50
241.6321042
51
270.1211671
0
ARC
8
DEFAULT_255_2_778
10
6.4969331
20
93.5304072
40
1.4894256
50
187.9793041
51
241.6330428
0
ARC
8
DEFAULT_255_2_778
10
6.52168
20
93.5324401
40
1.5142158
50
179.9815325
51
187.9254935
0
LINE
8
DEFAULT_255_2_778
10
4.5076642
20
93.5329281
11
4.5076642
21
93.5329281
0
LINE
8
DEFAULT_255_2_778
10
5.0074642
20
93.5329281
11
5.0074642
21
93.5329281
0
ARC
8
DEFAULT_255_2_778
10
76.3259889
20
93.5356337
40
1.9915855
50
155.6914344
51
180.0787985
0
ARC
8
DEFAULT_255_2_778
10
76.3347421
20
93.5306174
40
2.001628
50
99.7980725
51
155.663717
0
ARC
8
DEFAULT_255_2_778
10
76.3324059
20
93.5198391
40
2.0118557
50
89.9772356
51
99.6802736
0
ARC
8
DEFAULT_255_2_778
10
76.3359443
20
93.5401111
40
1.9915855
50
65.6914344
51
90.0787985
0
ARC
8
DEFAULT_255_2_778
10
76.330928
20
93.5313579
40
2.001628
50
9.7980725
51
65.663717
0
ARC
8
DEFAULT_255_2_778
10
76.3201497
20
93.5336941
40
2.0118557
50
359.9772356
51
9.6802736
0
ARC
8
DEFAULT_255_2_778
10
76.3404216
20
93.5301557
40
1.9915855
50
335.6914344
51
0.0787985
0
ARC
8
DEFAULT_255_2_778
10
76.3316684
20
93.535172
40
2.001628
50
279.7980725
51
335.663717
0
ARC
8
DEFAULT_255_2_778
10
76.3340046
20
93.5459503
40
2.0118557
50
269.9772356
51
279.6802736
0
ARC
8
DEFAULT_255_2_778
10
76.3304663
20
93.5256784
40
1.9915855
50
245.6914344
51
270.0787985
0
ARC
8
DEFAULT_255_2_778
10
76.3354826
20
93.5344316
40
2.001628
50
189.7980725
51
245.663717
0
ARC
8
DEFAULT_255_2_778
10
76.3462609
20
93.5320954
40
2.0118557
50
179.9772356
51
189.6802736
0
ARC
8
DEFAULT_255_2_778
10
76.3257121
20
93.5359762
40
1.49151
50
151.1782585
51
180.1183723
0
ARC
8
DEFAULT_255_2_778
10
76.3286587
20
93.5331682
40
1.4954458
50
98.8414041
51
151.1384282
0
ARC
8
DEFAULT_255_2_778
10
76.3327996
20
93.5032466
40
1.5256484
50
89.9772544
51
98.8223541
0
ARC
8
DEFAULT_255_2_778
10
76.3366072
20
93.529213
40
1.4996851
50
61.6342882
51
90.1223291
0
ARC
8
DEFAULT_255_2_778
10
76.3400314
20
93.5356325
40
1.4924096
50
7.9732951
51
61.6328748
0
ARC
8
DEFAULT_255_2_778
10
76.3144046
20
93.5333858
40
1.5181008
50
359.9814674
51
7.9231099
0
ARC
8
DEFAULT_255_2_778
10
76.3410968
20
93.529806
40
1.4914117
50
331.1775403
51
0.1186611
0
ARC
8
DEFAULT_255_2_778
10
76.338153
20
93.5326275
40
1.4953515
50
278.8409052
51
331.1372001
0
ARC
8
DEFAULT_255_2_778
10
76.3340122
20
93.5625218
40
1.5255272
50
269.9772064
51
278.8220202
0
ARC
8
DEFAULT_255_2_778
10
76.3301825
20
93.5370309
40
1.5000397
50
241.6395741
51
270.1230965
0
ARC
8
DEFAULT_255_2_778
10
76.3264877
20
93.5301352
40
1.4922164
50
187.9734082
51
241.6386445
0
ARC
8
DEFAULT_255_2_778
10
76.352259
20
93.5324025
40
1.5180538
50
179.9814232
51
187.9232329
0
LINE
8
DEFAULT_255_2_778
10
74.3344053
20
93.5328947
11
74.3344053
21
93.5328947
0
LINE
8
DEFAULT_255_2_778
10
74.8342053
20
93.5328947
11
74.8342053
21
93.5328947
0
ARC
8
DEFAULT_255_2_778
10
40.8000454
20
13.1540032
40
0.8753682
50
8.9387855
51
21.235638
0
ARC
8
DEFAULT_255_2_778
10
40.8113074
20
13.1561229
40
0.8639137
50
7.8808347
51
8.9159689
0
ARC
8
DEFAULT_255_2_778
10
40.8106095
20
13.1559897
40
0.8646233
50
359.999556
51
7.8832374
0
ARC
8
DEFAULT_255_2_778
10
40.8022196
20
13.1565578
40
0.8730134
50
295.0675839
51
359.962276
0
ARC
8
DEFAULT_255_2_778
10
40.7961003
20
13.1708809
40
0.8885804
50
291.1337707
51
295.0336935
0
ARC
8
DEFAULT_255_2_778
10
40.7993281
20
13.1619643
40
0.8790997
50
278.7115233
51
291.1470733
0
ARC
8
DEFAULT_255_2_778
10
40.8005833
20
13.1562545
40
0.8732658
50
277.81373
51
278.6868645
0
ARC
8
DEFAULT_255_2_778
10
40.8011564
20
13.1521727
40
0.8691439
50
269.9994867
51
277.812882
0
ARC
8
DEFAULT_255_2_778
10
40.8013817
20
13.1594348
40
0.8764061
50
204.7279975
51
269.9847614
0
ARC
8
DEFAULT_255_2_778
10
40.8136545
20
13.164084
40
0.8894989
50
201.3281378
51
204.6693176
0
ARC
8
DEFAULT_255_2_778
10
39.1941907
20
17.2841703
40
0.8704158
50
179.9937384
51
201.2170264
0
ARC
8
DEFAULT_255_2_778
10
39.1968133
20
17.2835717
40
0.8730386
50
100.5093237
51
179.9544696
0
ARC
8
DEFAULT_255_2_778
10
39.1990609
20
17.2787345
40
0.8782058
50
90.0121503
51
100.5959402
0
ARC
8
DEFAULT_255_2_778
10
39.1987726
20
17.2826578
40
0.8742824
50
21.2383624
51
89.9933094
0
LINE
8
DEFAULT_255_2_778
10
39.9850749
20
12.8405654
11
38.3827749
21
16.9691654
0
LINE
8
DEFAULT_255_2_778
10
40.0136749
20
17.5993654
11
41.6159749
21
13.4710654
0
ARC
8
DEFAULT_255_2_778
10
36.2967739
20
13.2588356
40
0.8749765
50
8.9053104
51
21.2397491
0
ARC
8
DEFAULT_255_2_778
10
36.3056595
20
13.2605913
40
0.8659263
50
7.8461249
51
8.8815556
0
ARC
8
DEFAULT_255_2_778
10
36.3071051
20
13.260781
40
0.8644683
50
359.9994622
51
7.8467455
0
ARC
8
DEFAULT_255_2_778
10
36.298477
20
13.2613602
40
0.8730967
50
295.0710645
51
359.9614638
0
ARC
8
DEFAULT_255_2_778
10
36.2925589
20
13.2753396
40
0.888267
50
291.1334239
51
295.0347359
0
ARC
8
DEFAULT_255_2_778
10
36.2956688
20
13.2667134
40
0.8790997
50
278.7115233
51
291.1470733
0
ARC
8
DEFAULT_255_2_778
10
36.2969239
20
13.2610035
40
0.8732658
50
277.81373
51
278.6868645
0
ARC
8
DEFAULT_255_2_778
10
36.297497
20
13.2569217
40
0.8691439
50
269.9994867
51
277.812882
0
ARC
8
DEFAULT_255_2_778
10
36.2977223
20
13.2641838
40
0.8764061
50
204.7279975
51
269.9847614
0
ARC
8
DEFAULT_255_2_778
10
36.3099951
20
13.268833
40
0.8894989
50
201.3281378
51
204.6693176
0
ARC
8
DEFAULT_255_2_778
10
34.7308997
20
17.2843946
40
0.8702841
50
179.998692
51
201.2186443
0
ARC
8
DEFAULT_255_2_778
10
34.7338668
20
17.2837438
40
0.8732515
50
100.5209362
51
179.9559935
0
ARC
8
DEFAULT_255_2_778
10
34.7357389
20
17.2788295
40
0.8784255
50
90.0120752
51
100.5824642
0
ARC
8
DEFAULT_255_2_778
10
34.73548
20
17.2828153
40
0.8744397
50
21.2407887
51
89.995167
0
LINE
8
DEFAULT_255_2_778
10
35.4814156
20
12.9453145
11
33.9196156
21
16.9694145
0
LINE
8
DEFAULT_255_2_778
10
35.5505156
20
17.5996145
11
37.1123156
21
13.5758145
0
ARC
8
DEFAULT_255_2_778
10
48.1203593
20
17.2843822
40
0.8702844
50
179.9986964
51
201.2186428
0
ARC
8
DEFAULT_255_2_778
10
48.123326
20
17.2837315
40
0.8732513
50
100.52093
51
179.9560092
0
ARC
8
DEFAULT_255_2_778
10
48.1251982
20
17.278817
40
0.8784255
50
90.0120752
51
100.5824642
0
ARC
8
DEFAULT_255_2_778
10
48.1249393
20
17.2828028
40
0.8744397
50
21.2407887
51
89.995167
0
ARC
8
DEFAULT_255_2_778
10
49.7267262
20
13.1540202
40
0.8749841
50
8.9085653
51
21.2397634
0
ARC
8
DEFAULT_255_2_778
10
49.7360427
20
13.1558368
40
0.8654986
50
7.8495806
51
8.8852602
0
ARC
8
DEFAULT_255_2_778
10
49.7370849
20
13.1559691
40
0.864448
50
359.9995074
51
7.8503319
0
ARC
8
DEFAULT_255_2_778
10
49.7286289
20
13.1565131
40
0.8729041
50
295.0630222
51
359.9638044
0
ARC
8
DEFAULT_255_2_778
10
49.7227727
20
13.1704443
40
0.8880046
50
291.1223663
51
295.024525
0
ARC
8
DEFAULT_255_2_778
10
49.7254925
20
13.1618795
40
0.8790355
50
278.7721934
51
291.1581696
0
ARC
8
DEFAULT_255_2_778
10
49.7275734
20
13.1505514
40
0.8675226
50
277.8197748
51
278.7504712
0
ARC
8
DEFAULT_255_2_778
10
49.7273442
20
13.1519637
40
0.868953
50
269.9994174
51
277.8220753
0
ARC
8
DEFAULT_255_2_778
10
49.7275858
20
13.1593002
40
0.8762894
50
204.72603
51
269.983624
0
ARC
8
DEFAULT_255_2_778
10
49.7402642
20
13.1641502
40
0.8898346
50
201.3286648
51
204.6682259
0
LINE
8
DEFAULT_255_2_778
10
48.9399749
20
17.599602
11
50.5422749
21
13.471002
0
LINE
8
DEFAULT_255_2_778
10
48.9113749
20
12.840502
11
47.3090749
21
16.969402
0
ARC
8
DEFAULT_255_2_778
10
66.9048524
20
14.898218
40
0.8787062
50
278.6808331
51
291.1511962
0
ARC
8
DEFAULT_255_2_778
10
66.9065059
20
14.8897087
40
0.8700449
50
277.7793324
51
278.6577682
0
ARC
8
DEFAULT_255_2_778
10
66.9066434
20
14.8886057
40
0.8689334
50
269.9992521
51
277.7801969
0
ARC
8
DEFAULT_255_2_778
10
66.9068407
20
14.8959658
40
0.8762936
50
204.7232908
51
269.9863561
0
ARC
8
DEFAULT_255_2_778
10
66.9189619
20
14.9004556
40
0.889182
50
201.3172967
51
204.659414
0
ARC
8
DEFAULT_255_2_778
10
65.973532
20
17.2841139
40
0.8704158
50
179.9937384
51
201.2170264
0
ARC
8
DEFAULT_255_2_778
10
65.9761546
20
17.2835152
40
0.8730386
50
100.5093237
51
179.9544696
0
ARC
8
DEFAULT_255_2_778
10
65.9784022
20
17.2786781
40
0.8782058
50
90.0121503
51
100.5959402
0
ARC
8
DEFAULT_255_2_778
10
65.9781139
20
17.2826013
40
0.8742824
50
21.2383624
51
89.9933094
0
ARC
8
DEFAULT_255_2_778
10
66.905859
20
14.8904221
40
0.8749939
50
8.9214009
51
21.2398727
0
ARC
8
DEFAULT_255_2_778
10
66.9145201
20
14.8921596
40
0.8661682
50
7.862891
51
8.896703
0
ARC
8
DEFAULT_255_2_778
10
66.9163132
20
14.8923887
40
0.8643609
50
359.9994854
51
7.8641081
0
ARC
8
DEFAULT_255_2_778
10
66.9076798
20
14.8929893
40
0.8729946
50
295.066795
51
359.9600743
0
ARC
8
DEFAULT_255_2_778
10
66.9015416
20
14.9073244
40
0.8885803
50
291.1337707
51
295.0336935
0
LINE
8
DEFAULT_255_2_778
10
66.0906162
20
14.577209
11
65.1621162
21
16.969109
0
LINE
8
DEFAULT_255_2_778
10
66.7930162
20
17.599309
11
67.7214162
21
15.207409
0
LINE
8
DEFAULT_255_2_778
10
67.2219162
20
14.078509
11
67.2219162
21
14.078709
0
ARC
8
DEFAULT_255_2_778
10
12.7940697
20
16.3155389
40
0.8749765
50
8.9053104
51
21.2397491
0
ARC
8
DEFAULT_255_2_778
10
12.8029553
20
16.3172946
40
0.8659263
50
7.8461249
51
8.8815556
0
ARC
8
DEFAULT_255_2_778
10
12.8044009
20
16.3174844
40
0.8644683
50
359.9994622
51
7.8467455
0
ARC
8
DEFAULT_255_2_778
10
12.7957728
20
16.3180635
40
0.8730967
50
295.0710645
51
359.9614638
0
ARC
8
DEFAULT_255_2_778
10
12.7898547
20
16.332043
40
0.888267
50
291.1334239
51
295.0347359
0
ARC
8
DEFAULT_255_2_778
10
12.7929646
20
16.3234167
40
0.8790997
50
278.7115233
51
291.1470733
0
ARC
8
DEFAULT_255_2_778
10
12.7942197
20
16.3177068
40
0.8732658
50
277.81373
51
278.6868645
0
ARC
8
DEFAULT_255_2_778
10
12.7947928
20
16.313625
40
0.8691439
50
269.9994867
51
277.812882
0
ARC
8
DEFAULT_255_2_778
10
12.7950181
20
16.3208871
40
0.8764061
50
204.7279975
51
269.9847614
0
ARC
8
DEFAULT_255_2_778
10
12.8072909
20
16.3255363
40
0.8894989
50
201.3281378
51
204.6693176
0
ARC
8
DEFAULT_255_2_778
10
12.4147272
20
17.2841227
40
0.8704158
50
179.9937384
51
201.2170264
0
ARC
8
DEFAULT_255_2_778
10
12.4173498
20
17.283524
40
0.8730386
50
100.5093237
51
179.9544696
0
ARC
8
DEFAULT_255_2_778
10
12.4195974
20
17.2786869
40
0.8782058
50
90.0121503
51
100.5959402
0
ARC
8
DEFAULT_255_2_778
10
12.419309
20
17.2826101
40
0.8742824
50
21.2383624
51
89.9933094
0
LINE
8
DEFAULT_255_2_778
10
11.9787114
20
16.0020178
11
11.6033114
21
16.9691178
0
LINE
8
DEFAULT_255_2_778
10
13.2342114
20
17.5993178
11
13.6096114
21
16.6325178
0
ARC
8
DEFAULT_255_2_778
10
62.3799332
20
15.0521262
40
0.8749765
50
8.9053104
51
21.2397491
0
ARC
8
DEFAULT_255_2_778
10
62.3888189
20
15.0538819
40
0.8659263
50
7.8461249
51
8.8815556
0
ARC
8
DEFAULT_255_2_778
10
62.3902644
20
15.0540716
40
0.8644683
50
359.9994622
51
7.8467455
0
ARC
8
DEFAULT_255_2_778
10
62.3816363
20
15.0546507
40
0.8730967
50
295.0710645
51
359.9614638
0
ARC
8
DEFAULT_255_2_778
10
62.3757183
20
15.0686302
40
0.888267
50
291.1334239
51
295.0347359
0
ARC
8
DEFAULT_255_2_778
10
62.3788281
20
15.060004
40
0.8790997
50
278.7115233
51
291.1470733
0
ARC
8
DEFAULT_255_2_778
10
62.3800832
20
15.0542941
40
0.8732658
50
277.81373
51
278.6868645
0
ARC
8
DEFAULT_255_2_778
10
62.3806564
20
15.0502123
40
0.8691439
50
269.9994867
51
277.812882
0
ARC
8
DEFAULT_255_2_778
10
62.3808817
20
15.0574744
40
0.8764061
50
204.7279975
51
269.9847614
0
ARC
8
DEFAULT_255_2_778
10
62.3931544
20
15.0621236
40
0.8894989
50
201.3281378
51
204.6693176
0
ARC
8
DEFAULT_255_2_778
10
61.5102907
20
17.2841099
40
0.8704158
50
179.9937384
51
201.2170264
0
ARC
8
DEFAULT_255_2_778
10
61.5129134
20
17.2835112
40
0.8730388
50
100.5093322
51
179.9544663
0
ARC
8
DEFAULT_255_2_778
10
61.5151609
20
17.2786741
40
0.8782058
50
90.0121503
51
100.5959402
0
ARC
8
DEFAULT_255_2_778
10
61.5148726
20
17.2825974
40
0.8742824
50
21.2383624
51
89.9933094
0
LINE
8
DEFAULT_255_2_778
10
61.5645749
20
14.7386051
11
60.6988749
21
16.9691051
0
LINE
8
DEFAULT_255_2_778
10
62.3297749
20
17.5993051
11
63.1954749
21
15.3691051
0
ARC
8
DEFAULT_255_2_778
10
71.431821
20
14.729322
40
0.8749765
50
8.9053104
51
21.2397491
0
ARC
8
DEFAULT_255_2_778
10
71.4407066
20
14.7310777
40
0.8659263
50
7.8461249
51
8.8815556
0
ARC
8
DEFAULT_255_2_778
10
71.4421521
20
14.7312675
40
0.8644683
50
359.9994622
51
7.8467455
0
ARC
8
DEFAULT_255_2_778
10
71.4335241
20
14.7318466
40
0.8730967
50
295.0710645
51
359.9614638
0
ARC
8
DEFAULT_255_2_778
10
71.427606
20
14.7458261
40
0.888267
50
291.1334239
51
295.0347359
0
ARC
8
DEFAULT_255_2_778
10
71.4308001
20
14.736805
40
0.8787012
50
278.6776094
51
291.1512331
0
ARC
8
DEFAULT_255_2_778
10
71.4323282
20
14.7292091
40
0.8709617
50
277.7758924
51
278.6536275
0
ARC
8
DEFAULT_255_2_778
10
71.4325849
20
14.7272622
40
0.8689981
50
269.9994989
51
277.7764948
0
ARC
8
DEFAULT_255_2_778
10
71.4328223
20
14.7347524
40
0.8764883
50
204.731438
51
269.9839798
0
ARC
8
DEFAULT_255_2_778
10
71.4450434
20
14.7393267
40
0.8895027
50
201.328548
51
204.6697231
0
ARC
8
DEFAULT_255_2_778
10
70.439697
20
17.284652
40
0.8733344
50
180.029595
51
201.1811381
0
ARC
8
DEFAULT_255_2_778
10
70.439401
20
17.2835071
40
0.8730386
50
100.5093237
51
179.9544696
0
ARC
8
DEFAULT_255_2_778
10
70.4416438
20
17.2787216
40
0.8781541
50
90.0124173
51
100.5962522
0
ARC
8
DEFAULT_255_2_778
10
70.4412089
20
17.2823718
40
0.8745038
50
21.2482881
51
89.9839716
0
LINE
8
DEFAULT_255_2_778
10
70.6164627
20
14.4158009
11
69.6253627
21
16.9691009
0
LINE
8
DEFAULT_255_2_778
10
71.2562627
20
17.5993009
11
72.2473627
21
15.0463009
0
ARC
8
DEFAULT_255_2_778
10
75.9572636
20
14.5680176
40
0.8752784
50
8.914771
51
21.2287052
0
ARC
8
DEFAULT_255_2_778
10
75.966247
20
14.5697917
40
0.8661287
50
7.8570725
51
8.8909148
0
ARC
8
DEFAULT_255_2_778
10
75.9677249
20
14.5699815
40
0.8646388
50
359.9996159
51
7.8580006
0
ARC
8
DEFAULT_255_2_778
10
75.9593944
20
14.5705343
40
0.8729693
50
295.0626016
51
359.9633399
0
ARC
8
DEFAULT_255_2_778
10
75.9532431
20
14.5848806
40
0.8885708
50
291.1291781
51
295.0300348
0
ARC
8
DEFAULT_255_2_778
10
75.9563439
20
14.5754541
40
0.8786602
50
278.7417612
51
291.1621516
0
ARC
8
DEFAULT_255_2_778
10
75.9582204
20
14.5655108
40
0.8685474
50
277.7873111
51
278.7191037
0
ARC
8
DEFAULT_255_2_778
10
75.9581614
20
14.5657337
40
0.8687764
50
269.9992776
51
277.7891742
0
ARC
8
DEFAULT_255_2_778
10
75.9583763
20
14.5731338
40
0.8761765
50
204.7212994
51
269.9852277
0
ARC
8
DEFAULT_255_2_778
10
75.970703
20
14.5777432
40
0.8893017
50
201.3176192
51
204.6589288
0
ARC
8
DEFAULT_255_2_778
10
74.9029822
20
17.2846996
40
0.8733344
50
180.029595
51
201.1811381
0
ARC
8
DEFAULT_255_2_778
10
74.8185584
20
17.2848444
40
0.7889108
50
179.9855752
51
180.0432749
0
ARC
8
DEFAULT_255_2_778
10
74.8991146
20
17.284894
40
0.8694672
50
158.5358541
51
179.9901829
0
ARC
8
DEFAULT_255_2_778
10
76.3322609
20
18.9675835
40
2.6248664
50
211.3221434
51
267.2461337
0
LINE
8
DEFAULT_255_2_778
10
76.2061478
20
16.3460485
11
76.7731478
21
14.8849485
0
LINE
8
DEFAULT_255_2_778
10
75.1422478
20
14.2544485
11
74.0886478
21
16.9691485
0
LINE
8
DEFAULT_255_2_778
10
76.2061478
20
16.3457485
11
76.2061478
21
16.3460485
0
ARC
8
DEFAULT_255_2_778
10
39.1969199
20
95.2096887
40
0.8731452
50
180.0447658
51
259.4848603
0
ARC
8
DEFAULT_255_2_778
10
39.1945887
20
95.2090271
40
0.8708137
50
158.7878821
51
180.0013595
0
ARC
8
DEFAULT_255_2_778
10
40.7979411
20
99.3367402
40
0.8721158
50
121.4468811
51
158.758577
0
ARC
8
DEFAULT_255_2_778
10
40.8018171
20
99.332107
40
0.878091
50
90.0510077
51
121.5049254
0
ARC
8
DEFAULT_255_2_778
10
40.8010442
20
99.3412447
40
0.868953
50
82.1779247
51
90.0005826
0
ARC
8
DEFAULT_255_2_778
10
40.799588
20
99.3328906
40
0.8774276
50
69.680181
51
82.1579659
0
ARC
8
DEFAULT_255_2_778
10
40.7949759
20
99.3190193
40
0.8920374
50
68.8746296
51
69.7117688
0
ARC
8
DEFAULT_255_2_778
10
40.8041662
20
99.3389758
40
0.8701108
50
32.3717636
51
68.9655147
0
ARC
8
DEFAULT_255_2_778
10
40.8013925
20
99.3363851
40
0.8738409
50
0.0556966
51
32.4178627
0
ARC
8
DEFAULT_255_2_778
10
40.8108719
20
99.3372267
40
0.864361
50
352.1358919
51
0.0005146
0
ARC
8
DEFAULT_255_2_778
10
40.8021305
20
99.3387535
40
0.873229
50
339.6001189
51
352.115135
0
ARC
8
DEFAULT_255_2_778
10
40.7867324
20
99.3439472
40
0.889472
50
338.7940723
51
339.6322871
0
ARC
8
DEFAULT_255_2_778
10
39.1984879
20
95.2106267
40
0.8746609
50
270.014169
51
338.7493074
0
ARC
8
DEFAULT_255_2_778
10
39.1988934
20
95.2143397
40
0.8783738
50
259.417224
51
269.9876579
0
LINE
8
DEFAULT_255_2_778
10
38.3827749
20
95.5241065
11
39.9850749
21
99.6527065
0
LINE
8
DEFAULT_255_2_778
10
41.6159749
20
99.0222065
11
40.0136749
21
94.8936065
0
LINE
8
DEFAULT_255_2_778
10
39.0375749
20
94.3509065
11
39.0375749
21
94.3512065
0
ARC
8
DEFAULT_255_2_778
10
65.9784022
20
95.2144749
40
0.8782058
50
259.4040598
51
269.9878497
0
ARC
8
DEFAULT_255_2_778
10
65.9781139
20
95.2105516
40
0.8742824
50
270.0066906
51
338.7616376
0
ARC
8
DEFAULT_255_2_778
10
66.905859
20
97.6027309
40
0.8749939
50
338.7601273
51
351.0785991
0
ARC
8
DEFAULT_255_2_778
10
66.9145201
20
97.6009934
40
0.8661682
50
351.103297
51
352.137109
0
ARC
8
DEFAULT_255_2_778
10
66.9163132
20
97.6007643
40
0.8643609
50
352.1358919
51
0.0005146
0
ARC
8
DEFAULT_255_2_778
10
66.9076798
20
97.6001637
40
0.8729946
50
0.0399257
51
64.933205
0
ARC
8
DEFAULT_255_2_778
10
66.9015416
20
97.5858286
40
0.8885803
50
64.9663065
51
68.8662293
0
ARC
8
DEFAULT_255_2_778
10
66.9047123
20
97.5952384
40
0.8786602
50
68.8378484
51
81.2582388
0
ARC
8
DEFAULT_255_2_778
10
66.9065888
20
97.6051818
40
0.8685474
50
81.2808963
51
82.2126889
0
ARC
8
DEFAULT_255_2_778
10
66.9065298
20
97.6049588
40
0.8687764
50
82.2108258
51
90.0007224
0
ARC
8
DEFAULT_255_2_778
10
66.9067447
20
97.5975587
40
0.8761765
50
90.0147723
51
155.2787006
0
ARC
8
DEFAULT_255_2_778
10
66.9190714
20
97.5929493
40
0.8893017
50
155.3410712
51
158.6823808
0
ARC
8
DEFAULT_255_2_778
10
65.97393
20
95.2092646
40
0.8708137
50
158.7878821
51
180.0013595
0
ARC
8
DEFAULT_255_2_778
10
65.976341
20
95.2099924
40
0.8732251
50
180.0491062
51
259.4805038
0
LINE
8
DEFAULT_255_2_778
10
66.7930162
20
94.893844
11
67.7214162
21
97.285744
0
LINE
8
DEFAULT_255_2_778
10
66.0906162
20
97.916244
11
65.1621162
21
95.524344
0
LINE
8
DEFAULT_255_2_778
10
65.8169162
20
94.351444
11
65.8169162
21
94.351244
0
ARC
8
DEFAULT_255_2_778
10
12.7940542
20
96.178008
40
0.8749939
50
338.7601273
51
351.0785991
0
ARC
8
DEFAULT_255_2_778
10
12.8027153
20
96.1762705
40
0.8661682
50
351.103297
51
352.137109
0
ARC
8
DEFAULT_255_2_778
10
12.8045083
20
96.1760414
40
0.8643609
50
352.1358919
51
0.0005146
0
ARC
8
DEFAULT_255_2_778
10
12.795875
20
96.1754408
40
0.8729946
50
0.0399257
51
64.933205
0
ARC
8
DEFAULT_255_2_778
10
12.7897368
20
96.1611057
40
0.8885803
50
64.9663065
51
68.8662293
0
ARC
8
DEFAULT_255_2_778
10
12.792829
20
96.1701435
40
0.8790355
50
68.8418304
51
81.2278066
0
ARC
8
DEFAULT_255_2_778
10
12.7949098
20
96.1814716
40
0.8675226
50
81.2495288
51
82.1802252
0
ARC
8
DEFAULT_255_2_778
10
12.7946807
20
96.1800593
40
0.868953
50
82.1779247
51
90.0005826
0
ARC
8
DEFAULT_255_2_778
10
12.7949223
20
96.1727229
40
0.8762894
50
90.016376
51
155.27397
0
ARC
8
DEFAULT_255_2_778
10
12.8076007
20
96.1678728
40
0.8898346
50
155.3317741
51
158.6713352
0
ARC
8
DEFAULT_255_2_778
10
12.4151243
20
95.2093418
40
0.8708129
50
158.7878663
51
180.0013648
0
ARC
8
DEFAULT_255_2_778
10
12.4174563
20
95.2100033
40
0.8731452
50
180.0447658
51
259.4848603
0
ARC
8
DEFAULT_255_2_778
10
12.419479
20
95.2152374
40
0.8786612
50
259.4174649
51
269.9879621
0
ARC
8
DEFAULT_255_2_778
10
12.4192767
20
95.2108659
40
0.8742897
50
270.0011641
51
338.7662457
0
LINE
8
DEFAULT_255_2_778
10
11.9787114
20
96.4915211
11
11.6033114
21
95.5244211
0
LINE
8
DEFAULT_255_2_778
10
13.2342114
20
94.8942211
11
13.6096114
21
95.8610211
0
ARC
8
DEFAULT_255_2_778
10
36.2967583
20
99.2350059
40
0.8749939
50
338.7601273
51
351.0785991
0
ARC
8
DEFAULT_255_2_778
10
36.3054195
20
99.2332683
40
0.8661682
50
351.103297
51
352.137109
0
ARC
8
DEFAULT_255_2_778
10
36.3072125
20
99.2330392
40
0.8643609
50
352.1358919
51
0.0005146
0
ARC
8
DEFAULT_255_2_778
10
36.2985792
20
99.2324387
40
0.8729946
50
0.0399257
51
64.933205
0
ARC
8
DEFAULT_255_2_778
10
36.292441
20
99.2181036
40
0.8885803
50
64.9663065
51
68.8662293
0
ARC
8
DEFAULT_255_2_778
10
36.2955332
20
99.2271414
40
0.8790355
50
68.8418304
51
81.2278066
0
ARC
8
DEFAULT_255_2_778
10
36.297614
20
99.2384695
40
0.8675226
50
81.2495288
51
82.1802252
0
ARC
8
DEFAULT_255_2_778
10
36.2973848
20
99.2370572
40
0.868953
50
82.1779247
51
90.0005826
0
ARC
8
DEFAULT_255_2_778
10
36.2976265
20
99.2297208
40
0.8762894
50
90.016376
51
155.27397
0
ARC
8
DEFAULT_255_2_778
10
36.3103049
20
99.2248707
40
0.8898346
50
155.3317741
51
158.6713352
0
ARC
8
DEFAULT_255_2_778
10
34.7314293
20
95.2093396
40
0.8708137
50
158.7878821
51
180.0013595
0
ARC
8
DEFAULT_255_2_778
10
34.7337603
20
95.2100011
40
0.873145
50
180.0447609
51
259.4848727
0
ARC
8
DEFAULT_255_2_778
10
34.7357832
20
95.2152353
40
0.8786612
50
259.4174649
51
269.9879621
0
ARC
8
DEFAULT_255_2_778
10
34.7355808
20
95.2108638
40
0.8742897
50
270.0011641
51
338.7662457
0
LINE
8
DEFAULT_255_2_778
10
35.4814156
20
99.548519
11
33.9196156
21
95.524419
0
LINE
8
DEFAULT_255_2_778
10
35.5505156
20
94.894219
11
37.1123156
21
98.918019
0
ARC
8
DEFAULT_255_2_778
10
71.4318054
20
97.7640965
40
0.8749939
50
338.7601273
51
351.0785991
0
ARC
8
DEFAULT_255_2_778
10
71.4404666
20
97.762359
40
0.8661682
50
351.103297
51
352.137109
0
ARC
8
DEFAULT_255_2_778
10
71.4422596
20
97.7621299
40
0.8643609
50
352.1358919
51
0.0005146
0
ARC
8
DEFAULT_255_2_778
10
71.4336262
20
97.7615293
40
0.8729946
50
0.0399257
51
64.933205
0
ARC
8
DEFAULT_255_2_778
10
71.427488
20
97.7471942
40
0.8885803
50
64.9663065
51
68.8662293
0
ARC
8
DEFAULT_255_2_778
10
71.4306621
20
97.7566166
40
0.8786473
50
68.837759
51
81.2615092
0
ARC
8
DEFAULT_255_2_778
10
71.4320353
20
97.7631457
40
0.8719855
50
81.2855126
51
82.2138683
0
ARC
8
DEFAULT_255_2_778
10
71.4324716
20
97.7662666
40
0.8688342
50
82.2144876
51
90.0004956
0
ARC
8
DEFAULT_255_2_778
10
71.4327265
20
97.7587293
40
0.8763716
50
90.0171573
51
155.2705289
0
ARC
8
DEFAULT_255_2_778
10
71.4449543
20
97.7541234
40
0.8894053
50
155.3305577
51
158.6717407
0
ARC
8
DEFAULT_255_2_778
10
70.4397001
20
95.2087577
40
0.8733375
50
158.8188874
51
179.9703542
0
ARC
8
DEFAULT_255_2_778
10
70.4395076
20
95.2098918
40
0.8731452
50
180.0447658
51
259.4848603
0
ARC
8
DEFAULT_255_2_778
10
70.4414812
20
95.2148429
40
0.8783739
50
259.417224
51
269.9876579
0
ARC
8
DEFAULT_255_2_778
10
70.4410757
20
95.2111298
40
0.8746608
50
270.014169
51
338.7493074
0
LINE
8
DEFAULT_255_2_778
10
70.6164627
20
98.0776096
11
69.6253627
21
95.5243096
0
LINE
8
DEFAULT_255_2_778
10
71.2562627
20
94.8941096
11
72.2473627
21
97.4471096
0
ARC
8
DEFAULT_255_2_778
10
61.5112177
20
95.2092677
40
0.8713427
50
158.7943998
51
180.001425
0
ARC
8
DEFAULT_255_2_778
10
61.5129132
20
95.2099397
40
0.8730386
50
180.045523
51
259.4906792
0
ARC
8
DEFAULT_255_2_778
10
61.5151609
20
95.214777
40
0.8782058
50
259.4040598
51
269.9878497
0
ARC
8
DEFAULT_255_2_778
10
61.5148726
20
95.2108537
40
0.8742824
50
270.0066906
51
338.7616376
0
ARC
8
DEFAULT_255_2_778
10
62.3799177
20
97.441633
40
0.8749939
50
338.7601273
51
351.0785991
0
ARC
8
DEFAULT_255_2_778
10
62.3885788
20
97.4398954
40
0.8661682
50
351.103297
51
352.137109
0
ARC
8
DEFAULT_255_2_778
10
62.3903719
20
97.4396664
40
0.8643609
50
352.1358919
51
0.0005146
0
ARC
8
DEFAULT_255_2_778
10
62.3817385
20
97.4390658
40
0.8729946
50
0.0399257
51
64.933205
0
ARC
8
DEFAULT_255_2_778
10
62.3756003
20
97.4247307
40
0.8885803
50
64.9663065
51
68.8662293
0
ARC
8
DEFAULT_255_2_778
10
62.3786925
20
97.4337685
40
0.8790355
50
68.8418304
51
81.2278066
0
ARC
8
DEFAULT_255_2_778
10
62.3807734
20
97.4450966
40
0.8675226
50
81.2495288
51
82.1802252
0
ARC
8
DEFAULT_255_2_778
10
62.3805442
20
97.4436843
40
0.868953
50
82.1779247
51
90.0005826
0
ARC
8
DEFAULT_255_2_778
10
62.3807858
20
97.4363479
40
0.8762894
50
90.016376
51
155.27397
0
ARC
8
DEFAULT_255_2_778
10
62.3934642
20
97.4314978
40
0.8898346
50
155.3317741
51
158.6713352
0
LINE
8
DEFAULT_255_2_778
10
62.3297749
20
94.8941461
11
63.1954749
21
97.1246461
0
LINE
8
DEFAULT_255_2_778
10
61.5645749
20
97.7551461
11
60.6988749
21
95.5244461
0
ARC
8
DEFAULT_255_2_778
10
75.9572636
20
97.9257795
40
0.8752784
50
338.7712948
51
351.085229
0
ARC
8
DEFAULT_255_2_778
10
75.966247
20
97.9240054
40
0.8661287
50
351.1090852
51
352.1429275
0
ARC
8
DEFAULT_255_2_778
10
75.9677249
20
97.9238155
40
0.8646388
50
352.1419994
51
0.0003841
0
ARC
8
DEFAULT_255_2_778
10
75.9593944
20
97.9232628
40
0.8729693
50
0.0366601
51
64.9373984
0
ARC
8
DEFAULT_255_2_778
10
75.9532431
20
97.9089164
40
0.8885708
50
64.9699652
51
68.8708219
0
ARC
8
DEFAULT_255_2_778
10
75.9563439
20
97.918343
40
0.8786602
50
68.8378484
51
81.2582388
0
ARC
8
DEFAULT_255_2_778
10
75.9582204
20
97.9282863
40
0.8685474
50
81.2808963
51
82.2126889
0
ARC
8
DEFAULT_255_2_778
10
75.9581614
20
97.9280634
40
0.8687764
50
82.2108258
51
90.0007224
0
ARC
8
DEFAULT_255_2_778
10
75.9583763
20
97.9206633
40
0.8761765
50
90.0147723
51
155.2787006
0
ARC
8
DEFAULT_255_2_778
10
75.970703
20
97.9160538
40
0.8893017
50
155.3410712
51
158.6823808
0
ARC
8
DEFAULT_255_2_778
10
74.9029822
20
95.2090969
40
0.8733346
50
158.8188319
51
179.9703729
0
ARC
8
DEFAULT_255_2_778
10
74.8185567
20
95.2089527
40
0.7889091
50
179.9567251
51
180.0144248
0
ARC
8
DEFAULT_255_2_778
10
74.8995086
20
95.2089777
40
0.8698612
50
180.0147332
51
201.4592292
0
ARC
8
DEFAULT_255_2_778
10
76.3322604
20
93.5262138
40
2.6248659
50
92.7538563
51
148.6778554
0
LINE
8
DEFAULT_255_2_778
10
76.2061478
20
96.1477485
11
76.7731478
21
97.6088485
0
LINE
8
DEFAULT_255_2_778
10
75.1422478
20
98.2393485
11
74.0886478
21
95.5246485
0
LINE
8
DEFAULT_255_2_778
10
76.2061478
20
96.1480485
11
76.2061478
21
96.1477485
0
ARC
8
DEFAULT_255_2_778
10
48.1204907
20
95.2093016
40
0.8704158
50
158.7829736
51
180.0062616
0
ARC
8
DEFAULT_255_2_778
10
48.1232999
20
95.2099552
40
0.8732253
50
180.0491291
51
259.4804915
0
ARC
8
DEFAULT_255_2_778
10
48.1251982
20
95.2148914
40
0.8784255
50
259.4175358
51
269.9879248
0
ARC
8
DEFAULT_255_2_778
10
48.1249393
20
95.2109056
40
0.8744397
50
270.004833
51
338.7592113
0
ARC
8
DEFAULT_255_2_778
10
49.7267177
20
99.3396934
40
0.8749939
50
338.7601273
51
351.0785991
0
ARC
8
DEFAULT_255_2_778
10
49.7353788
20
99.3379558
40
0.8661682
50
351.103297
51
352.137109
0
ARC
8
DEFAULT_255_2_778
10
49.7371719
20
99.3377267
40
0.8643609
50
352.1358919
51
0.0005146
0
ARC
8
DEFAULT_255_2_778
10
49.7285385
20
99.3371262
40
0.8729946
50
0.0399257
51
64.933205
0
ARC
8
DEFAULT_255_2_778
10
49.7224003
20
99.3227911
40
0.8885803
50
64.9663065
51
68.8662293
0
ARC
8
DEFAULT_255_2_778
10
49.7254925
20
99.3318289
40
0.8790355
50
68.8418304
51
81.2278066
0
ARC
8
DEFAULT_255_2_778
10
49.7275734
20
99.343157
40
0.8675226
50
81.2495288
51
82.1802252
0
ARC
8
DEFAULT_255_2_778
10
49.7273442
20
99.3417447
40
0.868953
50
82.1779247
51
90.0005826
0
ARC
8
DEFAULT_255_2_778
10
49.7275858
20
99.3344083
40
0.8762894
50
90.016376
51
155.27397
0
ARC
8
DEFAULT_255_2_778
10
49.7402642
20
99.3295582
40
0.8898346
50
155.3317741
51
158.6713352
0
LINE
8
DEFAULT_255_2_778
10
48.9399749
20
94.8941065
11
50.5422749
21
99.0227065
0
LINE
8
DEFAULT_255_2_778
10
48.9113749
20
99.6532065
11
47.3090749
21
95.5243065
0
ARC
8
DEFAULT_255_2_778
10
80.6989946
20
7.9466694
40
1.2247383
50
49.4689446
51
83.9723145
0
LINE
8
DEFAULT_255_2_778
10
82.6572032
20
8.8775365
11
81.4949032
21
8.8775365
0
LINE
8
DEFAULT_255_2_778
10
80.1187
20
24.1572573
11
80.1187
21
22.2329573
0
LINE
8
DEFAULT_255_2_778
10
77.6295584
20
8.5098229
11
78.0446584
21
8.7873229
0
LINE
8
DEFAULT_255_2_778
10
78.0446584
20
8.7873229
11
78.8535584
21
8.8225229
0
LINE
8
DEFAULT_255_2_778
10
78.8535584
20
8.8225229
11
79.1260584
21
9.0458229
0
LINE
8
DEFAULT_255_2_778
10
67.102
20
8.2886489
11
67.102
21
6.2521489
0
LINE
8
DEFAULT_255_2_778
10
68.8509521
20
6.3720281
11
67.1020521
21
6.2521281
0
ARC
8
DEFAULT_255_2_778
10
66.6027682
20
6.2524673
40
0.4990132
50
272.4363806
51
359.9584221
0
LINE
8
DEFAULT_255_2_778
10
64.3877198
20
8.239774
11
65.4778198
21
8.239774
0
LINE
8
DEFAULT_255_2_778
10
65.4778198
20
8.239774
11
66.6023198
21
8.288674
0
LINE
8
DEFAULT_255_2_778
10
66.6023198
20
8.288674
11
67.1021198
21
8.288674
0
ARC
8
DEFAULT_255_2_778
10
67.9802679
20
8.3435107
40
0.8705874
50
2.7105663
51
54.448533
0
ARC
8
DEFAULT_255_2_778
10
67.9780396
20
8.3437431
40
0.8716962
50
54.3204868
51
90.0679342
0
ARC
8
DEFAULT_255_2_778
10
67.9770094
20
8.3233809
40
0.8920578
50
90.0002183
51
91.3764351
0
ARC
8
DEFAULT_255_2_778
10
67.9754385
20
8.3420597
40
0.8733474
50
91.3028443
51
141.081645
0
ARC
8
DEFAULT_255_2_778
10
67.9701193
20
8.3439259
40
0.8680386
50
140.9569194
51
180.0689499
0
LINE
8
DEFAULT_255_2_778
10
67.1020813
20
8.3428813
11
67.1020813
21
8.2888813
0
LINE
8
DEFAULT_255_2_778
10
64.3877
20
8.2397229
11
64.3877
21
6.2051229
0
LINE
8
DEFAULT_255_2_778
10
62.6385521
20
6.205
11
64.3874521
21
6.205
0
LINE
8
DEFAULT_255_2_778
10
64.8875201
20
5.7063698
11
64.8871429
21
5.7063696
0
ARC
8
DEFAULT_255_2_778
10
64.8872996
20
6.206305
40
0.4999353
50
225.0693447
51
269.9820457
0
ARC
8
DEFAULT_255_2_778
10
64.8864008
20
6.205147
40
0.4984807
50
180.0088695
51
225.0484793
0
LINE
8
DEFAULT_255_2_778
10
65.1110887
20
10.4707
11
74.1166887
21
10.4707
0
LINE
8
DEFAULT_255_2_778
10
74.1167
20
12.9641166
11
74.1167
21
10.4707166
0
LINE
8
DEFAULT_255_2_778
10
74.1167021
20
12.9641166
11
75.5481021
21
12.9641166
0
LINE
8
DEFAULT_255_2_778
10
75.5481021
20
12.9641166
11
75.5481021
21
10.4707166
0
LINE
8
DEFAULT_255_2_778
10
75.5481021
20
10.4707166
11
74.1167021
21
10.4707166
0
LINE
8
DEFAULT_255_2_778
10
65.111
20
12.9641166
11
65.111
21
10.4707166
0
LINE
8
DEFAULT_255_2_778
10
65.1113
20
12.9641166
11
63.1301
21
12.9641166
0
LINE
8
DEFAULT_255_2_778
10
63.1301
20
12.9641166
11
63.1301
21
10.4707166
0
LINE
8
DEFAULT_255_2_778
10
63.1301
20
10.4707166
11
65.1113
21
10.4707166
0
LINE
8
DEFAULT_255_2_778
10
65.1110887
20
12.9641
11
74.1166887
21
12.9641
0
LINE
8
DEFAULT_255_2_778
10
17.4878302
20
7.5501385
11
15.7699302
21
7.6250385
0
LINE
8
DEFAULT_255_2_778
10
15.7702
20
104.8686958
11
13.027
21
104.7490958
0
LINE
8
DEFAULT_255_2_778
10
13.0217542
20
104.7488323
11
13.0270542
21
104.7491323
0
ARC
8
DEFAULT_255_2_778
10
13.0463
20
104.2508332
40
0.496899
50
359.9779853
51
46.4115067
0
ARC
8
DEFAULT_255_2_778
10
13.0437377
20
104.2494664
40
0.4996564
50
46.306756
51
89.9992279
0
ARC
8
DEFAULT_255_2_778
10
13.0437457
20
104.2488924
40
0.5002303
50
90.0001409
51
91.918508
0
ARC
8
DEFAULT_255_2_778
10
9.4468736
20
102.0299697
40
2.5610073
50
92.515915
51
101.0719609
0
LINE
8
DEFAULT_255_2_778
10
0.3587533
20
102.8547083
11
8.9550533
21
104.5433083
0
LINE
8
DEFAULT_255_2_778
10
9.3344533
20
104.5885083
11
13.0214533
21
104.7491083
0
ARC
8
DEFAULT_255_2_778
10
15.7910943
20
104.3701431
40
0.4990132
50
92.4363806
51
179.9584221
0
LINE
8
DEFAULT_255_2_778
10
17.4878302
20
104.9435385
11
15.7699302
21
104.8686385
0
LINE
8
DEFAULT_255_2_778
10
49.2214521
20
6.6884149
11
50.9703521
21
6.5686149
0
ARC
8
DEFAULT_255_2_778
10
51.4678778
20
6.5676791
40
0.4974488
50
179.9997865
51
267.7364239
0
ARC
8
DEFAULT_255_2_778
10
51.5097311
20
6.5675859
40
0.5393021
50
179.8690532
51
179.9899018
0
LINE
8
DEFAULT_255_2_778
10
47.0125303
20
6.2637184
11
51.4482303
21
6.0706184
0
LINE
8
DEFAULT_255_2_778
10
49.2214521
20
6.6884312
11
49.2214521
21
6.9162312
0
LINE
8
DEFAULT_255_2_778
10
49.2214521
20
6.9162312
11
50.9703521
21
6.8400312
0
LINE
8
DEFAULT_255_2_778
10
50.9703521
20
6.8400312
11
50.9703521
21
6.5685312
0
ARC
8
DEFAULT_255_2_778
10
48.7216281
20
6.6902218
40
0.5004513
50
267.5176945
51
269.9995918
0
ARC
8
DEFAULT_255_2_778
10
48.7215524
20
6.6900296
40
0.5002591
50
270.0082573
51
313.6969124
0
ARC
8
DEFAULT_255_2_778
10
48.7237706
20
6.6885851
40
0.4976827
50
313.6271712
51
359.983308
0
LINE
8
DEFAULT_255_2_778
10
44.7582521
20
6.8829281
11
46.5071521
21
6.7630281
0
ARC
8
DEFAULT_255_2_778
10
47.0048778
20
6.7624658
40
0.4974488
50
179.9997865
51
267.7364239
0
ARC
8
DEFAULT_255_2_778
10
47.0467311
20
6.7623727
40
0.5393021
50
179.8690532
51
179.9899018
0
LINE
8
DEFAULT_255_2_778
10
42.5495303
20
6.4585052
11
46.9852303
21
6.2654052
0
LINE
8
DEFAULT_255_2_778
10
44.7582521
20
6.8829312
11
44.7582521
21
7.1107312
0
LINE
8
DEFAULT_255_2_778
10
44.7582521
20
7.1107312
11
46.5071521
21
7.0345312
0
LINE
8
DEFAULT_255_2_778
10
46.5071521
20
7.0345312
11
46.5071521
21
6.7630312
0
ARC
8
DEFAULT_255_2_778
10
44.2584648
20
6.8855803
40
0.5012973
50
267.5176848
51
269.9996184
0
ARC
8
DEFAULT_255_2_778
10
44.2585504
20
6.8842956
40
0.5000126
50
269.9898143
51
313.7083731
0
ARC
8
DEFAULT_255_2_778
10
44.2597682
20
6.8833464
40
0.4984851
50
313.6825694
51
359.9548195
0
LINE
8
DEFAULT_255_2_778
10
38.0861948
20
6.6527226
11
39.7781948
21
6.5789226
0
ARC
8
DEFAULT_255_2_778
10
39.7981026
20
7.0771792
40
0.4968995
50
313.5885064
51
0.0219737
0
ARC
8
DEFAULT_255_2_778
10
39.795503
20
7.0785523
40
0.4996874
50
269.9960342
51
313.6958573
0
ARC
8
DEFAULT_255_2_778
10
39.7954771
20
7.0796345
40
0.5007696
50
268.0001835
51
269.9990049
0
ARC
8
DEFAULT_255_2_778
10
42.5834363
20
6.9565727
40
0.5393022
50
179.8690532
51
179.9899018
0
ARC
8
DEFAULT_255_2_778
10
42.541583
20
6.9566658
40
0.4974488
50
179.9997865
51
267.7364239
0
LINE
8
DEFAULT_255_2_778
10
42.5219355
20
6.4596052
11
39.7782355
21
6.5792052
0
LINE
8
DEFAULT_255_2_778
10
42.0438521
20
6.9574281
11
40.2949521
21
7.0773281
0
LINE
8
DEFAULT_255_2_778
10
42.0438521
20
6.9574312
11
42.0438521
21
7.2289312
0
LINE
8
DEFAULT_255_2_778
10
42.0438521
20
7.2289312
11
40.2949521
21
7.3051312
0
LINE
8
DEFAULT_255_2_778
10
40.2949521
20
7.3051312
11
40.2949521
21
7.0773312
0
LINE
8
DEFAULT_255_2_778
10
35.8317521
20
7.2718281
11
37.5806521
21
7.1519281
0
ARC
8
DEFAULT_255_2_778
10
38.0783778
20
7.1513658
40
0.4974488
50
179.9997865
51
267.7364239
0
ARC
8
DEFAULT_255_2_778
10
38.1202311
20
7.1512727
40
0.5393021
50
179.8690532
51
179.9899018
0
LINE
8
DEFAULT_255_2_778
10
33.6230303
20
6.8474052
11
38.0587303
21
6.6543052
0
LINE
8
DEFAULT_255_2_778
10
35.8317521
20
7.2718312
11
35.8317521
21
7.4996312
0
LINE
8
DEFAULT_255_2_778
10
35.8317521
20
7.4996312
11
37.5806521
21
7.4234312
0
LINE
8
DEFAULT_255_2_778
10
37.5806521
20
7.4234312
11
37.5806521
21
7.1519312
0
ARC
8
DEFAULT_255_2_778
10
35.3322533
20
7.2734725
40
0.5002257
50
273.0873686
51
313.6912077
0
ARC
8
DEFAULT_255_2_778
10
35.3340158
20
7.2720494
40
0.497979
50
313.6576846
51
359.9796945
0
LINE
8
DEFAULT_255_2_778
10
46.0387771
20
13.5758073
11
46.0413771
21
13.5692073
0
LINE
8
DEFAULT_255_2_778
10
46.07935
20
13.4712479
11
46.04125
21
13.5691479
0
ARC
8
DEFAULT_255_2_778
10
45.2205495
20
13.2610475
40
0.8718436
50
201.2323199
51
238.5584878
0
ARC
8
DEFAULT_255_2_778
10
45.2247244
20
13.2661295
40
0.8783576
50
238.4990626
51
269.9493779
0
ARC
8
DEFAULT_255_2_778
10
45.2239556
20
13.2570182
40
0.869246
50
269.9995204
51
277.7990291
0
ARC
8
DEFAULT_255_2_778
10
45.22253
20
13.2651706
40
0.8775165
50
277.8190166
51
290.3077494
0
ARC
8
DEFAULT_255_2_778
10
45.2173607
20
13.2804958
40
0.8936834
50
290.2775677
51
291.1139543
0
ARC
8
DEFAULT_255_2_778
10
45.2269392
20
13.2589547
40
0.8701389
50
291.0365308
51
327.636669
0
ARC
8
DEFAULT_255_2_778
10
45.2239327
20
13.2617106
40
0.874154
50
327.5895756
51
359.9437985
0
ARC
8
DEFAULT_255_2_778
10
45.2336122
20
13.2608601
40
0.864474
50
359.9995368
51
7.7996783
0
ARC
8
DEFAULT_255_2_778
10
45.225645
20
13.2594834
40
0.8725545
50
7.8182456
51
19.9633592
0
ARC
8
DEFAULT_255_2_778
10
45.2130337
20
13.2553908
40
0.8858053
50
19.9336628
51
20.7489825
0
ARC
8
DEFAULT_255_2_778
10
43.6603183
20
17.2849313
40
0.8732057
50
180.0345693
51
201.1827036
0
ARC
8
DEFAULT_255_2_778
10
43.6603636
20
17.2837339
40
0.8732513
50
100.52093
51
179.9560092
0
ARC
8
DEFAULT_255_2_778
10
43.6622358
20
17.2788195
40
0.8784255
50
90.0120752
51
100.5824642
0
ARC
8
DEFAULT_255_2_778
10
43.6619769
20
17.2828052
40
0.8744397
50
21.2407887
51
89.995167
0
LINE
8
DEFAULT_255_2_778
10
44.4487125
20
12.8408044
11
42.8461125
21
16.9694044
0
LINE
8
DEFAULT_255_2_778
10
44.4770125
20
17.5996044
11
46.0415125
21
13.5689044
0
LINE
8
DEFAULT_255_2_778
10
35.310226
20
6.7736323
11
35.359126
21
6.7739323
0
LINE
8
DEFAULT_255_2_778
10
33.6230021
20
6.8495354
11
35.3592021
21
6.7738354
0
LINE
8
DEFAULT_255_2_778
10
49.2214521
20
105.8052281
11
50.9703521
21
105.9251281
0
ARC
8
DEFAULT_255_2_778
10
51.468083
20
105.9263446
40
0.4974488
50
92.2635761
51
180.0002135
0
ARC
8
DEFAULT_255_2_778
10
51.5099363
20
105.9264378
40
0.5393021
50
180.0100982
51
180.1309468
0
LINE
8
DEFAULT_255_2_778
10
48.7047355
20
106.3038052
11
51.4484355
21
106.4234052
0
LINE
8
DEFAULT_255_2_778
10
49.2214521
20
105.8052312
11
49.2214521
21
105.5774312
0
LINE
8
DEFAULT_255_2_778
10
49.2214521
20
105.5774312
11
50.9703521
21
105.6536312
0
LINE
8
DEFAULT_255_2_778
10
50.9703521
20
105.6536312
11
50.9703521
21
105.9251312
0
ARC
8
DEFAULT_255_2_778
10
48.7222771
20
105.8032919
40
0.5007697
50
90.0009951
51
91.9998165
0
ARC
8
DEFAULT_255_2_778
10
48.722303
20
105.8043741
40
0.4996874
50
46.3041427
51
90.0039658
0
ARC
8
DEFAULT_255_2_778
10
48.723614
20
105.805195
40
0.4981883
50
0.0415891
51
46.3479318
0
LINE
8
DEFAULT_255_2_778
10
44.7582521
20
105.6108281
11
46.5071521
21
105.7307281
0
ARC
8
DEFAULT_255_2_778
10
47.0048084
20
105.7319107
40
0.4973799
50
92.2558885
51
179.9861348
0
ARC
8
DEFAULT_255_2_778
10
46.94702
20
105.731965
40
0.4395915
50
179.9913802
51
180.1641969
0
LINE
8
DEFAULT_255_2_778
10
42.5495303
20
106.0358052
11
46.9852303
21
106.2289052
0
LINE
8
DEFAULT_255_2_778
10
44.7582521
20
105.6108312
11
44.7582521
21
105.3830312
0
LINE
8
DEFAULT_255_2_778
10
44.7582521
20
105.3830312
11
46.5071521
21
105.4592312
0
LINE
8
DEFAULT_255_2_778
10
46.5071521
20
105.4592312
11
46.5071521
21
105.7307312
0
ARC
8
DEFAULT_255_2_778
10
44.2587981
20
105.6088625
40
0.5006373
50
90.0005535
51
92.5237711
0
ARC
8
DEFAULT_255_2_778
10
44.2586952
20
105.6091051
40
0.5003948
50
46.3563812
51
89.9887722
0
ARC
8
DEFAULT_255_2_778
10
44.2597682
20
105.6107211
40
0.4984851
50
0.0451805
51
46.3174306
0
LINE
8
DEFAULT_255_2_778
10
42.0442198
20
105.5362281
11
40.2950198
21
105.4163281
0
ARC
8
DEFAULT_255_2_778
10
39.7954582
20
105.4153818
40
0.499645
50
90.0005352
51
92.5241974
0
ARC
8
DEFAULT_255_2_778
10
39.7953539
20
105.4155591
40
0.4994678
50
46.2641742
51
89.988577
0
ARC
8
DEFAULT_255_2_778
10
39.7968778
20
105.4160289
40
0.4980754
50
0.0360232
51
46.3534741
0
LINE
8
DEFAULT_255_2_778
10
42.0441521
20
105.5362312
11
42.0441521
21
105.2647312
0
LINE
8
DEFAULT_255_2_778
10
42.0441521
20
105.2647312
11
40.2952521
21
105.1885312
0
LINE
8
DEFAULT_255_2_778
10
40.2952521
20
105.1885312
11
40.2952521
21
105.4163312
0
ARC
8
DEFAULT_255_2_778
10
42.5415778
20
105.5373446
40
0.4974488
50
92.2635761
51
180.0002135
0
ARC
8
DEFAULT_255_2_778
10
42.5834311
20
105.5374378
40
0.5393021
50
180.0100982
51
180.1309468
0
LINE
8
DEFAULT_255_2_778
10
38.0862303
20
105.8413052
11
42.5219303
21
106.0344052
0
LINE
8
DEFAULT_255_2_778
10
35.8317521
20
105.2218281
11
37.5806521
21
105.3417281
0
ARC
8
DEFAULT_255_2_778
10
38.078383
20
105.3429446
40
0.4974488
50
92.2635761
51
180.0002135
0
ARC
8
DEFAULT_255_2_778
10
38.1202363
20
105.3430378
40
0.5393021
50
180.0100982
51
180.1309468
0
LINE
8
DEFAULT_255_2_778
10
35.3150355
20
105.7204052
11
38.0587355
21
105.8400052
0
LINE
8
DEFAULT_255_2_778
10
35.8317521
20
105.2218312
11
35.8317521
21
104.9940312
0
LINE
8
DEFAULT_255_2_778
10
35.8317521
20
104.9940312
11
37.5806521
21
105.0702312
0
LINE
8
DEFAULT_255_2_778
10
37.5806521
20
105.0702312
11
37.5806521
21
105.3417312
0
ARC
8
DEFAULT_255_2_778
10
35.3324771
20
105.2198919
40
0.5007697
50
90.0009951
51
91.9998165
0
ARC
8
DEFAULT_255_2_778
10
35.332503
20
105.2209741
40
0.4996874
50
46.3041427
51
90.0039658
0
ARC
8
DEFAULT_255_2_778
10
35.333814
20
105.221795
40
0.4981883
50
0.0415891
51
46.3479318
0
LINE
8
DEFAULT_255_2_778
10
46.0409417
20
98.9235458
11
46.0388417
21
98.9182458
0
LINE
8
DEFAULT_255_2_778
10
46.0793177
20
99.0227094
11
46.0409177
21
98.9235094
0
ARC
8
DEFAULT_255_2_778
10
45.2208514
20
99.2325245
40
0.8720947
50
121.1162544
51
158.5761951
0
ARC
8
DEFAULT_255_2_778
10
45.2247115
20
99.2279143
40
0.878037
50
90.0505577
51
121.1764347
0
ARC
8
DEFAULT_255_2_778
10
45.2239444
20
99.2371006
40
0.8688506
50
82.2390332
51
90.0005074
0
ARC
8
DEFAULT_255_2_778
10
45.2225372
20
99.2290412
40
0.8770263
50
69.6817393
51
82.2190424
0
ARC
8
DEFAULT_255_2_778
10
45.2175361
20
99.214156
40
0.8927219
50
68.8723616
51
69.7124623
0
ARC
8
DEFAULT_255_2_778
10
45.2271713
20
99.2347748
40
0.8700175
50
32.1111563
51
68.974805
0
ARC
8
DEFAULT_255_2_778
10
45.2244304
20
99.2321524
40
0.8737334
50
0.0562721
51
32.1612729
0
ARC
8
DEFAULT_255_2_778
10
45.2340871
20
99.2330039
40
0.8640763
50
352.1362368
51
0.0004382
0
ARC
8
DEFAULT_255_2_778
10
45.2257578
20
99.2344494
40
0.8725251
50
339.9363217
51
352.1170431
0
ARC
8
DEFAULT_255_2_778
10
45.2123299
20
99.238856
40
0.88665
50
339.1494272
51
339.9665284
0
ARC
8
DEFAULT_255_2_778
10
43.6604146
20
95.2088247
40
0.8733375
50
158.8188874
51
179.9703542
0
ARC
8
DEFAULT_255_2_778
10
43.6602218
20
95.2099585
40
0.8731449
50
180.0447468
51
259.4848749
0
ARC
8
DEFAULT_255_2_778
10
43.6622448
20
95.215193
40
0.8786612
50
259.4174649
51
269.9879621
0
ARC
8
DEFAULT_255_2_778
10
43.6620424
20
95.2108214
40
0.8742897
50
270.0011641
51
338.7662457
0
LINE
8
DEFAULT_255_2_778
10
44.4089771
20
99.5510766
11
42.8460771
21
95.5243766
0
LINE
8
DEFAULT_255_2_778
10
44.4769771
20
94.8941766
11
46.0408771
21
98.9234766
0
LINE
8
DEFAULT_255_2_778
10
44.4483885
20
99.6529323
11
44.4089885
21
99.5510323
0
LINE
8
DEFAULT_255_2_778
10
77.7448917
20
6.7585375
11
76.0282917
21
6.6410375
0
ARC
8
DEFAULT_255_2_778
10
75.5292682
20
6.6414541
40
0.4990132
50
272.4363806
51
359.9584221
0
ARC
8
DEFAULT_255_2_778
10
76.8963837
20
8.0256305
40
0.8680733
50
151.1143592
51
180.0120603
0
ARC
8
DEFAULT_255_2_778
10
76.9032933
20
8.0254478
40
0.8749829
50
180.0000004
51
180.0774795
0
LINE
8
DEFAULT_255_2_778
10
76.0283112
20
8.0242646
11
76.0283112
21
6.6410646
0
LINE
8
DEFAULT_255_2_778
10
62.1606677
20
5.704426
11
62.1863677
21
5.706326
0
ARC
8
DEFAULT_255_2_778
10
62.2332002
20
6.2041657
40
0.4053461
50
359.9884007
51
0.1277874
0
ARC
8
DEFAULT_255_2_778
10
62.1385273
20
6.204068
40
0.500019
50
275.5222586
51
0.0017992
0
LINE
8
DEFAULT_255_2_778
10
64.8874667
20
5.7063
11
62.1865667
21
5.7063
0
LINE
8
DEFAULT_255_2_778
10
60.4234084
20
5.7066
11
62.1866084
21
5.7066
0
LINE
8
DEFAULT_255_2_778
10
62.6385
20
8.2388937
11
62.6385
21
6.2052937
0
LINE
8
DEFAULT_255_2_778
10
68.8498708
20
8.3844427
11
68.8509708
21
6.3717427
0
ARC
8
DEFAULT_255_2_778
10
69.3506206
20
6.3746688
40
0.5012743
50
270.0011642
51
272.3623089
0
ARC
8
DEFAULT_255_2_778
10
69.3505742
20
6.3732465
40
0.499852
50
226.2916103
51
270.0064861
0
ARC
8
DEFAULT_255_2_778
10
69.3490692
20
6.3723814
40
0.498187
50
180.0415046
51
226.3479736
0
LINE
8
DEFAULT_255_2_778
10
68.8593375
20
8.3849646
11
68.8498375
21
8.3844646
0
LINE
8
DEFAULT_255_2_778
10
71.5862212
20
8.3429083
11
71.0991212
21
8.4847083
0
LINE
8
DEFAULT_255_2_778
10
71.0991212
20
8.4847083
11
68.8596212
21
8.3850083
0
LINE
8
DEFAULT_255_2_778
10
66.6238865
20
5.7539281
11
69.3720865
21
5.8738281
0
LINE
8
DEFAULT_255_2_778
10
71.0917688
20
5.9486385
11
69.3724688
21
5.8737385
0
LINE
8
DEFAULT_255_2_778
10
64.8874375
20
5.7063125
11
65.5332375
21
5.7063125
0
LINE
8
DEFAULT_255_2_778
10
65.5332375
20
5.7063125
11
66.6241375
21
5.7539125
0
LINE
8
DEFAULT_255_2_778
10
31.3959521
20
7.4676281
11
33.1448521
21
7.3477281
0
ARC
8
DEFAULT_255_2_778
10
33.6426281
20
7.3466658
40
0.4974488
50
179.9997865
51
267.7364239
0
ARC
8
DEFAULT_255_2_778
10
33.6844814
20
7.3465727
40
0.5393021
50
179.8690532
51
179.9899018
0
LINE
8
DEFAULT_255_2_778
10
33.1451
20
9.3842489
11
33.1451
21
7.3477489
0
LINE
8
DEFAULT_255_2_778
10
31.396
20
9.5041489
11
31.396
21
7.4676489
0
ARC
8
DEFAULT_255_2_778
10
30.8966037
20
7.4701006
40
0.5010732
50
267.8388746
51
269.9992785
0
ARC
8
DEFAULT_255_2_778
10
30.8965815
20
7.4691478
40
0.5001204
50
270.0018238
51
313.6845338
0
ARC
8
DEFAULT_255_2_778
10
30.8981202
20
7.4679454
40
0.4981883
50
313.6520682
51
359.9584109
0
ARC
8
DEFAULT_255_2_778
10
26.4217183
20
11.0399796
40
4.9743026
50
359.9975012
51
21.2241312
0
ARC
8
DEFAULT_255_2_778
10
30.2705266
20
17.2848895
40
0.8732057
50
180.0345693
51
201.1827036
0
ARC
8
DEFAULT_255_2_778
10
30.2705719
20
17.2836922
40
0.8732513
50
100.52093
51
179.9560092
0
ARC
8
DEFAULT_255_2_778
10
30.2724394
20
17.2788294
40
0.8783739
50
90.0123421
51
100.582776
0
ARC
8
DEFAULT_255_2_778
10
30.2720339
20
17.2825425
40
0.8746608
50
21.2506926
51
89.985831
0
ARC
8
DEFAULT_255_2_778
10
26.4274112
20
11.0397249
40
6.7175096
50
359.9977638
51
21.2184929
0
LINE
8
DEFAULT_255_2_778
10
31.3960209
20
9.5040627
11
31.3960209
21
10.0851627
0
LINE
8
DEFAULT_255_2_778
10
31.3960209
20
10.0851627
11
31.3960209
21
11.0397627
0
LINE
8
DEFAULT_255_2_778
10
31.0586209
20
12.8407627
11
29.4563209
21
16.9693627
0
LINE
8
DEFAULT_255_2_778
10
31.0872209
20
17.5995627
11
32.6895209
21
13.4709627
0
LINE
8
DEFAULT_255_2_778
10
33.1449209
20
11.0394627
11
33.1449209
21
9.3842627
0
LINE
8
DEFAULT_255_2_778
10
38.0093178
20
9.1917083
11
33.6447178
21
9.3843083
0
LINE
8
DEFAULT_255_2_778
10
33.6447178
20
9.3843083
11
33.1449178
21
9.3843083
0
LINE
8
DEFAULT_255_2_778
10
30.8776417
20
6.9691958
11
33.6229417
21
6.8495958
0
LINE
8
DEFAULT_255_2_778
10
29.1597177
20
7.0440062
11
30.8745177
21
6.9694062
0
LINE
8
DEFAULT_255_2_778
10
28.6819198
20
9.5787062
11
29.1817198
21
9.5787062
0
LINE
8
DEFAULT_255_2_778
10
29.1817198
20
9.5787062
11
30.8965198
21
9.5041062
0
LINE
8
DEFAULT_255_2_778
10
30.8965198
20
9.5041062
11
31.3963198
21
9.5041062
0
ARC
8
DEFAULT_255_2_778
10
29.2215721
20
7.5409722
40
0.539693
50
179.8690992
51
179.9899053
0
ARC
8
DEFAULT_255_2_778
10
29.1792611
20
7.5410015
40
0.4973819
50
179.992418
51
267.7438374
0
LINE
8
DEFAULT_255_2_778
10
29.1528604
20
7.0443323
11
29.1597604
21
7.0440323
0
LINE
8
DEFAULT_255_2_778
10
26.4173365
20
7.1636635
11
29.1528365
21
7.0443635
0
LINE
8
DEFAULT_255_2_778
10
30.8745177
20
6.9670062
11
29.1597177
21
7.0416062
0
LINE
8
DEFAULT_255_2_778
10
28.6819
20
9.5787489
11
28.6819
21
7.5422489
0
LINE
8
DEFAULT_255_2_778
10
26.9327521
20
7.6621281
11
28.6816521
21
7.5422281
0
ARC
8
DEFAULT_255_2_778
10
21.9584186
20
11.0400453
40
4.9743023
50
359.9975003
51
21.2241315
0
ARC
8
DEFAULT_255_2_778
10
25.8072266
20
17.2849552
40
0.8732057
50
180.0345693
51
201.1827036
0
ARC
8
DEFAULT_255_2_778
10
25.8072719
20
17.2837579
40
0.8732513
50
100.52093
51
179.9560092
0
ARC
8
DEFAULT_255_2_778
10
25.8091442
20
17.2788434
40
0.8784255
50
90.0120752
51
100.5824642
0
ARC
8
DEFAULT_255_2_778
10
25.8088853
20
17.2828292
40
0.8744397
50
21.2407887
51
89.995167
0
ARC
8
DEFAULT_255_2_778
10
21.9641112
20
11.0397905
40
6.7175096
50
359.9977638
51
21.2184929
0
LINE
8
DEFAULT_255_2_778
10
26.9327209
20
9.6973283
11
26.9327209
21
10.0852283
0
LINE
8
DEFAULT_255_2_778
10
26.9327209
20
10.0852283
11
26.9327209
21
11.0398283
0
LINE
8
DEFAULT_255_2_778
10
26.5953209
20
12.8408283
11
24.9930209
21
16.9694283
0
LINE
8
DEFAULT_255_2_778
10
26.6239209
20
17.5996283
11
28.2262209
21
13.4710283
0
LINE
8
DEFAULT_255_2_778
10
28.6816209
20
11.0395283
11
28.6816209
21
9.5787283
0
LINE
8
DEFAULT_255_2_778
10
26.9327
20
9.6973198
11
26.9327
21
7.6619198
0
ARC
8
DEFAULT_255_2_778
10
26.4334196
20
7.6642772
40
0.5008986
50
268.1630995
51
270.0007305
0
ARC
8
DEFAULT_255_2_778
10
26.4334717
20
7.6634209
40
0.5000424
50
269.994766
51
313.671695
0
ARC
8
DEFAULT_255_2_778
10
26.4344823
20
7.662366
40
0.4985815
50
313.6714024
51
359.939098
0
LINE
8
DEFAULT_255_2_778
10
24.2162615
20
9.7721062
11
24.6909615
21
9.7721062
0
LINE
8
DEFAULT_255_2_778
10
24.6909615
20
9.7721062
11
26.4056615
21
9.6975062
0
LINE
8
DEFAULT_255_2_778
10
26.4056615
20
9.6975062
11
26.9327615
21
9.6975062
0
LINE
8
DEFAULT_255_2_778
10
24.1911323
20
7.7356489
11
24.2162323
21
9.7721489
0
ARC
8
DEFAULT_255_2_778
10
17.4952198
20
11.0400539
40
4.9743011
50
359.9974946
51
21.224131
0
ARC
8
DEFAULT_255_2_778
10
21.341105
20
17.2844165
40
0.8702841
50
179.998692
51
201.2186443
0
ARC
8
DEFAULT_255_2_778
10
21.3440721
20
17.2837656
40
0.8732515
50
100.5209401
51
179.955992
0
ARC
8
DEFAULT_255_2_778
10
21.3459442
20
17.2788514
40
0.8784255
50
90.0120752
51
100.5824642
0
ARC
8
DEFAULT_255_2_778
10
21.3456853
20
17.2828372
40
0.8744397
50
21.2407887
51
89.995167
0
ARC
8
DEFAULT_255_2_778
10
17.5009122
20
11.0397987
40
6.7175086
50
359.9977625
51
21.2184948
0
LINE
8
DEFAULT_255_2_778
10
22.4695209
20
9.8907364
11
22.4695209
21
10.0852364
0
LINE
8
DEFAULT_255_2_778
10
22.4695209
20
10.0852364
11
22.4695209
21
11.0398364
0
LINE
8
DEFAULT_255_2_778
10
22.1321209
20
12.8408364
11
20.5298209
21
16.9694364
0
LINE
8
DEFAULT_255_2_778
10
22.1607209
20
17.5996364
11
23.7630209
21
13.4710364
0
LINE
8
DEFAULT_255_2_778
10
24.2184209
20
11.0395364
11
24.2184209
21
9.9653364
0
LINE
8
DEFAULT_255_2_778
10
24.2184209
20
9.9653364
11
24.2160209
21
9.7721364
0
ARC
8
DEFAULT_255_2_778
10
21.9454164
20
7.8550839
40
0.4968983
50
313.5884481
51
0.0220392
0
ARC
8
DEFAULT_255_2_778
10
21.9427404
20
7.8565063
40
0.4997744
50
269.9998677
51
313.6982225
0
ARC
8
DEFAULT_255_2_778
10
21.9427336
20
7.8565512
40
0.4998194
50
267.8766198
51
270.0006454
0
LINE
8
DEFAULT_255_2_778
10
22.4698146
20
7.8533751
11
22.4423146
21
7.8552751
0
LINE
8
DEFAULT_255_2_778
10
22.4697104
20
7.8533698
11
24.1911104
21
7.7356698
0
ARC
8
DEFAULT_255_2_778
10
24.6885281
20
7.7345658
40
0.4974488
50
179.9997865
51
267.7364239
0
ARC
8
DEFAULT_255_2_778
10
24.7303814
20
7.7344727
40
0.5393021
50
179.8690532
51
179.9899018
0
LINE
8
DEFAULT_255_2_778
10
22.4697
20
9.8906458
11
22.4697
21
7.8533458
0
LINE
8
DEFAULT_255_2_778
10
19.7554198
20
9.9653062
11
20.2552198
21
9.9653062
0
LINE
8
DEFAULT_255_2_778
10
20.2552198
20
9.9653062
11
21.9700198
21
9.8907062
0
LINE
8
DEFAULT_255_2_778
10
21.9700198
20
9.8907062
11
22.4698198
21
9.8907062
0
LINE
8
DEFAULT_255_2_778
10
55.4611521
20
6.3740281
11
53.7122521
21
6.4939281
0
ARC
8
DEFAULT_255_2_778
10
48.7374503
20
11.0401529
40
4.9747327
50
359.9954664
51
21.2200235
0
LINE
8
DEFAULT_255_2_778
10
51.772583
20
16.9693592
11
53.374883
21
12.8407592
0
LINE
8
DEFAULT_255_2_778
10
53.712183
20
11.0397592
11
53.712183
21
6.4942592
0
ARC
8
DEFAULT_255_2_778
10
53.2081739
20
6.5045211
40
0.5101348
50
268.0225214
51
270.0004045
0
ARC
8
DEFAULT_255_2_778
10
53.2087385
20
6.5007691
40
0.5063831
50
269.9365314
51
313.5719972
0
ARC
8
DEFAULT_255_2_778
10
53.2139957
20
6.4943033
40
0.4980753
50
313.6465109
51
359.9639734
0
LINE
8
DEFAULT_255_2_778
10
51.4757709
20
6.0692901
11
53.1905709
21
5.9946901
0
LINE
8
DEFAULT_255_2_778
10
55.4612
20
8.4637396
11
55.4612
21
6.3740396
0
ARC
8
DEFAULT_255_2_778
10
55.9586314
20
6.3733294
40
0.4974643
50
180.0098329
51
267.3773211
0
ARC
8
DEFAULT_255_2_778
10
56.0049535
20
6.3731486
40
0.5437866
50
179.8696033
51
179.9899443
0
ARC
8
DEFAULT_255_2_778
10
52.583842
20
17.2844606
40
0.8705038
50
179.9791026
51
200.8676453
0
ARC
8
DEFAULT_255_2_778
10
52.5866364
20
17.2849108
40
0.8733375
50
180.0296137
51
201.1810826
0
ARC
8
DEFAULT_255_2_778
10
48.7385383
20
11.0387985
40
6.7226826
50
0.0060251
51
21.2102364
0
ARC
8
DEFAULT_255_2_778
10
52.5883339
20
17.2825852
40
0.8746609
50
21.2506926
51
89.985831
0
ARC
8
DEFAULT_255_2_778
10
52.5887394
20
17.2788721
40
0.8783738
50
90.0123421
51
100.582776
0
ARC
8
DEFAULT_255_2_778
10
52.5868719
20
17.2837349
40
0.8732513
50
100.52093
51
179.9560092
0
LINE
8
DEFAULT_255_2_778
10
55.4612209
20
8.4638054
11
55.4612209
21
9.9653054
0
LINE
8
DEFAULT_255_2_778
10
55.4612209
20
9.9653054
11
55.4612209
21
11.0395054
0
LINE
8
DEFAULT_255_2_778
10
55.0058209
20
13.4710054
11
53.4035209
21
17.5996054
0
LINE
8
DEFAULT_255_2_778
10
50.8187584
20
8.6336708
11
53.7122584
21
8.5077708
0
LINE
8
DEFAULT_255_2_778
10
58.1755198
20
8.3892062
11
57.6167198
21
8.3892062
0
LINE
8
DEFAULT_255_2_778
10
57.6167198
20
8.3892062
11
55.9016198
21
8.4638062
0
LINE
8
DEFAULT_255_2_778
10
55.9016198
20
8.4638062
11
55.4611198
21
8.4638062
0
LINE
8
DEFAULT_255_2_778
10
53.2183323
20
5.9946667
11
55.9358323
21
5.8761667
0
LINE
8
DEFAULT_255_2_778
10
57.67575
20
5.8262031
11
55.93585
21
5.8762031
0
LINE
8
DEFAULT_255_2_778
10
62.6388198
20
8.2388521
11
59.9244198
21
8.2425521
0
ARC
8
DEFAULT_255_2_778
10
63.5178121
20
8.5026622
40
0.8698404
50
359.9495214
51
49.7838947
0
ARC
8
DEFAULT_255_2_778
10
63.514583
20
8.5022665
40
0.8722304
50
49.6387004
51
90.0939913
0
ARC
8
DEFAULT_255_2_778
10
63.5120651
20
8.5015179
40
0.8729786
50
89.9286552
51
137.7425805
0
ARC
8
DEFAULT_255_2_778
10
63.5071476
20
8.5029241
40
0.8683961
50
137.5930698
51
180.0678468
0
LINE
8
DEFAULT_255_2_778
10
64.3876521
20
8.2396958
11
64.3876521
21
8.5018958
0
LINE
8
DEFAULT_255_2_778
10
62.6387521
20
8.5018958
11
62.6387521
21
8.2388958
0
LINE
8
DEFAULT_255_2_778
10
60.4234386
20
5.7065958
11
57.6789386
21
5.8261958
0
ARC
8
DEFAULT_255_2_778
10
57.7004376
20
6.3240517
40
0.4968031
50
313.5996452
51
0.0377084
0
ARC
8
DEFAULT_255_2_778
10
57.6974907
20
6.326298
40
0.5004626
50
269.9986657
51
313.6666161
0
ARC
8
DEFAULT_255_2_778
10
57.6974734
20
6.3263921
40
0.5005567
50
267.8781756
51
270.0006464
0
ARC
8
DEFAULT_255_2_778
10
60.4861732
20
6.2032655
40
0.5400767
50
179.8691452
51
179.9899089
0
ARC
8
DEFAULT_255_2_778
10
60.4435902
20
6.2033826
40
0.4974935
50
180.0025361
51
267.6738411
0
LINE
8
DEFAULT_255_2_778
10
59.9243979
20
6.206099
11
59.9460979
21
6.204499
0
LINE
8
DEFAULT_255_2_778
10
59.9244
20
6.2060344
11
58.1972
21
6.3243344
0
ARC
8
DEFAULT_255_2_778
10
53.2038753
20
11.0394308
40
6.7204588
50
0.0002775
51
21.2114268
0
ARC
8
DEFAULT_255_2_778
10
57.0515471
20
17.2825432
40
0.8746609
50
21.2506926
51
89.985831
0
ARC
8
DEFAULT_255_2_778
10
57.0519526
20
17.2788301
40
0.8783738
50
90.0123421
51
100.582776
0
ARC
8
DEFAULT_255_2_778
10
57.0500852
20
17.2836929
40
0.8732513
50
100.52093
51
179.9560092
0
ARC
8
DEFAULT_255_2_778
10
57.0488404
20
17.2846664
40
0.8720064
50
180.0199128
51
201.1974696
0
ARC
8
DEFAULT_255_2_778
10
53.1991155
20
11.0395836
40
4.9764186
50
0.0020697
51
21.219569
0
LINE
8
DEFAULT_255_2_778
10
59.9243341
20
6.2060634
11
59.9243341
21
11.0394634
0
LINE
8
DEFAULT_255_2_778
10
59.4690341
20
13.4709634
11
57.8667341
21
17.5995634
0
LINE
8
DEFAULT_255_2_778
10
56.2358341
20
16.9693634
11
57.8381341
21
12.8407634
0
LINE
8
DEFAULT_255_2_778
10
58.1755341
20
11.0397634
11
58.1755341
21
10.0851634
0
LINE
8
DEFAULT_255_2_778
10
58.1755341
20
10.0851634
11
58.1972341
21
6.3243634
0
LINE
8
DEFAULT_255_2_778
10
19.7553521
20
7.9287281
11
18.0064521
21
8.0486281
0
LINE
8
DEFAULT_255_2_778
10
18.0065
20
10.0851489
11
18.0065
21
8.0486489
0
ARC
8
DEFAULT_255_2_778
10
17.5068037
20
8.0512006
40
0.5010732
50
267.8388746
51
269.9992785
0
ARC
8
DEFAULT_255_2_778
10
17.5067815
20
8.0502478
40
0.5001204
50
270.0018238
51
313.6845338
0
ARC
8
DEFAULT_255_2_778
10
17.5083202
20
8.0490454
40
0.4981883
50
313.6520682
51
359.9584109
0
ARC
8
DEFAULT_255_2_778
10
20.2528281
20
7.9276658
40
0.4974488
50
179.9997865
51
267.7364239
0
ARC
8
DEFAULT_255_2_778
10
20.2946814
20
7.9275727
40
0.5393021
50
179.8690532
51
179.9899018
0
LINE
8
DEFAULT_255_2_778
10
19.7554
20
9.9653489
11
19.7554
21
7.9288489
0
LINE
8
DEFAULT_255_2_778
10
18.0065198
20
10.0852062
11
17.5067198
21
10.0852062
0
LINE
8
DEFAULT_255_2_778
10
17.5067198
20
10.0852062
11
15.7919198
21
10.1598062
0
LINE
8
DEFAULT_255_2_778
10
15.7919198
20
10.1598062
11
15.2921198
21
10.1598062
0
LINE
8
DEFAULT_255_2_778
10
73.3138757
20
6.5665229
11
73.2726757
21
8.4487229
0
LINE
8
DEFAULT_255_2_778
10
76.1365073
20
8.4448208
11
75.6986073
21
8.6850208
0
LINE
8
DEFAULT_255_2_778
10
75.6986073
20
8.6850208
11
73.7489073
21
8.6001208
0
LINE
8
DEFAULT_255_2_778
10
73.7489073
20
8.6001208
11
73.2729073
21
8.4487208
0
ARC
8
DEFAULT_255_2_778
10
72.4389025
20
8.1820105
40
0.8739766
50
92.4611014
51
167.2509367
0
ARC
8
DEFAULT_255_2_778
10
72.4398333
20
8.1740747
40
0.8819452
50
90.0013399
51
92.4993778
0
ARC
8
DEFAULT_255_2_778
10
72.4397892
20
8.1813444
40
0.8746754
50
17.7829592
51
89.9984608
0
LINE
8
DEFAULT_255_2_778
10
71.5861729
20
8.342581
11
71.5864729
21
8.374881
0
ARC
8
DEFAULT_255_2_778
10
76.9036051
20
8.0225831
40
0.8742862
50
33.8664139
51
88.2012158
0
ARC
8
DEFAULT_255_2_778
10
76.9027854
20
8.0051395
40
0.8917469
50
88.1837562
51
90.0016896
0
ARC
8
DEFAULT_255_2_778
10
76.901569
20
8.023953
40
0.8729343
50
89.9218878
51
137.5247108
0
ARC
8
DEFAULT_255_2_778
10
76.9035978
20
8.0204134
40
0.8768216
50
137.4436398
51
151.0611399
0
LINE
8
DEFAULT_255_2_778
10
38.0092
20
9.1919
11
38.0092
21
9.1919
0
LINE
8
DEFAULT_255_2_778
10
50.8187314
20
8.633576
11
50.8164314
21
10.506576
0
LINE
8
DEFAULT_255_2_778
10
50.8164314
20
10.506576
11
38.0910314
21
11.061176
0
LINE
8
DEFAULT_255_2_778
10
38.0910314
20
11.061176
11
38.0092314
21
9.191876
0
ARC
8
DEFAULT_255_2_778
10
48.4307603
20
8.6311909
40
2.3880391
50
1e-7
51
0.0663243
0
ARC
8
DEFAULT_255_2_778
10
48.3252423
20
8.6310924
40
2.4935572
50
347.6286457
51
0.0022635
0
ARC
8
DEFAULT_255_2_778
10
40.5312862
20
9.0751335
40
2.5242492
50
179.9642756
51
189.6693555
0
ARC
8
DEFAULT_255_2_778
10
40.6082757
20
9.0765694
40
2.6012383
50
177.4576378
51
179.9969597
0
LINE
8
DEFAULT_255_2_778
10
50.7608979
20
8.0968552
11
38.0428979
21
8.6511552
0
ARC
8
DEFAULT_255_2_778
10
78.2770307
20
6.7631892
40
0.5011689
50
270.0004519
51
272.480523
0
ARC
8
DEFAULT_255_2_778
10
78.2770422
20
6.7623302
40
0.5003099
50
226.305422
51
269.9991369
0
ARC
8
DEFAULT_255_2_778
10
78.2751969
20
6.7610031
40
0.4980757
50
180.0360331
51
226.3534462
0
ARC
8
DEFAULT_255_2_778
10
76.8331607
20
8.0257205
40
0.9439618
50
359.9010297
51
359.9923862
0
ARC
8
DEFAULT_255_2_778
10
76.9097278
20
8.0255743
40
0.8673947
50
0.0013699
51
33.9183427
0
LINE
8
DEFAULT_255_2_778
10
77.7771212
20
6.7606899
11
77.7771212
21
8.0240899
0
ARC
8
DEFAULT_255_2_778
10
73.813991
20
6.5682403
40
0.5004698
50
270.0003626
51
272.4822601
0
ARC
8
DEFAULT_255_2_778
10
73.8139911
20
6.5678403
40
0.5000698
50
226.2943904
51
270.0003464
0
ARC
8
DEFAULT_255_2_778
10
73.8123543
20
6.5668017
40
0.4981882
50
180.0415843
51
226.3479455
0
LINE
8
DEFAULT_255_2_778
10
71.5650198
20
6.4334104
11
71.5975198
21
6.4487104
0
LINE
8
DEFAULT_255_2_778
10
71.5975198
20
6.4487104
11
73.3142198
21
6.5662104
0
LINE
8
DEFAULT_255_2_778
10
71.5862167
20
8.3426166
11
71.5650167
21
6.4334166
0
ARC
8
DEFAULT_255_2_778
10
71.0686909
20
6.4444599
40
0.4964138
50
272.13464
51
358.7222813
0
LINE
8
DEFAULT_255_2_778
10
75.5504865
20
6.1428281
11
78.2986865
21
6.2627281
0
LINE
8
DEFAULT_255_2_778
10
79.5068146
20
6.315326
11
78.3008146
21
6.262626
0
LINE
8
DEFAULT_255_2_778
10
73.8356177
20
6.0683062
11
75.5504177
21
6.1429062
0
LINE
8
DEFAULT_255_2_778
10
73.8303865
20
6.0679323
11
73.8353865
21
6.0682323
0
LINE
8
DEFAULT_255_2_778
10
71.091649
20
5.9486503
11
73.830349
21
6.0679503
0
ARC
8
DEFAULT_255_2_778
10
13.0327383
20
11.0388433
40
6.7226826
50
0.0060251
51
21.2102364
0
ARC
8
DEFAULT_255_2_778
10
16.8825339
20
17.28263
40
0.8746609
50
21.2506926
51
89.985831
0
ARC
8
DEFAULT_255_2_778
10
16.8829394
20
17.2789169
40
0.8783738
50
90.0123421
51
100.582776
0
ARC
8
DEFAULT_255_2_778
10
16.881072
20
17.2837797
40
0.8732514
50
100.5209339
51
179.9560076
0
ARC
8
DEFAULT_255_2_778
10
16.8781039
20
17.2844302
40
0.870283
50
179.9986813
51
201.2186619
0
ARC
8
DEFAULT_255_2_778
10
13.0322186
20
11.0400672
40
4.9743022
50
359.9975003
51
21.2241315
0
LINE
8
DEFAULT_255_2_778
10
19.7554209
20
9.9653502
11
19.7554209
21
11.0395502
0
LINE
8
DEFAULT_255_2_778
10
19.3000209
20
13.4710502
11
17.6977209
21
17.5996502
0
LINE
8
DEFAULT_255_2_778
10
16.0668209
20
16.9694502
11
17.6691209
21
12.8408502
0
LINE
8
DEFAULT_255_2_778
10
18.0065209
20
11.0398502
11
18.0065209
21
10.0852502
0
ARC
8
DEFAULT_255_2_778
10
82.4575836
20
4.1677437
40
0.1995519
50
313.7337423
51
0.0033654
0
ARC
8
DEFAULT_255_2_778
10
82.457676
20
4.1670407
40
0.1989806
50
269.949854
51
313.8544657
0
ARC
8
DEFAULT_255_2_778
10
82.4575073
20
4.1695642
40
0.201504
50
267.476561
51
269.9984358
0
ARC
8
DEFAULT_255_2_778
10
80.7421794
20
4.2419004
40
0.1992156
50
205.940702
51
267.6283112
0
LINE
8
DEFAULT_255_2_778
10
82.4486355
20
3.9682555
11
80.7339355
21
4.0428555
0
LINE
8
DEFAULT_255_2_778
10
80.5630355
20
4.1547555
11
79.5070355
21
6.3153555
0
ARC
8
DEFAULT_255_2_778
10
80.135349
20
8.8748971
40
2.5218557
50
338.3935279
51
0.0616918
0
ARC
8
DEFAULT_255_2_778
10
80.1190156
20
8.8846896
40
2.5406491
50
283.3104641
51
338.3238443
0
ARC
8
DEFAULT_255_2_778
10
80.1196134
20
8.8986981
40
2.5541464
50
272.4636131
51
283.2250656
0
LINE
8
DEFAULT_255_2_778
10
80.2294032
20
6.3469125
11
79.5068032
21
6.3154125
0
LINE
8
DEFAULT_255_2_778
10
82.6572
20
8.8775562
11
82.6572
21
4.1674562
0
LINE
8
DEFAULT_255_2_778
10
82.6572
20
37.4679725
11
82.6572
21
8.8776725
0
LINE
8
DEFAULT_255_2_778
10
77.6295375
20
103.983925
11
78.0446375
21
103.706425
0
LINE
8
DEFAULT_255_2_778
10
78.0446375
20
103.706425
11
78.8535375
21
103.671225
0
LINE
8
DEFAULT_255_2_778
10
78.8535375
20
103.671225
11
79.2392375
21
103.355325
0
LINE
8
DEFAULT_255_2_778
10
77.7448917
20
105.7351375
11
76.0282917
21
105.8526375
0
ARC
8
DEFAULT_255_2_778
10
75.5292682
20
105.8523431
40
0.4990132
50
0.0415779
51
87.5636194
0
ARC
8
DEFAULT_255_2_778
10
76.8963837
20
104.4680986
40
0.8680733
50
179.9879397
51
208.8856408
0
ARC
8
DEFAULT_255_2_778
10
76.9032933
20
104.4682813
40
0.8749829
50
179.9225205
51
179.9999996
0
LINE
8
DEFAULT_255_2_778
10
76.0283112
20
104.4694646
11
76.0283112
21
105.8526646
0
LINE
8
DEFAULT_255_2_778
10
64.3877
20
104.2541229
11
64.3877
21
106.2887229
0
LINE
8
DEFAULT_255_2_778
10
62.6385521
20
106.2887
11
64.3874521
21
106.2887
0
ARC
8
DEFAULT_255_2_778
10
64.8870763
20
106.2874969
40
0.4999971
50
90.5648794
51
134.9316562
0
ARC
8
DEFAULT_255_2_778
10
64.8861276
20
106.2886926
40
0.4984807
50
134.9515207
51
179.9911305
0
ARC
8
DEFAULT_255_2_778
10
63.5085969
20
103.9913234
40
0.8698451
50
179.9491223
51
229.6098705
0
ARC
8
DEFAULT_255_2_778
10
63.5117487
20
103.9915824
40
0.8720876
50
229.4631814
51
270.0922047
0
ARC
8
DEFAULT_255_2_778
10
63.5142718
20
103.9926024
40
0.8731073
50
269.9265227
51
317.7388519
0
ARC
8
DEFAULT_255_2_778
10
63.5192976
20
103.9910628
40
0.8683551
50
317.5910201
51
0.0681631
0
LINE
8
DEFAULT_255_2_778
10
62.6387521
20
104.2550958
11
62.6387521
21
103.9920958
0
LINE
8
DEFAULT_255_2_778
10
64.3876521
20
103.9920958
11
64.3876521
21
104.2542958
0
LINE
8
DEFAULT_255_2_778
10
67.1021198
20
104.205174
11
66.6023198
21
104.205174
0
LINE
8
DEFAULT_255_2_778
10
66.6023198
20
104.205174
11
65.4778198
21
104.254074
0
LINE
8
DEFAULT_255_2_778
10
65.4778198
20
104.254074
11
64.3877198
21
104.254074
0
ARC
8
DEFAULT_255_2_778
10
62.1385508
20
106.2898228
40
0.4999308
50
0.0105386
51
87.462897
0
ARC
8
DEFAULT_255_2_778
10
62.0730001
20
106.2899147
40
0.5654817
50
359.9036211
51
359.9999975
0
LINE
8
DEFAULT_255_2_778
10
62.6385
20
104.2550937
11
62.6385
21
106.2886937
0
LINE
8
DEFAULT_255_2_778
10
68.8498708
20
104.1129906
11
68.8509708
21
106.1219906
0
LINE
8
DEFAULT_255_2_778
10
67.1020521
20
106.2416281
11
68.8509521
21
106.1217281
0
ARC
8
DEFAULT_255_2_778
10
69.3506603
20
106.1203252
40
0.5000544
50
87.6364793
51
89.9994082
0
ARC
8
DEFAULT_255_2_778
10
69.3507602
20
106.1200612
40
0.5003182
50
90.0108546
51
133.686847
0
ARC
8
DEFAULT_255_2_778
10
69.3492985
20
106.1212939
40
0.4984172
50
133.6632166
51
179.8896167
0
LINE
8
DEFAULT_255_2_778
10
68.8593375
20
104.1090844
11
68.8498375
21
104.1130844
0
ARC
8
DEFAULT_255_2_778
10
67.9754371
20
104.1519492
40
0.8733563
50
180.0569415
51
264.3530771
0
ARC
8
DEFAULT_255_2_778
10
67.9768263
20
104.1665367
40
0.8880097
50
264.3564889
51
268.629104
0
ARC
8
DEFAULT_255_2_778
10
67.9770051
20
104.1709103
40
0.8923863
50
268.6243485
51
269.9992485
0
ARC
8
DEFAULT_255_2_778
10
67.976873
20
104.1523428
40
0.8738189
50
270.0078963
51
353.1194405
0
ARC
8
DEFAULT_255_2_778
10
67.9570448
20
104.1550279
40
0.8938261
50
353.1008301
51
357.3037423
0
LINE
8
DEFAULT_255_2_778
10
67.1020813
20
104.2050812
11
67.1020813
21
104.1510812
0
LINE
8
DEFAULT_255_2_778
10
71.5865073
20
104.1185687
11
71.0991073
21
104.0090687
0
LINE
8
DEFAULT_255_2_778
10
71.0991073
20
104.0090687
11
68.8499073
21
104.1127687
0
ARC
8
DEFAULT_255_2_778
10
66.6029494
20
106.2414405
40
0.4988624
50
0.6338705
51
87.5837117
0
LINE
8
DEFAULT_255_2_778
10
67.102
20
106.2394906
11
67.102
21
104.2050906
0
LINE
8
DEFAULT_255_2_778
10
75.5504865
20
106.3509281
11
78.2986865
21
106.2310281
0
LINE
8
DEFAULT_255_2_778
10
79.5070563
20
106.178626
11
78.2989563
21
106.231326
0
ARC
8
DEFAULT_255_2_778
10
76.9100099
20
104.4679091
40
0.867155
50
326.0768254
51
0.0034
0
ARC
8
DEFAULT_255_2_778
10
76.8321583
20
104.4678351
40
0.9450065
50
0.0076098
51
0.0989177
0
ARC
8
DEFAULT_255_2_778
10
78.2742306
20
105.7329854
40
0.4970671
50
133.5967898
51
180.0136892
0
ARC
8
DEFAULT_255_2_778
10
78.2770622
20
105.7311219
40
0.5003699
50
90.0034268
51
133.6844624
0
ARC
8
DEFAULT_255_2_778
10
78.2770267
20
105.7307191
40
0.5007727
50
87.6381731
51
89.9993654
0
LINE
8
DEFAULT_255_2_778
10
77.7771636
20
104.4694666
11
77.7771636
21
105.7328666
0
LINE
8
DEFAULT_255_2_778
10
73.8356177
20
106.4258062
11
75.5504177
21
106.3512062
0
LINE
8
DEFAULT_255_2_778
10
71.0924459
20
106.5450635
11
73.8303459
21
106.4257635
0
LINE
8
DEFAULT_255_2_778
10
73.8356542
20
106.4254323
11
73.8303542
21
106.4257323
0
ARC
8
DEFAULT_255_2_778
10
73.8110985
20
105.9275328
40
0.4968996
50
133.5885102
51
180.0219667
0
ARC
8
DEFAULT_255_2_778
10
73.8136602
20
105.9261664
40
0.4996564
50
90.0007721
51
133.693244
0
ARC
8
DEFAULT_255_2_778
10
73.8136522
20
105.9255924
40
0.5002303
50
88.081492
51
89.9998591
0
LINE
8
DEFAULT_255_2_778
10
71.0921865
20
106.5450323
11
71.0871865
21
106.5453323
0
ARC
8
DEFAULT_255_2_778
10
71.1993689
20
106.0607963
40
0.3656125
50
359.9364312
51
0.0211882
0
ARC
8
DEFAULT_255_2_778
10
71.0690235
20
106.0496364
40
0.4960866
50
1.3046373
51
87.9024037
0
LINE
8
DEFAULT_255_2_778
10
69.3724177
20
106.6202062
11
71.0872177
21
106.5456062
0
LINE
8
DEFAULT_255_2_778
10
66.6238865
20
106.7398281
11
69.3720865
21
106.6199281
0
LINE
8
DEFAULT_255_2_778
10
64.8874375
20
106.7874125
11
65.5332375
21
106.7874125
0
LINE
8
DEFAULT_255_2_778
10
65.5332375
20
106.7874125
11
66.6241375
21
106.7398125
0
LINE
8
DEFAULT_255_2_778
10
33.1448521
20
105.1459281
11
31.3959521
21
105.0260281
0
LINE
8
DEFAULT_255_2_778
10
31.396
20
102.9898489
11
31.396
21
105.0263489
0
ARC
8
DEFAULT_255_2_778
10
30.8964586
20
105.025163
40
0.4996638
50
90.0004891
51
92.5241515
0
ARC
8
DEFAULT_255_2_778
10
30.8964299
20
105.0255482
40
0.4992786
50
46.2554642
51
89.9971944
0
ARC
8
DEFAULT_255_2_778
10
30.8977662
20
105.0257811
40
0.498187
50
0.0415046
51
46.3479736
0
LINE
8
DEFAULT_255_2_778
10
33.1451
20
103.1094489
11
33.1451
21
105.1459489
0
ARC
8
DEFAULT_255_2_778
10
33.6426281
20
105.1471446
40
0.4974488
50
92.2635761
51
180.0002135
0
ARC
8
DEFAULT_255_2_778
10
33.6844814
20
105.1472378
40
0.5393021
50
180.0100982
51
180.1309468
0
ARC
8
DEFAULT_255_2_778
10
26.4193438
20
101.4538957
40
4.9766771
50
338.7809852
51
0.0008233
0
ARC
8
DEFAULT_255_2_778
10
30.2681346
20
95.2089879
40
0.8708137
50
158.7878821
51
180.0013595
0
ARC
8
DEFAULT_255_2_778
10
30.2704656
20
95.2096493
40
0.873145
50
180.0447609
51
259.4848727
0
ARC
8
DEFAULT_255_2_778
10
30.2724885
20
95.2148836
40
0.8786612
50
259.4174649
51
269.9879621
0
ARC
8
DEFAULT_255_2_778
10
30.2722861
20
95.210512
40
0.8742897
50
270.0011641
51
338.7662457
0
ARC
8
DEFAULT_255_2_778
10
26.4213115
20
101.4547477
40
6.7236094
50
338.7912425
51
359.9933491
0
LINE
8
DEFAULT_255_2_778
10
31.3960209
20
102.9895672
11
31.3960209
21
102.4085672
0
LINE
8
DEFAULT_255_2_778
10
31.3960209
20
102.4085672
11
31.3960209
21
101.4539672
0
LINE
8
DEFAULT_255_2_778
10
31.0586209
20
99.6526672
11
29.4563209
21
95.5240672
0
LINE
8
DEFAULT_255_2_778
10
31.0872209
20
94.8938672
11
32.6895209
21
99.0223672
0
LINE
8
DEFAULT_255_2_778
10
33.1449209
20
101.4539672
11
33.1449209
21
103.1091672
0
LINE
8
DEFAULT_255_2_778
10
38.0093178
20
103.3021083
11
33.6447178
21
103.1095083
0
LINE
8
DEFAULT_255_2_778
10
33.6447178
20
103.1095083
11
33.1449178
21
103.1095083
0
LINE
8
DEFAULT_255_2_778
10
28.6816521
20
104.9515281
11
26.9327521
21
104.8316281
0
ARC
8
DEFAULT_255_2_778
10
26.4332235
20
104.8289412
40
0.5015424
50
90.000933
51
92.2410387
0
ARC
8
DEFAULT_255_2_778
10
26.4332395
20
104.8303211
40
0.5001624
50
46.3129071
51
90.0027655
0
ARC
8
DEFAULT_255_2_778
10
26.4349361
20
104.8315867
40
0.4980755
50
0.0360297
51
46.3534718
0
ARC
8
DEFAULT_255_2_778
10
21.9588409
20
101.4549673
40
6.72308
50
338.7903976
51
359.9933408
0
ARC
8
DEFAULT_255_2_778
10
25.8091512
20
95.2109816
40
0.8744702
50
270.0168298
51
338.7602316
0
ARC
8
DEFAULT_255_2_778
10
25.8095962
20
95.214626
40
0.8781146
50
259.4036531
51
269.9877245
0
ARC
8
DEFAULT_255_2_778
10
25.8073857
20
95.2099015
40
0.8730651
50
180.0403997
51
259.4892302
0
ARC
8
DEFAULT_255_2_778
10
25.8051341
20
95.2093067
40
0.8708132
50
158.7878788
51
180.0013692
0
ARC
8
DEFAULT_255_2_778
10
21.9579288
20
101.4538174
40
4.9750922
50
338.7775671
51
0.0042437
0
LINE
8
DEFAULT_255_2_778
10
28.6819209
20
102.9149859
11
28.6819209
21
102.5283859
0
LINE
8
DEFAULT_255_2_778
10
28.6819209
20
102.5283859
11
28.6819209
21
101.4541859
0
LINE
8
DEFAULT_255_2_778
10
28.2265209
20
99.0226859
11
26.6242209
21
94.8941859
0
LINE
8
DEFAULT_255_2_778
10
24.9933209
20
95.5243859
11
26.5956209
21
99.6528859
0
LINE
8
DEFAULT_255_2_778
10
26.9330209
20
101.4541859
11
26.9330209
21
104.8318859
0
LINE
8
DEFAULT_255_2_778
10
28.6819
20
102.9150489
11
28.6819
21
104.9515489
0
ARC
8
DEFAULT_255_2_778
10
29.1793281
20
104.9526446
40
0.4974488
50
92.2635761
51
180.0002135
0
ARC
8
DEFAULT_255_2_778
10
29.2211814
20
104.9527378
40
0.5393021
50
180.0100982
51
180.1309468
0
LINE
8
DEFAULT_255_2_778
10
31.3963198
20
102.9896062
11
30.8965198
21
102.9896062
0
LINE
8
DEFAULT_255_2_778
10
30.8965198
20
102.9896062
11
29.1817198
21
102.9150062
0
LINE
8
DEFAULT_255_2_778
10
29.1817198
20
102.9150062
11
28.6819198
21
102.9150062
0
LINE
8
DEFAULT_255_2_778
10
29.1597448
20
105.4520865
11
26.4136448
21
105.3300865
0
LINE
8
DEFAULT_255_2_778
10
24.2162615
20
102.7219062
11
24.6909615
21
102.7219062
0
LINE
8
DEFAULT_255_2_778
10
24.6909615
20
102.7219062
11
26.4056615
21
102.7965062
0
LINE
8
DEFAULT_255_2_778
10
26.4056615
20
102.7965062
11
26.9327615
21
102.7965062
0
LINE
8
DEFAULT_255_2_778
10
30.8745177
20
105.5246062
11
29.1597177
21
105.4500062
0
LINE
8
DEFAULT_255_2_778
10
33.623074
20
105.6441958
11
30.877974
21
105.5245958
0
LINE
8
DEFAULT_255_2_778
10
35.3149948
20
105.7204094
11
33.6229948
21
105.6466094
0
LINE
8
DEFAULT_255_2_778
10
24.1911323
20
104.7583489
11
24.2162323
21
102.7218489
0
ARC
8
DEFAULT_255_2_778
10
17.4933681
20
101.4538576
40
4.9761528
50
338.7798579
51
0.0008064
0
ARC
8
DEFAULT_255_2_778
10
21.3416346
20
95.2090483
40
0.8708137
50
158.7878821
51
180.0013595
0
ARC
8
DEFAULT_255_2_778
10
21.3439658
20
95.2097098
40
0.8731452
50
180.0447658
51
259.4848603
0
ARC
8
DEFAULT_255_2_778
10
21.346101
20
95.2144193
40
0.8781661
50
259.4039651
51
269.9879915
0
ARC
8
DEFAULT_255_2_778
10
21.3458026
20
95.210502
40
0.8742489
50
270.0074923
51
338.7701572
0
ARC
8
DEFAULT_255_2_778
10
17.4949433
20
101.4547835
40
6.7234776
50
338.7910318
51
359.9927067
0
LINE
8
DEFAULT_255_2_778
10
22.4695209
20
102.6030276
11
22.4695209
21
101.4539276
0
LINE
8
DEFAULT_255_2_778
10
22.1321209
20
99.6527276
11
20.5298209
21
95.5241276
0
LINE
8
DEFAULT_255_2_778
10
22.1607209
20
94.8939276
11
23.7630209
21
99.0224276
0
LINE
8
DEFAULT_255_2_778
10
24.2184209
20
101.4539276
11
24.2184209
21
102.5282276
0
LINE
8
DEFAULT_255_2_778
10
24.2184209
20
102.5282276
11
24.2160209
21
102.7213276
0
LINE
8
DEFAULT_255_2_778
10
24.1911104
20
104.7583698
11
22.4697104
21
104.6406698
0
LINE
8
DEFAULT_255_2_778
10
22.4697
20
102.6030458
11
22.4697
21
104.6403458
0
ARC
8
DEFAULT_255_2_778
10
21.9427002
20
104.637463
40
0.4996638
50
90.0004891
51
92.5241515
0
ARC
8
DEFAULT_255_2_778
10
21.9426715
20
104.6378482
40
0.4992786
50
46.2554642
51
89.9971944
0
ARC
8
DEFAULT_255_2_778
10
21.9445119
20
104.6382974
40
0.4976826
50
0.0166533
51
46.3727785
0
LINE
8
DEFAULT_255_2_778
10
22.4421948
20
104.638442
11
22.4696948
21
104.640342
0
ARC
8
DEFAULT_255_2_778
10
24.6885281
20
104.7595446
40
0.4974488
50
92.2635761
51
180.0002135
0
ARC
8
DEFAULT_255_2_778
10
24.7303814
20
104.7596378
40
0.5393021
50
180.0100982
51
180.1309468
0
LINE
8
DEFAULT_255_2_778
10
19.7554198
20
102.5287062
11
20.2552198
21
102.5287062
0
LINE
8
DEFAULT_255_2_778
10
20.2552198
20
102.5287062
11
21.9700198
21
102.6033062
0
LINE
8
DEFAULT_255_2_778
10
21.9700198
20
102.6033062
11
22.4698198
21
102.6033062
0
LINE
8
DEFAULT_255_2_778
10
55.4614198
20
106.1196281
11
53.7122198
21
105.9997281
0
LINE
8
DEFAULT_255_2_778
10
53.7122
20
103.9862396
11
53.7122
21
105.9997396
0
ARC
8
DEFAULT_255_2_778
10
53.2095465
20
105.9942008
40
0.5052995
50
46.4069391
51
88.6822825
0
ARC
8
DEFAULT_255_2_778
10
53.2146963
20
105.9999699
40
0.4975703
50
359.9881145
51
46.3783552
0
LINE
8
DEFAULT_255_2_778
10
55.4612
20
104.0302073
11
55.4612
21
106.1196073
0
ARC
8
DEFAULT_255_2_778
10
55.9576094
20
106.1216465
40
0.4964146
50
92.541245
51
179.9879825
0
ARC
8
DEFAULT_255_2_778
10
55.9520546
20
106.121704
40
0.4908598
50
179.9945487
51
180.2370757
0
LINE
8
DEFAULT_255_2_778
10
62.6388198
20
104.2551521
11
59.9244198
21
104.2514521
0
LINE
8
DEFAULT_255_2_778
10
59.9244
20
106.2876489
11
59.9244
21
104.2511489
0
ARC
8
DEFAULT_255_2_778
10
53.1995124
20
101.4541257
40
4.9760217
50
338.779575
51
359.9987863
0
ARC
8
DEFAULT_255_2_778
10
57.0501746
20
95.2088675
40
0.8733407
50
158.8189068
51
179.9702967
0
ARC
8
DEFAULT_255_2_778
10
57.0499787
20
95.2100022
40
0.8731448
50
180.0447452
51
259.4848789
0
ARC
8
DEFAULT_255_2_778
10
57.0520018
20
95.2152366
40
0.8786612
50
259.4174649
51
269.9879621
0
ARC
8
DEFAULT_255_2_778
10
57.0517994
20
95.2108651
40
0.8742897
50
270.0011641
51
338.7662457
0
ARC
8
DEFAULT_255_2_778
10
53.2063923
20
101.4537823
40
6.717942
50
338.7845473
51
0.0045883
0
LINE
8
DEFAULT_255_2_778
10
58.1972341
20
106.1694203
11
58.1755341
21
102.4086203
0
LINE
8
DEFAULT_255_2_778
10
58.1755341
20
102.4086203
11
58.1755341
21
101.4540203
0
LINE
8
DEFAULT_255_2_778
10
57.8381341
20
99.6530203
11
56.2358341
21
95.5244203
0
LINE
8
DEFAULT_255_2_778
10
57.8667341
20
94.8942203
11
59.4690341
21
99.0227203
0
LINE
8
DEFAULT_255_2_778
10
59.9243341
20
101.4543203
11
59.9243341
21
104.2512203
0
LINE
8
DEFAULT_255_2_778
10
60.4237063
20
106.7874958
11
57.6789063
21
106.6678958
0
LINE
8
DEFAULT_255_2_778
10
55.93585
20
106.6176031
11
57.67575
21
106.6676031
0
ARC
8
DEFAULT_255_2_778
10
58.0304898
20
106.1696918
40
0.1667187
50
359.9058662
51
0.0313771
0
ARC
8
DEFAULT_255_2_778
10
57.7000292
20
106.1696884
40
0.4971793
50
0.0109088
51
46.3976878
0
ARC
8
DEFAULT_255_2_778
10
57.6976039
20
106.1684054
40
0.4997817
50
46.2977869
51
89.977411
0
ARC
8
DEFAULT_255_2_778
10
57.697803
20
106.1693063
40
0.4988808
50
90.0002341
51
92.2050301
0
LINE
8
DEFAULT_255_2_778
10
64.8822209
20
106.7875
11
60.4234209
21
106.7875
0
ARC
8
DEFAULT_255_2_778
10
60.4864379
20
106.2905326
40
0.5403414
50
180.0100663
51
180.130816
0
ARC
8
DEFAULT_255_2_778
10
60.4435231
20
106.2904797
40
0.4974265
50
92.3187442
51
180.0048336
0
LINE
8
DEFAULT_255_2_778
10
59.9243979
20
106.287699
11
59.9460979
21
106.289299
0
LINE
8
DEFAULT_255_2_778
10
53.2183323
20
106.4993344
11
55.9358323
21
106.6176344
0
LINE
8
DEFAULT_255_2_778
10
59.9244
20
106.2876344
11
58.1972
21
106.1693344
0
LINE
8
DEFAULT_255_2_778
10
58.1755198
20
104.1048062
11
57.6167198
21
104.1048062
0
LINE
8
DEFAULT_255_2_778
10
57.6167198
20
104.1048062
11
55.9016198
21
104.0302062
0
LINE
8
DEFAULT_255_2_778
10
55.9016198
20
104.0302062
11
55.4611198
21
104.0302062
0
ARC
8
DEFAULT_255_2_778
10
48.7372036
20
101.4540921
40
4.9748299
50
338.7770034
51
0.0013569
0
ARC
8
DEFAULT_255_2_778
10
52.5778616
20
95.210662
40
0.8645297
50
158.9482962
51
179.9890811
0
ARC
8
DEFAULT_255_2_778
10
52.5302275
20
95.2108267
40
0.8168955
50
180.0000007
51
180.1134014
0
ARC
8
DEFAULT_255_2_778
10
52.5864782
20
95.2098919
40
0.873145
50
180.0447541
51
259.484872
0
ARC
8
DEFAULT_255_2_778
10
52.5884568
20
95.2148948
40
0.8784255
50
259.4175358
51
269.9879248
0
ARC
8
DEFAULT_255_2_778
10
52.5881979
20
95.2109091
40
0.8744397
50
270.004833
51
338.7592113
0
ARC
8
DEFAULT_255_2_778
10
48.7403716
20
101.4542438
40
6.7204621
50
338.7885718
51
359.9997109
0
LINE
8
DEFAULT_255_2_778
10
53.7120335
20
103.9862099
11
53.7120335
21
101.4542099
0
LINE
8
DEFAULT_255_2_778
10
53.3746335
20
99.6532099
11
51.7710335
21
95.5212099
0
LINE
8
DEFAULT_255_2_778
10
53.4032335
20
94.8941099
11
55.0055335
21
99.0227099
0
LINE
8
DEFAULT_255_2_778
10
55.4608335
20
101.4542099
11
55.4608335
21
104.0299099
0
LINE
8
DEFAULT_255_2_778
10
19.7553521
20
104.5649281
11
18.0064521
21
104.4450281
0
LINE
8
DEFAULT_255_2_778
10
18.0065
20
102.4088489
11
18.0065
21
104.4453489
0
ARC
8
DEFAULT_255_2_778
10
17.5071031
20
104.444974
40
0.4988809
50
90.0002341
51
92.2050301
0
ARC
8
DEFAULT_255_2_778
10
17.506904
20
104.4440731
40
0.4997818
50
46.2977869
51
89.977411
0
ARC
8
DEFAULT_255_2_778
10
17.508321
20
104.4449244
40
0.4981875
50
0.0415363
51
46.3479624
0
ARC
8
DEFAULT_255_2_778
10
20.2528281
20
104.5661446
40
0.4974488
50
92.2635761
51
180.0002135
0
ARC
8
DEFAULT_255_2_778
10
20.2946814
20
104.5662378
40
0.5393021
50
180.0100982
51
180.1309468
0
LINE
8
DEFAULT_255_2_778
10
19.7554
20
102.5284489
11
19.7554
21
104.5649489
0
LINE
8
DEFAULT_255_2_778
10
15.2921
20
104.3704489
11
15.2921
21
102.3339489
0
LINE
8
DEFAULT_255_2_778
10
18.0065198
20
102.4089062
11
17.5067198
21
102.4089062
0
LINE
8
DEFAULT_255_2_778
10
17.5067198
20
102.4089062
11
15.7919198
21
102.3343062
0
LINE
8
DEFAULT_255_2_778
10
15.7919198
20
102.3343062
11
15.2921198
21
102.3343062
0
ARC
8
DEFAULT_255_2_778
10
14.425456
20
102.255354
40
0.8824809
50
181.2479026
51
221.328174
0
ARC
8
DEFAULT_255_2_778
10
14.4160895
20
102.2466821
40
0.8697206
50
221.3066513
51
270.0857395
0
ARC
8
DEFAULT_255_2_778
10
14.4173668
20
102.2747991
40
0.8978366
50
270.0015403
51
270.7286362
0
ARC
8
DEFAULT_255_2_778
10
14.4188535
20
102.2496053
40
0.8726267
50
270.652064
51
318.7761623
0
ARC
8
DEFAULT_255_2_778
10
14.4230759
20
102.2484768
40
0.8687092
50
318.6486189
51
0.076395
0
LINE
8
DEFAULT_255_2_778
10
15.2917844
20
102.2496351
11
15.2917844
21
102.3340351
0
LINE
8
DEFAULT_255_2_778
10
13.5432521
20
104.2508958
11
15.2921521
21
104.3704958
0
LINE
8
DEFAULT_255_2_778
10
80.1187
20
27.1493896
11
80.1187
21
29.0739896
0
LINE
8
DEFAULT_255_2_778
10
80.1187
20
37.5081677
11
80.1187
21
36.6194677
0
LINE
8
DEFAULT_255_2_778
10
80.1187
20
74.9859134
11
80.1187
21
87.1067134
0
LINE
8
DEFAULT_255_2_778
10
0.1571167
20
12.2119
11
0.4069167
21
12.2119
0
LINE
8
DEFAULT_255_2_778
10
0.3588229
20
9.6395395
11
0.4070229
21
12.2118395
0
LINE
8
DEFAULT_255_2_778
10
0.4069
20
100.2821321
11
0.4069
21
12.2118321
0
LINE
8
DEFAULT_255_2_778
10
13.5435189
20
10.2579739
11
9.4453189
21
10.4364739
0
LINE
8
DEFAULT_255_2_778
10
9.4453189
20
10.4364739
11
0.4069189
21
12.2118739
0
LINE
8
DEFAULT_255_2_778
10
0.1572
20
100.2821321
11
0.1572
21
12.2118321
0
ARC
8
DEFAULT_255_2_778
10
0.4065274
20
9.8843937
40
0.2493337
50
180.0050293
51
258.9628805
0
LINE
8
DEFAULT_255_2_778
10
0.1571938
20
9.8843718
11
0.1571938
21
12.2121718
0
ARC
8
DEFAULT_255_2_778
10
9.4438656
20
10.43627
40
2.5331127
50
258.8808119
51
267.5312549
0
LINE
8
DEFAULT_255_2_778
10
13.0217533
20
7.7449083
11
9.3347533
21
7.9055083
0
LINE
8
DEFAULT_255_2_778
10
8.9553533
20
7.9507083
11
0.3590533
21
9.6393083
0
LINE
8
DEFAULT_255_2_778
10
0.1571167
20
100.2821
11
0.4069167
21
100.2821
0
LINE
8
DEFAULT_255_2_778
10
13.5435189
20
102.2360739
11
9.4453189
21
102.0574739
0
LINE
8
DEFAULT_255_2_778
10
9.4453189
20
102.0574739
11
0.4069189
21
100.2821739
0
ARC
8
DEFAULT_255_2_778
10
0.4064686
20
102.6098236
40
0.249355
50
101.8382395
51
179.9652106
0
LINE
8
DEFAULT_255_2_778
10
0.1571135
20
102.609975
11
0.1571135
21
100.282175
0
LINE
8
DEFAULT_255_2_778
10
0.3587948
20
102.8544395
11
0.3997948
21
100.2821395
0
LINE
8
DEFAULT_255_2_778
10
82.6570938
20
75.0520052
11
80.1186938
21
74.9856052
0
LINE
8
DEFAULT_255_2_778
10
78.6596115
20
73.9498219
11
78.6596115
21
74.9475219
0
LINE
8
DEFAULT_255_2_778
10
78.6596115
20
74.9475219
11
80.1188115
21
74.9856219
0
LINE
8
DEFAULT_255_2_778
10
73.3138757
20
105.9275229
11
73.2726757
21
104.0453229
0
LINE
8
DEFAULT_255_2_778
10
76.1365073
20
104.0490208
11
75.6986073
21
103.8088208
0
LINE
8
DEFAULT_255_2_778
10
75.6986073
20
103.8088208
11
73.7489073
21
103.8937208
0
LINE
8
DEFAULT_255_2_778
10
73.7489073
20
103.8937208
11
73.2729073
21
104.0453208
0
ARC
8
DEFAULT_255_2_778
10
72.4389855
20
104.311701
40
0.8740679
50
192.7604238
51
267.5358253
0
ARC
8
DEFAULT_255_2_778
10
72.4398751
20
104.3197708
40
0.8821686
50
267.5006369
51
269.9989581
0
ARC
8
DEFAULT_255_2_778
10
72.439925
20
104.3121796
40
0.8745775
50
269.9956807
51
342.2148588
0
ARC
8
DEFAULT_255_2_778
10
76.9034578
20
104.4713567
40
0.8745572
50
271.80788
51
326.1244455
0
ARC
8
DEFAULT_255_2_778
10
76.9027728
20
104.4885308
40
0.8917444
50
269.9991176
51
271.8170564
0
ARC
8
DEFAULT_255_2_778
10
76.901569
20
104.4697199
40
0.8729343
50
222.4752892
51
270.0781122
0
ARC
8
DEFAULT_255_2_778
10
76.9035978
20
104.4732595
40
0.8768216
50
208.9388601
51
222.5563602
0
LINE
8
DEFAULT_255_2_778
10
38.0092
20
103.3021
11
38.0092
21
103.3021
0
LINE
8
DEFAULT_255_2_778
10
50.8187314
20
103.860076
11
50.8164314
21
101.987076
0
LINE
8
DEFAULT_255_2_778
10
50.8164314
20
101.987076
11
38.0910314
21
101.432476
0
LINE
8
DEFAULT_255_2_778
10
38.0910314
20
101.432476
11
38.0092314
21
103.301776
0
ARC
8
DEFAULT_255_2_778
10
48.312389
20
103.8616322
40
2.5064099
50
359.9662356
51
12.3393446
0
ARC
8
DEFAULT_255_2_778
10
40.5312868
20
103.4189769
40
2.5242492
50
170.3306445
51
180.0357244
0
ARC
8
DEFAULT_255_2_778
10
40.6082763
20
103.417541
40
2.6012383
50
180.0030403
51
182.5423622
0
LINE
8
DEFAULT_255_2_778
10
50.7608985
20
104.3972552
11
38.0428985
21
103.8429552
0
LINE
8
DEFAULT_255_2_778
10
13.5432677
20
104.250901
11
13.5435677
21
102.236101
0
LINE
8
DEFAULT_255_2_778
10
82.6570938
20
37.4680083
11
80.1186938
21
37.5082083
0
LINE
8
DEFAULT_255_2_778
10
78.6596115
20
38.5440219
11
78.6596115
21
37.5463219
0
LINE
8
DEFAULT_255_2_778
10
78.6596115
20
37.5463219
11
80.1188115
21
37.5082219
0
ARC
8
DEFAULT_255_2_778
10
81.659729
20
37.4675494
40
0.9974033
50
0.0197226
51
62.2566323
0
LINE
8
DEFAULT_255_2_778
10
80.4584507
20
27.1495
11
80.1187507
21
27.1495
0
LINE
8
DEFAULT_255_2_778
10
80.1188115
20
24.1572864
11
78.6596115
21
24.1572864
0
LINE
8
DEFAULT_255_2_778
10
78.6596115
20
24.1572864
11
78.6596115
21
27.1494864
0
LINE
8
DEFAULT_255_2_778
10
78.6596115
20
27.1494864
11
80.1188115
21
27.1494864
0
LINE
8
DEFAULT_255_2_778
10
82.6572
20
103.6161725
11
82.6572
21
75.0258725
0
LINE
8
DEFAULT_255_2_778
10
80.1587375
20
72.9525375
11
82.1076375
21
72.9525375
0
LINE
8
DEFAULT_255_2_778
10
82.1076375
20
72.9525375
11
82.6574375
21
73.9026375
0
LINE
8
DEFAULT_255_2_778
10
82.6574375
20
73.9026375
11
82.6574375
21
75.0258375
0
ARC
8
DEFAULT_255_2_778
10
81.6593063
20
75.0252461
40
0.9966208
50
271.4000833
51
313.7292218
0
ARC
8
DEFAULT_255_2_778
10
81.6629649
20
75.0249532
40
0.9938831
50
313.5884836
51
359.2867431
0
ARC
8
DEFAULT_255_2_778
10
81.6435591
20
75.0258131
40
1.0132982
50
359.2517826
51
0.0005526
0
LINE
8
DEFAULT_255_2_778
10
79.8821573
20
73.9818229
11
81.6836573
21
74.0289229
0
LINE
8
DEFAULT_255_2_778
10
79.8821552
20
73.9818146
11
80.1586552
21
72.9526146
0
LINE
8
DEFAULT_255_2_778
10
79.6520615
20
73.9757042
11
79.9266615
21
72.9523042
0
LINE
8
DEFAULT_255_2_778
10
79.9266615
20
72.9523042
11
80.1587615
21
72.9523042
0
LINE
8
DEFAULT_255_2_778
10
79.6520063
20
73.9756427
11
79.8822063
21
73.9817427
0
LINE
8
DEFAULT_255_2_778
10
78.659574
20
73.9497646
11
79.652074
21
73.9756646
0
LINE
8
DEFAULT_255_2_778
10
80.458449
20
38.4969479
11
78.659549
21
38.5440479
0
LINE
8
DEFAULT_255_2_778
10
78.6596
20
38.6797656
11
78.6596
21
38.5440656
0
ARC
8
DEFAULT_255_2_778
10
81.6593631
20
37.4682065
40
0.9969856
50
62.2207785
51
88.5883657
0
LINE
8
DEFAULT_255_2_778
10
81.683924
20
38.4648896
11
80.458424
21
38.4968896
0
LINE
8
DEFAULT_255_2_778
10
79.9088979
20
38.6797812
11
80.4586979
21
38.6797812
0
LINE
8
DEFAULT_255_2_778
10
80.4586979
20
38.6797812
11
80.4586979
21
38.4971812
0
ARC
8
DEFAULT_255_2_778
10
81.0184398
20
39.9258559
40
0.2498243
50
31.3364452
51
90.0270446
0
ARC
8
DEFAULT_255_2_778
10
68.4531989
20
32.2823623
40
14.9572468
50
23.9340065
51
31.3127435
0
LINE
8
DEFAULT_255_2_778
10
79.9089219
20
38.6796802
11
79.9743219
21
40.1756802
0
LINE
8
DEFAULT_255_2_778
10
79.9743219
20
40.1756802
11
81.0183219
21
40.1756802
0
LINE
8
DEFAULT_255_2_778
10
71.5649844
20
106.0603885
11
71.5863844
21
104.1185885
0
LINE
8
DEFAULT_255_2_778
10
73.3142198
20
105.9273104
11
71.5975198
21
106.0448104
0
LINE
8
DEFAULT_255_2_778
10
71.5975198
20
106.0448104
11
71.5650198
21
106.0601104
0
LINE
8
DEFAULT_255_2_778
10
64.8821865
20
106.7875
11
64.8871865
21
106.7875
0
ARC
8
DEFAULT_255_2_778
10
80.1378727
20
103.6195313
40
2.5193117
50
7.3245625
51
35.2118231
0
ARC
8
DEFAULT_255_2_778
10
80.1049466
20
103.6156101
40
2.5524691
50
0.0192745
51
7.3176374
0
LINE
8
DEFAULT_255_2_778
10
82.6572
20
105.0752885
11
82.6572
21
103.6160885
0
ARC
8
DEFAULT_255_2_778
10
80.7819546
20
104.097706
40
0.7760999
50
266.624818
51
269.9992363
0
ARC
8
DEFAULT_255_2_778
10
80.781773
20
104.0969913
40
0.7753852
50
270.0126542
51
321.6744326
0
LINE
8
DEFAULT_255_2_778
10
81.3900625
20
103.6161523
11
82.6571625
21
103.6161523
0
LINE
8
DEFAULT_255_2_778
10
82.6572156
20
105.0753198
11
82.1960156
21
105.0719198
0
ARC
8
DEFAULT_255_2_778
10
80.1207109
20
103.6119868
40
2.5374853
50
35.1300775
51
87.5453581
0
LINE
8
DEFAULT_255_2_778
10
79.5067875
20
106.1786437
11
80.2293875
21
106.1471437
0
ARC
8
DEFAULT_255_2_778
10
82.4575836
20
108.3263233
40
0.1995519
50
359.9966346
51
46.2662577
0
ARC
8
DEFAULT_255_2_778
10
82.457676
20
108.3270263
40
0.1989806
50
46.1455343
51
90.050146
0
ARC
8
DEFAULT_255_2_778
10
82.4575073
20
108.3245028
40
0.201504
50
90.0015642
51
92.523439
0
ARC
8
DEFAULT_255_2_778
10
80.7421799
20
108.2521662
40
0.1992161
50
92.3718286
51
154.0592467
0
LINE
8
DEFAULT_255_2_778
10
82.6571355
20
105.0754116
11
82.6571355
21
108.3263116
0
LINE
8
DEFAULT_255_2_778
10
82.4486355
20
108.5258116
11
80.7339355
21
108.4512116
0
LINE
8
DEFAULT_255_2_778
10
80.5630355
20
108.3393116
11
79.5070355
21
106.1787116
0
LINE
8
DEFAULT_255_2_778
10
51.4757042
20
106.4244062
11
53.1905042
21
106.4990062
0
LINE
8
DEFAULT_255_2_778
10
53.1905042
20
106.4990062
11
53.2209042
21
106.4990062
0
LINE
8
DEFAULT_255_2_778
10
50.8187584
20
103.8601031
11
53.7122584
21
103.9863031
0
LINE
8
DEFAULT_255_2_778
10
47.0124948
20
106.2300094
11
48.7044948
21
106.3038094
0
ARC
8
DEFAULT_255_2_778
10
13.0301006
20
101.4538584
40
4.9763203
50
338.7834009
51
0.0011085
0
ARC
8
DEFAULT_255_2_778
10
16.8788636
20
95.2092764
40
0.8713427
50
158.7943998
51
180.001425
0
ARC
8
DEFAULT_255_2_778
10
16.8805591
20
95.2099482
40
0.8730385
50
180.0455147
51
259.4906825
0
ARC
8
DEFAULT_255_2_778
10
16.8828068
20
95.2147856
40
0.8782058
50
259.4040598
51
269.9878497
0
ARC
8
DEFAULT_255_2_778
10
16.8825185
20
95.2108624
40
0.8742824
50
270.0066906
51
338.7616376
0
ARC
8
DEFAULT_255_2_778
10
13.037606
20
101.4539941
40
6.717515
50
338.7815108
51
0.002223
0
LINE
8
DEFAULT_255_2_778
10
18.0064209
20
102.4085547
11
18.0064209
21
101.4539547
0
LINE
8
DEFAULT_255_2_778
10
17.6691209
20
99.6529547
11
16.0665209
21
95.5244547
0
LINE
8
DEFAULT_255_2_778
10
17.6974209
20
94.8941547
11
19.2997209
21
99.0227547
0
LINE
8
DEFAULT_255_2_778
10
19.7551209
20
101.4542547
11
19.7551209
21
102.5284547
0
LINE
8
DEFAULT_255_2_778
10
78.6596
20
73.9497401
11
78.6596
21
38.6794401
0
LINE
8
DEFAULT_255_2_778
10
79.9089188
20
38.6797
11
78.6595188
21
38.6797
0
LINE
8
DEFAULT_255_2_778
10
80.4584507
20
24.1573
11
80.1187507
21
24.1573
0
LINE
8
DEFAULT_255_2_778
10
80.4585
20
24.1572864
11
80.4585
21
27.1494864
0
LINE
8
DEFAULT_255_2_778
10
80.4584198
20
24.1572864
11
80.6582198
21
24.1572864
0
LINE
8
DEFAULT_255_2_778
10
80.6582198
20
24.1572864
11
80.6582198
21
27.1494864
0
LINE
8
DEFAULT_255_2_778
10
80.6582198
20
27.1494864
11
80.4584198
21
27.1494864
0
LINE
8
DEFAULT_255_2_778
10
80.9083
20
6.6257323
11
80.9083
21
6.6254323
0
ARC
8
DEFAULT_255_2_778
10
80.1819752
20
29.6272951
40
0.5000375
50
270.0842425
51
359.823896
0
ARC
8
DEFAULT_255_2_778
10
80.1819755
20
36.0662214
40
0.5000373
50
0.1760901
51
89.915791
0
ARC
8
DEFAULT_255_2_778
10
79.7852599
20
36.0663071
40
0.4999516
50
90.0858931
51
179.8337021
0
ARC
8
DEFAULT_255_2_778
10
79.7319735
20
36.1192915
40
0.500167
50
90.0645006
51
179.7747094
0
ARC
8
DEFAULT_255_2_778
10
79.7319742
20
29.573924
40
0.5001666
50
180.1908241
51
269.9010512
0
ARC
8
DEFAULT_255_2_778
10
80.2028936
20
36.0992613
40
0.5212437
50
0.5822511
51
86.3683158
0
ARC
8
DEFAULT_255_2_778
10
80.19418
20
29.6019948
40
0.5299582
50
274.3428064
51
357.9847116
0
ARC
8
DEFAULT_255_2_778
10
79.7848744
20
29.6271241
40
0.5001668
50
180.1908339
51
269.9010276
0
LINE
8
DEFAULT_255_2_778
10
79.7845104
20
36.0677582
11
79.7845104
21
36.5662582
0
LINE
8
DEFAULT_255_2_778
10
79.7845104
20
36.5662582
11
80.1827104
21
36.5662582
0
LINE
8
DEFAULT_255_2_778
10
79.7845104
20
36.0677582
11
79.2853104
21
36.0677582
0
LINE
8
DEFAULT_255_2_778
10
79.2853104
20
29.6257582
11
79.7845104
21
29.6257582
0
LINE
8
DEFAULT_255_2_778
10
80.6820104
20
29.6257582
11
80.6820104
21
36.0677582
0
LINE
8
DEFAULT_255_2_778
10
80.1827104
20
29.6257582
11
79.7845104
21
29.6257582
0
LINE
8
DEFAULT_255_2_778
10
79.7845104
20
29.6257582
11
79.7845104
21
29.1272582
0
LINE
8
DEFAULT_255_2_778
10
80.1827104
20
36.0677582
11
79.7845104
21
36.0677582
0
LINE
8
DEFAULT_255_2_778
10
79.7845104
20
36.0677582
11
79.7845104
21
29.6257582
0
LINE
8
DEFAULT_255_2_778
10
79.7311104
20
36.6194582
11
79.7845104
21
36.5662582
0
LINE
8
DEFAULT_255_2_778
10
79.2318104
20
36.1212582
11
79.2853104
21
36.0677582
0
LINE
8
DEFAULT_255_2_778
10
79.2853104
20
36.0677582
11
79.2853104
21
29.6257582
0
LINE
8
DEFAULT_255_2_778
10
80.2365104
20
36.6194582
11
80.1187104
21
36.6194582
0
LINE
8
DEFAULT_255_2_778
10
80.1187104
20
36.6194582
11
79.7314104
21
36.6194582
0
LINE
8
DEFAULT_255_2_778
10
79.2318104
20
36.1212582
11
79.2318104
21
29.5722582
0
LINE
8
DEFAULT_255_2_778
10
79.7311104
20
29.0737582
11
79.7845104
21
29.1272582
0
LINE
8
DEFAULT_255_2_778
10
79.7845104
20
29.1272582
11
80.1827104
21
29.1272582
0
LINE
8
DEFAULT_255_2_778
10
80.7241104
20
29.5836582
11
80.7241104
21
36.1045582
0
LINE
8
DEFAULT_255_2_778
10
80.2359104
20
36.6194582
11
80.1825104
21
36.5660582
0
LINE
8
DEFAULT_255_2_778
10
80.1825104
20
36.5660582
11
80.1825104
21
36.0675582
0
LINE
8
DEFAULT_255_2_778
10
80.7241104
20
36.1043582
11
80.6817104
21
36.0675582
0
LINE
8
DEFAULT_255_2_778
10
80.6817104
20
36.0675582
11
80.1825104
21
36.0675582
0
LINE
8
DEFAULT_255_2_778
10
80.1825104
20
36.0675582
11
80.1825104
21
29.6254582
0
LINE
8
DEFAULT_255_2_778
10
80.1825104
20
29.6254582
11
80.6817104
21
29.6254582
0
LINE
8
DEFAULT_255_2_778
10
80.6817104
20
29.6254582
11
80.7238104
21
29.5833582
0
LINE
8
DEFAULT_255_2_778
10
80.2343104
20
29.0735582
11
80.1182104
21
29.0735582
0
LINE
8
DEFAULT_255_2_778
10
80.1182104
20
29.0735582
11
79.7306104
21
29.0735582
0
LINE
8
DEFAULT_255_2_778
10
79.2313104
20
29.5720582
11
79.2847104
21
29.6254582
0
LINE
8
DEFAULT_255_2_778
10
80.2341104
20
29.0735582
11
80.1822104
21
29.1269582
0
LINE
8
DEFAULT_255_2_778
10
80.1822104
20
29.1269582
11
80.1822104
21
29.6254582
0
ARC
8
DEFAULT_255_2_778
10
79.6263992
20
21.7331381
40
0.5001019
50
90.0915657
51
179.8165417
0
ARC
8
DEFAULT_255_2_778
10
79.7855283
20
21.574309
40
0.5002312
50
90.1063185
51
179.801798
0
ARC
8
DEFAULT_255_2_778
10
80.303037
20
21.7096678
40
0.5246907
50
1.2637127
51
85.7851474
0
ARC
8
DEFAULT_255_2_778
10
80.1820649
20
21.5747025
40
0.5000375
50
0.176104
51
89.9157656
0
ARC
8
DEFAULT_255_2_778
10
80.3058832
20
8.7775349
40
0.5215126
50
273.7509155
51
358.9017837
0
ARC
8
DEFAULT_255_2_778
10
80.1820648
20
8.9140764
40
0.5000376
50
270.0842483
51
359.8238821
0
ARC
8
DEFAULT_255_2_778
10
79.7851137
20
8.9143547
40
0.5000159
50
180.173632
51
269.906767
0
ARC
8
DEFAULT_255_2_778
10
79.6237227
20
8.7493357
40
0.4924053
50
269.9962406
51
270.3464393
0
ARC
8
DEFAULT_255_2_778
10
79.6236997
20
8.7557036
40
0.4987733
50
225.2732997
51
269.9989351
0
ARC
8
DEFAULT_255_2_778
10
79.6219732
20
8.753754
40
0.4961731
50
180.0016868
51
225.2565134
0
LINE
8
DEFAULT_255_2_778
10
80.1828
20
21.5760394
11
79.7846
21
21.5760394
0
LINE
8
DEFAULT_255_2_778
10
80.34
20
8.2569394
11
79.6269
21
8.2563394
0
LINE
8
DEFAULT_255_2_778
10
79.2853
20
8.9122394
11
79.1263
21
8.7535394
0
LINE
8
DEFAULT_255_2_778
10
79.1263
20
8.7535394
11
79.1263
21
9.0458394
0
LINE
8
DEFAULT_255_2_778
10
79.1263
20
9.0458394
11
79.1263
21
21.7347394
0
LINE
8
DEFAULT_255_2_778
10
79.2853
20
8.9120394
11
79.2853
21
21.5760394
0
LINE
8
DEFAULT_255_2_778
10
79.7846
20
21.5760394
11
79.2853
21
21.5760394
0
LINE
8
DEFAULT_255_2_778
10
79.1263
20
21.7347394
11
79.2853
21
21.5760394
0
LINE
8
DEFAULT_255_2_778
10
80.1828
20
21.5760394
11
80.1828
21
22.0745394
0
LINE
8
DEFAULT_255_2_778
10
80.1828
20
22.0745394
11
79.7846
21
22.0745394
0
LINE
8
DEFAULT_255_2_778
10
79.7846
20
22.0745394
11
79.6256
21
22.2332394
0
LINE
8
DEFAULT_255_2_778
10
79.6256
20
22.2332394
11
80.1188
21
22.2329394
0
LINE
8
DEFAULT_255_2_778
10
80.1188
20
22.2329394
11
80.3416
21
22.2329394
0
LINE
8
DEFAULT_255_2_778
10
80.3416
20
22.2329394
11
80.1828
21
22.0747394
0
LINE
8
DEFAULT_255_2_778
10
80.6821
20
8.9122394
11
80.6821
21
21.5762394
0
LINE
8
DEFAULT_255_2_778
10
80.6821
20
21.5762394
11
80.8273
21
21.7212394
0
LINE
8
DEFAULT_255_2_778
10
80.8273
20
21.7212394
11
80.8273
21
9.1649394
0
LINE
8
DEFAULT_255_2_778
10
80.8273
20
9.1649394
11
80.8273
21
8.7675394
0
LINE
8
DEFAULT_255_2_778
10
80.8273
20
8.7675394
11
80.6821
21
8.9125394
0
LINE
8
DEFAULT_255_2_778
10
80.1828
20
8.4140394
11
80.34
21
8.2571394
0
LINE
8
DEFAULT_255_2_778
10
80.1828
20
8.9125394
11
80.6821
21
8.9125394
0
LINE
8
DEFAULT_255_2_778
10
80.1828
20
8.9125394
11
80.1828
21
21.5765394
0
LINE
8
DEFAULT_255_2_778
10
80.1828
20
21.5765394
11
80.6821
21
21.5765394
0
LINE
8
DEFAULT_255_2_778
10
79.7843
20
8.4143394
11
80.1825
21
8.4143394
0
LINE
8
DEFAULT_255_2_778
10
80.1825
20
8.4143394
11
80.1825
21
8.9128394
0
LINE
8
DEFAULT_255_2_778
10
80.1825
20
8.9128394
11
79.7843
21
8.9128394
0
LINE
8
DEFAULT_255_2_778
10
79.7843
20
8.9128394
11
79.7843
21
8.4143394
0
LINE
8
DEFAULT_255_2_778
10
79.2851
20
8.9128394
11
79.7843
21
8.9128394
0
LINE
8
DEFAULT_255_2_778
10
79.7843
20
8.4143394
11
79.6267
21
8.2569394
0
LINE
8
DEFAULT_255_2_778
10
79.7843
20
8.9125394
11
79.7843
21
22.0747394
0
ARC
8
DEFAULT_255_2_778
10
22.4834092
20
8.7151293
40
3.9867065
50
198.2632117
51
227.5778487
0
ARC
8
DEFAULT_255_2_778
10
22.4856668
20
8.7109597
40
3.4892246
50
201.2247705
51
227.5722235
0
ARC
8
DEFAULT_255_2_778
10
25.2285358
20
6.0076032
40
1.0180335
50
87.495286
51
89.9978977
0
ARC
8
DEFAULT_255_2_778
10
25.2282073
20
6.0278161
40
0.9978205
50
89.9789926
51
137.0237153
0
ARC
8
DEFAULT_255_2_778
10
25.2228671
20
6.0295482
40
0.9927354
50
136.8867488
51
177.5685486
0
ARC
8
DEFAULT_255_2_778
10
31.7861581
20
2.9904379
40
7.6825586
50
177.4976284
51
177.9330445
0
ARC
8
DEFAULT_255_2_778
10
31.7854868
20
2.9904603
40
7.681887
50
177.9330309
51
179.9999492
0
ARC
8
DEFAULT_255_2_778
10
31.7771059
20
2.9901035
40
7.6735062
50
179.9972847
51
195.2079624
0
ARC
8
DEFAULT_255_2_778
10
25.4799748
20
0.7781964
40
0.9992557
50
199.3950367
51
267.5365912
0
ARC
8
DEFAULT_255_2_778
10
26.1987926
20
-0.0028547
40
0.2503172
50
267.5118029
51
270.0011147
0
ARC
8
DEFAULT_255_2_778
10
26.19886
20
-0.0030435
40
0.2501284
50
269.9856788
51
324.9091686
0
ARC
8
DEFAULT_255_2_778
10
26.2001453
20
-0.0038578
40
0.2486086
50
324.8924351
51
0.0110875
0
ARC
8
DEFAULT_255_2_778
10
26.1997662
20
-0.0038113
40
0.2489875
50
0.000367
51
1.854423
0
ARC
8
DEFAULT_255_2_778
10
26.2003374
20
-0.0037851
40
0.2484157
50
1.852664
51
22.5710877
0
ARC
8
DEFAULT_255_2_778
10
31.7927186
20
2.9908533
40
6.0648553
50
177.5022169
51
177.700638
0
ARC
8
DEFAULT_255_2_778
10
31.798563
20
2.9906155
40
6.0707045
50
177.7006089
51
179.9998717
0
ARC
8
DEFAULT_255_2_778
10
31.7862834
20
2.9900891
40
6.0584249
50
179.994893
51
196.9170767
0
ARC
8
DEFAULT_255_2_778
10
25.6374185
20
6.7592738
40
0.2492119
50
42.47665
51
87.5836546
0
ARC
8
DEFAULT_255_2_778
10
25.638582
20
6.7595038
40
0.2481993
50
359.9874921
51
42.6188607
0
ARC
8
DEFAULT_255_2_778
10
25.6373547
20
6.7594532
40
0.2494264
50
357.405901
51
359.9991873
0
ARC
8
DEFAULT_255_2_778
10
23.9763585
20
1.6109031
40
0.2487575
50
10.01513
51
47.6220917
0
ARC
8
DEFAULT_255_2_778
10
25.2277862
20
6.029342
40
1.2468753
50
106.041846
51
177.4708297
0
LINE
8
DEFAULT_255_2_778
10
25.8564255
20
6.0859641
11
26.4165255
21
0.1206641
0
LINE
8
DEFAULT_255_2_778
10
24.8822255
20
7.2281641
11
24.6695255
21
7.2374641
0
LINE
8
DEFAULT_255_2_778
10
24.6695255
20
7.2374641
11
21.9247255
21
7.3570641
0
LINE
8
DEFAULT_255_2_778
10
21.9247255
20
7.3570641
11
20.2337255
21
7.4305641
0
LINE
8
DEFAULT_255_2_778
10
20.2337255
20
7.4305641
11
17.4884255
21
7.5501641
0
LINE
8
DEFAULT_255_2_778
10
26.4120255
20
7.1635641
11
26.4178255
21
7.1635641
0
LINE
8
DEFAULT_255_2_778
10
25.3129255
20
7.0228641
11
25.2730255
21
7.0246641
0
LINE
8
DEFAULT_255_2_778
10
24.2310255
20
6.0716641
11
24.1109255
21
3.3258641
0
LINE
8
DEFAULT_255_2_778
10
24.3723255
20
0.9771641
11
24.5374255
21
0.4463641
0
LINE
8
DEFAULT_255_2_778
10
25.4370255
20
-0.2201359
11
26.1879255
21
-0.2529359
0
LINE
8
DEFAULT_255_2_778
10
26.4297255
20
0.0915641
11
26.4176255
21
0.1206641
0
LINE
8
DEFAULT_255_2_778
10
26.4176255
20
0.1206641
11
26.1911255
21
0.6664641
0
LINE
8
DEFAULT_255_2_778
10
26.1911255
20
0.6664641
11
26.0913255
21
0.9228641
0
LINE
8
DEFAULT_255_2_778
10
26.0913255
20
0.9228641
11
25.7778255
21
4.2627641
0
LINE
8
DEFAULT_255_2_778
10
25.7778255
20
4.2627641
11
25.7336255
21
3.2551641
0
LINE
8
DEFAULT_255_2_778
10
25.9900255
20
1.2271641
11
26.0913255
21
0.9231641
0
LINE
8
DEFAULT_255_2_778
10
26.3850255
20
7.1625641
11
25.3378255
21
7.2080641
0
LINE
8
DEFAULT_255_2_778
10
25.3378255
20
7.2080641
11
25.3135255
21
7.0228641
0
LINE
8
DEFAULT_255_2_778
10
25.3135255
20
7.0228641
11
25.6479255
21
7.0082641
0
LINE
8
DEFAULT_255_2_778
10
25.8865255
20
6.7481641
11
25.8574255
21
6.0856641
0
LINE
8
DEFAULT_255_2_778
10
25.8574255
20
6.0856641
11
25.8273255
21
5.3940641
0
LINE
8
DEFAULT_255_2_778
10
25.8273255
20
5.3940641
11
25.7778255
21
4.2624641
0
LINE
8
DEFAULT_255_2_778
10
24.1437255
20
1.7949641
11
19.7950255
21
5.7716641
0
LINE
8
DEFAULT_255_2_778
10
19.7950255
20
5.7716641
11
20.1324255
21
6.1348641
0
LINE
8
DEFAULT_255_2_778
10
20.1324255
20
6.1348641
11
23.8588255
21
2.7273641
0
LINE
8
DEFAULT_255_2_778
10
23.8588255
20
2.7273641
11
24.1440255
21
1.7946641
0
LINE
8
DEFAULT_255_2_778
10
23.8588255
20
2.7273641
11
23.8619255
21
3.3385641
0
LINE
8
DEFAULT_255_2_778
10
23.8619255
20
3.3385641
11
23.9821255
21
6.0843641
0
LINE
8
DEFAULT_255_2_778
10
24.8832255
20
7.2276641
11
25.3381255
21
7.2077641
0
ARC
8
DEFAULT_255_2_778
10
13.0462872
20
8.2428983
40
0.4968993
50
313.5885163
51
0.0220152
0
ARC
8
DEFAULT_255_2_778
10
13.0434723
20
8.2442106
40
0.4997918
50
269.9910249
51
313.7185253
0
ARC
8
DEFAULT_255_2_778
10
13.0433978
20
8.2456973
40
0.5012784
50
267.5176391
51
269.9995726
0
ARC
8
DEFAULT_255_2_778
10
15.7912344
20
8.1236807
40
0.4991482
50
180.0564126
51
267.5487847
0
ARC
8
DEFAULT_255_2_778
10
14.4187076
20
10.2433551
40
0.8733793
50
0.0547226
51
84.2252136
0
ARC
8
DEFAULT_255_2_778
10
14.4177914
20
10.2302076
40
0.8865523
50
84.2517968
51
89.2764695
0
ARC
8
DEFAULT_255_2_778
10
14.4175785
20
10.2204367
40
0.8963251
50
89.2707476
51
89.9984687
0
ARC
8
DEFAULT_255_2_778
10
14.4184287
20
10.2422524
40
0.8745098
50
90.0541306
51
172.2340785
0
ARC
8
DEFAULT_255_2_778
10
14.4522826
20
10.2346482
40
0.9090856
50
172.0475308
51
178.5539741
0
LINE
8
DEFAULT_255_2_778
10
13.0216865
20
7.7448892
11
15.7698865
21
7.6249892
0
LINE
8
DEFAULT_255_2_778
10
15.2920865
20
8.1231892
11
15.2920865
21
10.1596892
0
LINE
8
DEFAULT_255_2_778
10
15.2920865
20
10.1596892
11
15.2920865
21
10.2441892
0
LINE
8
DEFAULT_255_2_778
10
13.5434865
20
10.2575892
11
13.5431865
21
8.2427892
0
LINE
8
DEFAULT_255_2_778
10
13.5431865
20
8.2427892
11
15.2920865
21
8.1229892
0
ARC
8
DEFAULT_255_2_778
10
79.6263353
20
87.6064569
40
0.5000376
50
180.1761179
51
269.9157517
0
ARC
8
DEFAULT_255_2_778
10
80.182136
20
87.7652859
40
0.5001668
50
270.0989782
51
359.8091522
0
ARC
8
DEFAULT_255_2_778
10
79.7857428
20
102.8781751
40
0.5001456
50
90.1080078
51
179.8115793
0
ARC
8
DEFAULT_255_2_778
10
79.7857429
20
87.7652644
40
0.5001454
50
180.188397
51
269.8919823
0
ARC
8
DEFAULT_255_2_778
10
79.6242227
20
103.0433301
40
0.4923988
50
89.6535607
51
90.0037594
0
ARC
8
DEFAULT_255_2_778
10
79.6242341
20
103.0368744
40
0.4988546
50
90.0050117
51
134.7391831
0
ARC
8
DEFAULT_255_2_778
10
79.6206016
20
103.0399679
40
0.4940032
50
140.3755411
51
179.9848579
0
ARC
8
DEFAULT_255_2_778
10
79.6376402
20
103.0400986
40
0.5110418
50
180.0000193
51
180.1433705
0
ARC
8
DEFAULT_255_2_778
10
80.1824362
20
102.8781539
40
0.5001667
50
0.190838
51
89.9010455
0
ARC
8
DEFAULT_255_2_778
10
80.3065136
20
103.0146429
40
0.5213858
50
1.1184298
51
86.2625362
0
ARC
8
DEFAULT_255_2_778
10
80.3015622
20
87.6317181
40
0.5267058
50
273.7161672
51
358.5532405
0
LINE
8
DEFAULT_255_2_778
10
80.8276
20
87.6186199
11
80.6823
21
87.7636199
0
LINE
8
DEFAULT_255_2_778
10
80.6823
20
102.8798199
11
80.6823
21
87.7636199
0
LINE
8
DEFAULT_255_2_778
10
80.6823
20
102.8798199
11
80.183
21
102.8798199
0
LINE
8
DEFAULT_255_2_778
10
80.183
20
102.8798199
11
80.183
21
103.3783199
0
LINE
8
DEFAULT_255_2_778
10
80.183
20
87.2651199
11
80.3352
21
87.1064199
0
LINE
8
DEFAULT_255_2_778
10
80.3352
20
87.1064199
11
80.1188
21
87.1064199
0
LINE
8
DEFAULT_255_2_778
10
80.1188
20
87.1064199
11
79.6256
21
87.1064199
0
LINE
8
DEFAULT_255_2_778
10
79.1263
20
87.6049199
11
79.2853
21
87.7636199
0
LINE
8
DEFAULT_255_2_778
10
79.2853
20
87.7636199
11
79.7846
21
87.7636199
0
LINE
8
DEFAULT_255_2_778
10
79.7846
20
87.7636199
11
79.7846
21
102.8798199
0
LINE
8
DEFAULT_255_2_778
10
79.7846
20
102.8798199
11
79.2853
21
102.8798199
0
LINE
8
DEFAULT_255_2_778
10
79.2853
20
102.8798199
11
79.1263
21
103.0385199
0
LINE
8
DEFAULT_255_2_778
10
80.6823
20
87.7636199
11
80.183
21
87.7636199
0
LINE
8
DEFAULT_255_2_778
10
79.7848
20
87.2651199
11
80.183
21
87.2651199
0
LINE
8
DEFAULT_255_2_778
10
80.183
20
87.2651199
11
80.183
21
87.7636199
0
LINE
8
DEFAULT_255_2_778
10
80.183
20
87.7636199
11
79.7848
21
87.7636199
0
LINE
8
DEFAULT_255_2_778
10
79.2856
20
102.8798199
11
79.2856
21
87.7636199
0
LINE
8
DEFAULT_255_2_778
10
79.7848
20
102.8798199
11
80.183
21
102.8798199
0
LINE
8
DEFAULT_255_2_778
10
80.183
20
102.8798199
11
80.183
21
87.7636199
0
LINE
8
DEFAULT_255_2_778
10
79.2731
20
103.3912199
11
79.2401
21
103.3550199
0
LINE
8
DEFAULT_255_2_778
10
79.1266
20
103.0388199
11
79.1266
21
87.6049199
0
LINE
8
DEFAULT_255_2_778
10
80.6826
20
102.8798199
11
80.8278
21
103.0248199
0
LINE
8
DEFAULT_255_2_778
10
80.3405
20
103.5349199
11
79.6274
21
103.5354199
0
LINE
8
DEFAULT_255_2_778
10
79.6274
20
103.5354199
11
79.7851
21
103.3780199
0
LINE
8
DEFAULT_255_2_778
10
79.7851
20
103.3780199
11
79.7851
21
102.8795199
0
LINE
8
DEFAULT_255_2_778
10
80.8281
20
103.0245199
11
80.8281
21
87.6184199
0
LINE
8
DEFAULT_255_2_778
10
80.3407
20
103.5346199
11
80.1836
21
103.3777199
0
LINE
8
DEFAULT_255_2_778
10
80.1836
20
103.3777199
11
79.7854
21
103.3777199
0
LINE
8
DEFAULT_255_2_778
10
79.6264
20
87.1059199
11
79.7854
21
87.2646199
0
LINE
8
DEFAULT_255_2_778
10
79.7854
20
87.2646199
11
79.7854
21
87.7631199
0
LINE
8
DEFAULT_255_2_778
10
65.1112908
20
99.5297166
11
74.1168908
21
99.5297166
0
LINE
8
DEFAULT_255_2_778
10
74.1168908
20
102.0231166
11
75.5482908
21
102.0231166
0
LINE
8
DEFAULT_255_2_778
10
75.5482908
20
102.0231166
11
75.5482908
21
99.5297166
0
LINE
8
DEFAULT_255_2_778
10
75.5482908
20
99.5297166
11
74.1168908
21
99.5297166
0
LINE
8
DEFAULT_255_2_778
10
74.1168908
20
99.5297166
11
74.1168908
21
102.0231166
0
LINE
8
DEFAULT_255_2_778
10
74.1168908
20
102.0231166
11
65.1112908
21
102.0231166
0
LINE
8
DEFAULT_255_2_778
10
65.1112908
20
102.0231166
11
65.1112908
21
99.5297166
0
LINE
8
DEFAULT_255_2_778
10
65.1112908
20
99.5297166
11
63.1300908
21
99.5297166
0
LINE
8
DEFAULT_255_2_778
10
63.1300908
20
99.5297166
11
63.1300908
21
102.0231166
0
LINE
8
DEFAULT_255_2_778
10
63.1300908
20
102.0231166
11
65.1112908
21
102.0231166
0
ARC
8
DEFAULT_255_2_778
10
25.2281395
20
106.4863665
40
1.0183672
50
270.001786
51
272.4942383
0
ARC
8
DEFAULT_255_2_778
10
25.2277511
20
106.4659377
40
0.9979385
50
223.3182588
51
270.0241235
0
ARC
8
DEFAULT_255_2_778
10
25.2221294
20
106.4639204
40
0.9924673
50
182.4344437
51
223.4561813
0
ARC
8
DEFAULT_255_2_778
10
31.7936549
20
109.5033108
40
7.6905295
50
182.2482243
51
182.502166
0
ARC
8
DEFAULT_255_2_778
10
31.7811498
20
109.5027706
40
7.6780127
50
179.9999956
51
182.2478571
0
ARC
8
DEFAULT_255_2_778
10
31.7812044
20
109.5027352
40
7.6780673
50
164.7967306
51
179.9997315
0
ARC
8
DEFAULT_255_2_778
10
25.479817
20
111.7134628
40
1.0013623
50
92.5103323
51
160.5400733
0
ARC
8
DEFAULT_255_2_778
10
26.1977249
20
112.4965828
40
0.2503174
50
89.998885
51
92.4881967
0
ARC
8
DEFAULT_255_2_778
10
26.1977305
20
112.4964603
40
0.2504398
50
35.1278619
51
90.0001706
0
ARC
8
DEFAULT_255_2_778
10
26.1989545
20
112.4975917
40
0.2487878
50
359.9883964
51
35.076939
0
ARC
8
DEFAULT_255_2_778
10
26.1982868
20
112.4975492
40
0.2494557
50
358.1544376
51
359.9982091
0
ARC
8
DEFAULT_255_2_778
10
26.1986358
20
112.4975483
40
0.2491069
50
337.4862883
51
358.1520549
0
ARC
8
DEFAULT_255_2_778
10
31.7916505
20
109.5028749
40
6.064855
50
182.299362
51
182.4977831
0
ARC
8
DEFAULT_255_2_778
10
31.7933089
20
109.5029189
40
6.0665137
50
180.0000336
51
182.2991488
0
ARC
8
DEFAULT_255_2_778
10
31.7887677
20
109.5031249
40
6.0619726
50
163.0880423
51
180.0019802
0
ARC
8
DEFAULT_255_2_778
10
23.9751075
20
110.8820418
40
0.2486108
50
312.403545
51
350.0218039
0
ARC
8
DEFAULT_255_2_778
10
22.4851512
20
103.7836932
40
3.4887312
50
132.4341175
51
158.78485
0
ARC
8
DEFAULT_255_2_778
10
25.2265474
20
106.4643686
40
1.2470166
50
182.5418695
51
253.9825376
0
ARC
8
DEFAULT_255_2_778
10
22.4857793
20
103.7773146
40
3.9895818
50
132.4357362
51
161.7279669
0
ARC
8
DEFAULT_255_2_778
10
25.6367966
20
105.7341912
40
0.2487167
50
0.0005921
51
2.5977801
0
ARC
8
DEFAULT_255_2_778
10
25.6371394
20
105.7341925
40
0.248374
50
317.3969022
51
0.0003015
0
ARC
8
DEFAULT_255_2_778
10
25.6353071
20
105.7361667
40
0.2510592
50
272.5912777
51
317.3483178
0
LINE
8
DEFAULT_255_2_778
10
25.7325578
20
109.2385641
11
25.7325578
21
109.2385641
0
LINE
8
DEFAULT_255_2_778
10
26.4165578
20
112.3730641
11
25.8564578
21
106.4077641
0
LINE
8
DEFAULT_255_2_778
10
25.3124578
20
105.4708641
11
25.2724578
21
105.4689641
0
LINE
8
DEFAULT_255_2_778
10
24.2305578
20
106.4217641
11
24.1104578
21
109.1675641
0
LINE
8
DEFAULT_255_2_778
10
24.3718578
20
111.5162641
11
24.5356578
21
112.0470641
0
LINE
8
DEFAULT_255_2_778
10
25.4359578
20
112.7138641
11
26.1868578
21
112.7466641
0
LINE
8
DEFAULT_255_2_778
10
26.4287578
20
112.4021641
11
26.4165578
21
112.3730641
0
LINE
8
DEFAULT_255_2_778
10
26.4165578
20
112.3730641
11
26.1900578
21
111.8271641
0
LINE
8
DEFAULT_255_2_778
10
26.1900578
20
111.8271641
11
26.0903578
21
111.5705641
0
LINE
8
DEFAULT_255_2_778
10
26.0903578
20
111.5705641
11
25.7767578
21
108.2309641
0
LINE
8
DEFAULT_255_2_778
10
25.7767578
20
108.2309641
11
25.7325578
21
109.2385641
0
LINE
8
DEFAULT_255_2_778
10
25.9889578
20
111.2665641
11
26.0903578
21
111.5705641
0
LINE
8
DEFAULT_255_2_778
10
19.7940578
20
106.7217641
11
24.1427578
21
110.6984641
0
LINE
8
DEFAULT_255_2_778
10
24.1427578
20
110.6984641
11
23.8574578
21
109.7658641
0
LINE
8
DEFAULT_255_2_778
10
23.9807578
20
106.4090641
11
23.8606578
21
109.1548641
0
LINE
8
DEFAULT_255_2_778
10
23.8606578
20
109.1548641
11
23.8574578
21
109.7660641
0
LINE
8
DEFAULT_255_2_778
10
23.8574578
20
109.7660641
11
20.1311578
21
106.3585641
0
LINE
8
DEFAULT_255_2_778
10
20.1311578
20
106.3585641
11
19.7937578
21
106.7217641
0
LINE
8
DEFAULT_255_2_778
10
25.7767578
20
108.2309641
11
25.8262578
21
107.0996641
0
LINE
8
DEFAULT_255_2_778
10
25.8262578
20
107.0996641
11
25.8564578
21
106.4077641
0
LINE
8
DEFAULT_255_2_778
10
25.8564578
20
106.4077641
11
25.8852578
21
105.7454641
0
LINE
8
DEFAULT_255_2_778
10
25.6466578
20
105.4853641
11
25.3121578
21
105.4708641
0
LINE
8
DEFAULT_255_2_778
10
25.3121578
20
105.4708641
11
25.3365578
21
105.2853641
0
LINE
8
DEFAULT_255_2_778
10
25.3365578
20
105.2853641
11
24.8822578
21
105.2655641
0
LINE
8
DEFAULT_255_2_778
10
24.8822578
20
105.2655641
11
24.6687578
21
105.2562641
0
LINE
8
DEFAULT_255_2_778
10
24.6687578
20
105.2562641
11
20.2329578
21
105.0631641
0
LINE
8
DEFAULT_255_2_778
10
20.2329578
20
105.0631641
11
17.4876578
21
104.9435641
0
LINE
8
DEFAULT_255_2_778
10
26.3837578
20
105.3311641
11
25.3365578
21
105.2856641
0
ENDSEC
0
EOF