0
SECTION
2
HEADER
9
$MEASUREMENT
70
1
0
ENDSEC
0
SECTION
2
TABLES
0
TABLE
2
LTYPE
0
LTYPE
72
65
70
64
2
CONTINUOUS
3
______
73
0
40
0
0
ENDTAB
0
TABLE
2
LAYER
0
LAYER
2
DEFAULT_255_2_778
70
0
62
255
6
CONTINUOUS
0
ENDTAB
0
ENDSEC
0
SECTION
2
ENTITIES
0
LINE
8
DEFAULT_255_2_778
10
4.5045344
20
90.4935
11
2.1844344
21
90.4935
0
LINE
8
DEFAULT_255_2_778
10
23.2862053
20
65.7592
11
19.0092053
21
65.7592
0
LINE
8
DEFAULT_255_2_778
10
23.2862053
20
90.4935
11
19.0092053
21
90.4935
0
LINE
8
DEFAULT_255_2_778
10
23.2862053
20
40.8257
11
19.0092053
21
40.8257
0
LINE
8
DEFAULT_255_2_778
10
23.2861784
20
16.1839396
11
2.1843784
21
16.1908396
0
LINE
8
DEFAULT_255_2_778
10
4.5045344
20
65.7592
11
2.1844344
21
65.7592
0
LINE
8
DEFAULT_255_2_778
10
2.1844344
20
66.258
11
4.5045344
21
66.258
0
LINE
8
DEFAULT_255_2_778
10
19.0092053
20
66.258
11
23.2862053
21
66.258
0
LINE
8
DEFAULT_255_2_778
10
4.5045344
20
40.8257
11
2.1844344
21
40.8257
0
LINE
8
DEFAULT_255_2_778
10
2.1844344
20
41.3242
11
4.5045344
21
41.3242
0
LINE
8
DEFAULT_255_2_778
10
19.0092053
20
41.3242
11
23.2862053
21
41.3242
0
LINE
8
DEFAULT_255_2_778
10
16.5944053
20
16.1853219
11
19.0090053
21
16.1853219
0
LINE
8
DEFAULT_255_2_778
10
19.0090053
20
16.1853219
11
19.0090053
21
90.9909219
0
LINE
8
DEFAULT_255_2_778
10
19.0090053
20
90.9909219
11
14.7320053
21
90.9909219
0
LINE
8
DEFAULT_255_2_778
10
16.5766427
20
66.055
11
19.0089427
21
66.055
0
LINE
8
DEFAULT_255_2_778
10
16.5766427
20
41.1212
11
19.0089427
21
41.1212
0
ARC
8
DEFAULT_255_2_778
10
8.2684535
20
73.5110183
40
1.3101789
50
149.9735925
51
180.1513104
0
ARC
8
DEFAULT_255_2_778
10
8.2355374
20
73.5340379
40
1.270166
50
94.0076856
51
150.1296244
0
ARC
8
DEFAULT_255_2_778
10
8.2339674
20
73.5182556
40
1.2858026
50
89.9950169
51
93.8887458
0
ARC
8
DEFAULT_255_2_778
10
8.2362986
20
73.5460223
40
1.2580379
50
55.5302447
51
90.1010818
0
ARC
8
DEFAULT_255_2_778
10
8.2141632
20
73.5165417
40
1.2948715
50
9.6498819
51
55.4610463
0
ARC
8
DEFAULT_255_2_778
10
8.1750184
20
73.5082041
40
1.334861
50
359.9722791
51
9.7210427
0
ARC
8
DEFAULT_255_2_778
10
8.2001604
20
73.5041818
40
1.3097232
50
329.9255988
51
0.1477105
0
ARC
8
DEFAULT_255_2_778
10
8.2324481
20
73.4813468
40
1.2703439
50
274.0120647
51
330.0870981
0
ARC
8
DEFAULT_255_2_778
10
8.2341875
20
73.4963213
40
1.2851632
50
269.9951713
51
273.8879997
0
ARC
8
DEFAULT_255_2_778
10
8.2318624
20
73.4692284
40
1.2580721
50
235.5311602
51
270.1009568
0
ARC
8
DEFAULT_255_2_778
10
8.2539295
20
73.4986443
40
1.2948134
50
189.6521353
51
235.4628057
0
ARC
8
DEFAULT_255_2_778
10
8.2928182
20
73.5069139
40
1.3345391
50
179.972336
51
189.7222159
0
LINE
8
DEFAULT_255_2_778
10
6.9582792
20
73.5075583
11
6.9582792
21
73.5075583
0
LINE
8
DEFAULT_255_2_778
10
7.1958792
20
72.7543583
11
8.7841792
21
74.6775583
0
LINE
8
DEFAULT_255_2_778
10
7.6845792
20
72.3376583
11
9.2728792
21
74.2608583
0
ARC
8
DEFAULT_255_2_778
10
8.2684535
20
68.5143183
40
1.3101789
50
149.9735925
51
180.1513104
0
ARC
8
DEFAULT_255_2_778
10
8.2355374
20
68.5373379
40
1.270166
50
94.0076856
51
150.1296244
0
ARC
8
DEFAULT_255_2_778
10
8.2339674
20
68.5215556
40
1.2858026
50
89.9950169
51
93.8887458
0
ARC
8
DEFAULT_255_2_778
10
8.2362986
20
68.5493223
40
1.2580379
50
55.5302447
51
90.1010818
0
ARC
8
DEFAULT_255_2_778
10
8.2141632
20
68.5198417
40
1.2948715
50
9.6498819
51
55.4610463
0
ARC
8
DEFAULT_255_2_778
10
8.1750184
20
68.5115041
40
1.334861
50
359.9722791
51
9.7210427
0
ARC
8
DEFAULT_255_2_778
10
8.2001604
20
68.5074818
40
1.3097232
50
329.9255988
51
0.1477105
0
ARC
8
DEFAULT_255_2_778
10
8.2324481
20
68.4846468
40
1.2703439
50
274.0120647
51
330.0870981
0
ARC
8
DEFAULT_255_2_778
10
8.2341875
20
68.4996213
40
1.2851632
50
269.9951713
51
273.8879997
0
ARC
8
DEFAULT_255_2_778
10
8.2318624
20
68.4725284
40
1.2580721
50
235.5311602
51
270.1009568
0
ARC
8
DEFAULT_255_2_778
10
8.2539295
20
68.5019443
40
1.2948134
50
189.6521353
51
235.4628057
0
ARC
8
DEFAULT_255_2_778
10
8.2928182
20
68.5102139
40
1.3345391
50
179.972336
51
189.7222159
0
LINE
8
DEFAULT_255_2_778
10
6.9582792
20
68.5108583
11
6.9582792
21
68.5108583
0
LINE
8
DEFAULT_255_2_778
10
7.1958792
20
67.7576583
11
8.7841792
21
69.6808583
0
LINE
8
DEFAULT_255_2_778
10
7.6845792
20
67.3409583
11
9.2728792
21
69.2641583
0
ARC
8
DEFAULT_255_2_778
10
8.2684535
20
83.5045183
40
1.3101789
50
149.9735925
51
180.1513104
0
ARC
8
DEFAULT_255_2_778
10
8.2355374
20
83.5275379
40
1.270166
50
94.0076856
51
150.1296244
0
ARC
8
DEFAULT_255_2_778
10
8.2339674
20
83.5117556
40
1.2858026
50
89.9950169
51
93.8887458
0
ARC
8
DEFAULT_255_2_778
10
8.2362986
20
83.5395223
40
1.2580379
50
55.5302447
51
90.1010818
0
ARC
8
DEFAULT_255_2_778
10
8.2141632
20
83.5100417
40
1.2948715
50
9.6498819
51
55.4610463
0
ARC
8
DEFAULT_255_2_778
10
8.1750184
20
83.5017041
40
1.334861
50
359.9722791
51
9.7210427
0
ARC
8
DEFAULT_255_2_778
10
8.2001604
20
83.4976818
40
1.3097232
50
329.9255988
51
0.1477105
0
ARC
8
DEFAULT_255_2_778
10
8.2324481
20
83.4748468
40
1.2703439
50
274.0120647
51
330.0870981
0
ARC
8
DEFAULT_255_2_778
10
8.2341875
20
83.4898213
40
1.2851632
50
269.9951713
51
273.8879997
0
ARC
8
DEFAULT_255_2_778
10
8.2318624
20
83.4627284
40
1.2580721
50
235.5311602
51
270.1009568
0
ARC
8
DEFAULT_255_2_778
10
8.2539295
20
83.4921443
40
1.2948134
50
189.6521353
51
235.4628057
0
ARC
8
DEFAULT_255_2_778
10
8.2928182
20
83.5004139
40
1.3345391
50
179.972336
51
189.7222159
0
LINE
8
DEFAULT_255_2_778
10
6.9582792
20
83.5010583
11
6.9582792
21
83.5010583
0
LINE
8
DEFAULT_255_2_778
10
7.1958792
20
82.7478583
11
8.7841792
21
84.6710583
0
LINE
8
DEFAULT_255_2_778
10
7.6845792
20
82.3311583
11
9.2728792
21
84.2543583
0
ARC
8
DEFAULT_255_2_778
10
8.2684535
20
78.5079183
40
1.3101789
50
149.9735925
51
180.1513104
0
ARC
8
DEFAULT_255_2_778
10
8.2355374
20
78.5309379
40
1.270166
50
94.0076856
51
150.1296244
0
ARC
8
DEFAULT_255_2_778
10
8.2339674
20
78.5151556
40
1.2858026
50
89.9950169
51
93.8887458
0
ARC
8
DEFAULT_255_2_778
10
8.2362986
20
78.5429223
40
1.2580379
50
55.5302447
51
90.1010818
0
ARC
8
DEFAULT_255_2_778
10
8.2141632
20
78.5134417
40
1.2948715
50
9.6498819
51
55.4610463
0
ARC
8
DEFAULT_255_2_778
10
8.1750184
20
78.5051041
40
1.334861
50
359.9722791
51
9.7210427
0
ARC
8
DEFAULT_255_2_778
10
8.2001604
20
78.5010818
40
1.3097232
50
329.9255988
51
0.1477105
0
ARC
8
DEFAULT_255_2_778
10
8.2324481
20
78.4782468
40
1.2703439
50
274.0120647
51
330.0870981
0
ARC
8
DEFAULT_255_2_778
10
8.2341875
20
78.4932213
40
1.2851632
50
269.9951713
51
273.8879997
0
ARC
8
DEFAULT_255_2_778
10
8.2318624
20
78.4661284
40
1.2580721
50
235.5311602
51
270.1009568
0
ARC
8
DEFAULT_255_2_778
10
8.2539295
20
78.4955443
40
1.2948134
50
189.6521353
51
235.4628057
0
ARC
8
DEFAULT_255_2_778
10
8.2928182
20
78.5038139
40
1.3345391
50
179.972336
51
189.7222159
0
LINE
8
DEFAULT_255_2_778
10
6.9582792
20
78.5044583
11
6.9582792
21
78.5044583
0
LINE
8
DEFAULT_255_2_778
10
7.1958792
20
77.7512583
11
8.7841792
21
79.6744583
0
LINE
8
DEFAULT_255_2_778
10
7.6845792
20
77.3345583
11
9.2728792
21
79.2577583
0
ARC
8
DEFAULT_255_2_778
10
8.2684535
20
88.5012183
40
1.3101789
50
149.9735925
51
180.1513104
0
ARC
8
DEFAULT_255_2_778
10
8.2355374
20
88.5242379
40
1.270166
50
94.0076856
51
150.1296244
0
ARC
8
DEFAULT_255_2_778
10
8.2339674
20
88.5084556
40
1.2858026
50
89.9950169
51
93.8887458
0
ARC
8
DEFAULT_255_2_778
10
8.2362986
20
88.5362223
40
1.2580379
50
55.5302447
51
90.1010818
0
ARC
8
DEFAULT_255_2_778
10
8.2141632
20
88.5067417
40
1.2948715
50
9.6498819
51
55.4610463
0
ARC
8
DEFAULT_255_2_778
10
8.1750184
20
88.4984041
40
1.334861
50
359.9722791
51
9.7210427
0
ARC
8
DEFAULT_255_2_778
10
8.2001604
20
88.4943818
40
1.3097232
50
329.9255988
51
0.1477105
0
ARC
8
DEFAULT_255_2_778
10
8.2324481
20
88.4715468
40
1.2703439
50
274.0120647
51
330.0870981
0
ARC
8
DEFAULT_255_2_778
10
8.2341875
20
88.4865213
40
1.2851632
50
269.9951713
51
273.8879997
0
ARC
8
DEFAULT_255_2_778
10
8.2318624
20
88.4594284
40
1.2580721
50
235.5311602
51
270.1009568
0
ARC
8
DEFAULT_255_2_778
10
8.2539295
20
88.4888443
40
1.2948134
50
189.6521353
51
235.4628057
0
ARC
8
DEFAULT_255_2_778
10
8.2928182
20
88.4971139
40
1.3345391
50
179.972336
51
189.7222159
0
LINE
8
DEFAULT_255_2_778
10
6.9582792
20
88.4977583
11
6.9582792
21
88.4977583
0
LINE
8
DEFAULT_255_2_778
10
7.1958792
20
87.7445583
11
8.7841792
21
89.6677583
0
LINE
8
DEFAULT_255_2_778
10
7.6845792
20
87.3278583
11
9.2728792
21
89.2510583
0
ARC
8
DEFAULT_255_2_778
10
8.2684535
20
48.5774183
40
1.3101789
50
149.9735925
51
180.1513104
0
ARC
8
DEFAULT_255_2_778
10
8.2355374
20
48.6004379
40
1.270166
50
94.0076856
51
150.1296244
0
ARC
8
DEFAULT_255_2_778
10
8.2339674
20
48.5846556
40
1.2858026
50
89.9950169
51
93.8887458
0
ARC
8
DEFAULT_255_2_778
10
8.2362986
20
48.6124223
40
1.2580379
50
55.5302447
51
90.1010818
0
ARC
8
DEFAULT_255_2_778
10
8.2141632
20
48.5829417
40
1.2948715
50
9.6498819
51
55.4610463
0
ARC
8
DEFAULT_255_2_778
10
8.1750184
20
48.5746041
40
1.334861
50
359.9722791
51
9.7210427
0
ARC
8
DEFAULT_255_2_778
10
8.2001604
20
48.5705818
40
1.3097232
50
329.9255988
51
0.1477105
0
ARC
8
DEFAULT_255_2_778
10
8.2324481
20
48.5477468
40
1.2703439
50
274.0120647
51
330.0870981
0
ARC
8
DEFAULT_255_2_778
10
8.2341875
20
48.5627213
40
1.2851632
50
269.9951713
51
273.8879997
0
ARC
8
DEFAULT_255_2_778
10
8.2318624
20
48.5356284
40
1.2580721
50
235.5311602
51
270.1009568
0
ARC
8
DEFAULT_255_2_778
10
8.2539295
20
48.5650443
40
1.2948134
50
189.6521353
51
235.4628057
0
ARC
8
DEFAULT_255_2_778
10
8.2928182
20
48.5733139
40
1.3345391
50
179.972336
51
189.7222159
0
LINE
8
DEFAULT_255_2_778
10
6.9582792
20
48.5739583
11
6.9582792
21
48.5739583
0
LINE
8
DEFAULT_255_2_778
10
7.1958792
20
47.8207583
11
8.7841792
21
49.7439583
0
LINE
8
DEFAULT_255_2_778
10
7.6845792
20
47.4040583
11
9.2728792
21
49.3272583
0
ARC
8
DEFAULT_255_2_778
10
8.2684535
20
43.5808183
40
1.3101789
50
149.9735925
51
180.1513104
0
ARC
8
DEFAULT_255_2_778
10
8.2355374
20
43.6038379
40
1.270166
50
94.0076856
51
150.1296244
0
ARC
8
DEFAULT_255_2_778
10
8.2339674
20
43.5880556
40
1.2858026
50
89.9950169
51
93.8887458
0
ARC
8
DEFAULT_255_2_778
10
8.2362986
20
43.6158223
40
1.2580379
50
55.5302447
51
90.1010818
0
ARC
8
DEFAULT_255_2_778
10
8.2141632
20
43.5863417
40
1.2948715
50
9.6498819
51
55.4610463
0
ARC
8
DEFAULT_255_2_778
10
8.1750184
20
43.5780041
40
1.334861
50
359.9722791
51
9.7210427
0
ARC
8
DEFAULT_255_2_778
10
8.2001604
20
43.5739818
40
1.3097232
50
329.9255988
51
0.1477105
0
ARC
8
DEFAULT_255_2_778
10
8.2324481
20
43.5511468
40
1.2703439
50
274.0120647
51
330.0870981
0
ARC
8
DEFAULT_255_2_778
10
8.2341875
20
43.5661213
40
1.2851632
50
269.9951713
51
273.8879997
0
ARC
8
DEFAULT_255_2_778
10
8.2318624
20
43.5390284
40
1.2580721
50
235.5311602
51
270.1009568
0
ARC
8
DEFAULT_255_2_778
10
8.2539295
20
43.5684443
40
1.2948134
50
189.6521353
51
235.4628057
0
ARC
8
DEFAULT_255_2_778
10
8.2928182
20
43.5767139
40
1.3345391
50
179.972336
51
189.7222159
0
LINE
8
DEFAULT_255_2_778
10
6.9582792
20
43.5773583
11
6.9582792
21
43.5773583
0
LINE
8
DEFAULT_255_2_778
10
7.1958792
20
42.8241583
11
8.7841792
21
44.7473583
0
LINE
8
DEFAULT_255_2_778
10
7.6845792
20
42.4074583
11
9.2728792
21
44.3306583
0
ARC
8
DEFAULT_255_2_778
10
8.2684535
20
58.5707183
40
1.3101789
50
149.9735925
51
180.1513104
0
ARC
8
DEFAULT_255_2_778
10
8.2355374
20
58.5937379
40
1.270166
50
94.0076856
51
150.1296244
0
ARC
8
DEFAULT_255_2_778
10
8.2339674
20
58.5779556
40
1.2858026
50
89.9950169
51
93.8887458
0
ARC
8
DEFAULT_255_2_778
10
8.2362986
20
58.6057223
40
1.2580379
50
55.5302447
51
90.1010818
0
ARC
8
DEFAULT_255_2_778
10
8.2141632
20
58.5762417
40
1.2948715
50
9.6498819
51
55.4610463
0
ARC
8
DEFAULT_255_2_778
10
8.1750184
20
58.5679041
40
1.334861
50
359.9722791
51
9.7210427
0
ARC
8
DEFAULT_255_2_778
10
8.2001604
20
58.5638818
40
1.3097232
50
329.9255988
51
0.1477105
0
ARC
8
DEFAULT_255_2_778
10
8.2324481
20
58.5410468
40
1.2703439
50
274.0120647
51
330.0870981
0
ARC
8
DEFAULT_255_2_778
10
8.2341875
20
58.5560213
40
1.2851632
50
269.9951713
51
273.8879997
0
ARC
8
DEFAULT_255_2_778
10
8.2318624
20
58.5289284
40
1.2580721
50
235.5311602
51
270.1009568
0
ARC
8
DEFAULT_255_2_778
10
8.2539295
20
58.5583443
40
1.2948134
50
189.6521353
51
235.4628057
0
ARC
8
DEFAULT_255_2_778
10
8.2928182
20
58.5666139
40
1.3345391
50
179.972336
51
189.7222159
0
LINE
8
DEFAULT_255_2_778
10
6.9582792
20
58.5672583
11
6.9582792
21
58.5672583
0
LINE
8
DEFAULT_255_2_778
10
7.1958792
20
57.8140583
11
8.7841792
21
59.7372583
0
LINE
8
DEFAULT_255_2_778
10
7.6845792
20
57.3973583
11
9.2728792
21
59.3205583
0
ARC
8
DEFAULT_255_2_778
10
8.2684535
20
53.5741183
40
1.3101789
50
149.9735925
51
180.1513104
0
ARC
8
DEFAULT_255_2_778
10
8.2355374
20
53.5971379
40
1.270166
50
94.0076856
51
150.1296244
0
ARC
8
DEFAULT_255_2_778
10
8.2339674
20
53.5813556
40
1.2858026
50
89.9950169
51
93.8887458
0
ARC
8
DEFAULT_255_2_778
10
8.2362986
20
53.6091223
40
1.2580379
50
55.5302447
51
90.1010818
0
ARC
8
DEFAULT_255_2_778
10
8.2141632
20
53.5796417
40
1.2948715
50
9.6498819
51
55.4610463
0
ARC
8
DEFAULT_255_2_778
10
8.1750184
20
53.5713041
40
1.334861
50
359.9722791
51
9.7210427
0
ARC
8
DEFAULT_255_2_778
10
8.2001604
20
53.5672818
40
1.3097232
50
329.9255988
51
0.1477105
0
ARC
8
DEFAULT_255_2_778
10
8.2324481
20
53.5444468
40
1.2703439
50
274.0120647
51
330.0870981
0
ARC
8
DEFAULT_255_2_778
10
8.2341875
20
53.5594213
40
1.2851632
50
269.9951713
51
273.8879997
0
ARC
8
DEFAULT_255_2_778
10
8.2318624
20
53.5323284
40
1.2580721
50
235.5311602
51
270.1009568
0
ARC
8
DEFAULT_255_2_778
10
8.2539295
20
53.5617443
40
1.2948134
50
189.6521353
51
235.4628057
0
ARC
8
DEFAULT_255_2_778
10
8.2928182
20
53.5700139
40
1.3345391
50
179.972336
51
189.7222159
0
LINE
8
DEFAULT_255_2_778
10
6.9582792
20
53.5706583
11
6.9582792
21
53.5706583
0
LINE
8
DEFAULT_255_2_778
10
7.1958792
20
52.8174583
11
8.7841792
21
54.7406583
0
LINE
8
DEFAULT_255_2_778
10
7.6845792
20
52.4007583
11
9.2728792
21
54.3239583
0
ARC
8
DEFAULT_255_2_778
10
8.2684535
20
63.5674183
40
1.3101789
50
149.9735925
51
180.1513104
0
ARC
8
DEFAULT_255_2_778
10
8.2355374
20
63.5904379
40
1.270166
50
94.0076856
51
150.1296244
0
ARC
8
DEFAULT_255_2_778
10
8.2339674
20
63.5746556
40
1.2858026
50
89.9950169
51
93.8887458
0
ARC
8
DEFAULT_255_2_778
10
8.2362986
20
63.6024223
40
1.2580379
50
55.5302447
51
90.1010818
0
ARC
8
DEFAULT_255_2_778
10
8.2141632
20
63.5729417
40
1.2948715
50
9.6498819
51
55.4610463
0
ARC
8
DEFAULT_255_2_778
10
8.1750184
20
63.5646041
40
1.334861
50
359.9722791
51
9.7210427
0
ARC
8
DEFAULT_255_2_778
10
8.2001604
20
63.5605818
40
1.3097232
50
329.9255988
51
0.1477105
0
ARC
8
DEFAULT_255_2_778
10
8.2324481
20
63.5377468
40
1.2703439
50
274.0120647
51
330.0870981
0
ARC
8
DEFAULT_255_2_778
10
8.2341875
20
63.5527213
40
1.2851632
50
269.9951713
51
273.8879997
0
ARC
8
DEFAULT_255_2_778
10
8.2318624
20
63.5256284
40
1.2580721
50
235.5311602
51
270.1009568
0
ARC
8
DEFAULT_255_2_778
10
8.2539295
20
63.5550443
40
1.2948134
50
189.6521353
51
235.4628057
0
ARC
8
DEFAULT_255_2_778
10
8.2928182
20
63.5633139
40
1.3345391
50
179.972336
51
189.7222159
0
LINE
8
DEFAULT_255_2_778
10
6.9582792
20
63.5639583
11
6.9582792
21
63.5639583
0
LINE
8
DEFAULT_255_2_778
10
7.1958792
20
62.8107583
11
8.7841792
21
64.7339583
0
LINE
8
DEFAULT_255_2_778
10
7.6845792
20
62.3940583
11
9.2728792
21
64.3172583
0
ARC
8
DEFAULT_255_2_778
10
8.2684535
20
23.6436183
40
1.3101789
50
149.9735925
51
180.1513104
0
ARC
8
DEFAULT_255_2_778
10
8.2355374
20
23.6666379
40
1.270166
50
94.0076856
51
150.1296244
0
ARC
8
DEFAULT_255_2_778
10
8.2339674
20
23.6508556
40
1.2858026
50
89.9950169
51
93.8887458
0
ARC
8
DEFAULT_255_2_778
10
8.2362986
20
23.6786223
40
1.2580379
50
55.5302447
51
90.1010818
0
ARC
8
DEFAULT_255_2_778
10
8.2141632
20
23.6491417
40
1.2948715
50
9.6498819
51
55.4610463
0
ARC
8
DEFAULT_255_2_778
10
8.1750184
20
23.6408041
40
1.334861
50
359.9722791
51
9.7210427
0
ARC
8
DEFAULT_255_2_778
10
8.2001604
20
23.6367818
40
1.3097232
50
329.9255988
51
0.1477105
0
ARC
8
DEFAULT_255_2_778
10
8.2324481
20
23.6139468
40
1.2703439
50
274.0120647
51
330.0870981
0
ARC
8
DEFAULT_255_2_778
10
8.2341875
20
23.6289213
40
1.2851632
50
269.9951713
51
273.8879997
0
ARC
8
DEFAULT_255_2_778
10
8.2318624
20
23.6018284
40
1.2580721
50
235.5311602
51
270.1009568
0
ARC
8
DEFAULT_255_2_778
10
8.2539295
20
23.6312443
40
1.2948134
50
189.6521353
51
235.4628057
0
ARC
8
DEFAULT_255_2_778
10
8.2928182
20
23.6395139
40
1.3345391
50
179.972336
51
189.7222159
0
LINE
8
DEFAULT_255_2_778
10
6.9582792
20
23.6401583
11
6.9582792
21
23.6401583
0
LINE
8
DEFAULT_255_2_778
10
7.1958792
20
22.8869583
11
8.7841792
21
24.8101583
0
LINE
8
DEFAULT_255_2_778
10
7.6845792
20
22.4702583
11
9.2728792
21
24.3934583
0
ARC
8
DEFAULT_255_2_778
10
8.2684535
20
33.6372183
40
1.3101789
50
149.9735925
51
180.1513104
0
ARC
8
DEFAULT_255_2_778
10
8.2355374
20
33.6602379
40
1.270166
50
94.0076856
51
150.1296244
0
ARC
8
DEFAULT_255_2_778
10
8.2339674
20
33.6444556
40
1.2858026
50
89.9950169
51
93.8887458
0
ARC
8
DEFAULT_255_2_778
10
8.2362986
20
33.6722223
40
1.2580379
50
55.5302447
51
90.1010818
0
ARC
8
DEFAULT_255_2_778
10
8.2141632
20
33.6427417
40
1.2948715
50
9.6498819
51
55.4610463
0
ARC
8
DEFAULT_255_2_778
10
8.1750184
20
33.6344041
40
1.334861
50
359.9722791
51
9.7210427
0
ARC
8
DEFAULT_255_2_778
10
8.2001604
20
33.6303818
40
1.3097232
50
329.9255988
51
0.1477105
0
ARC
8
DEFAULT_255_2_778
10
8.2324481
20
33.6075468
40
1.2703439
50
274.0120647
51
330.0870981
0
ARC
8
DEFAULT_255_2_778
10
8.2341875
20
33.6225213
40
1.2851632
50
269.9951713
51
273.8879997
0
ARC
8
DEFAULT_255_2_778
10
8.2318624
20
33.5954284
40
1.2580721
50
235.5311602
51
270.1009568
0
ARC
8
DEFAULT_255_2_778
10
8.2539295
20
33.6248443
40
1.2948134
50
189.6521353
51
235.4628057
0
ARC
8
DEFAULT_255_2_778
10
8.2928182
20
33.6331139
40
1.3345391
50
179.972336
51
189.7222159
0
LINE
8
DEFAULT_255_2_778
10
6.9582792
20
33.6337583
11
6.9582792
21
33.6337583
0
LINE
8
DEFAULT_255_2_778
10
7.1958792
20
32.8805583
11
8.7841792
21
34.8037583
0
LINE
8
DEFAULT_255_2_778
10
7.6845792
20
32.4638583
11
9.2728792
21
34.3870583
0
ARC
8
DEFAULT_255_2_778
10
8.2684535
20
28.6403183
40
1.3101789
50
149.9735925
51
180.1513104
0
ARC
8
DEFAULT_255_2_778
10
8.2355374
20
28.6633379
40
1.270166
50
94.0076856
51
150.1296244
0
ARC
8
DEFAULT_255_2_778
10
8.2339674
20
28.6475556
40
1.2858026
50
89.9950169
51
93.8887458
0
ARC
8
DEFAULT_255_2_778
10
8.2362986
20
28.6753223
40
1.2580379
50
55.5302447
51
90.1010818
0
ARC
8
DEFAULT_255_2_778
10
8.2141632
20
28.6458417
40
1.2948715
50
9.6498819
51
55.4610463
0
ARC
8
DEFAULT_255_2_778
10
8.1750184
20
28.6375041
40
1.334861
50
359.9722791
51
9.7210427
0
ARC
8
DEFAULT_255_2_778
10
8.2001604
20
28.6334818
40
1.3097232
50
329.9255988
51
0.1477105
0
ARC
8
DEFAULT_255_2_778
10
8.2324481
20
28.6106468
40
1.2703439
50
274.0120647
51
330.0870981
0
ARC
8
DEFAULT_255_2_778
10
8.2341875
20
28.6256213
40
1.2851632
50
269.9951713
51
273.8879997
0
ARC
8
DEFAULT_255_2_778
10
8.2318624
20
28.5985284
40
1.2580721
50
235.5311602
51
270.1009568
0
ARC
8
DEFAULT_255_2_778
10
8.2539295
20
28.6279443
40
1.2948134
50
189.6521353
51
235.4628057
0
ARC
8
DEFAULT_255_2_778
10
8.2928182
20
28.6362139
40
1.3345391
50
179.972336
51
189.7222159
0
LINE
8
DEFAULT_255_2_778
10
6.9582792
20
28.6368583
11
6.9582792
21
28.6368583
0
LINE
8
DEFAULT_255_2_778
10
7.1958792
20
27.8836583
11
8.7841792
21
29.8068583
0
LINE
8
DEFAULT_255_2_778
10
7.6845792
20
27.4669583
11
9.2728792
21
29.3901583
0
ARC
8
DEFAULT_255_2_778
10
8.2684535
20
38.6339183
40
1.3101789
50
149.9735925
51
180.1513104
0
ARC
8
DEFAULT_255_2_778
10
8.2355374
20
38.6569379
40
1.270166
50
94.0076856
51
150.1296244
0
ARC
8
DEFAULT_255_2_778
10
8.2339674
20
38.6411556
40
1.2858026
50
89.9950169
51
93.8887458
0
ARC
8
DEFAULT_255_2_778
10
8.2362986
20
38.6689223
40
1.2580379
50
55.5302447
51
90.1010818
0
ARC
8
DEFAULT_255_2_778
10
8.2141632
20
38.6394417
40
1.2948715
50
9.6498819
51
55.4610463
0
ARC
8
DEFAULT_255_2_778
10
8.1750184
20
38.6311041
40
1.334861
50
359.9722791
51
9.7210427
0
ARC
8
DEFAULT_255_2_778
10
8.2001604
20
38.6270818
40
1.3097232
50
329.9255988
51
0.1477105
0
ARC
8
DEFAULT_255_2_778
10
8.2324481
20
38.6042468
40
1.2703439
50
274.0120647
51
330.0870981
0
ARC
8
DEFAULT_255_2_778
10
8.2341875
20
38.6192213
40
1.2851632
50
269.9951713
51
273.8879997
0
ARC
8
DEFAULT_255_2_778
10
8.2318624
20
38.5921284
40
1.2580721
50
235.5311602
51
270.1009568
0
ARC
8
DEFAULT_255_2_778
10
8.2539295
20
38.6215443
40
1.2948134
50
189.6521353
51
235.4628057
0
ARC
8
DEFAULT_255_2_778
10
8.2928182
20
38.6298139
40
1.3345391
50
179.972336
51
189.7222159
0
LINE
8
DEFAULT_255_2_778
10
6.9582792
20
38.6304583
11
6.9582792
21
38.6304583
0
LINE
8
DEFAULT_255_2_778
10
7.1958792
20
37.8772583
11
8.7841792
21
39.8004583
0
LINE
8
DEFAULT_255_2_778
10
7.6845792
20
37.4605583
11
9.2728792
21
39.3837583
0
ARC
8
DEFAULT_255_2_778
10
8.2684535
20
18.6470183
40
1.3101789
50
149.9735925
51
180.1513104
0
ARC
8
DEFAULT_255_2_778
10
8.2355374
20
18.6700379
40
1.270166
50
94.0076856
51
150.1296244
0
ARC
8
DEFAULT_255_2_778
10
8.2339674
20
18.6542556
40
1.2858026
50
89.9950169
51
93.8887458
0
ARC
8
DEFAULT_255_2_778
10
8.2362986
20
18.6820223
40
1.2580379
50
55.5302447
51
90.1010818
0
ARC
8
DEFAULT_255_2_778
10
8.2141632
20
18.6525417
40
1.2948715
50
9.6498819
51
55.4610463
0
ARC
8
DEFAULT_255_2_778
10
8.1750184
20
18.6442041
40
1.334861
50
359.9722791
51
9.7210427
0
ARC
8
DEFAULT_255_2_778
10
8.2001604
20
18.6401818
40
1.3097232
50
329.9255988
51
0.1477105
0
ARC
8
DEFAULT_255_2_778
10
8.2324481
20
18.6173468
40
1.2703439
50
274.0120647
51
330.0870981
0
ARC
8
DEFAULT_255_2_778
10
8.2341875
20
18.6323213
40
1.2851632
50
269.9951713
51
273.8879997
0
ARC
8
DEFAULT_255_2_778
10
8.2318624
20
18.6052284
40
1.2580721
50
235.5311602
51
270.1009568
0
ARC
8
DEFAULT_255_2_778
10
8.2539295
20
18.6346443
40
1.2948134
50
189.6521353
51
235.4628057
0
ARC
8
DEFAULT_255_2_778
10
8.2928182
20
18.6429139
40
1.3345391
50
179.972336
51
189.7222159
0
LINE
8
DEFAULT_255_2_778
10
6.9582792
20
18.6435583
11
6.9582792
21
18.6435583
0
LINE
8
DEFAULT_255_2_778
10
7.1958792
20
17.8903583
11
8.7841792
21
19.8135583
0
LINE
8
DEFAULT_255_2_778
10
7.6845792
20
17.4736583
11
9.2728792
21
19.3968583
0
LINE
8
DEFAULT_255_2_778
10
15.7913532
20
75.0034864
11
15.2722532
21
74.4758864
0
LINE
8
DEFAULT_255_2_778
10
15.2722532
20
74.4758864
11
15.2722532
21
72.5388864
0
LINE
8
DEFAULT_255_2_778
10
15.2722532
20
72.5388864
11
15.7913532
21
72.0112864
0
LINE
8
DEFAULT_255_2_778
10
15.7913532
20
72.0112864
11
11.5868532
21
72.0112864
0
LINE
8
DEFAULT_255_2_778
10
11.5868532
20
72.0112864
11
11.5868532
21
75.0034864
0
LINE
8
DEFAULT_255_2_778
10
11.5868532
20
75.0034864
11
15.7913532
21
75.0034864
0
LINE
8
DEFAULT_255_2_778
10
15.7913532
20
75.0034864
11
15.7913532
21
72.0112864
0
LINE
8
DEFAULT_255_2_778
10
12.1059532
20
72.5388864
11
12.1059532
21
74.4758864
0
LINE
8
DEFAULT_255_2_778
10
12.1059532
20
74.4758864
11
11.5868532
21
75.0034864
0
LINE
8
DEFAULT_255_2_778
10
15.2722532
20
72.5388864
11
12.1059532
21
72.5388864
0
LINE
8
DEFAULT_255_2_778
10
12.1059532
20
72.5388864
11
11.5868532
21
72.0112864
0
LINE
8
DEFAULT_255_2_778
10
15.2722532
20
74.4756864
11
12.1059532
21
74.4756864
0
LINE
8
DEFAULT_255_2_778
10
15.7913532
20
70.0068864
11
15.2722532
21
69.4792864
0
LINE
8
DEFAULT_255_2_778
10
15.2722532
20
69.4792864
11
15.2722532
21
67.5422864
0
LINE
8
DEFAULT_255_2_778
10
15.2722532
20
67.5422864
11
15.7913532
21
67.0146864
0
LINE
8
DEFAULT_255_2_778
10
15.7913532
20
67.0146864
11
11.5868532
21
67.0146864
0
LINE
8
DEFAULT_255_2_778
10
11.5868532
20
67.0146864
11
11.5868532
21
70.0068864
0
LINE
8
DEFAULT_255_2_778
10
11.5868532
20
70.0068864
11
15.7913532
21
70.0068864
0
LINE
8
DEFAULT_255_2_778
10
15.7913532
20
70.0068864
11
15.7913532
21
67.0146864
0
LINE
8
DEFAULT_255_2_778
10
12.1059532
20
67.5422864
11
12.1059532
21
69.4792864
0
LINE
8
DEFAULT_255_2_778
10
12.1059532
20
69.4792864
11
11.5868532
21
70.0068864
0
LINE
8
DEFAULT_255_2_778
10
15.2722532
20
67.5422864
11
12.1059532
21
67.5422864
0
LINE
8
DEFAULT_255_2_778
10
12.1059532
20
67.5422864
11
11.5868532
21
67.0146864
0
LINE
8
DEFAULT_255_2_778
10
15.2722532
20
69.4790864
11
12.1059532
21
69.4790864
0
LINE
8
DEFAULT_255_2_778
10
15.7913532
20
84.9970864
11
15.2722532
21
84.4694864
0
LINE
8
DEFAULT_255_2_778
10
15.2722532
20
84.4694864
11
15.2722532
21
82.5324864
0
LINE
8
DEFAULT_255_2_778
10
15.2722532
20
82.5324864
11
15.7913532
21
82.0048864
0
LINE
8
DEFAULT_255_2_778
10
15.7913532
20
82.0048864
11
11.5868532
21
82.0048864
0
LINE
8
DEFAULT_255_2_778
10
11.5868532
20
82.0048864
11
11.5868532
21
84.9970864
0
LINE
8
DEFAULT_255_2_778
10
11.5868532
20
84.9970864
11
15.7913532
21
84.9970864
0
LINE
8
DEFAULT_255_2_778
10
15.7913532
20
84.9970864
11
15.7913532
21
82.0048864
0
LINE
8
DEFAULT_255_2_778
10
12.1059532
20
82.5324864
11
12.1059532
21
84.4694864
0
LINE
8
DEFAULT_255_2_778
10
12.1059532
20
84.4694864
11
11.5868532
21
84.9970864
0
LINE
8
DEFAULT_255_2_778
10
15.2722532
20
82.5324864
11
12.1059532
21
82.5324864
0
LINE
8
DEFAULT_255_2_778
10
12.1059532
20
82.5324864
11
11.5868532
21
82.0048864
0
LINE
8
DEFAULT_255_2_778
10
15.2722532
20
84.4692864
11
12.1059532
21
84.4692864
0
LINE
8
DEFAULT_255_2_778
10
15.7913532
20
80.0004864
11
15.2722532
21
79.4728864
0
LINE
8
DEFAULT_255_2_778
10
15.2722532
20
79.4728864
11
15.2722532
21
77.5358864
0
LINE
8
DEFAULT_255_2_778
10
15.2722532
20
77.5358864
11
15.7913532
21
77.0082864
0
LINE
8
DEFAULT_255_2_778
10
15.7913532
20
77.0082864
11
11.5868532
21
77.0082864
0
LINE
8
DEFAULT_255_2_778
10
11.5868532
20
77.0082864
11
11.5868532
21
80.0004864
0
LINE
8
DEFAULT_255_2_778
10
11.5868532
20
80.0004864
11
15.7913532
21
80.0004864
0
LINE
8
DEFAULT_255_2_778
10
15.7913532
20
80.0004864
11
15.7913532
21
77.0082864
0
LINE
8
DEFAULT_255_2_778
10
12.1059532
20
77.5358864
11
12.1059532
21
79.4728864
0
LINE
8
DEFAULT_255_2_778
10
12.1059532
20
79.4728864
11
11.5868532
21
80.0004864
0
LINE
8
DEFAULT_255_2_778
10
15.2722532
20
77.5358864
11
12.1059532
21
77.5358864
0
LINE
8
DEFAULT_255_2_778
10
12.1059532
20
77.5358864
11
11.5868532
21
77.0082864
0
LINE
8
DEFAULT_255_2_778
10
15.2722532
20
79.4726864
11
12.1059532
21
79.4726864
0
LINE
8
DEFAULT_255_2_778
10
15.7913532
20
50.0699864
11
15.2722532
21
49.5423864
0
LINE
8
DEFAULT_255_2_778
10
15.2722532
20
49.5423864
11
15.2722532
21
47.6053864
0
LINE
8
DEFAULT_255_2_778
10
15.2722532
20
47.6053864
11
15.7913532
21
47.0777864
0
LINE
8
DEFAULT_255_2_778
10
15.7913532
20
47.0777864
11
11.5868532
21
47.0777864
0
LINE
8
DEFAULT_255_2_778
10
11.5868532
20
47.0777864
11
11.5868532
21
50.0699864
0
LINE
8
DEFAULT_255_2_778
10
11.5868532
20
50.0699864
11
15.7913532
21
50.0699864
0
LINE
8
DEFAULT_255_2_778
10
15.7913532
20
50.0699864
11
15.7913532
21
47.0777864
0
LINE
8
DEFAULT_255_2_778
10
12.1059532
20
47.6053864
11
12.1059532
21
49.5423864
0
LINE
8
DEFAULT_255_2_778
10
12.1059532
20
49.5423864
11
11.5868532
21
50.0699864
0
LINE
8
DEFAULT_255_2_778
10
15.2722532
20
47.6053864
11
12.1059532
21
47.6053864
0
LINE
8
DEFAULT_255_2_778
10
12.1059532
20
47.6053864
11
11.5868532
21
47.0777864
0
LINE
8
DEFAULT_255_2_778
10
15.2722532
20
49.5421864
11
12.1059532
21
49.5421864
0
LINE
8
DEFAULT_255_2_778
10
15.7913532
20
45.0732864
11
15.2722532
21
44.5456864
0
LINE
8
DEFAULT_255_2_778
10
15.2722532
20
44.5456864
11
15.2722532
21
42.6086864
0
LINE
8
DEFAULT_255_2_778
10
15.2722532
20
42.6086864
11
15.7913532
21
42.0810864
0
LINE
8
DEFAULT_255_2_778
10
15.7913532
20
42.0810864
11
11.5868532
21
42.0810864
0
LINE
8
DEFAULT_255_2_778
10
11.5868532
20
42.0810864
11
11.5868532
21
45.0732864
0
LINE
8
DEFAULT_255_2_778
10
11.5868532
20
45.0732864
11
15.7913532
21
45.0732864
0
LINE
8
DEFAULT_255_2_778
10
15.7913532
20
45.0732864
11
15.7913532
21
42.0810864
0
LINE
8
DEFAULT_255_2_778
10
12.1059532
20
42.6086864
11
12.1059532
21
44.5456864
0
LINE
8
DEFAULT_255_2_778
10
12.1059532
20
44.5456864
11
11.5868532
21
45.0732864
0
LINE
8
DEFAULT_255_2_778
10
15.2722532
20
42.6086864
11
12.1059532
21
42.6086864
0
LINE
8
DEFAULT_255_2_778
10
12.1059532
20
42.6086864
11
11.5868532
21
42.0810864
0
LINE
8
DEFAULT_255_2_778
10
15.2722532
20
44.5454864
11
12.1059532
21
44.5454864
0
LINE
8
DEFAULT_255_2_778
10
15.7913532
20
60.0632864
11
15.2722532
21
59.5356864
0
LINE
8
DEFAULT_255_2_778
10
15.2722532
20
59.5356864
11
15.2722532
21
57.5986864
0
LINE
8
DEFAULT_255_2_778
10
15.2722532
20
57.5986864
11
15.7913532
21
57.0710864
0
LINE
8
DEFAULT_255_2_778
10
15.7913532
20
57.0710864
11
11.5868532
21
57.0710864
0
LINE
8
DEFAULT_255_2_778
10
11.5868532
20
57.0710864
11
11.5868532
21
60.0632864
0
LINE
8
DEFAULT_255_2_778
10
11.5868532
20
60.0632864
11
15.7913532
21
60.0632864
0
LINE
8
DEFAULT_255_2_778
10
15.7913532
20
60.0632864
11
15.7913532
21
57.0710864
0
LINE
8
DEFAULT_255_2_778
10
12.1059532
20
57.5986864
11
12.1059532
21
59.5356864
0
LINE
8
DEFAULT_255_2_778
10
12.1059532
20
59.5356864
11
11.5868532
21
60.0632864
0
LINE
8
DEFAULT_255_2_778
10
15.2722532
20
57.5986864
11
12.1059532
21
57.5986864
0
LINE
8
DEFAULT_255_2_778
10
12.1059532
20
57.5986864
11
11.5868532
21
57.0710864
0
LINE
8
DEFAULT_255_2_778
10
15.2722532
20
59.5354864
11
12.1059532
21
59.5354864
0
LINE
8
DEFAULT_255_2_778
10
15.7913532
20
55.0665864
11
15.2722532
21
54.5389864
0
LINE
8
DEFAULT_255_2_778
10
15.2722532
20
54.5389864
11
15.2722532
21
52.6019864
0
LINE
8
DEFAULT_255_2_778
10
15.2722532
20
52.6019864
11
15.7913532
21
52.0743864
0
LINE
8
DEFAULT_255_2_778
10
15.7913532
20
52.0743864
11
11.5868532
21
52.0743864
0
LINE
8
DEFAULT_255_2_778
10
11.5868532
20
52.0743864
11
11.5868532
21
55.0665864
0
LINE
8
DEFAULT_255_2_778
10
11.5868532
20
55.0665864
11
15.7913532
21
55.0665864
0
LINE
8
DEFAULT_255_2_778
10
15.7913532
20
55.0665864
11
15.7913532
21
52.0743864
0
LINE
8
DEFAULT_255_2_778
10
12.1059532
20
52.6019864
11
12.1059532
21
54.5389864
0
LINE
8
DEFAULT_255_2_778
10
12.1059532
20
54.5389864
11
11.5868532
21
55.0665864
0
LINE
8
DEFAULT_255_2_778
10
15.2722532
20
52.6019864
11
12.1059532
21
52.6019864
0
LINE
8
DEFAULT_255_2_778
10
12.1059532
20
52.6019864
11
11.5868532
21
52.0743864
0
LINE
8
DEFAULT_255_2_778
10
15.2722532
20
54.5387864
11
12.1059532
21
54.5387864
0
LINE
8
DEFAULT_255_2_778
10
15.7913532
20
65.0599864
11
15.2722532
21
64.5323864
0
LINE
8
DEFAULT_255_2_778
10
15.2722532
20
64.5323864
11
15.2722532
21
62.5953864
0
LINE
8
DEFAULT_255_2_778
10
15.2722532
20
62.5953864
11
15.7913532
21
62.0677864
0
LINE
8
DEFAULT_255_2_778
10
15.7913532
20
62.0677864
11
11.5868532
21
62.0677864
0
LINE
8
DEFAULT_255_2_778
10
11.5868532
20
62.0677864
11
11.5868532
21
65.0599864
0
LINE
8
DEFAULT_255_2_778
10
11.5868532
20
65.0599864
11
15.7913532
21
65.0599864
0
LINE
8
DEFAULT_255_2_778
10
15.7913532
20
65.0599864
11
15.7913532
21
62.0677864
0
LINE
8
DEFAULT_255_2_778
10
12.1059532
20
62.5953864
11
12.1059532
21
64.5323864
0
LINE
8
DEFAULT_255_2_778
10
12.1059532
20
64.5323864
11
11.5868532
21
65.0599864
0
LINE
8
DEFAULT_255_2_778
10
15.2722532
20
62.5953864
11
12.1059532
21
62.5953864
0
LINE
8
DEFAULT_255_2_778
10
12.1059532
20
62.5953864
11
11.5868532
21
62.0677864
0
LINE
8
DEFAULT_255_2_778
10
15.2722532
20
64.5321864
11
12.1059532
21
64.5321864
0
LINE
8
DEFAULT_255_2_778
10
15.7913532
20
25.1361864
11
15.2722532
21
24.6085864
0
LINE
8
DEFAULT_255_2_778
10
15.2722532
20
24.6085864
11
15.2722532
21
22.6715864
0
LINE
8
DEFAULT_255_2_778
10
15.2722532
20
22.6715864
11
15.7913532
21
22.1439864
0
LINE
8
DEFAULT_255_2_778
10
15.7913532
20
22.1439864
11
11.5868532
21
22.1439864
0
LINE
8
DEFAULT_255_2_778
10
11.5868532
20
22.1439864
11
11.5868532
21
25.1361864
0
LINE
8
DEFAULT_255_2_778
10
11.5868532
20
25.1361864
11
15.7913532
21
25.1361864
0
LINE
8
DEFAULT_255_2_778
10
15.7913532
20
25.1361864
11
15.7913532
21
22.1439864
0
LINE
8
DEFAULT_255_2_778
10
12.1059532
20
22.6715864
11
12.1059532
21
24.6085864
0
LINE
8
DEFAULT_255_2_778
10
12.1059532
20
24.6085864
11
11.5868532
21
25.1361864
0
LINE
8
DEFAULT_255_2_778
10
15.2722532
20
22.6715864
11
12.1059532
21
22.6715864
0
LINE
8
DEFAULT_255_2_778
10
12.1059532
20
22.6715864
11
11.5868532
21
22.1439864
0
LINE
8
DEFAULT_255_2_778
10
15.2722532
20
24.6083864
11
12.1059532
21
24.6083864
0
LINE
8
DEFAULT_255_2_778
10
15.7913532
20
20.1394864
11
15.2722532
21
19.6118864
0
LINE
8
DEFAULT_255_2_778
10
15.2722532
20
19.6118864
11
15.2722532
21
17.6748864
0
LINE
8
DEFAULT_255_2_778
10
15.2722532
20
17.6748864
11
15.7913532
21
17.1472864
0
LINE
8
DEFAULT_255_2_778
10
15.7913532
20
17.1472864
11
11.5868532
21
17.1472864
0
LINE
8
DEFAULT_255_2_778
10
11.5868532
20
17.1472864
11
11.5868532
21
20.1394864
0
LINE
8
DEFAULT_255_2_778
10
11.5868532
20
20.1394864
11
15.7913532
21
20.1394864
0
LINE
8
DEFAULT_255_2_778
10
15.7913532
20
20.1394864
11
15.7913532
21
17.1472864
0
LINE
8
DEFAULT_255_2_778
10
12.1059532
20
17.6748864
11
12.1059532
21
19.6118864
0
LINE
8
DEFAULT_255_2_778
10
12.1059532
20
19.6118864
11
11.5868532
21
20.1394864
0
LINE
8
DEFAULT_255_2_778
10
15.2722532
20
17.6748864
11
12.1059532
21
17.6748864
0
LINE
8
DEFAULT_255_2_778
10
12.1059532
20
17.6748864
11
11.5868532
21
17.1472864
0
LINE
8
DEFAULT_255_2_778
10
15.2722532
20
19.6116864
11
12.1059532
21
19.6116864
0
LINE
8
DEFAULT_255_2_778
10
15.7913532
20
35.1297864
11
15.2722532
21
34.6021864
0
LINE
8
DEFAULT_255_2_778
10
15.2722532
20
34.6021864
11
15.2722532
21
32.6651864
0
LINE
8
DEFAULT_255_2_778
10
15.2722532
20
32.6651864
11
15.7913532
21
32.1375864
0
LINE
8
DEFAULT_255_2_778
10
15.7913532
20
32.1375864
11
11.5868532
21
32.1375864
0
LINE
8
DEFAULT_255_2_778
10
11.5868532
20
32.1375864
11
11.5868532
21
35.1297864
0
LINE
8
DEFAULT_255_2_778
10
11.5868532
20
35.1297864
11
15.7913532
21
35.1297864
0
LINE
8
DEFAULT_255_2_778
10
15.7913532
20
35.1297864
11
15.7913532
21
32.1375864
0
LINE
8
DEFAULT_255_2_778
10
12.1059532
20
32.6651864
11
12.1059532
21
34.6021864
0
LINE
8
DEFAULT_255_2_778
10
12.1059532
20
34.6021864
11
11.5868532
21
35.1297864
0
LINE
8
DEFAULT_255_2_778
10
15.2722532
20
32.6651864
11
12.1059532
21
32.6651864
0
LINE
8
DEFAULT_255_2_778
10
12.1059532
20
32.6651864
11
11.5868532
21
32.1375864
0
LINE
8
DEFAULT_255_2_778
10
15.2722532
20
34.6019864
11
12.1059532
21
34.6019864
0
LINE
8
DEFAULT_255_2_778
10
15.7913532
20
30.1327864
11
15.2722532
21
29.6051864
0
LINE
8
DEFAULT_255_2_778
10
15.2722532
20
29.6051864
11
15.2722532
21
27.6681864
0
LINE
8
DEFAULT_255_2_778
10
15.2722532
20
27.6681864
11
15.7913532
21
27.1405864
0
LINE
8
DEFAULT_255_2_778
10
15.7913532
20
27.1405864
11
11.5868532
21
27.1405864
0
LINE
8
DEFAULT_255_2_778
10
11.5868532
20
27.1405864
11
11.5868532
21
30.1327864
0
LINE
8
DEFAULT_255_2_778
10
11.5868532
20
30.1327864
11
15.7913532
21
30.1327864
0
LINE
8
DEFAULT_255_2_778
10
15.7913532
20
30.1327864
11
15.7913532
21
27.1405864
0
LINE
8
DEFAULT_255_2_778
10
12.1059532
20
27.6681864
11
12.1059532
21
29.6051864
0
LINE
8
DEFAULT_255_2_778
10
12.1059532
20
29.6051864
11
11.5868532
21
30.1327864
0
LINE
8
DEFAULT_255_2_778
10
15.2722532
20
27.6681864
11
12.1059532
21
27.6681864
0
LINE
8
DEFAULT_255_2_778
10
12.1059532
20
27.6681864
11
11.5868532
21
27.1405864
0
LINE
8
DEFAULT_255_2_778
10
15.2722532
20
29.6049864
11
12.1059532
21
29.6049864
0
LINE
8
DEFAULT_255_2_778
10
15.7913532
20
40.1263864
11
15.2722532
21
39.5987864
0
LINE
8
DEFAULT_255_2_778
10
15.2722532
20
39.5987864
11
15.2722532
21
37.6617864
0
LINE
8
DEFAULT_255_2_778
10
15.2722532
20
37.6617864
11
15.7913532
21
37.1341864
0
LINE
8
DEFAULT_255_2_778
10
15.7913532
20
37.1341864
11
11.5868532
21
37.1341864
0
LINE
8
DEFAULT_255_2_778
10
11.5868532
20
37.1341864
11
11.5868532
21
40.1263864
0
LINE
8
DEFAULT_255_2_778
10
11.5868532
20
40.1263864
11
15.7913532
21
40.1263864
0
LINE
8
DEFAULT_255_2_778
10
15.7913532
20
40.1263864
11
15.7913532
21
37.1341864
0
LINE
8
DEFAULT_255_2_778
10
12.1059532
20
37.6617864
11
12.1059532
21
39.5987864
0
LINE
8
DEFAULT_255_2_778
10
12.1059532
20
39.5987864
11
11.5868532
21
40.1263864
0
LINE
8
DEFAULT_255_2_778
10
15.2722532
20
37.6617864
11
12.1059532
21
37.6617864
0
LINE
8
DEFAULT_255_2_778
10
12.1059532
20
37.6617864
11
11.5868532
21
37.1341864
0
LINE
8
DEFAULT_255_2_778
10
15.2722532
20
39.5985864
11
12.1059532
21
39.5985864
0
LINE
8
DEFAULT_255_2_778
10
15.7913532
20
89.9937864
11
15.2722532
21
89.4661864
0
LINE
8
DEFAULT_255_2_778
10
15.2722532
20
89.4661864
11
15.2722532
21
87.5291864
0
LINE
8
DEFAULT_255_2_778
10
15.2722532
20
87.5291864
11
15.7913532
21
87.0015864
0
LINE
8
DEFAULT_255_2_778
10
15.7913532
20
87.0015864
11
11.5868532
21
87.0015864
0
LINE
8
DEFAULT_255_2_778
10
11.5868532
20
87.0015864
11
11.5868532
21
89.9937864
0
LINE
8
DEFAULT_255_2_778
10
11.5868532
20
89.9937864
11
15.7913532
21
89.9937864
0
LINE
8
DEFAULT_255_2_778
10
15.7913532
20
89.9937864
11
15.7913532
21
87.0015864
0
LINE
8
DEFAULT_255_2_778
10
12.1059532
20
87.5291864
11
12.1059532
21
89.4661864
0
LINE
8
DEFAULT_255_2_778
10
12.1059532
20
89.4661864
11
11.5868532
21
89.9937864
0
LINE
8
DEFAULT_255_2_778
10
15.2722532
20
87.5291864
11
12.1059532
21
87.5291864
0
LINE
8
DEFAULT_255_2_778
10
12.1059532
20
87.5291864
11
11.5868532
21
87.0015864
0
LINE
8
DEFAULT_255_2_778
10
15.2722532
20
89.4659864
11
12.1059532
21
89.4659864
0
LINE
8
DEFAULT_255_2_778
10
14.7324939
20
16.1895344
11
14.7324939
21
15.8638344
0
LINE
8
DEFAULT_255_2_778
10
14.7324939
20
15.8638344
11
5.8159939
21
15.8638344
0
LINE
8
DEFAULT_255_2_778
10
5.8159939
20
15.8638344
11
5.8162939
21
16.1895344
0
LINE
8
DEFAULT_255_2_778
10
16.2823939
20
16.1861344
11
16.2823939
21
41.3228344
0
LINE
8
DEFAULT_255_2_778
10
16.5768939
20
16.1858344
11
16.5768939
21
41.3228344
0
LINE
8
DEFAULT_255_2_778
10
4.7007939
20
16.1922344
11
4.7007939
21
41.3231344
0
LINE
8
DEFAULT_255_2_778
10
16.5943939
20
16.1922344
11
4.5044939
21
16.1922344
0
LINE
8
DEFAULT_255_2_778
10
4.5044939
20
16.1922344
11
4.5044939
21
41.3231344
0
LINE
8
DEFAULT_255_2_778
10
16.2821939
20
41.1199344
11
16.2821939
21
66.2566344
0
LINE
8
DEFAULT_255_2_778
10
16.5765939
20
41.1196344
11
16.5765939
21
66.2566344
0
LINE
8
DEFAULT_255_2_778
10
16.5765939
20
37.9835344
11
16.6948939
21
37.9835344
0
LINE
8
DEFAULT_255_2_778
10
16.6948939
20
37.9835344
11
16.6948939
21
35.6817344
0
LINE
8
DEFAULT_255_2_778
10
16.6948939
20
35.6817344
11
16.5765939
21
35.6817344
0
LINE
8
DEFAULT_255_2_778
10
16.5765939
20
18.9261344
11
16.6948939
21
18.9261344
0
LINE
8
DEFAULT_255_2_778
10
16.6948939
20
18.9261344
11
16.6948939
21
21.2280344
0
LINE
8
DEFAULT_255_2_778
10
16.6948939
20
21.2280344
11
16.5765939
21
21.2280344
0
LINE
8
DEFAULT_255_2_778
10
5.8157939
20
90.9909344
11
5.8157939
21
91.6823344
0
LINE
8
DEFAULT_255_2_778
10
5.8157939
20
91.6823344
11
14.7319939
21
91.6823344
0
LINE
8
DEFAULT_255_2_778
10
14.7319939
20
91.6823344
11
14.7319939
21
90.9909344
0
LINE
8
DEFAULT_255_2_778
10
16.5765939
20
41.1260344
11
10.4432939
21
41.1260344
0
LINE
8
DEFAULT_255_2_778
10
4.7007939
20
66.2569344
11
4.7007939
21
41.1260344
0
LINE
8
DEFAULT_255_2_778
10
4.7007939
20
41.1260344
11
4.5044939
21
41.1260344
0
LINE
8
DEFAULT_255_2_778
10
4.5044939
20
41.1260344
11
4.5044939
21
66.2569344
0
LINE
8
DEFAULT_255_2_778
10
16.5765939
20
62.9173344
11
16.6948939
21
62.9173344
0
LINE
8
DEFAULT_255_2_778
10
16.6948939
20
62.9173344
11
16.6948939
21
60.6155344
0
LINE
8
DEFAULT_255_2_778
10
16.6948939
20
60.6155344
11
16.5765939
21
60.6155344
0
LINE
8
DEFAULT_255_2_778
10
16.5765939
20
43.8599344
11
16.6948939
21
43.8599344
0
LINE
8
DEFAULT_255_2_778
10
16.6948939
20
43.8599344
11
16.6948939
21
46.1618344
0
LINE
8
DEFAULT_255_2_778
10
16.6948939
20
46.1618344
11
16.5765939
21
46.1618344
0
LINE
8
DEFAULT_255_2_778
10
16.5765939
20
85.5490344
11
16.6948939
21
85.5490344
0
LINE
8
DEFAULT_255_2_778
10
16.6948939
20
85.5490344
11
16.6948939
21
87.8509344
0
LINE
8
DEFAULT_255_2_778
10
16.6948939
20
87.8509344
11
16.5765939
21
87.8509344
0
LINE
8
DEFAULT_255_2_778
10
16.5765939
20
71.0953344
11
16.6948939
21
71.0953344
0
LINE
8
DEFAULT_255_2_778
10
16.6948939
20
71.0953344
11
16.6948939
21
68.7935344
0
LINE
8
DEFAULT_255_2_778
10
16.6948939
20
68.7935344
11
16.5765939
21
68.7935344
0
LINE
8
DEFAULT_255_2_778
10
16.5765939
20
65.8553344
11
16.5765939
21
90.9907344
0
LINE
8
DEFAULT_255_2_778
10
16.5765939
20
90.9907344
11
16.2821939
21
90.9907344
0
LINE
8
DEFAULT_255_2_778
10
16.2821939
20
65.8600344
11
16.2821939
21
90.9909344
0
LINE
8
DEFAULT_255_2_778
10
16.2821939
20
90.9909344
11
4.7007939
21
90.9909344
0
LINE
8
DEFAULT_255_2_778
10
4.7007939
20
65.8600344
11
4.7007939
21
90.9909344
0
LINE
8
DEFAULT_255_2_778
10
4.7007939
20
90.9909344
11
4.5044939
21
90.9909344
0
LINE
8
DEFAULT_255_2_778
10
4.5044939
20
90.9909344
11
4.5044939
21
65.8600344
0
LINE
8
DEFAULT_255_2_778
10
4.7007939
20
41.1257344
11
11.4240939
21
41.1257344
0
LINE
8
DEFAULT_255_2_778
10
4.5047323
20
80.1543864
11
2.8032323
21
80.1543864
0
LINE
8
DEFAULT_255_2_778
10
2.8032323
20
80.1543864
11
2.8032323
21
77.1621864
0
LINE
8
DEFAULT_255_2_778
10
2.8032323
20
77.1621864
11
4.5047323
21
77.1621864
0
LINE
8
DEFAULT_255_2_778
10
4.5047323
20
85.1412864
11
2.8032323
21
85.1412864
0
LINE
8
DEFAULT_255_2_778
10
2.8032323
20
85.1412864
11
2.8032323
21
82.1490864
0
LINE
8
DEFAULT_255_2_778
10
2.8032323
20
82.1490864
11
4.5047323
21
82.1490864
0
LINE
8
DEFAULT_255_2_778
10
4.5047323
20
75.1677864
11
2.8032323
21
75.1677864
0
LINE
8
DEFAULT_255_2_778
10
2.8032323
20
75.1677864
11
2.8032323
21
72.1755864
0
LINE
8
DEFAULT_255_2_778
10
2.8032323
20
72.1755864
11
4.5047323
21
72.1755864
0
LINE
8
DEFAULT_255_2_778
10
4.5047323
20
70.1809864
11
2.8032323
21
70.1809864
0
LINE
8
DEFAULT_255_2_778
10
2.8032323
20
70.1809864
11
2.8032323
21
67.1887864
0
LINE
8
DEFAULT_255_2_778
10
2.8032323
20
67.1887864
11
4.5047323
21
67.1887864
0
LINE
8
DEFAULT_255_2_778
10
4.5047323
20
50.2339864
11
2.8032323
21
50.2339864
0
LINE
8
DEFAULT_255_2_778
10
2.8032323
20
50.2339864
11
2.8032323
21
47.2417864
0
LINE
8
DEFAULT_255_2_778
10
2.8032323
20
47.2417864
11
4.5047323
21
47.2417864
0
LINE
8
DEFAULT_255_2_778
10
4.5047323
20
45.2473864
11
2.8032323
21
45.2473864
0
LINE
8
DEFAULT_255_2_778
10
2.8032323
20
45.2473864
11
2.8032323
21
42.2551864
0
LINE
8
DEFAULT_255_2_778
10
2.8032323
20
42.2551864
11
4.5047323
21
42.2551864
0
LINE
8
DEFAULT_255_2_778
10
4.5047323
20
55.2208864
11
2.8032323
21
55.2208864
0
LINE
8
DEFAULT_255_2_778
10
2.8032323
20
55.2208864
11
2.8032323
21
52.2286864
0
LINE
8
DEFAULT_255_2_778
10
2.8032323
20
52.2286864
11
4.5047323
21
52.2286864
0
LINE
8
DEFAULT_255_2_778
10
4.5047323
20
60.2077864
11
2.8032323
21
60.2077864
0
LINE
8
DEFAULT_255_2_778
10
2.8032323
20
60.2077864
11
2.8032323
21
57.2155864
0
LINE
8
DEFAULT_255_2_778
10
2.8032323
20
57.2155864
11
4.5047323
21
57.2155864
0
LINE
8
DEFAULT_255_2_778
10
4.5047323
20
25.3004864
11
2.8032323
21
25.3004864
0
LINE
8
DEFAULT_255_2_778
10
2.8032323
20
25.3004864
11
2.8032323
21
22.3082864
0
LINE
8
DEFAULT_255_2_778
10
2.8032323
20
22.3082864
11
4.5047323
21
22.3082864
0
LINE
8
DEFAULT_255_2_778
10
4.5047323
20
20.3135864
11
2.8032323
21
20.3135864
0
LINE
8
DEFAULT_255_2_778
10
2.8032323
20
20.3135864
11
2.8032323
21
17.3213864
0
LINE
8
DEFAULT_255_2_778
10
2.8032323
20
17.3213864
11
4.5047323
21
17.3213864
0
LINE
8
DEFAULT_255_2_778
10
4.5047323
20
30.2870864
11
2.8032323
21
30.2870864
0
LINE
8
DEFAULT_255_2_778
10
2.8032323
20
30.2870864
11
2.8032323
21
27.2948864
0
LINE
8
DEFAULT_255_2_778
10
2.8032323
20
27.2948864
11
4.5047323
21
27.2948864
0
LINE
8
DEFAULT_255_2_778
10
4.5047323
20
35.2739864
11
2.8032323
21
35.2739864
0
LINE
8
DEFAULT_255_2_778
10
2.8032323
20
35.2739864
11
2.8032323
21
32.2817864
0
LINE
8
DEFAULT_255_2_778
10
2.8032323
20
32.2817864
11
4.5047323
21
32.2817864
0
ARC
8
DEFAULT_255_2_778
10
6.9650297
20
7.4452768
40
1.3747164
50
269.9975732
51
272.0229906
0
ARC
8
DEFAULT_255_2_778
10
6.9660456
20
7.4992177
40
1.4286578
50
262.0422405
51
269.9569232
0
ARC
8
DEFAULT_255_2_778
10
5.2522851
20
6.2103125
40
0.4425962
50
189.8080513
51
269.5690393
0
ARC
8
DEFAULT_255_2_778
10
5.2488656
20
6.2051575
40
0.4374285
50
270.0118438
51
277.644876
0
ARC
8
DEFAULT_255_2_778
10
6.3348246
20
6.2050235
40
0.4372523
50
262.3950644
51
269.9884278
0
ARC
8
DEFAULT_255_2_778
10
6.3315415
20
6.2104708
40
0.4427112
50
270.4134784
51
350.1737325
0
ARC
8
DEFAULT_255_2_778
10
5.763301
20
2.6422349
40
0.9803558
50
0.0023799
51
4.9787994
0
ARC
8
DEFAULT_255_2_778
10
5.7783966
20
2.6398
40
0.9652634
50
298.8841636
51
0.146949
0
ARC
8
DEFAULT_255_2_778
10
5.8061191
20
2.6398
40
0.9652634
50
179.853051
51
241.1158364
0
ARC
8
DEFAULT_255_2_778
10
5.8212147
20
2.6422349
40
0.9803559
50
175.0212006
51
179.9976201
0
ARC
8
DEFAULT_255_2_778
10
8.4211082
20
111.0855415
40
1.6818638
50
9.4063425
51
40.8406555
0
ARC
8
DEFAULT_255_2_778
10
8.4522292
20
111.1165678
40
1.6380331
50
40.7315004
51
84.3407871
0
ARC
8
DEFAULT_255_2_778
10
3.3943739
20
110.827715
40
1.9653853
50
102.4859286
51
164.2737109
0
ARC
8
DEFAULT_255_2_778
10
7.0307353
20
105.2206453
40
0.2518956
50
180.0040014
51
180.6887803
0
ARC
8
DEFAULT_255_2_778
10
7.0291233
20
105.2206607
40
0.2502836
50
135.7784734
51
180.0075636
0
ARC
8
DEFAULT_255_2_778
10
7.022578
20
105.2261804
40
0.2417441
50
90.0612476
51
135.6340721
0
ARC
8
DEFAULT_255_2_778
10
7.0222921
20
105.2193101
40
0.2486141
50
89.5700104
51
89.9936731
0
ARC
8
DEFAULT_255_2_778
10
8.9742473
20
106.9329078
40
1.4649973
50
270.1724957
51
318.0412418
0
ARC
8
DEFAULT_255_2_778
10
8.9399435
20
106.9634982
40
1.5109592
50
318.0483543
51
359.9937748
0
ARC
8
DEFAULT_255_2_778
10
8.9396153
20
106.9633183
40
1.5112874
50
0.0005979
51
4.9536298
0
ARC
8
DEFAULT_255_2_778
10
9.0163297
20
114.8564782
40
5.6948602
50
272.6301372
51
282.5652907
0
ARC
8
DEFAULT_255_2_778
10
6.9410613
20
107.7816033
40
1.3868797
50
87.9753965
51
88.9921415
0
ARC
8
DEFAULT_255_2_778
10
6.9410557
20
107.7799133
40
1.3885695
50
88.9931364
51
89.9999385
0
ARC
8
DEFAULT_255_2_778
10
6.9413063
20
107.7684896
40
1.3999932
50
90.0101953
51
98.0705536
0
ARC
8
DEFAULT_255_2_778
10
2.8898866
20
100.2098086
40
0.9290177
50
101.2051288
51
169.6938485
0
ARC
8
DEFAULT_255_2_778
10
2.8010843
20
100.300232
40
0.9287788
50
101.2016139
51
169.70517
0
ARC
8
DEFAULT_255_2_778
10
22.6696849
20
100.3008752
40
0.928021
50
10.2629655
51
78.8302428
0
ARC
8
DEFAULT_255_2_778
10
22.6561399
20
100.2846502
40
0.842984
50
6.2222348
51
82.8709615
0
ARC
8
DEFAULT_255_2_778
10
22.641681
20
100.0818892
40
2.5576031
50
4.483389
51
25.276832
0
ARC
8
DEFAULT_255_2_778
10
22.6940696
20
100.1149307
40
2.4961331
50
25.1044856
51
83.4029041
0
ARC
8
DEFAULT_255_2_778
10
22.7081048
20
100.1359365
40
2.4736808
50
83.6699395
51
90.0089368
0
LINE
8
DEFAULT_255_2_778
10
22.7077189
20
102.6096174
11
22.7067579
21
102.6096172
0
ARC
8
DEFAULT_255_2_778
10
23.014571
20
104.2585164
40
2.1850879
50
359.9449557
51
0.0050037
0
ARC
8
DEFAULT_255_2_778
10
22.6463294
20
104.2584569
40
2.5533295
50
0.0056177
51
44.4530773
0
ARC
8
DEFAULT_255_2_778
10
22.7043082
20
104.3152512
40
2.4721684
50
44.4545333
51
89.9220217
0
LINE
8
DEFAULT_255_2_778
10
22.7076727
20
106.7874174
11
22.7065579
21
106.7874172
0
ARC
8
DEFAULT_255_2_778
10
2.8394586
20
100.0627635
40
2.5479844
50
91.7070102
51
115.657797
0
ARC
8
DEFAULT_255_2_778
10
2.8752159
20
100.0018156
40
2.6184117
50
115.7856167
51
159.7279909
0
ARC
8
DEFAULT_255_2_778
10
2.9209015
20
99.9825198
40
2.6679541
50
159.679206
51
173.450793
0
ARC
8
DEFAULT_255_2_778
10
2.7870896
20
104.1009604
40
2.516764
50
124.6554166
51
180.1375228
0
ARC
8
DEFAULT_255_2_778
10
2.805682
20
104.0948764
40
2.5353491
50
179.9990227
51
180.2544446
0
ARC
8
DEFAULT_255_2_778
10
2.898111
20
12.2356074
40
2.3825739
50
180.576923
51
201.9121398
0
ARC
8
DEFAULT_255_2_778
10
2.8499225
20
12.2082791
40
2.3276799
50
201.7307076
51
261.4191045
0
ARC
8
DEFAULT_255_2_778
10
2.8346351
20
12.187049
40
2.3044374
50
261.7161858
51
268.2250467
0
ARC
8
DEFAULT_255_2_778
10
3.0183223
20
1.2534706
40
1.5205509
50
184.5473375
51
214.3085747
0
ARC
8
DEFAULT_255_2_778
10
2.9877535
20
1.2267701
40
1.4802589
50
214.1218204
51
266.5828958
0
ARC
8
DEFAULT_255_2_778
10
2.9837754
20
1.2280484
40
1.4813034
50
266.7394394
51
269.4345933
0
ARC
8
DEFAULT_255_2_778
10
8.5993971
20
1.2126852
40
1.4659383
50
270.5612961
51
306.017621
0
ARC
8
DEFAULT_255_2_778
10
8.5732925
20
1.2495554
40
1.5111109
50
305.9961383
51
347.5102429
0
ARC
8
DEFAULT_255_2_778
10
8.5426484
20
1.2574972
40
1.5427476
50
347.4684029
51
355.3682073
0
ARC
8
DEFAULT_255_2_778
10
5.6548148
20
2.6651004
40
1.058573
50
179.7542512
51
252.645345
0
ARC
8
DEFAULT_255_2_778
10
5.6820232
20
2.6696073
40
1.0857715
50
176.6044029
51
179.9982342
0
ARC
8
DEFAULT_255_2_778
10
2.9071817
20
100.2305141
40
2.6539599
50
152.3742279
51
173.4855223
0
ARC
8
DEFAULT_255_2_778
10
2.8534847
20
100.2673031
40
2.5893371
50
96.8979137
51
152.5445194
0
ARC
8
DEFAULT_255_2_778
10
2.8408909
20
100.2870627
40
2.5682281
50
91.7322147
51
96.6719285
0
ARC
8
DEFAULT_255_2_778
10
2.7467016
20
102.0677136
40
2.475061
50
89.6097863
51
89.9991957
0
ARC
8
DEFAULT_255_2_778
10
2.7457338
20
102.0993034
40
2.4434712
50
89.976492
51
116.4438066
0
ARC
8
DEFAULT_255_2_778
10
2.7765336
20
102.0437905
40
2.5068934
50
116.5090878
51
155.9084582
0
ARC
8
DEFAULT_255_2_778
10
2.8193684
20
102.0223902
40
2.5547333
50
155.8624539
51
167.1257099
0
ARC
8
DEFAULT_255_2_778
10
2.8293958
20
12.1529534
40
2.5594103
50
178.6866188
51
179.999632
0
ARC
8
DEFAULT_255_2_778
10
2.8043685
20
12.1497251
40
2.5343851
50
179.9266446
51
224.0023913
0
ARC
8
DEFAULT_255_2_778
10
2.7471327
20
12.0931231
40
2.4538942
50
223.9801293
51
269.9079885
0
ARC
8
DEFAULT_255_2_778
10
2.7432353
20
12.0630055
40
2.4237735
50
269.9989767
51
270.4804125
0
ARC
8
DEFAULT_255_2_778
10
2.641958
20
12.036475
40
0.7544502
50
180.73329
51
268.4049622
0
ARC
8
DEFAULT_255_2_778
10
2.3341448
20
12.0359364
40
0.4466682
50
181.0928588
51
181.16953
0
ARC
8
DEFAULT_255_2_778
10
2.7981335
20
12.1162704
40
0.8219765
50
179.9200644
51
179.9999887
0
ARC
8
DEFAULT_255_2_778
10
2.7259061
20
12.1154273
40
0.7497496
50
179.9355613
51
224.4575659
0
ARC
8
DEFAULT_255_2_778
10
2.7096591
20
12.0988759
40
0.7265607
50
224.4232711
51
269.9044359
0
ARC
8
DEFAULT_255_2_778
10
2.708725
20
11.8862363
40
0.5139201
50
269.9690362
51
270.092852
0
ARC
8
DEFAULT_255_2_778
10
22.7214925
20
12.1447532
40
0.7734486
50
272.9322139
51
357.9745732
0
ARC
8
DEFAULT_255_2_778
10
22.7070562
20
12.1559887
40
0.8854303
50
279.2680498
51
351.6310539
0
ARC
8
DEFAULT_255_2_778
10
22.6730485
20
12.1294638
40
2.2461996
50
270.8598873
51
294.2845489
0
ARC
8
DEFAULT_255_2_778
10
22.636768
20
12.1894426
40
2.3158073
50
294.4924434
51
344.8761664
0
ARC
8
DEFAULT_255_2_778
10
22.5969149
20
12.2019928
40
2.3575552
50
344.8344247
51
0.0469441
0
ARC
8
DEFAULT_255_2_778
10
22.5979551
20
12.2039869
40
2.3565141
50
359.9984795
51
0.1782267
0
ARC
8
DEFAULT_255_2_778
10
22.6601088
20
102.0368069
40
2.5396311
50
0.4604739
51
20.5462758
0
ARC
8
DEFAULT_255_2_778
10
22.7107852
20
102.0627888
40
2.4830682
50
20.3952861
51
80.0262171
0
ARC
8
DEFAULT_255_2_778
10
22.7316274
20
102.0988282
40
2.4440053
50
80.3611137
51
90.0202118
0
ARC
8
DEFAULT_255_2_778
10
22.7307578
20
102.0643022
40
2.4785312
50
89.9998274
51
90.5548106
0
ARC
8
DEFAULT_255_2_778
10
5.619522
20
9.5790542
40
5.4195683
50
195.5231574
51
217.6121918
0
ARC
8
DEFAULT_255_2_778
10
5.6217622
20
9.5800962
40
5.4220057
50
180.0018737
51
195.5274314
0
ARC
8
DEFAULT_255_2_778
10
5.6186912
20
9.579907
40
5.4189346
50
175.2052046
51
179.999874
0
ARC
8
DEFAULT_255_2_778
10
5.6242463
20
9.5794036
40
5.4245124
50
170.7247056
51
175.2048113
0
ARC
8
DEFAULT_255_2_778
10
2.8556723
20
10.4474167
40
2.5856588
50
179.0648351
51
180.0001607
0
ARC
8
DEFAULT_255_2_778
10
2.8343858
20
10.4444391
40
2.5643742
50
179.9336344
51
223.8559907
0
ARC
8
DEFAULT_255_2_778
10
2.7747802
20
10.3863132
40
2.4811213
50
223.8417653
51
269.7408444
0
ARC
8
DEFAULT_255_2_778
10
7.0279803
20
7.2732408
40
0.2491328
50
179.4764789
51
179.9998999
0
ARC
8
DEFAULT_255_2_778
10
7.0304501
20
7.2733096
40
0.2516025
50
180.0155607
51
224.1948907
0
ARC
8
DEFAULT_255_2_778
10
7.0245146
20
7.2682082
40
0.2437913
50
224.3077097
51
269.9161525
0
ARC
8
DEFAULT_255_2_778
10
5.9281009
20
2.6648004
40
1.058573
50
287.354655
51
0.2457488
0
ARC
8
DEFAULT_255_2_778
10
5.9008926
20
2.6693073
40
1.0857715
50
0.0017658
51
3.3955971
0
ARC
8
DEFAULT_255_2_778
10
8.9742766
20
5.5607929
40
1.4647308
50
41.9488635
51
89.828616
0
ARC
8
DEFAULT_255_2_778
10
8.9401952
20
5.5299326
40
1.5107075
50
0.0054024
51
41.9553063
0
ARC
8
DEFAULT_255_2_778
10
8.9402688
20
5.5300879
40
1.5106339
50
355.0452952
51
359.9995125
0
ARC
8
DEFAULT_255_2_778
10
3.3054312
20
6.9952273
40
1.2536854
50
0.4948024
51
1.3707249
0
ARC
8
DEFAULT_255_2_778
10
-32.4209828
20
6.5207855
40
36.9832364
50
0.6800268
51
0.7518171
0
ARC
8
DEFAULT_255_2_778
10
-159.0989341
20
5.0055154
40
163.6702498
50
0.6496651
51
0.6841209
0
ARC
8
DEFAULT_255_2_778
10
-455.9737011
20
1.6250035
40
460.564263
50
0.6329061
51
0.6514272
0
ARC
8
DEFAULT_255_2_778
10
-891.2749346
20
-3.1904572
40
895.8921308
50
0.6198163
51
0.6333409
0
ARC
8
DEFAULT_255_2_778
10
-1367.4588645
20
-8.3460795
40
1372.1039696
50
0.6068315
51
0.6199893
0
ARC
8
DEFAULT_255_2_778
10
-1605.6975217
20
-10.8786772
40
1610.3560877
50
0.6030882
51
0.6071612
0
ARC
8
DEFAULT_255_2_778
10
4.6178861
20
7.4452768
40
1.3747164
50
267.9770094
51
270.0024268
0
ARC
8
DEFAULT_255_2_778
10
4.6168702
20
7.4992177
40
1.4286578
50
270.0430768
51
277.9577595
0
ARC
8
DEFAULT_255_2_778
10
4.642519
20
107.7721311
40
1.3960621
50
81.9442715
51
90.0047389
0
ARC
8
DEFAULT_255_2_778
10
4.6424163
20
107.7665915
40
1.4016017
50
90.0005223
51
91.020243
0
ARC
8
DEFAULT_255_2_778
10
4.6424218
20
107.765896
40
1.4022974
50
91.0199628
51
92.0255318
0
ARC
8
DEFAULT_255_2_778
10
2.5628722
20
114.8242855
40
5.6628265
50
257.4009651
51
267.3936034
0
ARC
8
DEFAULT_255_2_778
10
2.6442922
20
106.9632677
40
1.5122539
50
175.059027
51
179.9994086
0
ARC
8
DEFAULT_255_2_778
10
2.6429914
20
106.9632678
40
1.5109532
50
179.9994119
51
221.9503012
0
ARC
8
DEFAULT_255_2_778
10
2.6057048
20
106.9290941
40
1.4603776
50
221.9310665
51
269.9432318
0
ARC
8
DEFAULT_255_2_778
10
4.5616505
20
105.2325919
40
0.235043
50
89.9962678
51
90.7051542
0
ARC
8
DEFAULT_255_2_778
10
4.5617107
20
105.2298716
40
0.2377633
50
43.9602346
51
90.0107964
0
ARC
8
DEFAULT_255_2_778
10
4.5526988
20
105.2196193
40
0.2513695
50
0.0168037
51
44.2164745
0
ARC
8
DEFAULT_255_2_778
10
4.5549178
20
105.2196936
40
0.2491504
50
359.4764892
51
359.9998643
0
ARC
8
DEFAULT_255_2_778
10
5.8210832
20
109.8443596
40
0.9802596
50
119.4545071
51
180.1567652
0
ARC
8
DEFAULT_255_2_778
10
5.8380456
20
109.8417155
40
0.9972185
50
180.0021806
51
184.3938169
0
ARC
8
DEFAULT_255_2_778
10
5.6143569
20
109.7716103
40
1.1251186
50
359.6795272
51
359.9999381
0
ARC
8
DEFAULT_255_2_778
10
5.6314338
20
109.7746973
40
1.108046
50
359.8403114
51
56.4285004
0
ARC
8
DEFAULT_255_2_778
10
6.3315612
20
106.2826842
40
0.442457
50
9.8029746
51
89.5652162
0
ARC
8
DEFAULT_255_2_778
10
6.3350126
20
106.2878505
40
0.437278
50
90.0123021
51
97.6689973
0
ARC
8
DEFAULT_255_2_778
10
5.2488648
20
106.2876432
40
0.437422
50
82.394559
51
89.9887917
0
ARC
8
DEFAULT_255_2_778
10
5.252072
20
106.2824663
40
0.4426099
50
90.404098
51
170.1718229
0
ARC
8
DEFAULT_255_2_778
10
22.9206998
20
100.3253269
40
2.2792589
50
359.9519933
51
359.9999998
0
ARC
8
DEFAULT_255_2_778
10
22.6469472
20
100.3253855
40
2.5530114
50
359.9986856
51
44.4591856
0
ARC
8
DEFAULT_255_2_778
10
22.7044443
20
100.3823315
40
2.4720878
50
44.4505135
51
89.9291378
0
LINE
8
DEFAULT_255_2_778
10
22.7075017
20
102.8544173
11
22.7067579
21
102.8544172
0
ARC
8
DEFAULT_255_2_778
10
22.6600015
20
8.2126127
40
2.5400399
50
339.4527162
51
359.5354205
0
ARC
8
DEFAULT_255_2_778
10
22.7110475
20
8.1864324
40
2.4830613
50
279.9746203
51
339.6049767
0
ARC
8
DEFAULT_255_2_778
10
22.7319288
20
8.1503506
40
2.4439497
50
269.9797552
51
279.6389997
0
ARC
8
DEFAULT_255_2_778
10
22.7310578
20
8.1849311
40
2.4785302
50
269.4451894
51
270.0001725
0
LINE
8
DEFAULT_255_2_778
10
22.7070579
20
7.9057172
11
22.7078016
21
7.9057171
0
ARC
8
DEFAULT_255_2_778
10
22.7046718
20
10.3779753
40
2.4722602
50
270.0725335
51
315.5478094
0
ARC
8
DEFAULT_255_2_778
10
22.6472472
20
10.4347489
40
2.5530113
50
315.5408144
51
0.0013144
0
ARC
8
DEFAULT_255_2_778
10
22.9209998
20
10.4348074
40
2.2792588
50
2e-7
51
0.0480067
0
ARC
8
DEFAULT_255_2_778
10
22.5571908
20
100.3801719
40
0.7290677
50
359.9249736
51
359.9849691
0
ARC
8
DEFAULT_255_2_778
10
22.7833193
20
100.3799294
40
0.5029392
50
0.0058372
51
44.4159059
0
ARC
8
DEFAULT_255_2_778
10
22.7951097
20
100.3914922
40
0.4864251
50
44.4150308
51
89.9589928
0
ARC
8
DEFAULT_255_2_778
10
2.675506
20
100.3914922
40
0.4864251
50
90.0410072
51
135.5849692
0
ARC
8
DEFAULT_255_2_778
10
2.6872964
20
100.3799294
40
0.5029391
50
135.5840941
51
179.9941628
0
ARC
8
DEFAULT_255_2_778
10
2.913425
20
100.3801719
40
0.7290677
50
180.0150309
51
180.0750264
0
ARC
8
DEFAULT_255_2_778
10
2.913425
20
12.1129625
40
0.7290678
50
179.9249736
51
179.9849691
0
ARC
8
DEFAULT_255_2_778
10
2.6872964
20
12.113205
40
0.5029392
50
180.0058372
51
224.4159059
0
ARC
8
DEFAULT_255_2_778
10
2.6756786
20
12.1020523
40
0.4868354
50
224.4352995
51
269.93872
0
ARC
8
DEFAULT_255_2_778
10
22.7949372
20
12.1020523
40
0.4868354
50
270.06128
51
315.5647005
0
ARC
8
DEFAULT_255_2_778
10
22.7833193
20
12.113205
40
0.5029391
50
315.5840941
51
359.9941628
0
ARC
8
DEFAULT_255_2_778
10
22.5571907
20
12.1129625
40
0.7290678
50
0.0150309
51
0.0750264
0
ARC
8
DEFAULT_255_2_778
10
4.508449
20
7.3206711
40
0.2989179
50
279.6891953
51
351.4668546
0
ARC
8
DEFAULT_255_2_778
10
2.6086686
20
5.5610258
40
1.464998
50
90.1725012
51
138.0412261
0
ARC
8
DEFAULT_255_2_778
10
2.6432423
20
5.5303703
40
1.5112041
50
138.0533431
51
179.999771
0
ARC
8
DEFAULT_255_2_778
10
2.6449425
20
5.5303949
40
1.5129043
50
180.0007016
51
184.9399142
0
LINE
8
DEFAULT_255_2_778
10
2.1843579
20
31.5338172
11
2.1843579
21
31.0351172
0
LINE
8
DEFAULT_255_2_778
10
6.7682579
20
6.0843172
11
6.7447579
21
3.3385172
0
LINE
8
DEFAULT_255_2_778
10
5.3070579
20
5.7716172
11
6.2769579
21
5.7716172
0
LINE
8
DEFAULT_255_2_778
10
6.7844579
20
7.8396172
11
6.7796579
21
7.2726172
0
LINE
8
DEFAULT_255_2_778
10
6.7796579
20
7.2726172
11
6.7796579
21
7.2752172
0
LINE
8
DEFAULT_255_2_778
10
6.7796579
20
7.2752172
11
6.7399579
21
2.7273172
0
LINE
8
DEFAULT_255_2_778
10
6.2446579
20
1.7946172
11
6.2446579
21
1.6541172
0
LINE
8
DEFAULT_255_2_778
10
6.2446579
20
1.6541172
11
5.3398579
21
1.6541172
0
LINE
8
DEFAULT_255_2_778
10
5.3398579
20
1.6541172
11
5.3398579
21
1.7946172
0
LINE
8
DEFAULT_255_2_778
10
4.8445579
20
2.7273172
11
4.8048579
21
7.2726172
0
LINE
8
DEFAULT_255_2_778
10
4.8048579
20
7.2726172
11
4.8000579
21
7.8396172
0
LINE
8
DEFAULT_255_2_778
10
6.2941579
20
7.8396172
11
6.2446579
21
1.7946172
0
LINE
8
DEFAULT_255_2_778
10
6.2446579
20
1.7946172
11
5.3398579
21
1.7946172
0
LINE
8
DEFAULT_255_2_778
10
5.3398579
20
1.7946172
11
5.2903579
21
7.8396172
0
LINE
8
DEFAULT_255_2_778
10
10.4452579
20
107.0938172
11
10.4452579
21
107.1102172
0
LINE
8
DEFAULT_255_2_778
10
10.4452579
20
107.1102172
11
10.0803579
21
111.3604172
0
LINE
8
DEFAULT_255_2_778
10
8.6137579
20
112.7466172
11
2.9694579
21
112.7466172
0
LINE
8
DEFAULT_255_2_778
10
2.9694579
20
112.7466172
11
8.6137579
21
112.7463172
0
LINE
8
DEFAULT_255_2_778
10
1.5025579
20
111.3604172
11
1.5025579
21
111.3422172
0
LINE
8
DEFAULT_255_2_778
10
1.5025579
20
111.3422172
11
1.3379579
21
109.2874172
0
LINE
8
DEFAULT_255_2_778
10
7.1728579
20
105.4679172
11
7.1728579
21
104.6533172
0
LINE
8
DEFAULT_255_2_778
10
7.1728579
20
104.6533172
11
7.1728579
21
104.6644172
0
LINE
8
DEFAULT_255_2_778
10
6.7836579
20
104.6533172
11
6.7788579
21
105.2203172
0
LINE
8
DEFAULT_255_2_778
10
6.7788579
20
105.2203172
11
6.7788579
21
105.2176172
0
LINE
8
DEFAULT_255_2_778
10
7.0241579
20
105.4679172
11
8.9786579
21
105.4679172
0
LINE
8
DEFAULT_255_2_778
10
10.4452579
20
107.0938172
11
10.2552579
21
109.2980172
0
LINE
8
DEFAULT_255_2_778
10
9.2776579
20
109.1676172
11
6.9900579
21
109.1676172
0
LINE
8
DEFAULT_255_2_778
10
16.9359579
20
5.7062172
11
16.9293579
21
5.7062172
0
LINE
8
DEFAULT_255_2_778
10
16.9293579
20
5.7062172
11
16.9237579
21
5.7062172
0
LINE
8
DEFAULT_255_2_778
10
21.0177579
20
5.7062172
11
21.0121579
21
5.7062172
0
LINE
8
DEFAULT_255_2_778
10
21.0121579
20
5.7062172
11
21.0055579
21
5.7062172
0
LINE
8
DEFAULT_255_2_778
10
10.4404579
20
5.7062172
11
22.7070579
21
5.7062172
0
LINE
8
DEFAULT_255_2_778
10
12.7351579
20
102.4046172
11
12.9844579
21
102.4046172
0
LINE
8
DEFAULT_255_2_778
10
12.9844579
20
102.6453172
11
12.7351579
21
102.6453172
0
LINE
8
DEFAULT_255_2_778
10
12.9844579
20
104.2942172
11
12.7351579
21
104.2942172
0
LINE
8
DEFAULT_255_2_778
10
12.9844579
20
104.3350172
11
12.7351579
21
104.3350172
0
LINE
8
DEFAULT_255_2_778
10
12.7351579
20
104.4112172
11
12.9844579
21
104.4112172
0
LINE
8
DEFAULT_255_2_778
10
12.9844579
20
11.2821172
11
12.9844579
21
11.3043172
0
LINE
8
DEFAULT_255_2_778
10
12.9844579
20
11.3043172
11
12.7351579
21
11.3043172
0
LINE
8
DEFAULT_255_2_778
10
12.7351579
20
11.3043172
11
12.7351579
21
11.2821172
0
LINE
8
DEFAULT_255_2_778
10
12.9844579
20
8.0819172
11
12.7351579
21
8.0819172
0
LINE
8
DEFAULT_255_2_778
10
6.7788579
20
105.2224172
11
6.7788579
21
105.2197172
0
LINE
8
DEFAULT_255_2_778
10
4.8042579
20
105.2197172
11
4.8042579
21
105.2224172
0
LINE
8
DEFAULT_255_2_778
10
12.9846579
20
102.8541172
11
12.9846579
21
102.6094172
0
LINE
8
DEFAULT_255_2_778
10
12.9846579
20
9.8835172
11
12.9846579
21
9.6387172
0
LINE
8
DEFAULT_255_2_778
10
0.2703579
20
104.0836172
11
0.2703579
21
100.3157172
0
LINE
8
DEFAULT_255_2_778
10
2.9691579
20
-0.2531828
11
8.6137579
21
-0.2531828
0
LINE
8
DEFAULT_255_2_778
10
10.0803579
20
1.1329172
11
10.0803579
21
1.1512172
0
LINE
8
DEFAULT_255_2_778
10
10.0803579
20
1.1512172
11
10.2565579
21
3.1988172
0
LINE
8
DEFAULT_255_2_778
10
4.5981579
20
2.7339172
11
4.5693579
21
6.0716172
0
LINE
8
DEFAULT_255_2_778
10
6.7823579
20
104.7951172
11
6.9233579
21
104.7951172
0
LINE
8
DEFAULT_255_2_778
10
2.7635579
20
105.4679172
11
2.7635579
21
104.5427172
0
LINE
8
DEFAULT_255_2_778
10
2.7635579
20
104.5427172
11
12.7354579
21
104.5427172
0
LINE
8
DEFAULT_255_2_778
10
12.7354579
20
104.5427172
11
12.7354579
21
102.8541172
0
LINE
8
DEFAULT_255_2_778
10
4.8159579
20
106.3604172
11
4.8016579
21
104.6535172
0
LINE
8
DEFAULT_255_2_778
10
7.1728579
20
104.6530172
11
4.7820579
21
104.6530172
0
LINE
8
DEFAULT_255_2_778
10
7.1728579
20
7.8396172
11
4.7820579
21
7.8396172
0
LINE
8
DEFAULT_255_2_778
10
4.7820579
20
7.8396172
11
4.7820579
21
7.1998172
0
LINE
8
DEFAULT_255_2_778
10
12.7351579
20
9.8832172
11
2.7635579
21
9.8832172
0
LINE
8
DEFAULT_255_2_778
10
2.7635579
20
9.8832172
11
2.7635579
21
7.9047172
0
LINE
8
DEFAULT_255_2_778
10
2.7635579
20
7.9047172
11
12.7354579
21
7.9047172
0
LINE
8
DEFAULT_255_2_778
10
12.7354579
20
7.9047172
11
12.7354579
21
9.6385172
0
LINE
8
DEFAULT_255_2_778
10
12.7354579
20
101.2105172
11
12.7354579
21
101.1205172
0
LINE
8
DEFAULT_255_2_778
10
2.7632579
20
102.8541172
11
12.7351579
21
102.8541172
0
LINE
8
DEFAULT_255_2_778
10
12.7351579
20
102.8541172
11
12.7351579
21
102.6094172
0
LINE
8
DEFAULT_255_2_778
10
12.7351579
20
102.6094172
11
2.7635579
21
102.6094172
0
LINE
8
DEFAULT_255_2_778
10
2.7635579
20
102.6094172
11
2.7635579
21
104.5427172
0
LINE
8
DEFAULT_255_2_778
10
0.3288579
20
102.5916172
11
0.2706579
21
100.2818172
0
LINE
8
DEFAULT_255_2_778
10
0.2706579
20
100.2818172
11
0.2706579
21
12.2116172
0
LINE
8
DEFAULT_255_2_778
10
2.7635579
20
9.6393172
11
12.7354579
21
9.6393172
0
LINE
8
DEFAULT_255_2_778
10
12.7354579
20
9.6393172
11
12.7354579
21
11.2823172
0
LINE
8
DEFAULT_255_2_778
10
12.7354579
20
11.2823172
11
2.6209579
21
11.2823172
0
LINE
8
DEFAULT_255_2_778
10
1.8875579
20
12.0274172
11
1.8875579
21
100.4657172
0
LINE
8
DEFAULT_255_2_778
10
1.8875579
20
100.4657172
11
1.9761579
21
100.3757172
0
LINE
8
DEFAULT_255_2_778
10
1.9761579
20
100.3757172
11
1.9761579
21
12.1174172
0
LINE
8
DEFAULT_255_2_778
10
2.7095579
20
11.3723172
11
22.7610579
21
11.3723172
0
LINE
8
DEFAULT_255_2_778
10
23.4944579
20
12.1174172
11
23.4944579
21
100.3757172
0
LINE
8
DEFAULT_255_2_778
10
23.4944579
20
100.3757172
11
23.5830579
21
100.4657172
0
LINE
8
DEFAULT_255_2_778
10
23.5830579
20
100.4657172
11
23.5830579
21
12.0271172
0
LINE
8
DEFAULT_255_2_778
10
22.8496579
20
11.2821172
11
12.9844579
21
11.2821172
0
LINE
8
DEFAULT_255_2_778
10
12.9844579
20
11.2821172
11
12.9844579
21
9.8835172
0
LINE
8
DEFAULT_255_2_778
10
12.9844579
20
9.8835172
11
22.7067579
21
9.8835172
0
LINE
8
DEFAULT_255_2_778
10
24.9544579
20
12.2113172
11
24.9544579
21
100.2818172
0
LINE
8
DEFAULT_255_2_778
10
24.9544579
20
100.2818172
11
25.1996579
21
100.2818172
0
LINE
8
DEFAULT_255_2_778
10
25.1996579
20
100.2818172
11
25.1996579
21
102.0572172
0
LINE
8
DEFAULT_255_2_778
10
22.7067579
20
104.5427172
11
22.7067579
21
102.8541172
0
LINE
8
DEFAULT_255_2_778
10
22.7067579
20
102.8541172
11
12.9844579
21
102.8541172
0
LINE
8
DEFAULT_255_2_778
10
12.9844579
20
102.8541172
11
12.9844579
21
104.5427172
0
LINE
8
DEFAULT_255_2_778
10
12.9844579
20
104.5427172
11
22.7067579
21
104.5427172
0
LINE
8
DEFAULT_255_2_778
10
22.7067579
20
104.5427172
11
22.7067579
21
105.1380172
0
LINE
8
DEFAULT_255_2_778
10
0.2706579
20
10.4537172
11
0.2706579
21
10.8529172
0
LINE
8
DEFAULT_255_2_778
10
0.2706579
20
10.8529172
11
0.2706579
21
12.2116172
0
LINE
8
DEFAULT_255_2_778
10
0.2706579
20
12.2116172
11
0.5159579
21
12.2116172
0
LINE
8
DEFAULT_255_2_778
10
0.5159579
20
12.2116172
11
0.5159579
21
100.2818172
0
LINE
8
DEFAULT_255_2_778
10
0.5159579
20
100.2818172
11
0.2703579
21
100.2818172
0
LINE
8
DEFAULT_255_2_778
10
6.9847579
20
2.7336172
11
7.0135579
21
6.0714172
0
LINE
8
DEFAULT_255_2_778
10
7.0135579
20
6.0714172
11
7.0241579
21
7.0252172
0
LINE
8
DEFAULT_255_2_778
10
7.0241579
20
7.0252172
11
7.0241579
21
7.0244172
0
LINE
8
DEFAULT_255_2_778
10
7.0241579
20
7.0244172
11
8.9786579
21
7.0255172
0
LINE
8
DEFAULT_255_2_778
10
10.4452579
20
5.3996172
11
10.2552579
21
3.1953172
0
LINE
8
DEFAULT_255_2_778
10
4.5587579
20
7.0244172
11
4.5587579
21
7.0252172
0
LINE
8
DEFAULT_255_2_778
10
4.8146579
20
6.0843172
11
4.8381579
21
3.3385172
0
LINE
8
DEFAULT_255_2_778
10
4.5928579
20
109.1673172
11
2.3053579
21
109.1673172
0
LINE
8
DEFAULT_255_2_778
10
1.3276579
20
109.2978172
11
1.1376579
21
107.0935172
0
LINE
8
DEFAULT_255_2_778
10
2.6042579
20
105.4687172
11
4.5587579
21
105.4676172
0
LINE
8
DEFAULT_255_2_778
10
4.8040579
20
105.2174172
11
4.8040579
21
105.2200172
0
LINE
8
DEFAULT_255_2_778
10
4.8040579
20
105.2200172
11
4.7992579
21
104.6530172
0
LINE
8
DEFAULT_255_2_778
10
6.2933579
20
104.6530172
11
6.2438579
21
110.6979172
0
LINE
8
DEFAULT_255_2_778
10
6.2438579
20
110.6979172
11
5.3390579
21
110.6979172
0
LINE
8
DEFAULT_255_2_778
10
5.3390579
20
110.6979172
11
5.2895579
21
104.6530172
0
LINE
8
DEFAULT_255_2_778
10
4.8437579
20
109.7653172
11
4.8148579
21
106.4085172
0
LINE
8
DEFAULT_255_2_778
10
4.8148579
20
106.4085172
11
4.8053579
21
105.3282172
0
LINE
8
DEFAULT_255_2_778
10
4.8053579
20
105.3282172
11
4.8042579
21
105.2163172
0
LINE
8
DEFAULT_255_2_778
10
4.8042579
20
105.2163172
11
4.8042579
21
105.2174172
0
LINE
8
DEFAULT_255_2_778
10
6.7682579
20
106.4085172
11
6.7394579
21
109.7653172
0
LINE
8
DEFAULT_255_2_778
10
6.7791579
20
105.2174172
11
6.7675579
21
106.3580172
0
LINE
8
DEFAULT_255_2_778
10
6.2766579
20
106.7212172
11
5.3067579
21
106.7212172
0
LINE
8
DEFAULT_255_2_778
10
10.4407579
20
106.7869172
11
14.1094579
21
106.7869172
0
LINE
8
DEFAULT_255_2_778
10
14.1094579
20
106.7869172
11
14.2075579
21
106.7869172
0
LINE
8
DEFAULT_255_2_778
10
14.2075579
20
106.7869172
11
15.8024579
21
106.7869172
0
LINE
8
DEFAULT_255_2_778
10
15.8024579
20
106.7869172
11
15.9159579
21
106.7869172
0
LINE
8
DEFAULT_255_2_778
10
15.9159579
20
106.7869172
11
16.0271579
21
106.7869172
0
LINE
8
DEFAULT_255_2_778
10
16.0271579
20
106.7869172
11
16.1358579
21
106.7869172
0
LINE
8
DEFAULT_255_2_778
10
16.1358579
20
106.7869172
11
16.2422579
21
106.7869172
0
LINE
8
DEFAULT_255_2_778
10
16.2422579
20
106.7869172
11
16.3462579
21
106.7869172
0
LINE
8
DEFAULT_255_2_778
10
16.3462579
20
106.7869172
11
16.4478579
21
106.7869172
0
LINE
8
DEFAULT_255_2_778
10
16.4478579
20
106.7869172
11
16.6356579
21
106.7869172
0
LINE
8
DEFAULT_255_2_778
10
16.6356579
20
106.7869172
11
16.7983579
21
106.7869172
0
LINE
8
DEFAULT_255_2_778
10
16.7983579
20
106.7869172
11
16.9359579
21
106.7869172
0
LINE
8
DEFAULT_255_2_778
10
21.0060579
20
106.7869172
11
21.0716579
21
106.7869172
0
LINE
8
DEFAULT_255_2_778
10
21.0716579
20
106.7869172
11
21.1436579
21
106.7869172
0
LINE
8
DEFAULT_255_2_778
10
21.1436579
20
106.7869172
11
21.2217579
21
106.7869172
0
LINE
8
DEFAULT_255_2_778
10
21.2217579
20
106.7869172
11
21.3058579
21
106.7869172
0
LINE
8
DEFAULT_255_2_778
10
21.3058579
20
106.7869172
11
21.3960579
21
106.7869172
0
LINE
8
DEFAULT_255_2_778
10
21.3960579
20
106.7869172
11
21.4926579
21
106.7869172
0
LINE
8
DEFAULT_255_2_778
10
21.4926579
20
106.7869172
11
21.6966579
21
106.7869172
0
LINE
8
DEFAULT_255_2_778
10
21.6966579
20
106.7869172
11
21.9101579
21
106.7869172
0
LINE
8
DEFAULT_255_2_778
10
21.9101579
20
106.7869172
11
22.1331579
21
106.7869172
0
LINE
8
DEFAULT_255_2_778
10
22.1331579
20
106.7869172
11
22.7073579
21
106.7869172
0
LINE
8
DEFAULT_255_2_778
10
22.7073579
20
106.7869172
11
22.7073579
21
106.6932172
0
LINE
8
DEFAULT_255_2_778
10
22.7073579
20
106.6932172
11
22.7073579
21
106.4987172
0
LINE
8
DEFAULT_255_2_778
10
22.7073579
20
106.4987172
11
22.7073579
21
105.3319172
0
LINE
8
DEFAULT_255_2_778
10
22.7073579
20
105.3319172
11
22.7073579
21
105.1374172
0
LINE
8
DEFAULT_255_2_778
10
25.2002579
20
104.2511172
11
25.2002579
21
102.0569172
0
LINE
8
DEFAULT_255_2_778
10
7.1728579
20
105.0366172
11
6.9236579
21
105.0366172
0
LINE
8
DEFAULT_255_2_778
10
6.9236579
20
105.0366172
11
6.9236579
21
104.6533172
0
LINE
8
DEFAULT_255_2_778
10
16.9237579
20
106.7869172
11
16.9357579
21
106.7869172
0
LINE
8
DEFAULT_255_2_778
10
16.9357579
20
106.7869172
11
21.0055579
21
106.7869172
0
LINE
8
DEFAULT_255_2_778
10
21.0055579
20
106.7869172
11
21.0121579
21
106.7869172
0
LINE
8
DEFAULT_255_2_778
10
21.0121579
20
106.7869172
11
21.0177579
21
106.7869172
0
LINE
8
DEFAULT_255_2_778
10
7.1728579
20
7.8290172
11
7.1728579
21
7.8401172
0
LINE
8
DEFAULT_255_2_778
10
7.1728579
20
7.8401172
11
7.1728579
21
7.0255172
0
LINE
8
DEFAULT_255_2_778
10
12.7351579
20
100.8779172
11
12.7351579
21
101.1211172
0
LINE
8
DEFAULT_255_2_778
10
12.7351579
20
101.1211172
11
2.7093579
21
101.1211172
0
LINE
8
DEFAULT_255_2_778
10
2.7093579
20
101.1211172
11
2.6206579
21
101.2110172
0
LINE
8
DEFAULT_255_2_778
10
2.6206579
20
101.2110172
11
12.7351579
21
101.2110172
0
LINE
8
DEFAULT_255_2_778
10
12.7351579
20
101.2110172
11
12.7351579
21
102.6096172
0
LINE
8
DEFAULT_255_2_778
10
22.7067579
20
102.8544172
11
22.7067579
21
102.6096172
0
LINE
8
DEFAULT_255_2_778
10
22.7067579
20
102.6096172
11
12.9846579
21
102.6096172
0
LINE
8
DEFAULT_255_2_778
10
12.9846579
20
102.6096172
11
12.9846579
21
101.2110172
0
LINE
8
DEFAULT_255_2_778
10
12.9846579
20
101.2110172
11
22.8496579
21
101.2110172
0
LINE
8
DEFAULT_255_2_778
10
22.8496579
20
101.2110172
11
22.7610579
21
101.1211172
0
LINE
8
DEFAULT_255_2_778
10
22.7610579
20
101.1211172
11
12.7351579
21
101.1211172
0
LINE
8
DEFAULT_255_2_778
10
12.7351579
20
101.1211172
11
12.7351579
21
101.1891172
0
LINE
8
DEFAULT_255_2_778
10
12.7351579
20
101.1891172
11
12.9844579
21
101.1891172
0
LINE
8
DEFAULT_255_2_778
10
12.9844579
20
101.1891172
11
12.9844579
21
101.2113172
0
LINE
8
DEFAULT_255_2_778
10
25.1999579
20
100.2821172
11
25.1999579
21
8.1920172
0
LINE
8
DEFAULT_255_2_778
10
22.7070579
20
5.7065172
11
22.7070579
21
9.6395172
0
LINE
8
DEFAULT_255_2_778
10
22.7070579
20
9.6395172
11
12.9846579
21
9.6395172
0
LINE
8
DEFAULT_255_2_778
10
12.9846579
20
9.6395172
11
12.9846579
21
7.9057172
0
LINE
8
DEFAULT_255_2_778
10
12.9846579
20
7.9057172
11
22.7070579
21
7.9057172
0
LINE
8
DEFAULT_255_2_778
10
23.2862579
20
16.5743172
11
23.2862579
21
100.3792172
0
LINE
8
DEFAULT_255_2_778
10
22.7954579
20
100.8779172
11
2.6751579
21
100.8779172
0
LINE
8
DEFAULT_255_2_778
10
2.1843579
20
100.3792172
11
2.1843579
21
95.8627172
0
LINE
8
DEFAULT_255_2_778
10
2.1843579
20
95.8627172
11
2.1843579
21
12.1139172
0
LINE
8
DEFAULT_255_2_778
10
2.6751579
20
11.6152172
11
22.7954579
21
11.6152172
0
LINE
8
DEFAULT_255_2_778
10
23.2862579
20
12.1139172
11
23.2862579
21
16.5743172
0
LINE
8
DEFAULT_255_2_778
10
6.7788579
20
7.2742172
11
6.7788579
21
7.2715172
0
LINE
8
DEFAULT_255_2_778
10
1.1321579
20
5.5306172
11
1.1321579
21
5.5142172
0
LINE
8
DEFAULT_255_2_778
10
1.1321579
20
5.5142172
11
1.1376579
21
5.3840172
0
LINE
8
DEFAULT_255_2_778
10
1.1376579
20
5.3840172
11
1.5025579
21
1.1517172
0
LINE
8
DEFAULT_255_2_778
10
4.5587579
20
7.0260172
11
2.6042579
21
7.0260172
0
LINE
8
DEFAULT_255_2_778
10
10.4510579
20
106.9633172
11
10.4510579
21
106.9797172
0
LINE
8
DEFAULT_255_2_778
10
10.4510579
20
106.9797172
11
10.4454579
21
107.1099172
0
ARC
8
DEFAULT_255_2_778
10
3.9780399
20
13.732216
40
0.8185722
50
75.9079615
51
90.8702453
0
ARC
8
DEFAULT_255_2_778
10
4.078293
20
14.1254147
40
0.4127996
50
51.705322
51
76.1161517
0
ARC
8
DEFAULT_255_2_778
10
4.1096173
20
14.185621
40
0.3463695
50
1.998488
51
49.599765
0
ARC
8
DEFAULT_255_2_778
10
3.8753587
20
14.1503075
40
0.5823491
50
359.9297731
51
4.6679819
0
ARC
8
DEFAULT_255_2_778
10
4.1530703
20
14.14483
40
0.3046743
50
323.380831
51
0.8958885
0
ARC
8
DEFAULT_255_2_778
10
4.0868822
20
14.1977237
40
0.3893602
50
292.2650247
51
322.9433848
0
ARC
8
DEFAULT_255_2_778
10
4.146668
20
13.4984415
40
0.350124
50
36.7223192
51
75.4872663
0
ARC
8
DEFAULT_255_2_778
10
4.1268618
20
13.4893503
40
0.3714634
50
358.5566595
51
36.0195865
0
ARC
8
DEFAULT_255_2_778
10
4.0720136
20
13.4651846
40
0.426451
50
325.7112327
51
1.9900745
0
ARC
8
DEFAULT_255_2_778
10
4.119009
20
13.4445674
40
0.3761264
50
311.2299351
51
324.2728657
0
ARC
8
DEFAULT_255_2_778
10
4.0654894
20
13.5193032
40
0.4676936
50
277.3742662
51
310.126502
0
ARC
8
DEFAULT_255_2_778
10
4.0000653
20
13.8623652
40
0.8165815
50
269.7152703
51
278.8374376
0
ARC
8
DEFAULT_255_2_778
10
4.0132851
20
13.543106
40
0.3351874
50
267.6784363
51
301.8887925
0
ARC
8
DEFAULT_255_2_778
10
4.0509459
20
13.466276
40
0.2502061
50
303.8608933
51
311.9510273
0
ARC
8
DEFAULT_255_2_778
10
4.0469114
20
13.4648131
40
0.2518464
50
312.8561939
51
3.0227925
0
ARC
8
DEFAULT_255_2_778
10
3.999206
20
13.4911188
40
0.2994848
50
357.5073245
51
30.3250153
0
ARC
8
DEFAULT_255_2_778
10
4.0624346
20
13.5071884
40
0.2374811
50
34.684921
51
84.2883901
0
ARC
8
DEFAULT_255_2_778
10
4.0059738
20
13.2384995
40
0.5113033
50
80.9875435
51
90.3436252
0
ARC
8
DEFAULT_255_2_778
10
3.9855395
20
14.236279
40
0.3276689
50
267.6156097
51
302.6710842
0
ARC
8
DEFAULT_255_2_778
10
4.0215802
20
14.1641388
40
0.2476369
50
304.6621707
51
309.8037155
0
ARC
8
DEFAULT_255_2_778
10
4.0403562
20
14.1412777
40
0.2180546
50
309.8589666
51
2.4749034
0
ARC
8
DEFAULT_255_2_778
10
4.0165993
20
14.1638128
40
0.241964
50
356.8919425
51
34.3711127
0
ARC
8
DEFAULT_255_2_778
10
4.0839813
20
14.1999927
40
0.1661228
50
37.1927573
51
52.1090634
0
ARC
8
DEFAULT_255_2_778
10
4.0201649
20
14.0971982
40
0.2867243
50
54.661646
51
85.328725
0
ARC
8
DEFAULT_255_2_778
10
3.9685843
20
13.7654592
40
0.6220406
50
83.0813393
51
90.255784
0
ARC
8
DEFAULT_255_2_778
10
8.4232938
20
13.5121062
40
0.4796637
50
316.0812931
51
1.8503009
0
ARC
8
DEFAULT_255_2_778
10
8.4056285
20
13.5466254
40
0.5164862
50
276.4954656
51
314.6820838
0
ARC
8
DEFAULT_255_2_778
10
8.3538158
20
13.7971042
40
0.7715655
50
274.0796442
51
278.2144358
0
ARC
8
DEFAULT_255_2_778
10
8.3427924
20
13.6838121
40
0.658553
50
248.184178
51
271.1585191
0
ARC
8
DEFAULT_255_2_778
10
8.2809399
20
13.509357
40
0.473664
50
227.74076
51
247.2879365
0
ARC
8
DEFAULT_255_2_778
10
8.2764038
20
13.4967271
40
0.4612946
50
181.7331757
51
227.1027921
0
ARC
8
DEFAULT_255_2_778
10
8.5192263
20
13.5307164
40
0.7055368
50
180.4078883
51
183.8962423
0
ARC
8
DEFAULT_255_2_778
10
8.3930558
20
13.5183005
40
0.383286
50
177.9825403
51
209.1648625
0
ARC
8
DEFAULT_255_2_778
10
8.2983425
20
13.4752782
40
0.2797465
50
210.9240862
51
224.8188729
0
ARC
8
DEFAULT_255_2_778
10
8.3227003
20
13.5127375
40
0.3235651
50
226.4840367
51
267.9309273
0
ARC
8
DEFAULT_255_2_778
10
8.3555959
20
13.7435453
40
0.555952
50
265.400935
51
270.0733216
0
ARC
8
DEFAULT_255_2_778
10
8.3693359
20
13.5947693
40
0.407384
50
268.1673067
51
295.8733434
0
ARC
8
DEFAULT_255_2_778
10
8.421575
20
13.4694891
40
0.2719736
50
297.4888586
51
315.1246886
0
ARC
8
DEFAULT_255_2_778
10
8.3769331
20
13.5004893
40
0.325621
50
316.8017548
51
358.7750492
0
ARC
8
DEFAULT_255_2_778
10
8.1520213
20
13.5303173
40
0.5516863
50
356.1764096
51
0.0494761
0
LINE
8
DEFAULT_255_2_778
10
3.9957074
20
13.0460937
11
3.4737074
21
13.0460937
0
LINE
8
DEFAULT_255_2_778
10
3.4737074
20
13.0460937
11
3.4737074
21
14.5506937
0
LINE
8
DEFAULT_255_2_778
10
3.4737074
20
14.5506937
11
3.9656074
21
14.5506937
0
LINE
8
DEFAULT_255_2_778
10
3.9960074
20
13.0457937
11
3.9957074
21
13.0460937
0
LINE
8
DEFAULT_255_2_778
10
4.0029074
20
13.7497937
11
3.6721074
21
13.7497937
0
LINE
8
DEFAULT_255_2_778
10
3.6721074
20
13.7497937
11
3.6721074
21
13.2081937
0
LINE
8
DEFAULT_255_2_778
10
3.6721074
20
13.2081937
11
3.9997074
21
13.2081937
0
LINE
8
DEFAULT_255_2_778
10
4.0029074
20
13.7497937
11
4.0029074
21
13.7497937
0
LINE
8
DEFAULT_255_2_778
10
3.6721074
20
14.3874937
11
3.6721074
21
13.9088937
0
LINE
8
DEFAULT_255_2_778
10
3.6721074
20
13.9088937
11
3.9719074
21
13.9088937
0
LINE
8
DEFAULT_255_2_778
10
3.9658074
20
14.3874937
11
3.6724074
21
14.3874937
0
LINE
8
DEFAULT_255_2_778
10
3.6724074
20
14.3874937
11
3.6721074
21
14.3874937
0
LINE
8
DEFAULT_255_2_778
10
4.9196074
20
14.5506937
11
5.2824074
21
13.9738937
0
LINE
8
DEFAULT_255_2_778
10
5.2824074
20
13.9738937
11
5.6430074
21
14.5506937
0
LINE
8
DEFAULT_255_2_778
10
5.6430074
20
14.5506937
11
5.8766074
21
14.5506937
0
LINE
8
DEFAULT_255_2_778
10
5.8766074
20
14.5506937
11
5.4012074
21
13.8045937
0
LINE
8
DEFAULT_255_2_778
10
5.4012074
20
13.8045937
11
5.8880074
21
13.0460937
0
LINE
8
DEFAULT_255_2_778
10
5.8880074
20
13.0460937
11
5.6523074
21
13.0460937
0
LINE
8
DEFAULT_255_2_778
10
5.6523074
20
13.0460937
11
5.2824074
21
13.6331937
0
LINE
8
DEFAULT_255_2_778
10
5.2824074
20
13.6331937
11
4.9104074
21
13.0460937
0
LINE
8
DEFAULT_255_2_778
10
4.9104074
20
13.0460937
11
4.6757074
21
13.0460937
0
LINE
8
DEFAULT_255_2_778
10
4.6757074
20
13.0460937
11
5.1636074
21
13.8045937
0
LINE
8
DEFAULT_255_2_778
10
5.1636074
20
13.8045937
11
4.6871074
21
14.5506937
0
LINE
8
DEFAULT_255_2_778
10
4.6871074
20
14.5506937
11
4.9196074
21
14.5506937
0
LINE
8
DEFAULT_255_2_778
10
4.9196074
20
14.5506937
11
4.9196074
21
14.5506937
0
LINE
8
DEFAULT_255_2_778
10
6.4389074
20
13.7630937
11
6.4389074
21
13.6069937
0
LINE
8
DEFAULT_255_2_778
10
6.4389074
20
13.6069937
11
5.9346074
21
13.6069937
0
LINE
8
DEFAULT_255_2_778
10
5.9346074
20
13.6069937
11
5.9346074
21
13.7630937
0
LINE
8
DEFAULT_255_2_778
10
5.9346074
20
13.7630937
11
6.4389074
21
13.7630937
0
LINE
8
DEFAULT_255_2_778
10
6.4389074
20
13.7630937
11
6.4389074
21
13.7630937
0
LINE
8
DEFAULT_255_2_778
10
7.4123074
20
14.5506937
11
7.4123074
21
13.5513937
0
LINE
8
DEFAULT_255_2_778
10
7.4123074
20
13.5513937
11
7.6210074
21
13.5513937
0
LINE
8
DEFAULT_255_2_778
10
7.6210074
20
13.5513937
11
7.6210074
21
13.3952937
0
LINE
8
DEFAULT_255_2_778
10
7.6210074
20
13.3952937
11
7.4123074
21
13.3952937
0
LINE
8
DEFAULT_255_2_778
10
7.4123074
20
13.3952937
11
7.4123074
21
13.0460937
0
LINE
8
DEFAULT_255_2_778
10
7.4123074
20
13.0460937
11
7.2199074
21
13.0460937
0
LINE
8
DEFAULT_255_2_778
10
7.2199074
20
13.0460937
11
7.2199074
21
13.3952937
0
LINE
8
DEFAULT_255_2_778
10
7.2199074
20
13.3952937
11
6.5347074
21
13.3952937
0
LINE
8
DEFAULT_255_2_778
10
6.5347074
20
13.3952937
11
6.5347074
21
13.5079937
0
LINE
8
DEFAULT_255_2_778
10
6.5347074
20
13.5079937
11
7.2086074
21
14.5506937
0
LINE
8
DEFAULT_255_2_778
10
7.2086074
20
14.5506937
11
7.4123074
21
14.5506937
0
LINE
8
DEFAULT_255_2_778
10
7.4123074
20
14.5506937
11
7.4123074
21
14.5506937
0
LINE
8
DEFAULT_255_2_778
10
7.1974074
20
14.2480937
11
6.7519074
21
13.5513937
0
LINE
8
DEFAULT_255_2_778
10
6.7519074
20
13.5513937
11
7.2202074
21
13.5513937
0
LINE
8
DEFAULT_255_2_778
10
7.2202074
20
13.5513937
11
7.2202074
21
14.2892937
0
LINE
8
DEFAULT_255_2_778
10
7.2202074
20
14.2892937
11
7.1974074
21
14.2480937
0
LINE
8
DEFAULT_255_2_778
10
7.1974074
20
14.2480937
11
7.1974074
21
14.2480937
0
LINE
8
DEFAULT_255_2_778
10
8.7032074
20
14.5506937
11
8.9027074
21
14.5506937
0
LINE
8
DEFAULT_255_2_778
10
8.9027074
20
14.5506937
11
8.9027074
21
13.5275937
0
LINE
8
DEFAULT_255_2_778
10
8.4087074
20
13.0274937
11
8.3561074
21
13.0253937
0
LINE
8
DEFAULT_255_2_778
10
7.8137074
20
13.5256937
11
7.8137074
21
14.5509937
0
LINE
8
DEFAULT_255_2_778
10
7.8137074
20
14.5509937
11
8.0100074
21
14.5509937
0
LINE
8
DEFAULT_255_2_778
10
8.0100074
20
14.5509937
11
8.0100074
21
13.5317937
0
LINE
8
DEFAULT_255_2_778
10
8.7037074
20
13.5307937
11
8.7037074
21
14.5509937
0
LINE
8
DEFAULT_255_2_778
10
8.7037074
20
14.5509937
11
8.7032074
21
14.5506937
0
LINE
8
DEFAULT_255_2_778
10
10.2554813
20
14.5507427
11
10.2554813
21
14.3875427
0
LINE
8
DEFAULT_255_2_778
10
10.2554813
20
14.3875427
11
9.7718813
21
14.3875427
0
LINE
8
DEFAULT_255_2_778
10
9.7718813
20
14.3875427
11
9.7718813
21
13.0460427
0
LINE
8
DEFAULT_255_2_778
10
9.7718813
20
13.0460427
11
9.5744813
21
13.0460427
0
LINE
8
DEFAULT_255_2_778
10
9.5744813
20
13.0460427
11
9.5744813
21
14.3875427
0
LINE
8
DEFAULT_255_2_778
10
9.5744813
20
14.3875427
11
9.0918813
21
14.3875427
0
LINE
8
DEFAULT_255_2_778
10
9.0918813
20
14.3875427
11
9.0918813
21
14.5507427
0
LINE
8
DEFAULT_255_2_778
10
9.0918813
20
14.5507427
11
10.2554813
21
14.5507427
0
LINE
8
DEFAULT_255_2_778
10
10.2554813
20
14.5507427
11
10.2554813
21
14.5507427
0
LINE
8
DEFAULT_255_2_778
10
11.2363104
20
14.5507427
11
11.2363104
21
13.5514427
0
LINE
8
DEFAULT_255_2_778
10
11.2363104
20
13.5514427
11
11.4451104
21
13.5514427
0
LINE
8
DEFAULT_255_2_778
10
11.4451104
20
13.5514427
11
11.4451104
21
13.3953427
0
LINE
8
DEFAULT_255_2_778
10
11.4451104
20
13.3953427
11
11.2363104
21
13.3953427
0
LINE
8
DEFAULT_255_2_778
10
11.2363104
20
13.3953427
11
11.2363104
21
13.0460427
0
LINE
8
DEFAULT_255_2_778
10
11.2363104
20
13.0460427
11
11.0440104
21
13.0460427
0
LINE
8
DEFAULT_255_2_778
10
11.0440104
20
13.0460427
11
11.0440104
21
13.3953427
0
LINE
8
DEFAULT_255_2_778
10
11.0440104
20
13.3953427
11
10.3587104
21
13.3953427
0
LINE
8
DEFAULT_255_2_778
10
10.3587104
20
13.3953427
11
10.3587104
21
13.5080427
0
LINE
8
DEFAULT_255_2_778
10
10.3587104
20
13.5080427
11
11.0326104
21
14.5507427
0
LINE
8
DEFAULT_255_2_778
10
11.0326104
20
14.5507427
11
11.2363104
21
14.5507427
0
LINE
8
DEFAULT_255_2_778
10
11.2363104
20
14.5507427
11
11.2363104
21
14.5507427
0
LINE
8
DEFAULT_255_2_778
10
11.0215104
20
14.2480427
11
10.5759104
21
13.5514427
0
LINE
8
DEFAULT_255_2_778
10
10.5759104
20
13.5514427
11
11.0440104
21
13.5514427
0
LINE
8
DEFAULT_255_2_778
10
11.0440104
20
13.5514427
11
11.0440104
21
14.2893427
0
LINE
8
DEFAULT_255_2_778
10
11.0440104
20
14.2893427
11
11.0212104
21
14.2480427
0
LINE
8
DEFAULT_255_2_778
10
11.0212104
20
14.2480427
11
11.0215104
21
14.2480427
0
LINE
8
DEFAULT_255_2_778
10
12.7070813
20
14.5507427
11
12.7070813
21
14.3875427
0
LINE
8
DEFAULT_255_2_778
10
12.7070813
20
14.3875427
11
12.2234813
21
14.3875427
0
LINE
8
DEFAULT_255_2_778
10
12.2234813
20
14.3875427
11
12.2234813
21
13.0460427
0
LINE
8
DEFAULT_255_2_778
10
12.2234813
20
13.0460427
11
12.0260813
21
13.0460427
0
LINE
8
DEFAULT_255_2_778
10
12.0260813
20
13.0460427
11
12.0260813
21
14.3875427
0
LINE
8
DEFAULT_255_2_778
10
12.0260813
20
14.3875427
11
11.5434813
21
14.3875427
0
LINE
8
DEFAULT_255_2_778
10
11.5434813
20
14.3875427
11
11.5434813
21
14.5507427
0
LINE
8
DEFAULT_255_2_778
10
11.5434813
20
14.5507427
11
12.7070813
21
14.5507427
0
LINE
8
DEFAULT_255_2_778
10
12.7070813
20
14.5507427
11
12.7070813
21
14.5507427
0
ARC
8
DEFAULT_255_2_778
10
13.3685698
20
13.8659005
40
0.6848931
50
60.8176109
51
91.1254253
0
ARC
8
DEFAULT_255_2_778
10
13.4102159
20
13.954624
40
0.5871654
50
26.5158714
51
60.1442129
0
ARC
8
DEFAULT_255_2_778
10
13.219967
20
13.8618954
40
0.7988028
50
359.9857236
51
26.3751933
0
ARC
8
DEFAULT_255_2_778
10
12.9694192
20
13.8432216
40
1.0495132
50
0.302435
51
1.0086404
0
ARC
8
DEFAULT_255_2_778
10
13.1819793
20
13.7389248
40
0.8370511
50
338.4144241
51
0.9403071
0
ARC
8
DEFAULT_255_2_778
10
13.3352805
20
13.6886099
40
0.6760589
50
332.8073006
51
337.5998015
0
ARC
8
DEFAULT_255_2_778
10
13.4194304
20
13.6379272
40
0.5780865
50
299.2524993
51
333.4640129
0
ARC
8
DEFAULT_255_2_778
10
13.3571744
20
13.7681914
40
0.722221
50
270.1869734
51
298.5116683
0
ARC
8
DEFAULT_255_2_778
10
13.3369387
20
14.0111825
40
0.9654725
50
270.5922156
51
271.3408718
0
ARC
8
DEFAULT_255_2_778
10
13.3513439
20
13.7230358
40
0.5150573
50
268.4729001
51
296.9382406
0
ARC
8
DEFAULT_255_2_778
10
13.3938068
20
13.6190319
40
0.4032078
50
298.2544041
51
318.2915706
0
ARC
8
DEFAULT_255_2_778
10
13.3141355
20
13.6763381
40
0.5009183
50
319.4614472
51
351.5013144
0
ARC
8
DEFAULT_255_2_778
10
12.9438945
20
13.7516089
40
0.8784394
50
350.214482
51
0.349118
0
ARC
8
DEFAULT_255_2_778
10
13.0455053
20
13.8575294
40
0.7769173
50
359.0583544
51
16.7830781
0
ARC
8
DEFAULT_255_2_778
10
13.3430606
20
13.9445369
40
0.4669205
50
17.1042586
51
39.7751168
0
ARC
8
DEFAULT_255_2_778
10
13.3881112
20
13.9701923
40
0.4159823
50
41.0292327
51
88.6940272
0
ARC
8
DEFAULT_255_2_778
10
13.3544435
20
13.7318231
40
0.6556648
50
86.2267036
51
89.4866688
0
ARC
8
DEFAULT_255_2_778
10
13.4231007
20
14.9837818
40
1.8332886
50
318.1927057
51
323.5221614
0
ARC
8
DEFAULT_255_2_778
10
14.3259575
20
14.3176365
40
0.7112829
50
323.4319123
51
331.2264788
0
ARC
8
DEFAULT_255_2_778
10
14.6374071
20
14.1467104
40
0.3560132
50
331.2113275
51
359.7828956
0
ARC
8
DEFAULT_255_2_778
10
14.7232775
20
14.1554073
40
0.270327
50
357.8702806
51
42.7084364
0
ARC
8
DEFAULT_255_2_778
10
14.7428989
20
14.1647723
40
0.2496396
50
44.1836961
51
92.5670973
0
ARC
8
DEFAULT_255_2_778
10
14.7176922
20
14.1019864
40
0.3124899
50
87.4275177
51
125.1733766
0
ARC
8
DEFAULT_255_2_778
10
14.6866661
20
14.1610331
40
0.2465036
50
127.1850162
51
135.7757917
0
ARC
8
DEFAULT_255_2_778
10
14.7317574
20
14.1302063
40
0.3004632
50
137.560712
51
180.562662
0
ARC
8
DEFAULT_255_2_778
10
14.9348459
20
14.1074078
40
0.5039281
50
177.7427451
51
180.0166466
0
ARC
8
DEFAULT_255_2_778
10
14.6826012
20
14.1252158
40
0.4433472
50
134.2175406
51
182.3209587
0
ARC
8
DEFAULT_255_2_778
10
14.6962558
20
14.0942098
40
0.475239
50
92.3183173
51
132.7903135
0
ARC
8
DEFAULT_255_2_778
10
14.7310509
20
13.8412414
40
0.7298203
50
89.9476467
51
94.2447405
0
ARC
8
DEFAULT_255_2_778
10
14.745008
20
14.0171745
40
0.5540463
50
66.7301469
51
91.3745215
0
ARC
8
DEFAULT_255_2_778
10
14.8029573
20
14.1714812
40
0.3894747
50
48.0097004
51
65.5935925
0
ARC
8
DEFAULT_255_2_778
10
14.8104679
20
14.18383
40
0.3752813
50
357.5918329
51
47.6006634
0
ARC
8
DEFAULT_255_2_778
10
14.700974
20
14.181058
40
0.4846181
50
333.65666
51
358.4632472
0
ARC
8
DEFAULT_255_2_778
10
14.1964717
20
14.4151614
40
1.0407068
50
322.2954777
51
334.4318791
0
ARC
8
DEFAULT_255_2_778
10
13.5424609
20
14.9022399
40
1.8560935
50
317.1085583
51
322.7468394
0
LINE
8
DEFAULT_255_2_778
10
13.3469177
20
13.0459614
11
12.9304177
21
13.0459614
0
LINE
8
DEFAULT_255_2_778
10
12.9304177
20
13.0459614
11
12.9304177
21
14.5506614
0
LINE
8
DEFAULT_255_2_778
10
12.9304177
20
14.5506614
11
13.3551177
21
14.5506614
0
LINE
8
DEFAULT_255_2_778
10
14.0189177
20
13.8487614
11
14.0189177
21
13.7526614
0
LINE
8
DEFAULT_255_2_778
10
13.3469177
20
13.0457614
11
13.3469177
21
13.0459614
0
LINE
8
DEFAULT_255_2_778
10
13.3603177
20
14.3874614
11
13.1288177
21
14.3874614
0
LINE
8
DEFAULT_255_2_778
10
13.1288177
20
14.3874614
11
13.1288177
21
13.2081614
0
LINE
8
DEFAULT_255_2_778
10
13.1288177
20
13.2081614
11
13.3376177
21
13.2081614
0
LINE
8
DEFAULT_255_2_778
10
13.8223177
20
13.7569614
11
13.8223177
21
13.8447614
0
LINE
8
DEFAULT_255_2_778
10
13.3603177
20
14.3874614
11
13.3603177
21
14.3874614
0
LINE
8
DEFAULT_255_2_778
10
15.2548177
20
13.2018614
11
15.2548177
21
13.0457614
0
LINE
8
DEFAULT_255_2_778
10
15.2548177
20
13.0457614
11
14.2687177
21
13.0457614
0
LINE
8
DEFAULT_255_2_778
10
14.2687177
20
13.0457614
11
14.2687177
21
13.1830614
0
LINE
8
DEFAULT_255_2_778
10
14.2687177
20
13.1830614
11
14.7896177
21
13.7616614
0
LINE
8
DEFAULT_255_2_778
10
14.4309177
20
14.1072614
11
14.2396177
21
14.1072614
0
LINE
8
DEFAULT_255_2_778
10
14.9023177
20
13.6389614
11
14.4994177
21
13.2018614
0
LINE
8
DEFAULT_255_2_778
10
14.4994177
20
13.2018614
11
15.2548177
21
13.2018614
0
LINE
8
DEFAULT_255_2_778
10
15.2548177
20
13.2018614
11
15.2548177
21
13.2018614
0
ENDSEC
0
EOF