0
SECTION
2
HEADER
9
$MEASUREMENT
70
1
0
ENDSEC
0
SECTION
2
TABLES
0
TABLE
2
LTYPE
0
LTYPE
72
65
70
64
2
CONTINUOUS
3
______
73
0
40
0
0
ENDTAB
0
TABLE
2
LAYER
0
LAYER
2
DEFAULT_255_2_778
70
0
62
255
6
CONTINUOUS
0
LAYER
2
DEFAULT_255_1_234
70
0
62
255
6
CONTINUOUS
0
LAYER
2
DEFAULT_255_2_778_1
70
0
62
255
6
CONTINUOUS
0
ENDTAB
0
ENDSEC
0
SECTION
2
ENTITIES
0
ARC
8
DEFAULT_255_2_778
10
3.5700693
20
107.5552026
40
0.7914215
50
129.1312896
51
180.1450914
0
ARC
8
DEFAULT_255_2_778
10
3.5703345
20
107.5556897
40
0.7912112
50
89.854026
51
129.1684493
0
ARC
8
DEFAULT_255_2_778
10
25.7993937
20
107.5553762
40
0.7915249
50
39.4792447
51
90.147911
0
ARC
8
DEFAULT_255_2_778
10
25.7999935
20
107.5552229
40
0.7911595
50
359.8533901
51
39.5154338
0
ARC
8
DEFAULT_255_2_778
10
25.7996693
20
-1.9863497
40
0.7914836
50
309.4761667
51
0.1482649
0
ARC
8
DEFAULT_255_2_778
10
25.799398
20
-1.9867808
40
0.7913235
50
269.8517415
51
309.511178
0
ARC
8
DEFAULT_255_2_778
10
3.570342
20
-1.9867226
40
0.7913815
50
219.1282118
51
270.1454017
0
ARC
8
DEFAULT_255_2_778
10
3.5700247
20
-1.9863401
40
0.7913769
50
179.8524075
51
219.1641908
0
LINE
8
DEFAULT_255_2_778
10
3.5723503
20
108.3468985
11
25.7973503
21
108.3468985
0
LINE
8
DEFAULT_255_2_778
10
26.5911503
20
107.5531985
11
26.5911503
21
-1.9843015
0
LINE
8
DEFAULT_255_2_778
10
25.7973503
20
-2.7781015
11
3.5723503
21
-2.7781015
0
LINE
8
DEFAULT_255_2_778
10
2.7786503
20
-1.9843015
11
2.7786503
21
107.5531985
0
LINE
8
DEFAULT_255_1_234
10
8.9920392
20
-0.6513
11
8.5864364
21
-0.6513
0
LINE
8
DEFAULT_255_1_234
10
8.5864364
20
-0.6513
11
8.5864364
21
0.5181211
0
LINE
8
DEFAULT_255_1_234
10
8.5864364
20
0.5181211
11
8.9687471
21
0.5181211
0
LINE
8
DEFAULT_255_1_234
10
8.9976614
20
-0.1043386
11
8.7406458
21
-0.1043386
0
LINE
8
DEFAULT_255_1_234
10
8.7406458
20
-0.1043386
11
8.7406458
21
-0.5252017
0
LINE
8
DEFAULT_255_1_234
10
8.7406458
20
-0.5252017
11
8.9952519
21
-0.5252017
0
LINE
8
DEFAULT_255_1_234
10
8.7406458
20
0.3912196
11
8.7406458
21
0.0193501
0
LINE
8
DEFAULT_255_1_234
10
8.7406458
20
0.0193501
11
8.9735662
21
0.0193501
0
LINE
8
DEFAULT_255_1_234
10
8.9687471
20
0.3912196
11
8.7406458
21
0.3912196
0
ARC
8
DEFAULT_255_1_234
10
8.972518
20
-0.2186099
40
0.7367406
50
82.1257326
51
90.2932599
0
ARC
8
DEFAULT_255_1_234
10
9.0114135
20
0.0532013
40
0.4621653
50
69.9044149
51
82.2857423
0
ARC
8
DEFAULT_255_1_234
10
9.0684813
20
0.2074637
40
0.2976871
50
51.1838526
51
70.0181538
0
ARC
8
DEFAULT_255_1_234
10
9.0939779
20
0.244524
40
0.2528517
50
12.1017251
51
50.4214761
0
ARC
8
DEFAULT_255_1_234
10
8.9555653
20
0.2097676
40
0.3955061
50
359.5251267
51
12.8211707
0
ARC
8
DEFAULT_255_1_234
10
9.1135579
20
0.2028344
40
0.2375281
50
323.4908128
51
0.8817314
0
ARC
8
DEFAULT_255_1_234
10
9.0717266
20
0.235155
40
0.2903817
50
298.6825083
51
323.2756573
0
ARC
8
DEFAULT_255_1_234
10
9.0355629
20
0.2952649
40
0.3604842
50
293.1999386
51
299.1396394
0
ARC
8
DEFAULT_255_1_234
10
9.1028602
20
-0.3132874
40
0.2871098
50
54.0011765
51
74.9167975
0
ARC
8
DEFAULT_255_1_234
10
9.1144961
20
-0.2935668
40
0.2643248
50
36.3580696
51
53.5291921
0
ARC
8
DEFAULT_255_1_234
10
9.1018203
20
-0.3026002
40
0.2798884
50
4.8189881
51
36.3089977
0
ARC
8
DEFAULT_255_1_234
10
9.0239038
20
-0.313573
40
0.358478
50
359.9370252
51
5.5204067
0
ARC
8
DEFAULT_255_1_234
10
8.991456
20
-0.3176333
40
0.3909429
50
344.7478609
51
0.5373281
0
ARC
8
DEFAULT_255_1_234
10
9.0905531
20
-0.3443456
40
0.2883093
50
311.1786488
51
344.6886812
0
ARC
8
DEFAULT_255_1_234
10
9.0613578
20
-0.3080013
40
0.3348923
50
286.0418249
51
310.8441291
0
ARC
8
DEFAULT_255_1_234
10
9.010641
20
-0.1433193
40
0.5071869
50
274.1042341
51
286.4071509
0
ARC
8
DEFAULT_255_1_234
10
8.9929666
20
0.0450229
40
0.6963234
50
269.9236873
51
274.445647
0
ARC
8
DEFAULT_255_1_234
10
8.9975667
20
-0.1889463
40
0.3362634
50
269.6055768
51
281.3740047
0
ARC
8
DEFAULT_255_1_234
10
9.0206305
20
-0.2982647
40
0.224546
50
281.1055983
51
302.5132223
0
ARC
8
DEFAULT_255_1_234
10
9.0353204
20
-0.3246177
40
0.1944357
50
303.0368945
51
311.8811219
0
ARC
8
DEFAULT_255_1_234
10
9.0424611
20
-0.333111
40
0.1833454
50
311.9916004
51
351.7143462
0
ARC
8
DEFAULT_255_1_234
10
8.9607841
20
-0.316607
40
0.2665871
50
350.7339597
51
0.2221581
0
ARC
8
DEFAULT_255_1_234
10
8.9500287
20
-0.3109533
40
0.2773789
50
359.0456241
51
17.2296242
0
ARC
8
DEFAULT_255_1_234
10
9.0539404
20
-0.2800837
40
0.1689915
50
17.6685481
51
78.9940892
0
ARC
8
DEFAULT_255_1_234
10
9.0022568
20
-0.4655776
40
0.3612658
50
76.5635957
51
90.6980921
0
LINE
8
DEFAULT_255_1_234
10
8.9978552
20
-0.1043387
11
8.9976614
21
-0.1043386
0
ARC
8
DEFAULT_255_1_234
10
8.9758228
20
0.3479036
40
0.3285612
50
269.6064736
51
281.4533503
0
ARC
8
DEFAULT_255_1_234
10
8.9981048
20
0.2427688
40
0.2210975
50
281.2041486
51
302.5148063
0
ARC
8
DEFAULT_255_1_234
10
9.0117898
20
0.2181241
40
0.1929674
50
303.021671
51
309.8369575
0
ARC
8
DEFAULT_255_1_234
10
9.0301359
20
0.1975488
40
0.1654181
50
309.5228395
51
356.9509836
0
ARC
8
DEFAULT_255_1_234
10
8.9637942
20
0.2070932
40
0.2322512
50
355.4701227
51
0.0492546
0
ARC
8
DEFAULT_255_1_234
10
8.9359033
20
0.2093094
40
0.2601498
50
359.5558597
51
11.2096359
0
ARC
8
DEFAULT_255_1_234
10
9.0316323
20
0.229123
40
0.1623975
50
10.9182341
51
31.3230275
0
ARC
8
DEFAULT_255_1_234
10
9.0602056
20
0.2450214
40
0.1297302
50
31.8852677
51
52.1412565
0
ARC
8
DEFAULT_255_1_234
10
9.0327789
20
0.206275
40
0.1771663
50
52.8285564
51
71.9850297
0
ARC
8
DEFAULT_255_1_234
10
8.9951965
20
0.0956664
40
0.2939794
50
71.6863486
51
82.8455995
0
ARC
8
DEFAULT_255_1_234
10
8.9712501
20
-0.0852851
40
0.476506
50
82.6984714
51
90.1729175
0
ARC
8
DEFAULT_255_1_234
10
8.9690136
20
0.0370623
40
0.3541573
50
89.8708275
51
90.0431131
0
LINE
8
DEFAULT_255_1_234
10
9.7100766
20
0.5181211
11
9.9919906
21
0.0699501
0
LINE
8
DEFAULT_255_1_234
10
9.9919906
20
0.0699501
11
10.2722982
21
0.5181211
0
LINE
8
DEFAULT_255_1_234
10
10.2722982
20
0.5181211
11
10.4538155
21
0.5181211
0
LINE
8
DEFAULT_255_1_234
10
10.4538155
20
0.5181211
11
10.0843556
21
-0.0617704
0
LINE
8
DEFAULT_255_1_234
10
10.0843556
20
-0.0617704
11
10.4626504
21
-0.6513
0
LINE
8
DEFAULT_255_1_234
10
10.4626504
20
-0.6513
11
10.2795268
21
-0.6513
0
LINE
8
DEFAULT_255_1_234
10
10.2795268
20
-0.6513
11
9.9919906
21
-0.1950973
0
LINE
8
DEFAULT_255_1_234
10
9.9919906
20
-0.1950973
11
9.702848
21
-0.6513
0
LINE
8
DEFAULT_255_1_234
10
9.702848
20
-0.6513
11
9.5205275
21
-0.6513
0
LINE
8
DEFAULT_255_1_234
10
9.5205275
20
-0.6513
11
9.8996256
21
-0.0617704
0
LINE
8
DEFAULT_255_1_234
10
9.8996256
20
-0.0617704
11
9.5293625
21
0.5181211
0
LINE
8
DEFAULT_255_1_234
10
9.5293625
20
0.5181211
11
9.7100766
21
0.5181211
0
LINE
8
DEFAULT_255_1_234
10
10.8907421
20
-0.0938974
11
10.8907421
21
-0.2151766
0
LINE
8
DEFAULT_255_1_234
10
10.8907421
20
-0.2151766
11
10.4987933
21
-0.2151766
0
LINE
8
DEFAULT_255_1_234
10
10.4987933
20
-0.2151766
11
10.4987933
21
-0.0938974
0
LINE
8
DEFAULT_255_1_234
10
10.4987933
20
-0.0938974
11
10.8907421
21
-0.0938974
0
LINE
8
DEFAULT_255_1_234
10
11.6473318
20
0.5181211
11
11.6473318
21
-0.258548
0
LINE
8
DEFAULT_255_1_234
10
11.6473318
20
-0.258548
11
11.8095729
21
-0.258548
0
LINE
8
DEFAULT_255_1_234
10
11.8095729
20
-0.258548
11
11.8095729
21
-0.3798272
0
LINE
8
DEFAULT_255_1_234
10
11.8095729
20
-0.3798272
11
11.6473318
21
-0.3798272
0
LINE
8
DEFAULT_255_1_234
10
11.6473318
20
-0.3798272
11
11.6473318
21
-0.6513
0
LINE
8
DEFAULT_255_1_234
10
11.6473318
20
-0.6513
11
11.4979415
21
-0.6513
0
LINE
8
DEFAULT_255_1_234
10
11.4979415
20
-0.6513
11
11.4979415
21
-0.3798272
0
LINE
8
DEFAULT_255_1_234
10
11.4979415
20
-0.3798272
11
10.9654373
21
-0.3798272
0
LINE
8
DEFAULT_255_1_234
10
10.9654373
20
-0.3798272
11
10.9654373
21
-0.2922813
0
LINE
8
DEFAULT_255_1_234
10
10.9654373
20
-0.2922813
11
11.4891066
21
0.5181211
0
LINE
8
DEFAULT_255_1_234
10
11.4891066
20
0.5181211
11
11.6473318
21
0.5181211
0
LINE
8
DEFAULT_255_1_234
10
11.4802717
20
0.2827912
11
11.1341038
21
-0.258548
0
LINE
8
DEFAULT_255_1_234
10
11.1341038
20
-0.258548
11
11.4979415
21
-0.258548
0
LINE
8
DEFAULT_255_1_234
10
11.4979415
20
-0.258548
11
11.4979415
21
0.3149181
0
LINE
8
DEFAULT_255_1_234
10
11.4979415
20
0.3149181
11
11.4802717
21
0.2827912
0
LINE
8
DEFAULT_255_1_234
10
12.7902482
20
0.5181211
11
12.7902482
21
0.3912196
0
LINE
8
DEFAULT_255_1_234
10
12.7902482
20
0.3912196
11
12.4143628
21
0.3912196
0
LINE
8
DEFAULT_255_1_234
10
12.4143628
20
0.3912196
11
12.4143628
21
-0.6513
0
LINE
8
DEFAULT_255_1_234
10
12.4143628
20
-0.6513
11
12.2609566
21
-0.6513
0
LINE
8
DEFAULT_255_1_234
10
12.2609566
20
-0.6513
11
12.2609566
21
0.3912196
0
LINE
8
DEFAULT_255_1_234
10
12.2609566
20
0.3912196
11
11.8858745
21
0.3912196
0
LINE
8
DEFAULT_255_1_234
10
11.8858745
20
0.3912196
11
11.8858745
21
0.5181211
0
LINE
8
DEFAULT_255_1_234
10
11.8858745
20
0.5181211
11
12.7902482
21
0.5181211
0
LINE
8
DEFAULT_255_1_234
10
13.8624853
20
0.5181211
11
13.8624853
21
-0.6513
0
LINE
8
DEFAULT_255_1_234
10
13.8624853
20
-0.6513
11
13.7074727
21
-0.6513
0
LINE
8
DEFAULT_255_1_234
10
13.7074727
20
-0.6513
11
13.7074727
21
-0.110764
0
LINE
8
DEFAULT_255_1_234
10
13.7074727
20
-0.110764
11
13.1179431
21
-0.110764
0
LINE
8
DEFAULT_255_1_234
10
13.1179431
20
-0.110764
11
13.1179431
21
-0.6513
0
LINE
8
DEFAULT_255_1_234
10
13.1179431
20
-0.6513
11
12.9637337
21
-0.6513
0
LINE
8
DEFAULT_255_1_234
10
12.9637337
20
-0.6513
11
12.9637337
21
0.5181211
0
LINE
8
DEFAULT_255_1_234
10
12.9637337
20
0.5181211
11
13.1179431
21
0.5181211
0
LINE
8
DEFAULT_255_1_234
10
13.1179431
20
0.5181211
11
13.1179431
21
0.0153343
0
LINE
8
DEFAULT_255_1_234
10
13.1179431
20
0.0153343
11
13.7074727
21
0.0153343
0
LINE
8
DEFAULT_255_1_234
10
13.7074727
20
0.0153343
11
13.7074727
21
0.5181211
0
LINE
8
DEFAULT_255_1_234
10
13.7074727
20
0.5181211
11
13.8624853
21
0.5181211
0
LINE
8
DEFAULT_255_1_234
10
14.1363675
20
0.5181211
11
14.3355546
21
0.5181211
0
LINE
8
DEFAULT_255_1_234
10
14.3355546
20
0.5181211
11
14.7178654
21
-0.4360494
0
LINE
8
DEFAULT_255_1_234
10
14.7178654
20
-0.4360494
11
15.1001761
21
0.5181211
0
LINE
8
DEFAULT_255_1_234
10
15.1001761
20
0.5181211
11
15.3001664
21
0.5181211
0
LINE
8
DEFAULT_255_1_234
10
15.3001664
20
0.5181211
11
15.3001664
21
-0.6513
0
LINE
8
DEFAULT_255_1_234
10
15.3001664
20
-0.6513
11
15.145957
21
-0.6513
0
LINE
8
DEFAULT_255_1_234
10
15.145957
20
-0.6513
11
15.145957
21
-0.1959004
0
LINE
8
DEFAULT_255_1_234
10
15.145957
20
-0.1959004
11
15.1604142
21
0.2956419
0
LINE
8
DEFAULT_255_1_234
10
15.1604142
20
0.2956419
11
14.7764971
21
-0.6513
0
LINE
8
DEFAULT_255_1_234
10
14.7764971
20
-0.6513
11
14.6584305
21
-0.6513
0
LINE
8
DEFAULT_255_1_234
10
14.6584305
20
-0.6513
11
14.2753166
21
0.2932324
0
LINE
8
DEFAULT_255_1_234
10
14.2753166
20
0.2932324
11
14.2905769
21
-0.1959004
0
LINE
8
DEFAULT_255_1_234
10
14.2905769
20
-0.1959004
11
14.2905769
21
-0.6513
0
LINE
8
DEFAULT_255_1_234
10
14.2905769
20
-0.6513
11
14.1363675
21
-0.6513
0
LINE
8
DEFAULT_255_1_234
10
14.1363675
20
-0.6513
11
14.1363675
21
0.5181211
0
LINE
8
DEFAULT_255_1_234
10
16.1611688
20
0.5181211
11
16.1611688
21
-0.258548
0
LINE
8
DEFAULT_255_1_234
10
16.1611688
20
-0.258548
11
16.3234099
21
-0.258548
0
LINE
8
DEFAULT_255_1_234
10
16.3234099
20
-0.258548
11
16.3234099
21
-0.3798272
0
LINE
8
DEFAULT_255_1_234
10
16.3234099
20
-0.3798272
11
16.1611688
21
-0.3798272
0
LINE
8
DEFAULT_255_1_234
10
16.1611688
20
-0.3798272
11
16.1611688
21
-0.6513
0
LINE
8
DEFAULT_255_1_234
10
16.1611688
20
-0.6513
11
16.0117784
21
-0.6513
0
LINE
8
DEFAULT_255_1_234
10
16.0117784
20
-0.6513
11
16.0117784
21
-0.3798272
0
LINE
8
DEFAULT_255_1_234
10
16.0117784
20
-0.3798272
11
15.4792742
21
-0.3798272
0
LINE
8
DEFAULT_255_1_234
10
15.4792742
20
-0.3798272
11
15.4792742
21
-0.2922813
0
LINE
8
DEFAULT_255_1_234
10
15.4792742
20
-0.2922813
11
16.0029435
21
0.5181211
0
LINE
8
DEFAULT_255_1_234
10
16.0029435
20
0.5181211
11
16.1611688
21
0.5181211
0
LINE
8
DEFAULT_255_1_234
10
15.9941086
20
0.2827912
11
15.6479407
21
-0.258548
0
LINE
8
DEFAULT_255_1_234
10
15.6479407
20
-0.258548
11
16.0117784
21
-0.258548
0
LINE
8
DEFAULT_255_1_234
10
16.0117784
20
-0.258548
11
16.0117784
21
0.3149181
0
LINE
8
DEFAULT_255_1_234
10
16.0117784
20
0.3149181
11
15.9941086
21
0.2827912
0
LINE
8
DEFAULT_255_1_234
10
16.8197713
20
-0.6513
11
16.4960922
21
-0.6513
0
LINE
8
DEFAULT_255_1_234
10
16.4960922
20
-0.6513
11
16.4960922
21
0.5181211
0
LINE
8
DEFAULT_255_1_234
10
16.4960922
20
0.5181211
11
16.8261967
21
0.5181211
0
LINE
8
DEFAULT_255_1_234
10
17.3418343
20
-0.0272339
11
17.3418343
21
-0.1019291
0
LINE
8
DEFAULT_255_1_234
10
16.8302125
20
0.3912196
11
16.6503016
21
0.3912196
0
LINE
8
DEFAULT_255_1_234
10
16.6503016
20
0.3912196
11
16.6503016
21
-0.5252017
0
LINE
8
DEFAULT_255_1_234
10
16.6503016
20
-0.5252017
11
16.8125427
21
-0.5252017
0
LINE
8
DEFAULT_255_1_234
10
17.1892313
20
-0.0987164
11
17.1892313
21
-0.0304466
0
ARC
8
DEFAULT_255_1_234
10
16.8300909
20
-0.0684106
40
0.5865446
50
75.4101064
51
90.3804066
0
ARC
8
DEFAULT_255_1_234
10
16.8530423
20
0.0272492
40
0.4881916
50
60.145586
51
75.1888407
0
ARC
8
DEFAULT_255_1_234
10
16.8689198
20
0.0549199
40
0.4562893
50
26.5253612
51
60.1450928
0
ARC
8
DEFAULT_255_1_234
10
16.7568948
20
-0.0044842
40
0.5830602
50
7.4030428
51
26.8320788
0
ARC
8
DEFAULT_255_1_234
10
16.5974704
20
-0.0293196
40
0.7443669
50
0.1605367
51
7.7176192
0
ARC
8
DEFAULT_255_1_234
10
16.6138609
20
-0.1057566
40
0.7279835
50
348.7289388
51
0.3012466
0
ARC
8
DEFAULT_255_1_234
10
16.7795039
20
-0.1386614
40
0.559104
50
333.0706509
51
348.7181832
0
ARC
8
DEFAULT_255_1_234
10
16.8761797
20
-0.1911681
40
0.4491417
50
299.2531685
51
333.4571258
0
ARC
8
DEFAULT_255_1_234
10
16.8400937
20
-0.1226172
40
0.5265881
50
278.107187
51
299.0339503
0
ARC
8
DEFAULT_255_1_234
10
16.8145015
20
0.0281216
40
0.679442
50
270.4443897
51
278.4511052
0
ARC
8
DEFAULT_255_1_234
10
16.8165845
20
-0.0647787
40
0.4604407
50
269.4970433
51
284.0205042
0
ARC
8
DEFAULT_255_1_234
10
16.8521146
20
-0.2013022
40
0.3193797
50
283.7700273
51
318.1555492
0
ARC
8
DEFAULT_255_1_234
10
16.8183905
20
-0.1760633
40
0.3613588
50
318.7415601
51
343.6873628
0
ARC
8
DEFAULT_255_1_234
10
16.6379928
20
-0.1197168
40
0.5503313
50
343.3325091
51
355.8548958
0
ARC
8
DEFAULT_255_1_234
10
16.4281612
20
-0.0997681
40
0.7610708
50
355.4988528
51
0.0791727
0
ARC
8
DEFAULT_255_1_234
10
16.5064235
20
-0.026222
40
0.6828208
50
359.6455037
51
9.8607896
0
ARC
8
DEFAULT_255_1_234
10
16.7424933
20
0.0164099
40
0.4429406
50
9.6571907
51
26.1932807
0
ARC
8
DEFAULT_255_1_234
10
16.8352921
20
0.0595118
40
0.3406537
50
26.5777228
51
40.1532208
0
ARC
8
DEFAULT_255_1_234
10
16.8608648
20
0.0794619
40
0.308246
50
40.3840491
51
80.1431104
0
ARC
8
DEFAULT_255_1_234
10
16.8281765
20
-0.0654667
40
0.4566909
50
79.2152159
51
89.7445637
0
LINE
8
DEFAULT_255_1_234
10
18.315281
20
-0.6513
11
18.2036398
21
-0.3460939
0
LINE
8
DEFAULT_255_1_234
10
18.2036398
20
-0.3460939
11
17.7137038
21
-0.3460939
0
LINE
8
DEFAULT_255_1_234
10
17.7137038
20
-0.3460939
11
17.6036689
21
-0.6513
0
LINE
8
DEFAULT_255_1_234
10
17.6036689
20
-0.6513
11
17.4446405
21
-0.6513
0
LINE
8
DEFAULT_255_1_234
10
17.4446405
20
-0.6513
11
17.8912052
21
0.5181211
0
LINE
8
DEFAULT_255_1_234
10
17.8912052
20
0.5181211
11
18.0261384
21
0.5181211
0
LINE
8
DEFAULT_255_1_234
10
18.0261384
20
0.5181211
11
18.4735062
21
-0.6513
0
LINE
8
DEFAULT_255_1_234
10
18.4735062
20
-0.6513
11
18.315281
21
-0.6513
0
LINE
8
DEFAULT_255_1_234
10
17.9586718
20
0.3277689
11
17.7602878
21
-0.2191925
0
LINE
8
DEFAULT_255_1_234
10
17.7602878
20
-0.2191925
11
18.1578589
21
-0.2191925
0
LINE
8
DEFAULT_255_1_234
10
18.1578589
20
-0.2191925
11
17.9586718
21
0.3277689
0
LINE
8
DEFAULT_255_1_234
10
18.9168582
20
-0.0938974
11
18.9168582
21
-0.2151766
0
LINE
8
DEFAULT_255_1_234
10
18.9168582
20
-0.2151766
11
18.5249093
21
-0.2151766
0
LINE
8
DEFAULT_255_1_234
10
18.5249093
20
-0.2151766
11
18.5249093
21
-0.0938974
0
LINE
8
DEFAULT_255_1_234
10
18.5249093
20
-0.0938974
11
18.9168582
21
-0.0938974
0
LINE
8
DEFAULT_255_1_234
10
19.5344988
20
0.5237433
11
19.5344988
21
-0.6513
0
LINE
8
DEFAULT_255_1_234
10
19.5344988
20
-0.6513
11
19.3851085
21
-0.6513
0
LINE
8
DEFAULT_255_1_234
10
19.3851085
20
-0.6513
11
19.3851085
21
0.3390133
0
LINE
8
DEFAULT_255_1_234
10
19.3851085
20
0.3390133
11
19.0855247
21
0.2289785
0
LINE
8
DEFAULT_255_1_234
10
19.0855247
20
0.2289785
11
19.0855247
21
0.3639117
0
LINE
8
DEFAULT_255_1_234
10
19.0855247
20
0.3639117
11
19.5112068
21
0.5237433
0
LINE
8
DEFAULT_255_1_234
10
19.5112068
20
0.5237433
11
19.5344988
21
0.5237433
0
ARC
8
DEFAULT_255_2_778
10
20.2534188
20
104.7366525
40
0.3580657
50
89.9945037
51
180.0054963
0
ARC
8
DEFAULT_255_2_778
10
20.2534875
20
104.7366525
40
0.3580657
50
359.9945037
51
90.0054963
0
ARC
8
DEFAULT_255_2_778
10
20.2534875
20
104.7365838
40
0.3580657
50
269.9945037
51
0.0054963
0
ARC
8
DEFAULT_255_2_778
10
20.2534188
20
104.7365838
40
0.3580657
50
179.9945037
51
270.0054963
0
ARC
8
DEFAULT_255_2_778
10
22.9622406
20
104.468282
40
2.3282817
50
111.9150345
51
128.7655504
0
ARC
8
DEFAULT_255_2_778
10
22.8791007
20
104.600352
40
2.1733214
50
129.2366206
51
154.7721516
0
ARC
8
DEFAULT_255_2_778
10
23.480657
20
104.3045583
40
2.8435961
50
154.5467617
51
165.9285636
0
ARC
8
DEFAULT_255_2_778
10
23.9646902
20
104.1671212
40
3.3465569
50
165.6609748
51
166.525375
0
ARC
8
DEFAULT_255_2_778
10
21.5282291
20
105.3853171
40
1.414623
50
156.0627036
51
175.7189082
0
ARC
8
DEFAULT_255_2_778
10
22.1164502
20
105.131783
40
2.0551309
50
144.7505594
51
156.2560535
0
ARC
8
DEFAULT_255_2_778
10
22.8861799
20
104.5964863
40
2.9926766
50
137.345293
51
144.8863205
0
ARC
8
DEFAULT_255_2_778
10
23.8131446
20
103.7473407
40
4.2497776
50
131.6389266
51
137.393651
0
ARC
8
DEFAULT_255_2_778
10
24.5393492
20
102.9506248
40
5.3277326
50
130.1334351
51
131.7826198
0
LINE
8
DEFAULT_255_2_778
10
19.8953532
20
104.7366182
11
19.8953532
21
104.7366182
0
LINE
8
DEFAULT_255_2_778
10
21.1052532
20
107.0239182
11
22.0932532
21
106.6283182
0
LINE
8
DEFAULT_255_2_778
10
20.7102532
20
104.9469182
11
20.1175532
21
105.4909182
0
LINE
8
DEFAULT_255_2_778
10
21.1052532
20
107.0239182
11
21.1052532
21
107.0239182
0
ARC
8
DEFAULT_255_2_778
10
13.7594907
20
105.5601437
40
0.8717226
50
88.9281645
51
133.9885749
0
ARC
8
DEFAULT_255_2_778
10
13.7757454
20
105.3350604
40
1.0966534
50
88.9487005
51
89.9972984
0
ARC
8
DEFAULT_255_2_778
10
13.7953
20
105.6305011
40
0.8010283
50
72.1310318
51
89.9594908
0
ARC
8
DEFAULT_255_2_778
10
13.8705373
20
105.8875083
40
0.5333823
50
60.6505783
51
71.3519493
0
ARC
8
DEFAULT_255_2_778
10
13.9543387
20
106.0146349
40
0.3816498
50
20.3938858
51
62.2625554
0
ARC
8
DEFAULT_255_2_778
10
14.9704645
20
105.5266628
40
0.9050345
50
89.7568633
51
136.6758865
0
ARC
8
DEFAULT_255_2_778
10
14.9742773
20
105.4090709
40
1.0226182
50
88.9864436
51
89.9984426
0
ARC
8
DEFAULT_255_2_778
10
14.992248
20
105.648192
40
0.7833372
50
71.373585
51
89.9913488
0
ARC
8
DEFAULT_255_2_778
10
15.0841803
20
105.927042
40
0.489734
50
42.2193789
51
71.1458349
0
ARC
8
DEFAULT_255_2_778
10
15.0590908
20
105.9195658
40
0.5134635
50
8.5226311
51
40.9558105
0
ARC
8
DEFAULT_255_2_778
10
14.7367896
20
105.8543045
40
0.8420446
50
359.6942069
51
9.6641803
0
ARC
8
DEFAULT_255_2_778
10
14.4472507
20
105.8513277
40
1.1315727
50
355.5855084
51
359.923173
0
ARC
8
DEFAULT_255_2_778
10
14.2502845
20
105.8236289
40
0.7547163
50
352.4548626
51
359.7652122
0
ARC
8
DEFAULT_255_2_778
10
14.4078893
20
105.8207192
40
0.5971052
50
359.9824407
51
2.1700815
0
ARC
8
DEFAULT_255_2_778
10
14.8167551
20
105.8365752
40
0.1879327
50
2.0595693
51
88.944897
0
ARC
8
DEFAULT_255_2_778
10
14.7529878
20
105.5492725
40
0.4799353
50
81.9476992
51
88.9638763
0
ARC
8
DEFAULT_255_2_778
10
14.7641352
20
105.5431844
40
0.4859511
50
90.2910974
51
140.7094043
0
ARC
8
DEFAULT_255_2_778
10
14.950423
20
105.3503111
40
0.7529164
50
138.3264016
51
141.8088804
0
ARC
8
DEFAULT_255_2_778
10
13.0111845
20
105.8202289
40
0.7547163
50
352.4548626
51
359.7652122
0
ARC
8
DEFAULT_255_2_778
10
13.1687893
20
105.8173192
40
0.5971052
50
359.9824407
51
2.1700815
0
ARC
8
DEFAULT_255_2_778
10
13.5767327
20
105.8341775
40
0.1888212
50
1.7455696
51
88.6065628
0
ARC
8
DEFAULT_255_2_778
10
13.5151974
20
105.5578897
40
0.469731
50
81.9072271
51
88.8693446
0
ARC
8
DEFAULT_255_2_778
10
13.5126914
20
105.5178568
40
0.5098084
50
88.6765396
51
89.9981553
0
ARC
8
DEFAULT_255_2_778
10
13.5179114
20
105.5214569
40
0.5062351
50
90.5889431
51
134.9317856
0
ARC
8
DEFAULT_255_2_778
10
13.6708307
20
105.3310835
40
0.749469
50
132.9288129
51
135.7848647
0
LINE
8
DEFAULT_255_2_778
10
12.6682663
20
106.3974292
11
13.2005663
21
106.3990292
0
LINE
8
DEFAULT_255_2_778
10
13.2005663
20
106.3990292
11
13.1540663
21
106.1873292
0
LINE
8
DEFAULT_255_2_778
10
15.5754663
20
105.7642292
11
15.5715663
21
105.7214292
0
LINE
8
DEFAULT_255_2_778
10
15.5715663
20
105.7214292
11
15.3386663
21
104.5360292
0
LINE
8
DEFAULT_255_2_778
10
15.3386663
20
104.5360292
11
14.7655663
21
104.5360292
0
LINE
8
DEFAULT_255_2_778
10
14.7655663
20
104.5360292
11
14.9984663
21
105.7245292
0
LINE
8
DEFAULT_255_2_778
10
14.3586663
20
105.8158292
11
14.3525663
21
105.7764292
0
LINE
8
DEFAULT_255_2_778
10
14.3525663
20
105.7764292
11
14.0975663
21
104.5360292
0
LINE
8
DEFAULT_255_2_778
10
14.0975663
20
104.5360292
11
13.5265663
21
104.5360292
0
LINE
8
DEFAULT_255_2_778
10
13.5265663
20
104.5360292
11
13.7593663
21
105.7211292
0
LINE
8
DEFAULT_255_2_778
10
13.1336663
20
105.8537292
11
12.8603663
21
104.5360292
0
LINE
8
DEFAULT_255_2_778
10
12.8603663
20
104.5360292
11
12.2893663
21
104.5360292
0
LINE
8
DEFAULT_255_2_778
10
12.2893663
20
104.5360292
11
12.6679663
21
106.3971292
0
LINE
8
DEFAULT_255_2_778
10
12.6679663
20
106.3971292
11
12.6682663
21
106.3974292
0
ARC
8
DEFAULT_255_2_778
10
16.6200275
20
105.2468402
40
1.1831221
50
72.5008211
51
90.0103536
0
ARC
8
DEFAULT_255_2_778
10
16.6947507
20
105.5098399
40
0.9098586
50
60.3242318
51
72.0085714
0
ARC
8
DEFAULT_255_2_778
10
16.7751012
20
105.6303126
40
0.7654736
50
24.9543019
51
61.0852427
0
ARC
8
DEFAULT_255_2_778
10
16.6805748
20
105.5884465
40
0.8688408
50
359.4872778
51
24.8275177
0
ARC
8
DEFAULT_255_2_778
10
16.4736953
20
105.5820476
40
1.0756863
50
353.6171666
51
359.9267064
0
ARC
8
DEFAULT_255_2_778
10
16.4716377
20
105.5520267
40
1.0748142
50
309.833105
51
355.2199932
0
ARC
8
DEFAULT_255_2_778
10
16.4130984
20
105.6186469
40
1.1634726
50
274.0073872
51
309.9453537
0
ARC
8
DEFAULT_255_2_778
10
16.3618842
20
105.9871028
40
1.5348158
50
269.9462811
51
274.9533663
0
ARC
8
DEFAULT_255_2_778
10
16.3604794
20
106.1108871
40
1.6585995
50
269.1686307
51
269.9988202
0
ARC
8
DEFAULT_255_2_778
10
16.3365813
20
105.6233263
40
1.170864
50
252.1092944
51
269.9918014
0
ARC
8
DEFAULT_255_2_778
10
16.2643696
20
105.3730397
40
0.9105332
50
240.5370236
51
251.5952644
0
ARC
8
DEFAULT_255_2_778
10
16.1851911
20
105.2512089
40
0.7655666
50
205.2400495
51
241.211713
0
ARC
8
DEFAULT_255_2_778
10
16.2644037
20
105.2883751
40
0.8530649
50
179.5368594
51
205.2293562
0
ARC
8
DEFAULT_255_2_778
10
16.4511084
20
105.2939748
40
1.0397424
50
173.5174505
51
179.9285896
0
ARC
8
DEFAULT_255_2_778
10
16.6391783
20
105.2826758
40
1.2279263
50
153.4099026
51
173.9843619
0
ARC
8
DEFAULT_255_2_778
10
16.479572
20
105.3504448
40
1.0549233
50
129.6863931
51
152.8211827
0
ARC
8
DEFAULT_255_2_778
10
16.5416975
20
105.2798495
40
1.1489256
50
92.7623759
51
129.8224215
0
ARC
8
DEFAULT_255_2_778
10
16.5842285
20
104.9364549
40
1.494196
50
89.9700369
51
93.7568045
0
ARC
8
DEFAULT_255_2_778
10
16.5848986
20
104.8348597
40
1.5957911
50
88.7355209
51
89.9960014
0
ARC
8
DEFAULT_255_2_778
10
16.4400613
20
105.226603
40
0.4277578
50
179.6036168
51
209.4859363
0
ARC
8
DEFAULT_255_2_778
10
16.339416
20
105.1796836
40
0.3171735
50
211.0570865
51
223.1755117
0
ARC
8
DEFAULT_255_2_778
10
16.3473605
20
105.1976914
40
0.3353769
50
224.4904912
51
268.822899
0
ARC
8
DEFAULT_255_2_778
10
16.3773279
20
105.4096578
40
0.5485121
50
266.1471365
51
268.8180779
0
ARC
8
DEFAULT_255_2_778
10
16.3834514
20
105.5392665
40
0.6782284
50
268.5267288
51
269.9955114
0
ARC
8
DEFAULT_255_2_778
10
16.3990205
20
105.3487446
40
0.4879566
50
268.1653241
51
325.4286401
0
ARC
8
DEFAULT_255_2_778
10
16.1704675
20
105.5153589
40
0.7707306
50
324.8706977
51
351.0886768
0
ARC
8
DEFAULT_255_2_778
10
15.7623164
20
105.594259
40
1.1862684
50
350.3775551
51
0.2885744
0
ARC
8
DEFAULT_255_2_778
10
15.4717168
20
105.5999545
40
1.4768528
50
0.0108339
51
1.7075744
0
ARC
8
DEFAULT_255_2_778
10
16.4932944
20
105.6348407
40
0.4547108
50
1.1494496
51
31.2166939
0
ARC
8
DEFAULT_255_2_778
10
16.5878459
20
105.6817329
40
0.3496592
50
32.6753678
51
41.7495025
0
ARC
8
DEFAULT_255_2_778
10
16.6094593
20
105.6903938
40
0.3278631
50
43.1354862
51
88.8367492
0
ARC
8
DEFAULT_255_2_778
10
16.5789315
20
105.4780566
40
0.5414112
50
86.0618601
51
88.8694569
0
ARC
8
DEFAULT_255_2_778
10
16.5725619
20
105.3767668
40
0.6428217
50
88.4799611
51
89.9943311
0
ARC
8
DEFAULT_255_2_778
10
16.5615507
20
105.5300787
40
0.4896349
50
88.7039519
51
145.0513377
0
ARC
8
DEFAULT_255_2_778
10
16.7596336
20
105.3767936
40
0.7399051
50
144.1087108
51
170.2824956
0
ARC
8
DEFAULT_255_2_778
10
17.1861932
20
105.2896764
40
1.1751307
50
169.6063184
51
180.3528002
0
ARC
8
DEFAULT_255_2_778
10
17.5222659
20
105.2828441
40
1.5111813
50
180.0153016
51
182.009194
0
LINE
8
DEFAULT_255_2_778
10
16.6201137
20
106.4302623
11
16.6198137
21
106.4299623
0
LINE
8
DEFAULT_255_2_778
10
16.0120137
20
105.2298623
11
16.0123137
21
105.2295623
0
ARC
8
DEFAULT_255_2_778
10
18.587937
20
104.3080854
40
1.642039
50
81.2830361
51
86.628458
0
ARC
8
DEFAULT_255_2_778
10
18.6429757
20
105.1465313
40
0.8018272
50
87.0310432
51
89.8986713
0
ARC
8
DEFAULT_255_2_778
10
18.6242064
20
105.0578997
40
0.8906863
50
88.7012797
51
89.9954117
0
ARC
8
DEFAULT_255_2_778
10
18.6103452
20
105.3021623
40
0.6465738
50
88.765285
51
116.6201427
0
ARC
8
DEFAULT_255_2_778
10
18.5802548
20
105.3861694
40
0.5580924
50
117.7228833
51
138.7756782
0
ARC
8
DEFAULT_255_2_778
10
18.7590475
20
105.7523707
40
0.6980151
50
116.489914
51
143.0810972
0
ARC
8
DEFAULT_255_2_778
10
18.7053938
20
105.8324223
40
0.6025621
50
89.4580016
51
115.3188873
0
ARC
8
DEFAULT_255_2_778
10
18.6965205
20
105.4976885
40
0.9373821
50
77.9674605
51
89.1092017
0
ARC
8
DEFAULT_255_2_778
10
18.6028478
20
104.9671466
40
1.4759175
50
78.008513
51
78.7045202
0
LINE
8
DEFAULT_255_2_778
10
18.9094938
20
106.4111573
11
18.8367938
21
105.9311573
0
LINE
8
DEFAULT_255_2_778
10
18.1604938
20
105.7539573
11
17.9072938
21
104.5360573
0
LINE
8
DEFAULT_255_2_778
10
17.9072938
20
104.5360573
11
17.3362938
21
104.5360573
0
LINE
8
DEFAULT_255_2_778
10
17.3362938
20
104.5360573
11
17.7169938
21
106.3971573
0
LINE
8
DEFAULT_255_2_778
10
17.7169938
20
106.3971573
11
18.2535938
21
106.3987573
0
LINE
8
DEFAULT_255_2_778
10
18.2535938
20
106.3987573
11
18.2009938
21
106.1716573
0
LINE
8
DEFAULT_255_2_778
10
18.9094938
20
106.4108573
11
18.9094938
21
106.4111573
0
ARC
8
DEFAULT_255_2_778
10
19.1571667
20
105.622675
40
1.1701724
50
250.1393411
51
270.3226852
0
ARC
8
DEFAULT_255_2_778
10
19.1022051
20
105.4428343
40
0.9824012
50
242.0502734
51
249.5907868
0
ARC
8
DEFAULT_255_2_778
10
19.001531
20
105.2833015
40
0.794417
50
208.3292132
51
243.0715083
0
ARC
8
DEFAULT_255_2_778
10
18.9937252
20
105.2742929
40
0.7832826
50
179.5739013
51
208.0201199
0
ARC
8
DEFAULT_255_2_778
10
19.1404713
20
105.2793153
40
0.9300073
50
174.3657638
51
179.9505495
0
ARC
8
DEFAULT_255_2_778
10
19.3222378
20
105.32118
40
1.1074063
50
145.2485417
51
173.7769976
0
ARC
8
DEFAULT_255_2_778
10
19.3043239
20
105.3456177
40
1.0788028
50
116.4826416
51
145.7726174
0
ARC
8
DEFAULT_255_2_778
10
19.3348976
20
105.2759316
40
1.1548163
50
89.3335424
51
116.2986099
0
ARC
8
DEFAULT_255_2_778
10
19.3482483
20
105.0335133
40
1.3971563
50
88.7200635
51
89.9966493
0
ARC
8
DEFAULT_255_2_778
10
19.3739264
20
105.3179187
40
1.1124162
50
73.6937809
51
89.7151452
0
ARC
8
DEFAULT_255_2_778
10
19.4851962
20
105.6898827
40
0.7241771
50
40.439997
51
73.880282
0
ARC
8
DEFAULT_255_2_778
10
19.4519455
20
105.6680624
40
0.7636535
50
0.3396925
51
40.0677766
0
ARC
8
DEFAULT_255_2_778
10
19.2144824
20
105.6444788
40
1.0014977
50
359.9940332
51
1.608453
0
ARC
8
DEFAULT_255_2_778
10
19.0855644
20
105.6466523
40
1.1304181
50
353.1542739
51
359.8845474
0
ARC
8
DEFAULT_255_2_778
10
18.9436927
20
105.6611317
40
1.2730067
50
352.3796891
51
353.2683443
0
ARC
8
DEFAULT_255_2_778
10
19.1535012
20
105.2226797
40
0.3608489
50
171.5634883
51
179.9015639
0
ARC
8
DEFAULT_255_2_778
10
19.1262943
20
105.2268702
40
0.3336607
50
180.6131262
51
227.843893
0
ARC
8
DEFAULT_255_2_778
10
19.2043051
20
105.4885151
40
0.5918171
50
239.3225098
51
268.8255118
0
ARC
8
DEFAULT_255_2_778
10
19.2271512
20
105.7219016
40
0.8258202
50
267.5725716
51
270.0162941
0
ARC
8
DEFAULT_255_2_778
10
19.2268973
20
105.8056346
40
0.9095533
50
270.0307885
51
273.2244191
0
ARC
8
DEFAULT_255_2_778
10
19.2542379
20
105.1452649
40
0.2488861
50
275.4917641
51
302.3582203
0
ARC
8
DEFAULT_255_2_778
10
19.3200418
20
105.0293063
40
0.115896
50
305.561706
51
314.7657745
0
ARC
8
DEFAULT_255_2_778
10
19.3095773
20
105.0621064
40
0.1473882
50
308.6632861
51
359.3837416
0
ARC
8
DEFAULT_255_2_778
10
17.807225
20
106.7847828
40
2.962762
50
318.8021847
51
324.4102292
0
ARC
8
DEFAULT_255_2_778
10
18.7925821
20
105.9164505
40
1.6494092
50
310.4033061
51
318.953359
0
ARC
8
DEFAULT_255_2_778
10
19.3188808
20
105.2898187
40
0.831118
50
295.9312381
51
310.7744109
0
ARC
8
DEFAULT_255_2_778
10
19.4407027
20
105.0609771
40
0.5721233
50
294.3678437
51
294.9811966
0
ARC
8
DEFAULT_255_2_778
10
19.1940828
20
105.8279614
40
1.3756016
50
269.5724547
51
290.5412856
0
ARC
8
DEFAULT_255_2_778
10
19.1838577
20
106.0462488
40
1.5938505
50
269.2881822
51
269.9985732
0
ARC
8
DEFAULT_255_2_778
10
19.3390649
20
105.4596819
40
0.5598634
50
88.7931239
51
89.9984438
0
ARC
8
DEFAULT_255_2_778
10
19.3326983
20
105.5565553
40
0.463034
50
89.2102909
51
125.5845733
0
ARC
8
DEFAULT_255_2_778
10
19.4008068
20
105.4848825
40
0.5611219
50
126.9818839
51
147.669232
0
ARC
8
DEFAULT_255_2_778
10
19.876359
20
105.1651894
40
1.1340353
50
146.870707
51
156.2884785
0
ARC
8
DEFAULT_255_2_778
10
19.2333366
20
105.7433392
40
0.4293753
50
349.7481736
51
359.8266598
0
ARC
8
DEFAULT_255_2_778
10
19.2961469
20
105.7425983
40
0.3665636
50
359.9127606
51
9.1392387
0
ARC
8
DEFAULT_255_2_778
10
19.4131569
20
105.7570587
40
0.2487794
50
10.1315408
51
54.8294252
0
ARC
8
DEFAULT_255_2_778
10
19.3593417
20
105.6612413
40
0.3582778
50
56.6210187
51
91.3472693
0
LINE
8
DEFAULT_255_2_778
10
18.2149569
20
105.3706211
11
18.2213569
21
105.4412211
0
LINE
8
DEFAULT_255_2_778
10
20.2054569
20
105.4923211
11
20.1723569
21
105.2756211
0
LINE
8
DEFAULT_255_2_778
10
20.1723569
20
105.2756211
11
18.7965569
21
105.2756211
0
LINE
8
DEFAULT_255_2_778
10
19.4569569
20
105.0605211
11
20.2165569
21
105.0605211
0
LINE
8
DEFAULT_255_2_778
10
18.8380569
20
105.6212211
11
19.6434569
21
105.6212211
0
LINE
8
DEFAULT_255_2_778
10
19.6434569
20
105.6212211
11
19.6558569
21
105.6669211
0
LINE
8
DEFAULT_255_2_778
10
11.4252281
20
106.2080177
11
12.8081281
21
105.3920177
0
LINE
8
DEFAULT_255_2_778
10
12.8081281
20
105.3920177
11
11.2770281
21
104.7986177
0
LINE
8
DEFAULT_255_2_778
10
11.2770281
20
104.7986177
11
11.5979281
21
105.5156177
0
LINE
8
DEFAULT_255_2_778
10
11.5979281
20
105.5156177
11
11.4252281
21
106.2080177
0
ARC
8
DEFAULT_255_2_778
10
7.8633492
20
105.9276349
40
1.734445
50
345.0500681
51
0.450213
0
ARC
8
DEFAULT_255_2_778
10
8.1424128
20
105.8634315
40
1.4482985
50
339.8011311
51
344.6559926
0
ARC
8
DEFAULT_255_2_778
10
8.2241959
20
105.8179595
40
1.3559213
50
318.9869254
51
340.4112117
0
ARC
8
DEFAULT_255_2_778
10
8.3403786
20
105.7300223
40
1.2105876
50
317.7755753
51
318.5188915
0
ARC
8
DEFAULT_255_2_778
10
8.3677776
20
105.7041224
40
1.1728926
50
293.4453171
51
317.8130059
0
ARC
8
DEFAULT_255_2_778
10
8.3381728
20
105.7823502
40
1.2564472
50
269.4376299
51
293.2645473
0
ARC
8
DEFAULT_255_2_778
10
8.6390116
20
105.9904305
40
1.0182316
50
68.112945
51
90.7974227
0
ARC
8
DEFAULT_255_2_778
10
8.6827218
20
106.1257759
40
0.8764035
50
66.6600337
51
67.4660887
0
ARC
8
DEFAULT_255_2_778
10
8.6950616
20
106.1375129
40
0.860764
50
41.8199578
51
67.1046866
0
ARC
8
DEFAULT_255_2_778
10
8.5939144
20
106.0612866
40
0.9870277
50
18.4442061
51
41.2024761
0
ARC
8
DEFAULT_255_2_778
10
8.2913394
20
105.9576986
40
1.3068358
50
359.9236227
51
18.5554774
0
ARC
8
DEFAULT_255_2_778
10
7.9767371
20
105.9412824
40
1.6215036
50
359.9993331
51
0.5185192
0
ARC
8
DEFAULT_255_2_778
10
8.1161265
20
105.9474191
40
1.1556879
50
359.3527282
51
15.3461488
0
ARC
8
DEFAULT_255_2_778
10
8.3555709
20
106.0025091
40
0.9102591
50
15.9909101
51
17.2384514
0
ARC
8
DEFAULT_255_2_778
10
8.5215656
20
106.0659942
40
0.7329962
50
16.3441173
51
39.0583428
0
ARC
8
DEFAULT_255_2_778
10
8.6385861
20
106.1515513
40
0.5882641
50
39.7694118
51
66.0014919
0
ARC
8
DEFAULT_255_2_778
10
8.6052911
20
106.0585083
40
0.6868457
50
66.6208799
51
90.9301944
0
ARC
8
DEFAULT_255_2_778
10
8.3674619
20
105.6535777
40
0.865983
50
269.2774049
51
294.6427005
0
ARC
8
DEFAULT_255_2_778
10
8.3809787
20
105.6055801
40
0.8167574
50
295.184769
51
321.1699914
0
ARC
8
DEFAULT_255_2_778
10
8.188821
20
105.7520326
40
1.0582969
50
321.5163412
51
341.7776814
0
ARC
8
DEFAULT_255_2_778
10
7.8940618
20
105.8675931
40
1.374523
50
341.044332
51
342.4824039
0
ARC
8
DEFAULT_255_2_778
10
7.7898077
20
105.8892334
40
1.4804949
50
342.8981919
51
356.6952858
0
ARC
8
DEFAULT_255_2_778
10
7.2862441
20
105.9329849
40
1.9857973
50
356.2725814
51
0.0484329
0
LINE
8
DEFAULT_255_2_778
10
8.3258407
20
104.5259635
11
7.2765407
21
104.5016635
0
LINE
8
DEFAULT_255_2_778
10
7.2765407
20
104.5016635
11
7.7858407
21
107.0085635
0
LINE
8
DEFAULT_255_2_778
10
7.7858407
20
107.0085635
11
8.6248407
21
107.0085635
0
LINE
8
DEFAULT_255_2_778
10
9.5982407
20
105.9412635
11
9.5977407
21
105.9412635
0
LINE
8
DEFAULT_255_2_778
10
8.5941407
20
106.7452635
11
7.9962407
21
106.7272635
0
LINE
8
DEFAULT_255_2_778
10
7.9962407
20
106.7272635
11
7.6363407
21
104.7490635
0
LINE
8
DEFAULT_255_2_778
10
7.6363407
20
104.7490635
11
8.3565407
21
104.7876635
0
LINE
8
DEFAULT_255_2_778
10
9.2720407
20
105.9346635
11
9.2717407
21
105.9343635
0
ARC
8
DEFAULT_255_2_778
10
10.302374
20
105.329919
40
0.5777251
50
269.3131992
51
298.9193317
0
ARC
8
DEFAULT_255_2_778
10
10.2422898
20
105.4345114
40
0.6983333
50
299.0845099
51
323.1838183
0
ARC
8
DEFAULT_255_2_778
10
10.0730419
20
105.5584915
40
0.9081244
50
323.3206017
51
342.9705556
0
ARC
8
DEFAULT_255_2_778
10
9.9076255
20
105.6159416
40
1.0831324
50
342.6274164
51
0.2324268
0
ARC
8
DEFAULT_255_2_778
10
10.2433391
20
105.6330185
40
0.7475175
50
359.0278167
51
16.1300251
0
ARC
8
DEFAULT_255_2_778
10
10.5672449
20
105.7261392
40
0.4104922
50
16.2042834
51
41.9480466
0
ARC
8
DEFAULT_255_2_778
10
10.5796118
20
105.7179262
40
0.4070383
50
43.9719544
51
85.3997935
0
ARC
8
DEFAULT_255_2_778
10
10.5322186
20
105.4422297
40
0.686108
50
83.300847
51
90.1477804
0
ARC
8
DEFAULT_255_2_778
10
10.5219616
20
105.5469474
40
0.58145
50
89.163628
51
118.6648078
0
ARC
8
DEFAULT_255_2_778
10
10.581079
20
105.4499564
40
0.6949321
50
119.1056578
51
143.2104754
0
ARC
8
DEFAULT_255_2_778
10
10.7542438
20
105.3229766
40
0.9096571
50
143.3373192
51
162.9538381
0
ARC
8
DEFAULT_255_2_778
10
10.9180519
20
105.2659321
40
1.0830106
50
162.6089297
51
180.2167337
0
ARC
8
DEFAULT_255_2_778
10
10.590132
20
105.2491465
40
0.7551896
50
179.037255
51
196.0102976
0
ARC
8
DEFAULT_255_2_778
10
10.2623689
20
105.1556213
40
0.4143448
50
196.0798237
51
221.5429745
0
ARC
8
DEFAULT_255_2_778
10
10.2435386
20
105.1572741
40
0.4015819
50
223.501568
51
264.945498
0
ARC
8
DEFAULT_255_2_778
10
10.2934062
20
105.437423
40
0.6854906
50
262.8561454
51
270.170743
0
ARC
8
DEFAULT_255_2_778
10
10.2496801
20
105.4951733
40
0.993603
50
251.4783364
51
270.6555979
0
ARC
8
DEFAULT_255_2_778
10
10.1671823
20
105.2494369
40
0.7343883
50
228.2272369
51
251.4910714
0
ARC
8
DEFAULT_255_2_778
10
10.1298392
20
105.1987077
40
0.671704
50
202.6960886
51
227.720176
0
ARC
8
DEFAULT_255_2_778
10
10.2495562
20
105.2440656
40
0.7996635
50
179.6456167
51
202.3846702
0
ARC
8
DEFAULT_255_2_778
10
10.5173927
20
105.2602351
40
1.0675438
50
179.9999853
51
180.6023814
0
ARC
8
DEFAULT_255_2_778
10
10.5536721
20
105.267223
40
1.1038452
50
157.230675
51
180.3627006
0
ARC
8
DEFAULT_255_2_778
10
10.5843324
20
105.2576196
40
1.135837
50
135.6908415
51
157.3825693
0
ARC
8
DEFAULT_255_2_778
10
10.5546282
20
105.284315
40
1.0959349
50
113.1058727
51
135.604761
0
ARC
8
DEFAULT_255_2_778
10
10.5551078
20
105.2885049
40
1.0922713
50
89.5047522
51
113.2152626
0
ARC
8
DEFAULT_255_2_778
10
10.5759287
20
105.3854295
40
0.9953709
50
71.5130801
51
90.6550541
0
ARC
8
DEFAULT_255_2_778
10
10.6573575
20
105.6312115
40
0.7364524
50
48.2602918
51
71.4580165
0
ARC
8
DEFAULT_255_2_778
10
10.6956984
20
105.6846961
40
0.6710546
50
22.5497085
51
47.6627683
0
ARC
8
DEFAULT_255_2_778
10
10.5670556
20
105.6353328
40
0.8088011
50
359.0650515
51
22.2845409
0
ARC
8
DEFAULT_255_2_778
10
10.2767028
20
105.6160709
40
1.0990629
50
337.1812514
51
0.316152
0
ARC
8
DEFAULT_255_2_778
10
10.2412655
20
105.6266512
40
1.135837
50
315.6908415
51
337.3825693
0
ARC
8
DEFAULT_255_2_778
10
10.2631229
20
105.6086107
40
1.1075969
50
293.2336194
51
315.5688359
0
ARC
8
DEFAULT_255_2_778
10
10.268874
20
105.5879991
40
1.0863919
50
269.5873092
51
293.383724
0
LINE
8
DEFAULT_255_2_778
10
10.295449
20
104.7519354
11
10.295449
21
104.7522354
0
LINE
8
DEFAULT_255_2_778
10
10.261049
20
104.5016354
11
10.261049
21
104.5016354
0
LINE
8
DEFAULT_255_1_234
10
10.7014392
20
101.8747
11
10.2958364
21
101.8747
0
LINE
8
DEFAULT_255_1_234
10
10.2958364
20
101.8747
11
10.2958364
21
103.0441211
0
LINE
8
DEFAULT_255_1_234
10
10.2958364
20
103.0441211
11
10.6781471
21
103.0441211
0
LINE
8
DEFAULT_255_1_234
10
10.7070614
20
102.4216614
11
10.4500458
21
102.4216614
0
LINE
8
DEFAULT_255_1_234
10
10.4500458
20
102.4216614
11
10.4500458
21
102.0007983
0
LINE
8
DEFAULT_255_1_234
10
10.4500458
20
102.0007983
11
10.7046519
21
102.0007983
0
LINE
8
DEFAULT_255_1_234
10
10.4500458
20
102.9172196
11
10.4500458
21
102.5453501
0
LINE
8
DEFAULT_255_1_234
10
10.4500458
20
102.5453501
11
10.6829662
21
102.5453501
0
LINE
8
DEFAULT_255_1_234
10
10.6781471
20
102.9172196
11
10.4500458
21
102.9172196
0
ARC
8
DEFAULT_255_1_234
10
10.681918
20
102.3073901
40
0.7367406
50
82.1257326
51
90.2932599
0
ARC
8
DEFAULT_255_1_234
10
10.7208135
20
102.5792013
40
0.4621653
50
69.9044149
51
82.2857423
0
ARC
8
DEFAULT_255_1_234
10
10.7778813
20
102.7334637
40
0.2976871
50
51.1838526
51
70.0181538
0
ARC
8
DEFAULT_255_1_234
10
10.8033779
20
102.770524
40
0.2528517
50
12.1017251
51
50.4214761
0
ARC
8
DEFAULT_255_1_234
10
10.6649653
20
102.7357676
40
0.3955061
50
359.5251267
51
12.8211707
0
ARC
8
DEFAULT_255_1_234
10
10.8229579
20
102.7288344
40
0.2375281
50
323.4908128
51
0.8817314
0
ARC
8
DEFAULT_255_1_234
10
10.7811266
20
102.761155
40
0.2903817
50
298.6825083
51
323.2756573
0
ARC
8
DEFAULT_255_1_234
10
10.7449629
20
102.8212649
40
0.3604842
50
293.1999386
51
299.1396394
0
ARC
8
DEFAULT_255_1_234
10
10.8122602
20
102.2127126
40
0.2871098
50
54.0011765
51
74.9167975
0
ARC
8
DEFAULT_255_1_234
10
10.8238961
20
102.2324332
40
0.2643248
50
36.3580696
51
53.5291921
0
ARC
8
DEFAULT_255_1_234
10
10.8112203
20
102.2233998
40
0.2798884
50
4.8189881
51
36.3089977
0
ARC
8
DEFAULT_255_1_234
10
10.7333038
20
102.212427
40
0.358478
50
359.9370252
51
5.5204067
0
ARC
8
DEFAULT_255_1_234
10
10.700856
20
102.2083667
40
0.3909429
50
344.7478609
51
0.5373281
0
ARC
8
DEFAULT_255_1_234
10
10.7999531
20
102.1816544
40
0.2883093
50
311.1786488
51
344.6886812
0
ARC
8
DEFAULT_255_1_234
10
10.7707578
20
102.2179987
40
0.3348923
50
286.0418249
51
310.8441291
0
ARC
8
DEFAULT_255_1_234
10
10.720041
20
102.3826807
40
0.5071869
50
274.1042341
51
286.4071509
0
ARC
8
DEFAULT_255_1_234
10
10.7023666
20
102.5710229
40
0.6963234
50
269.9236873
51
274.445647
0
ARC
8
DEFAULT_255_1_234
10
10.7069667
20
102.3370537
40
0.3362634
50
269.6055768
51
281.3740047
0
ARC
8
DEFAULT_255_1_234
10
10.7300305
20
102.2277353
40
0.224546
50
281.1055983
51
302.5132223
0
ARC
8
DEFAULT_255_1_234
10
10.7447204
20
102.2013823
40
0.1944357
50
303.0368945
51
311.8811219
0
ARC
8
DEFAULT_255_1_234
10
10.7518611
20
102.192889
40
0.1833454
50
311.9916004
51
351.7143462
0
ARC
8
DEFAULT_255_1_234
10
10.6701841
20
102.209393
40
0.2665871
50
350.7339597
51
0.2221581
0
ARC
8
DEFAULT_255_1_234
10
10.6594287
20
102.2150467
40
0.2773789
50
359.0456241
51
17.2296242
0
ARC
8
DEFAULT_255_1_234
10
10.7633404
20
102.2459163
40
0.1689915
50
17.6685481
51
78.9940892
0
ARC
8
DEFAULT_255_1_234
10
10.7116568
20
102.0604224
40
0.3612658
50
76.5635957
51
90.6980921
0
LINE
8
DEFAULT_255_1_234
10
10.7072552
20
102.4216613
11
10.7070614
21
102.4216614
0
ARC
8
DEFAULT_255_1_234
10
10.6852228
20
102.8739036
40
0.3285612
50
269.6064736
51
281.4533503
0
ARC
8
DEFAULT_255_1_234
10
10.7075048
20
102.7687688
40
0.2210975
50
281.2041486
51
302.5148063
0
ARC
8
DEFAULT_255_1_234
10
10.7211898
20
102.7441241
40
0.1929674
50
303.021671
51
309.8369575
0
ARC
8
DEFAULT_255_1_234
10
10.7395359
20
102.7235488
40
0.1654181
50
309.5228395
51
356.9509836
0
ARC
8
DEFAULT_255_1_234
10
10.6731942
20
102.7330932
40
0.2322512
50
355.4701227
51
0.0492546
0
ARC
8
DEFAULT_255_1_234
10
10.6453033
20
102.7353094
40
0.2601498
50
359.5558597
51
11.2096359
0
ARC
8
DEFAULT_255_1_234
10
10.7410323
20
102.755123
40
0.1623975
50
10.9182341
51
31.3230275
0
ARC
8
DEFAULT_255_1_234
10
10.7696056
20
102.7710214
40
0.1297302
50
31.8852677
51
52.1412565
0
ARC
8
DEFAULT_255_1_234
10
10.7421789
20
102.732275
40
0.1771663
50
52.8285564
51
71.9850297
0
ARC
8
DEFAULT_255_1_234
10
10.7045965
20
102.6216664
40
0.2939794
50
71.6863486
51
82.8455995
0
ARC
8
DEFAULT_255_1_234
10
10.6806501
20
102.4407149
40
0.476506
50
82.6984714
51
90.1729175
0
ARC
8
DEFAULT_255_1_234
10
10.6784136
20
102.5630623
40
0.3541573
50
89.8708275
51
90.0431131
0
LINE
8
DEFAULT_255_1_234
10
12.0025808
20
101.8747
11
11.7487778
21
102.3477694
0
LINE
8
DEFAULT_255_1_234
10
11.7487778
20
102.3477694
11
11.4740924
21
102.3477694
0
LINE
8
DEFAULT_255_1_234
10
11.4740924
20
102.3477694
11
11.4740924
21
101.8747
0
LINE
8
DEFAULT_255_1_234
10
11.4740924
20
101.8747
11
11.3190798
21
101.8747
0
LINE
8
DEFAULT_255_1_234
10
11.3190798
20
101.8747
11
11.3190798
21
103.0441211
0
LINE
8
DEFAULT_255_1_234
10
11.3190798
20
103.0441211
11
11.7062096
21
103.0441211
0
LINE
8
DEFAULT_255_1_234
10
11.8933491
20
102.3806995
11
12.1680346
21
101.8843381
0
LINE
8
DEFAULT_255_1_234
10
12.1680346
20
101.8843381
11
12.1680346
21
101.8747
0
LINE
8
DEFAULT_255_1_234
10
12.1680346
20
101.8747
11
12.0025808
21
101.8747
0
LINE
8
DEFAULT_255_1_234
10
11.4740924
20
102.9172196
11
11.4740924
21
102.4738677
0
LINE
8
DEFAULT_255_1_234
10
11.4740924
20
102.4738677
11
11.7110287
21
102.4738677
0
LINE
8
DEFAULT_255_1_234
10
11.7102255
20
102.9172196
11
11.4740924
21
102.9172196
0
ARC
8
DEFAULT_255_1_234
10
11.7103736
20
102.3479761
40
0.6961575
50
80.653586
51
90.3427061
0
ARC
8
DEFAULT_255_1_234
10
11.752321
20
102.5942348
40
0.4463577
50
65.6987447
51
80.8329603
0
ARC
8
DEFAULT_255_1_234
10
11.8000851
20
102.7037322
40
0.3269094
50
50.0017161
51
65.4305835
0
ARC
8
DEFAULT_255_1_234
10
11.8219315
20
102.7332482
40
0.2902647
50
11.628416
51
49.5603263
0
ARC
8
DEFAULT_255_1_234
10
11.6683651
20
102.6957299
40
0.4482792
50
359.5655735
51
12.3691
0
ARC
8
DEFAULT_255_1_234
10
11.7760511
20
102.6894644
40
0.3405924
50
341.9983148
51
0.4822259
0
ARC
8
DEFAULT_255_1_234
10
11.8155351
20
102.6787471
40
0.2997359
50
323.8609373
51
341.61416
0
ARC
8
DEFAULT_255_1_234
10
11.7853595
20
102.7020484
40
0.3378487
50
296.7018614
51
323.6876402
0
ARC
8
DEFAULT_255_1_234
10
11.7412491
20
102.7809235
40
0.4281516
50
290.8086567
51
297.2323311
0
ARC
8
DEFAULT_255_1_234
10
11.713602
20
102.8332351
40
0.3593766
50
269.589728
51
281.8058135
0
ARC
8
DEFAULT_255_1_234
10
11.7386919
20
102.7184743
40
0.2419125
50
281.5501019
51
303.9357432
0
ARC
8
DEFAULT_255_1_234
10
11.7524107
20
102.6946936
40
0.2145323
50
304.4415616
51
311.2106213
0
ARC
8
DEFAULT_255_1_234
10
11.7656212
20
102.6807632
40
0.1953505
50
310.9875673
51
356.2715578
0
ARC
8
DEFAULT_255_1_234
10
11.6899861
20
102.6920422
40
0.2716331
50
354.9348262
51
0.0609027
0
ARC
8
DEFAULT_255_1_234
10
11.6712735
20
102.6947435
40
0.2903554
50
359.5239371
51
12.8808918
0
ARC
8
DEFAULT_255_1_234
10
11.7690291
20
102.7186728
40
0.1897315
50
12.4173452
51
43.1022135
0
ARC
8
DEFAULT_255_1_234
10
11.7751895
20
102.7223724
40
0.1827118
50
43.5751728
51
48.203944
0
ARC
8
DEFAULT_255_1_234
10
11.7582387
20
102.7002302
40
0.2105272
50
48.7809703
51
72.6969569
0
ARC
8
DEFAULT_255_1_234
10
11.7228012
20
102.592682
40
0.3237537
50
72.3702241
51
84.8791103
0
ARC
8
DEFAULT_255_1_234
10
11.7080488
20
102.4584769
40
0.4587478
50
84.5400526
51
89.7281406
0
LINE
8
DEFAULT_255_1_234
10
12.4322788
20
103.0441211
11
12.7141928
21
102.5959501
0
LINE
8
DEFAULT_255_1_234
10
12.7141928
20
102.5959501
11
12.9945004
21
103.0441211
0
LINE
8
DEFAULT_255_1_234
10
12.9945004
20
103.0441211
11
13.1760177
21
103.0441211
0
LINE
8
DEFAULT_255_1_234
10
13.1760177
20
103.0441211
11
12.8065578
21
102.4642296
0
LINE
8
DEFAULT_255_1_234
10
12.8065578
20
102.4642296
11
13.1848526
21
101.8747
0
LINE
8
DEFAULT_255_1_234
10
13.1848526
20
101.8747
11
13.001729
21
101.8747
0
LINE
8
DEFAULT_255_1_234
10
13.001729
20
101.8747
11
12.7141928
21
102.3309027
0
LINE
8
DEFAULT_255_1_234
10
12.7141928
20
102.3309027
11
12.4250502
21
101.8747
0
LINE
8
DEFAULT_255_1_234
10
12.4250502
20
101.8747
11
12.2427297
21
101.8747
0
LINE
8
DEFAULT_255_1_234
10
12.2427297
20
101.8747
11
12.6218278
21
102.4642296
0
LINE
8
DEFAULT_255_1_234
10
12.6218278
20
102.4642296
11
12.2515646
21
103.0441211
0
LINE
8
DEFAULT_255_1_234
10
12.2515646
20
103.0441211
11
12.4322788
21
103.0441211
0
LINE
8
DEFAULT_255_1_234
10
14.5470354
20
102.7059849
11
14.3920229
21
102.7059849
0
LINE
8
DEFAULT_255_1_234
10
13.6996871
20
102.2136394
11
13.8546996
21
102.2136394
0
ARC
8
DEFAULT_255_1_234
10
14.4579042
20
103.6006768
40
1.252368
50
248.9199003
51
254.1439814
0
ARC
8
DEFAULT_255_1_234
10
14.2898537
20
103.1680234
40
0.788226
50
241.633709
51
249.0064503
0
ARC
8
DEFAULT_255_1_234
10
14.1369931
20
102.8879317
40
0.4691427
50
230.498225
51
241.8087113
0
ARC
8
DEFAULT_255_1_234
10
14.0585505
20
102.7879906
40
0.3421437
50
227.4064532
51
229.9881192
0
ARC
8
DEFAULT_255_1_234
10
14.0098026
20
102.7404088
40
0.2741476
50
200.6781896
51
228.1763934
0
ARC
8
DEFAULT_255_1_234
10
14.0170337
20
102.7389077
40
0.2804109
50
179.5061581
51
199.8694617
0
ARC
8
DEFAULT_255_1_234
10
14.0161088
20
102.746321
40
0.2795204
50
132.4834203
51
181.0242172
0
ARC
8
DEFAULT_255_1_234
10
14.0756671
20
102.6900704
40
0.3612768
50
129.2532479
51
133.4242687
0
ARC
8
DEFAULT_255_1_234
10
14.090312
20
102.6680965
40
0.3875675
50
101.98776
51
128.8742646
0
ARC
8
DEFAULT_255_1_234
10
14.1301731
20
102.4959741
40
0.5642249
50
89.5906553
51
102.3169264
0
ARC
8
DEFAULT_255_1_234
10
14.1372223
20
102.5278148
40
0.5323783
50
77.2360837
51
90.3248275
0
ARC
8
DEFAULT_255_1_234
10
14.1579302
20
102.62454
40
0.4334697
50
63.837784
51
77.0809408
0
ARC
8
DEFAULT_255_1_234
10
14.1857064
20
102.6762911
40
0.3747796
50
45.9864267
51
64.1607727
0
ARC
8
DEFAULT_255_1_234
10
14.2117945
20
102.7060866
40
0.3352302
50
32.2747395
51
45.6547121
0
ARC
8
DEFAULT_255_1_234
10
14.2184386
20
102.707988
40
0.328603
50
359.6507365
51
32.6130309
0
ARC
8
DEFAULT_255_1_234
10
14.1241481
20
102.708466
40
0.2678863
50
359.469343
51
14.9832209
0
ARC
8
DEFAULT_255_1_234
10
14.1946544
20
102.7273539
40
0.1948938
50
14.9781179
51
48.2004265
0
ARC
8
DEFAULT_255_1_234
10
14.1782188
20
102.7066983
40
0.2212521
50
48.5927837
51
74.1241538
0
ARC
8
DEFAULT_255_1_234
10
14.1448677
20
102.5966248
40
0.3362561
50
73.7888341
51
86.6652678
0
ARC
8
DEFAULT_255_1_234
10
14.1346243
20
102.4758881
40
0.4573953
50
86.2640471
51
90.0526343
0
ARC
8
DEFAULT_255_1_234
10
14.1317955
20
102.5154192
40
0.4178709
50
89.6697524
51
99.2309573
0
ARC
8
DEFAULT_255_1_234
10
14.1075406
20
102.6598964
40
0.2713749
50
99.069534
51
113.7658566
0
ARC
8
DEFAULT_255_1_234
10
14.0801597
20
102.7244677
40
0.2012469
50
114.0401004
51
127.9850673
0
ARC
8
DEFAULT_255_1_234
10
14.0561161
20
102.754073
40
0.1631167
50
127.7287463
51
176.7105154
0
ARC
8
DEFAULT_255_1_234
10
14.1239879
20
102.7439693
40
0.2315392
50
175.1779447
51
180.0581938
0
ARC
8
DEFAULT_255_1_234
10
14.0396726
20
102.7427428
40
0.1472271
50
179.6142195
51
228.1246017
0
ARC
8
DEFAULT_255_1_234
10
14.0838394
20
102.7836308
40
0.2072299
50
226.5779593
51
230.8800004
0
ARC
8
DEFAULT_255_1_234
10
14.1309473
20
102.8461636
40
0.2854818
50
231.4635071
51
241.9260842
0
ARC
8
DEFAULT_255_1_234
10
14.2506651
20
103.06648
40
0.53622
50
241.7178533
51
248.3259551
0
ARC
8
DEFAULT_255_1_234
10
14.3892023
20
103.4097064
40
0.9063478
50
248.2007737
51
252.4528373
0
ARC
8
DEFAULT_255_1_234
10
14.5095748
20
103.7818441
40
1.2974635
50
252.3391078
51
254.3469452
0
ARC
8
DEFAULT_255_1_234
10
13.755345
20
101.0841148
40
1.5037162
50
71.0197183
51
74.4087047
0
ARC
8
DEFAULT_255_1_234
10
13.9248136
20
101.5733111
40
0.9859993
50
66.1847285
51
71.086374
0
ARC
8
DEFAULT_255_1_234
10
14.0804448
20
101.92372
40
0.6025855
50
59.3536294
51
66.2691831
0
ARC
8
DEFAULT_255_1_234
10
14.16931
20
102.0740609
40
0.4279449
50
49.1020879
51
59.3293958
0
ARC
8
DEFAULT_255_1_234
10
14.251184
20
102.1673834
40
0.3038015
50
32.7919921
51
49.2505539
0
ARC
8
DEFAULT_255_1_234
10
14.283293
20
102.1902191
40
0.264448
50
31.1181161
51
32.4005348
0
ARC
8
DEFAULT_255_1_234
10
14.2744468
20
102.1866779
40
0.2738556
50
8.1116974
51
30.7958831
0
ARC
8
DEFAULT_255_1_234
10
14.1934136
20
102.1728753
40
0.3560327
50
359.8389159
51
8.4706516
0
ARC
8
DEFAULT_255_1_234
10
14.2559927
20
102.1680137
40
0.2934776
50
337.4731098
51
0.7537279
0
ARC
8
DEFAULT_255_1_234
10
14.2738622
20
102.1660387
40
0.2762607
50
307.5917067
51
336.4315538
0
ARC
8
DEFAULT_255_1_234
10
14.227845
20
102.2173102
40
0.3449979
50
307.6551545
51
308.4529766
0
ARC
8
DEFAULT_255_1_234
10
14.2048169
20
102.252825
40
0.3871988
50
284.3734338
51
307.1424381
0
ARC
8
DEFAULT_255_1_234
10
14.1552999
20
102.4349932
40
0.5759636
50
272.4382747
51
284.646547
0
ARC
8
DEFAULT_255_1_234
10
14.1426208
20
102.6149893
40
0.7563528
50
269.9708387
51
272.8178037
0
ARC
8
DEFAULT_255_1_234
10
14.1383248
20
102.4111716
40
0.5525489
50
248.2707594
51
270.4055579
0
ARC
8
DEFAULT_255_1_234
10
14.1328989
20
102.3921192
40
0.5328452
50
246.1383403
51
248.0542782
0
ARC
8
DEFAULT_255_1_234
10
14.0910368
20
102.3041843
40
0.4355005
50
233.1670131
51
246.4950969
0
ARC
8
DEFAULT_255_1_234
10
14.0356273
20
102.2293812
40
0.3424126
50
215.3403242
51
233.0843104
0
ARC
8
DEFAULT_255_1_234
10
14.0083704
20
102.2095549
40
0.3087104
50
179.2419209
51
215.2648451
0
ARC
8
DEFAULT_255_1_234
10
14.0851298
20
102.2109666
40
0.2304457
50
179.335461
51
199.1045811
0
ARC
8
DEFAULT_255_1_234
10
14.0518974
20
102.2022766
40
0.1962176
50
199.8828939
51
232.7063202
0
ARC
8
DEFAULT_255_1_234
10
14.0991243
20
102.2616788
40
0.2720938
50
232.3738199
51
255.5136649
0
ARC
8
DEFAULT_255_1_234
10
14.1332109
20
102.3860835
40
0.4010747
50
255.2446292
51
267.5320849
0
ARC
8
DEFAULT_255_1_234
10
14.1419733
20
102.5093702
40
0.5246356
50
267.1557994
51
270.0286766
0
ARC
8
DEFAULT_255_1_234
10
14.1447505
20
102.464995
40
0.4802668
50
269.7000017
51
278.1660162
0
ARC
8
DEFAULT_255_1_234
10
14.170351
20
102.2919515
40
0.3053425
50
278.0231263
51
290.625471
0
ARC
8
DEFAULT_255_1_234
10
14.2051197
20
102.1992025
40
0.206291
50
290.6619762
51
307.0370976
0
ARC
8
DEFAULT_255_1_234
10
14.2351586
20
102.1623504
40
0.1587906
50
306.3943566
51
355.3030547
0
ARC
8
DEFAULT_255_1_234
10
14.1839518
20
102.1700113
40
0.2104809
50
354.3660432
51
0.0698737
0
ARC
8
DEFAULT_255_1_234
10
14.1981863
20
102.1722617
40
0.1962563
50
359.417946
51
16.1971788
0
ARC
8
DEFAULT_255_1_234
10
14.2437173
20
102.1847418
40
0.149053
50
16.4723299
51
52.6262157
0
ARC
8
DEFAULT_255_1_234
10
14.1616227
20
102.0763433
40
0.2850296
50
52.7386432
51
62.4979148
0
ARC
8
DEFAULT_255_1_234
10
14.0231304
20
101.8157283
40
0.5801521
50
62.2515216
51
68.1220564
0
ARC
8
DEFAULT_255_1_234
10
13.8511215
20
101.3929872
40
1.0365451
50
68.0062803
51
71.8053402
0
ARC
8
DEFAULT_255_1_234
10
13.6715586
20
100.8544758
40
1.6042013
50
71.7183119
51
73.9258742
0
LINE
8
DEFAULT_255_1_234
10
14.6859845
20
102.2851218
11
14.6859845
21
102.3124297
0
LINE
8
DEFAULT_255_1_234
10
15.4232981
20
102.3284932
11
15.4232981
21
102.2666488
0
LINE
8
DEFAULT_255_1_234
10
15.4232981
20
102.2666488
11
14.8345717
21
102.2666488
0
LINE
8
DEFAULT_255_1_234
10
15.321295
20
102.0971792
11
15.4120537
21
102.0264999
0
LINE
8
DEFAULT_255_1_234
10
14.8393907
20
102.3887313
11
15.2747109
21
102.3887313
0
LINE
8
DEFAULT_255_1_234
10
15.2747109
20
102.3887313
11
15.2747109
21
102.3999757
0
ARC
8
DEFAULT_255_1_234
10
15.079921
20
102.2962332
40
0.4376191
50
252.3266134
51
270.5810217
0
ARC
8
DEFAULT_255_1_234
10
15.0594299
20
102.2221644
40
0.3608374
50
223.3000567
51
251.8561855
0
ARC
8
DEFAULT_255_1_234
10
15.080566
20
102.2426937
40
0.3902993
50
190.9374509
51
223.3654032
0
ARC
8
DEFAULT_255_1_234
10
15.2530632
20
102.2816885
40
0.5670891
50
179.6531105
51
191.4989439
0
ARC
8
DEFAULT_255_1_234
10
15.2652645
20
102.3156417
40
0.5792888
50
167.4007466
51
180.3176909
0
ARC
8
DEFAULT_255_1_234
10
15.1600706
20
102.3378885
40
0.471777
50
154.1835823
51
167.250763
0
ARC
8
DEFAULT_255_1_234
10
15.0969174
20
102.3711417
40
0.4004528
50
134.3149965
51
154.5315275
0
ARC
8
DEFAULT_255_1_234
10
15.0751669
20
102.3902228
40
0.371612
50
122.8616532
51
133.9707695
0
ARC
8
DEFAULT_255_1_234
10
15.0648243
20
102.4124703
40
0.3473289
50
89.8249009
51
123.4199222
0
ARC
8
DEFAULT_255_1_234
10
15.0698284
20
102.3477967
40
0.4120197
50
74.7876118
51
90.5482747
0
ARC
8
DEFAULT_255_1_234
10
15.0992027
20
102.456303
40
0.2996077
50
39.8178249
51
74.7633718
0
ARC
8
DEFAULT_255_1_234
10
15.0479347
20
102.4163351
40
0.3645855
50
16.8990863
51
39.4829761
0
ARC
8
DEFAULT_255_1_234
10
14.8584644
20
102.3556526
40
0.5635218
50
4.9636328
51
17.2026414
0
ARC
8
DEFAULT_255_1_234
10
14.6166714
20
102.330134
40
0.8066286
50
359.8834553
51
5.2834307
0
ARC
8
DEFAULT_255_1_234
10
15.2204238
20
102.2732803
40
0.3859091
50
180.9846213
51
194.9401313
0
ARC
8
DEFAULT_255_1_234
10
15.1154516
20
102.2445849
40
0.2770883
50
194.80314
51
222.0412631
0
ARC
8
DEFAULT_255_1_234
10
15.0850398
20
102.2144116
40
0.2343055
50
221.5417084
51
268.8614402
0
ARC
8
DEFAULT_255_1_234
10
15.0923393
20
102.2820686
40
0.3021528
50
267.732405
51
270.0097136
0
ARC
8
DEFAULT_255_1_234
10
15.0941203
20
102.3022105
40
0.3222994
50
269.6924892
51
280.4117579
0
ARC
8
DEFAULT_255_1_234
10
15.1117609
20
102.2103193
40
0.2287344
50
280.2255091
51
298.6338936
0
ARC
8
DEFAULT_255_1_234
10
15.1234401
20
102.1859223
40
0.2017294
50
299.0430333
51
300.4643464
0
ARC
8
DEFAULT_255_1_234
10
15.0554407
20
102.2993038
40
0.3339357
50
300.6577328
51
322.0378878
0
ARC
8
DEFAULT_255_1_234
10
15.0203946
20
102.3297021
40
0.3802736
50
321.6750233
51
322.3046845
0
ARC
8
DEFAULT_255_1_234
10
15.1134907
20
102.213037
40
0.3520454
50
276.9728461
51
328.0035423
0
ARC
8
DEFAULT_255_1_234
10
15.085796
20
102.3610841
40
0.5024498
50
269.8361028
51
278.0581756
0
ARC
8
DEFAULT_255_1_234
10
15.0630698
20
102.4355757
40
0.202159
50
89.2018686
51
117.2851756
0
ARC
8
DEFAULT_255_1_234
10
15.0683867
20
102.4313752
40
0.2083484
50
118.0551165
51
137.4540413
0
ARC
8
DEFAULT_255_1_234
10
15.1058607
20
102.3973304
40
0.2589774
50
137.5109581
51
158.8516286
0
ARC
8
DEFAULT_255_1_234
10
15.2196442
20
102.3514074
40
0.38167
50
158.5845963
51
170.1721436
0
ARC
8
DEFAULT_255_1_234
10
15.3365831
20
102.3281823
40
0.5008657
50
169.8376422
51
173.0566086
0
ARC
8
DEFAULT_255_1_234
10
14.8668905
20
102.3792509
40
0.4083467
50
2.9091802
51
12.8847116
0
ARC
8
DEFAULT_255_1_234
10
15.0039582
20
102.4115101
40
0.2675383
50
12.6957781
51
28.6404489
0
ARC
8
DEFAULT_255_1_234
10
15.0581253
20
102.4395458
40
0.2065654
50
29.0169854
51
41.1487595
0
ARC
8
DEFAULT_255_1_234
10
15.0784038
20
102.4572003
40
0.1796786
50
41.1646065
51
85.0013516
0
ARC
8
DEFAULT_255_1_234
10
15.0663134
20
102.3837431
40
0.2539726
50
83.7280015
51
90.0964893
0
LINE
8
DEFAULT_255_1_234
10
16.0152372
20
102.7485531
11
16.0152372
21
102.6104072
0
LINE
8
DEFAULT_255_1_234
10
15.7437645
20
102.4915375
11
15.7437645
21
101.8747
0
LINE
8
DEFAULT_255_1_234
10
15.7437645
20
101.8747
11
15.5951773
21
101.8747
0
LINE
8
DEFAULT_255_1_234
10
15.5951773
20
101.8747
11
15.5951773
21
102.7437341
0
LINE
8
DEFAULT_255_1_234
10
15.5951773
20
102.7437341
11
15.7397486
21
102.7437341
0
LINE
8
DEFAULT_255_1_234
10
15.7397486
20
102.7437341
11
15.7421581
21
102.6433374
0
ARC
8
DEFAULT_255_1_234
10
15.9485778
20
102.2044342
40
0.4114092
50
80.6754243
51
86.8932892
0
ARC
8
DEFAULT_255_1_234
10
15.9425312
20
102.10767
40
0.5083596
50
86.8038578
51
90.0431435
0
ARC
8
DEFAULT_255_1_234
10
15.9388293
20
102.3533866
40
0.2626638
50
89.2759698
51
106.6213787
0
ARC
8
DEFAULT_255_1_234
10
15.9183857
20
102.427683
40
0.1856317
50
107.1346045
51
157.6458115
0
ARC
8
DEFAULT_255_1_234
10
15.9875458
20
102.3893311
40
0.2643398
50
155.6586782
51
157.2539184
0
ARC
8
DEFAULT_255_1_234
10
15.967066
20
102.5062157
40
0.2634121
50
127.8165941
51
148.6302098
0
ARC
8
DEFAULT_255_1_234
10
15.9417129
20
102.5322218
40
0.2273596
50
91.3329982
51
126.7875809
0
ARC
8
DEFAULT_255_1_234
10
15.949307
20
102.4607195
40
0.299078
50
89.986594
51
92.4688449
0
ARC
8
DEFAULT_255_1_234
10
15.9501465
20
102.4882078
40
0.2715908
50
85.3589899
51
90.1623399
0
ARC
8
DEFAULT_255_1_234
10
15.958598
20
102.5886164
40
0.1708278
50
78.401942
51
85.4594656
0
ARC
8
DEFAULT_255_1_234
10
15.9730864
20
102.6577236
40
0.1002194
50
67.7858312
51
78.5728455
0
ARC
8
DEFAULT_255_1_234
10
15.9838717
20
102.6856887
40
0.0702548
50
63.4835954
51
67.3062642
0
LINE
8
DEFAULT_255_1_234
10
16.3132147
20
102.7437341
11
16.3132147
21
101.8747
0
LINE
8
DEFAULT_255_1_234
10
16.3132147
20
101.8747
11
16.1646275
21
101.8747
0
LINE
8
DEFAULT_255_1_234
10
16.1646275
20
101.8747
11
16.1646275
21
102.7437341
0
LINE
8
DEFAULT_255_1_234
10
16.1646275
20
102.7437341
11
16.3132147
21
102.7437341
0
ARC
8
DEFAULT_255_1_234
10
16.2504424
20
102.9751889
40
0.097867
50
161.415052
51
180.5526306
0
ARC
8
DEFAULT_255_1_234
10
16.2380202
20
102.9786077
40
0.0850062
50
138.1827368
51
160.9307106
0
ARC
8
DEFAULT_255_1_234
10
16.2270148
20
102.9881588
40
0.0704362
50
104.6368899
51
138.0039868
0
ARC
8
DEFAULT_255_1_234
10
16.2377303
20
102.9514963
40
0.1086221
50
92.0600725
51
105.2189128
0
ARC
8
DEFAULT_255_1_234
10
16.2400651
20
102.9172117
40
0.1429728
50
89.9756393
51
92.5012496
0
ARC
8
DEFAULT_255_1_234
10
16.241067
20
102.9397731
40
0.1204151
50
78.0235316
51
90.4478182
0
ARC
8
DEFAULT_255_1_234
10
16.2502762
20
102.9811295
40
0.0780493
50
55.051506
51
78.3369085
0
ARC
8
DEFAULT_255_1_234
10
16.2553037
20
102.9895711
40
0.0682538
50
42.0501187
51
54.4513741
0
ARC
8
DEFAULT_255_1_234
10
16.2417904
20
102.9771798
40
0.0865878
50
1.7497075
51
42.1496013
0
ARC
8
DEFAULT_255_1_234
10
16.2163237
20
102.9742738
40
0.1121515
50
359.9852656
51
2.8364544
0
ARC
8
DEFAULT_255_1_234
10
16.2329229
20
102.9733229
40
0.0955566
50
342.1070653
51
0.552888
0
ARC
8
DEFAULT_255_1_234
10
16.2471926
20
102.9693904
40
0.0807713
50
316.7107116
51
341.6516965
0
ARC
8
DEFAULT_255_1_234
10
16.2538963
20
102.9633823
40
0.0717724
50
285.4397031
51
316.5324284
0
ARC
8
DEFAULT_255_1_234
10
16.242888
20
102.9999554
40
0.1099597
50
272.3547054
51
285.8953117
0
ARC
8
DEFAULT_255_1_234
10
16.2402038
20
103.0365048
40
0.1465932
50
269.9695369
51
272.8160237
0
ARC
8
DEFAULT_255_1_234
10
16.239222
20
103.0145863
40
0.1246779
50
258.8431134
51
270.4153935
0
ARC
8
DEFAULT_255_1_234
10
16.2302262
20
102.9710414
40
0.0802162
50
238.5431189
51
259.1288175
0
ARC
8
DEFAULT_255_1_234
10
16.2234147
20
102.9586856
40
0.0661247
50
222.5062634
51
237.9906969
0
ARC
8
DEFAULT_255_1_234
10
16.2361734
20
102.9702889
40
0.0833707
50
184.1069131
51
222.460413
0
ARC
8
DEFAULT_255_1_234
10
16.2630975
20
102.9741349
40
0.1105176
50
179.9429482
51
185.0960898
0
LINE
8
DEFAULT_255_1_234
10
16.513205
20
102.2851218
11
16.513205
21
102.3124297
0
LINE
8
DEFAULT_255_1_234
10
17.2505186
20
102.3284932
11
17.2505186
21
102.2666488
0
LINE
8
DEFAULT_255_1_234
10
17.2505186
20
102.2666488
11
16.6617921
21
102.2666488
0
LINE
8
DEFAULT_255_1_234
10
17.1485155
20
102.0971792
11
17.2392741
21
102.0264999
0
LINE
8
DEFAULT_255_1_234
10
16.6666112
20
102.3887313
11
17.1019314
21
102.3887313
0
LINE
8
DEFAULT_255_1_234
10
17.1019314
20
102.3887313
11
17.1019314
21
102.3999757
0
ARC
8
DEFAULT_255_1_234
10
16.9071415
20
102.2962332
40
0.4376191
50
252.3266134
51
270.5810217
0
ARC
8
DEFAULT_255_1_234
10
16.8866504
20
102.2221644
40
0.3608374
50
223.3000567
51
251.8561855
0
ARC
8
DEFAULT_255_1_234
10
16.9077865
20
102.2426937
40
0.3902993
50
190.9374509
51
223.3654032
0
ARC
8
DEFAULT_255_1_234
10
17.0802837
20
102.2816885
40
0.5670891
50
179.6531105
51
191.4989439
0
ARC
8
DEFAULT_255_1_234
10
17.0924849
20
102.3156417
40
0.5792888
50
167.4007466
51
180.3176909
0
ARC
8
DEFAULT_255_1_234
10
16.9872911
20
102.3378885
40
0.471777
50
154.1835823
51
167.250763
0
ARC
8
DEFAULT_255_1_234
10
16.9241378
20
102.3711417
40
0.4004528
50
134.3149965
51
154.5315275
0
ARC
8
DEFAULT_255_1_234
10
16.9023873
20
102.3902228
40
0.371612
50
122.8616532
51
133.9707695
0
ARC
8
DEFAULT_255_1_234
10
16.8920447
20
102.4124703
40
0.3473289
50
89.8249009
51
123.4199222
0
ARC
8
DEFAULT_255_1_234
10
16.8970488
20
102.3477967
40
0.4120197
50
74.7876118
51
90.5482747
0
ARC
8
DEFAULT_255_1_234
10
16.9264232
20
102.456303
40
0.2996077
50
39.8178249
51
74.7633718
0
ARC
8
DEFAULT_255_1_234
10
16.8751552
20
102.4163351
40
0.3645855
50
16.8990863
51
39.4829761
0
ARC
8
DEFAULT_255_1_234
10
16.6856848
20
102.3556526
40
0.5635218
50
4.9636328
51
17.2026414
0
ARC
8
DEFAULT_255_1_234
10
16.4438918
20
102.330134
40
0.8066286
50
359.8834553
51
5.2834307
0
ARC
8
DEFAULT_255_1_234
10
17.0476443
20
102.2732803
40
0.3859091
50
180.9846213
51
194.9401313
0
ARC
8
DEFAULT_255_1_234
10
16.9426721
20
102.2445849
40
0.2770883
50
194.80314
51
222.0412631
0
ARC
8
DEFAULT_255_1_234
10
16.9122603
20
102.2144116
40
0.2343055
50
221.5417084
51
268.8614402
0
ARC
8
DEFAULT_255_1_234
10
16.9195597
20
102.2820686
40
0.3021528
50
267.732405
51
270.0097136
0
ARC
8
DEFAULT_255_1_234
10
16.9213407
20
102.3022105
40
0.3222994
50
269.6924892
51
280.4117579
0
ARC
8
DEFAULT_255_1_234
10
16.9389814
20
102.2103193
40
0.2287344
50
280.2255091
51
298.6338936
0
ARC
8
DEFAULT_255_1_234
10
16.9506606
20
102.1859223
40
0.2017294
50
299.0430333
51
300.4643464
0
ARC
8
DEFAULT_255_1_234
10
16.8826611
20
102.2993038
40
0.3339357
50
300.6577328
51
322.0378878
0
ARC
8
DEFAULT_255_1_234
10
16.8476151
20
102.3297021
40
0.3802736
50
321.6750233
51
322.3046845
0
ARC
8
DEFAULT_255_1_234
10
16.9407112
20
102.213037
40
0.3520454
50
276.9728461
51
328.0035423
0
ARC
8
DEFAULT_255_1_234
10
16.9130165
20
102.3610841
40
0.5024498
50
269.8361028
51
278.0581756
0
ARC
8
DEFAULT_255_1_234
10
16.8902902
20
102.4355757
40
0.202159
50
89.2018686
51
117.2851756
0
ARC
8
DEFAULT_255_1_234
10
16.8956071
20
102.4313752
40
0.2083484
50
118.0551165
51
137.4540413
0
ARC
8
DEFAULT_255_1_234
10
16.9330811
20
102.3973304
40
0.2589774
50
137.5109581
51
158.8516286
0
ARC
8
DEFAULT_255_1_234
10
17.0468647
20
102.3514074
40
0.38167
50
158.5845963
51
170.1721436
0
ARC
8
DEFAULT_255_1_234
10
17.1638036
20
102.3281823
40
0.5008657
50
169.8376422
51
173.0566086
0
ARC
8
DEFAULT_255_1_234
10
16.694111
20
102.3792509
40
0.4083467
50
2.9091802
51
12.8847116
0
ARC
8
DEFAULT_255_1_234
10
16.8311786
20
102.4115101
40
0.2675383
50
12.6957781
51
28.6404489
0
ARC
8
DEFAULT_255_1_234
10
16.8853457
20
102.4395458
40
0.2065654
50
29.0169854
51
41.1487595
0
ARC
8
DEFAULT_255_1_234
10
16.9056242
20
102.4572003
40
0.1796786
50
41.1646065
51
85.0013516
0
ARC
8
DEFAULT_255_1_234
10
16.8935339
20
102.3837431
40
0.2539726
50
83.7280015
51
90.0964893
0
LINE
8
DEFAULT_255_1_234
10
18.0689527
20
102.4883248
11
17.9195624
21
102.4883248
0
LINE
8
DEFAULT_255_1_234
10
17.3862549
20
102.1421569
11
17.5348421
21
102.1421569
0
ARC
8
DEFAULT_255_1_234
10
17.8007442
20
102.1066959
40
0.1276617
50
359.3334982
51
18.5871358
0
ARC
8
DEFAULT_255_1_234
10
17.8216079
20
102.1122133
40
0.1061371
50
19.3540742
51
54.6485071
0
ARC
8
DEFAULT_255_1_234
10
17.7711981
20
102.0426919
40
0.1920087
50
54.3827097
51
65.0622807
0
ARC
8
DEFAULT_255_1_234
10
17.6943378
20
101.88099
40
0.3710447
50
64.8282493
51
71.4200025
0
ARC
8
DEFAULT_255_1_234
10
17.6041253
20
101.6163107
40
0.6506741
50
71.3164301
51
75.8006402
0
ARC
8
DEFAULT_255_1_234
10
17.5200073
20
101.2922561
40
0.9854641
50
75.6809531
51
78.0061883
0
ARC
8
DEFAULT_255_1_234
10
17.9648606
20
103.390177
40
1.1591028
50
254.6901892
51
258.0466452
0
ARC
8
DEFAULT_255_1_234
10
17.8610515
20
103.0142781
40
0.7691345
50
249.9010773
51
254.755261
0
ARC
8
DEFAULT_255_1_234
10
17.7606857
20
102.7416982
40
0.478665
50
243.3097214
51
249.9709442
0
ARC
8
DEFAULT_255_1_234
10
17.6977878
20
102.6162778
40
0.3383568
50
234.4047477
51
243.2862168
0
ARC
8
DEFAULT_255_1_234
10
17.6355401
20
102.5303232
40
0.2322322
50
220.8667099
51
234.5493881
0
ARC
8
DEFAULT_255_1_234
10
17.6013342
20
102.4991817
40
0.1859923
50
214.3062465
51
220.5065136
0
ARC
8
DEFAULT_255_1_234
10
17.5987422
20
102.496088
40
0.1821108
50
186.912965
51
213.9618616
0
ARC
8
DEFAULT_255_1_234
10
17.6519516
20
102.5047009
40
0.2359799
50
179.8808832
51
187.4339886
0
ARC
8
DEFAULT_255_1_234
10
17.636465
20
102.5067088
40
0.2204978
50
132.005434
51
180.3942919
0
ARC
8
DEFAULT_255_1_234
10
17.7021263
20
102.4461083
40
0.3095791
50
129.2319861
51
133.5302299
0
ARC
8
DEFAULT_255_1_234
10
17.7074771
20
102.4366928
40
0.3202615
50
100.4410011
51
128.9081242
0
ARC
8
DEFAULT_255_1_234
10
17.7348655
20
102.3081455
40
0.4516583
50
89.6985377
51
100.9026564
0
ARC
8
DEFAULT_255_1_234
10
17.7405697
20
102.2921166
40
0.4676928
50
77.6965325
51
90.4076836
0
ARC
8
DEFAULT_255_1_234
10
17.7736681
20
102.4348413
40
0.3211988
50
50.7276602
51
78.0399361
0
ARC
8
DEFAULT_255_1_234
10
17.818114
20
102.4866296
40
0.2529778
50
25.7545084
51
51.0957453
0
ARC
8
DEFAULT_255_1_234
10
17.8182364
20
102.4916206
40
0.250738
50
359.2468627
51
24.7394243
0
ARC
8
DEFAULT_255_1_234
10
17.7897816
20
102.4887664
40
0.1297815
50
359.8050318
51
45.1544908
0
ARC
8
DEFAULT_255_1_234
10
17.7490958
20
102.4539794
40
0.1831883
50
43.8047702
51
49.6271585
0
ARC
8
DEFAULT_255_1_234
10
17.749886
20
102.4540678
40
0.18261
50
49.7980766
51
82.1218353
0
ARC
8
DEFAULT_255_1_234
10
17.7379831
20
102.3893998
40
0.2483163
50
81.4465357
51
90.1710293
0
ARC
8
DEFAULT_255_1_234
10
17.7355434
20
102.336788
40
0.300932
50
89.6766211
51
99.1264602
0
ARC
8
DEFAULT_255_1_234
10
17.7183896
20
102.4401537
40
0.1961547
50
98.968313
51
113.4570237
0
ARC
8
DEFAULT_255_1_234
10
17.6987981
20
102.4869965
40
0.1453859
50
113.722589
51
127.4763106
0
ARC
8
DEFAULT_255_1_234
10
17.6819627
20
102.5070124
40
0.1192639
50
126.9083309
51
150.3165862
0
ARC
8
DEFAULT_255_1_234
10
17.677196
20
102.5120981
40
0.112623
50
151.3635175
51
180.0701457
0
ARC
8
DEFAULT_255_1_234
10
17.7080745
20
102.509999
40
0.1435149
50
179.2169974
51
179.9954013
0
ARC
8
DEFAULT_255_1_234
10
17.6719802
20
102.5087056
40
0.1074286
50
179.3040112
51
198.4225446
0
ARC
8
DEFAULT_255_1_234
10
17.6527936
20
102.5037127
40
0.0876573
50
199.2895851
51
238.6034594
0
ARC
8
DEFAULT_255_1_234
10
17.7130782
20
102.598345
40
0.1998512
50
237.9846301
51
246.8744712
0
ARC
8
DEFAULT_255_1_234
10
17.7988727
20
102.7946205
40
0.4140547
50
246.6234531
51
251.8168941
0
ARC
8
DEFAULT_255_1_234
10
17.9019271
20
103.1040905
40
0.7402308
50
251.713434
51
255.0778414
0
ARC
8
DEFAULT_255_1_234
10
18.0218533
20
103.5507563
40
1.2027155
50
255.0367487
51
257.4705983
0
ARC
8
DEFAULT_255_1_234
10
17.5110543
20
101.2493863
40
1.1546601
50
73.6837552
51
77.5016755
0
ARC
8
DEFAULT_255_1_234
10
17.6199318
20
101.6193581
40
0.7690009
50
68.7044154
51
73.7249639
0
ARC
8
DEFAULT_255_1_234
10
17.7102339
20
101.8520654
40
0.5193873
50
63.590599
51
68.6626804
0
ARC
8
DEFAULT_255_1_234
10
17.7873358
20
102.0058123
40
0.3473927
50
54.7106439
51
63.7013633
0
ARC
8
DEFAULT_255_1_234
10
17.8497812
20
102.09304
40
0.2401192
50
41.0622434
51
54.8487496
0
ARC
8
DEFAULT_255_1_234
10
17.8839199
20
102.1243592
40
0.1938094
50
34.4950568
51
40.7105546
0
ARC
8
DEFAULT_255_1_234
10
17.8886006
20
102.1292078
40
0.1872106
50
9.3763373
51
34.0833615
0
ARC
8
DEFAULT_255_1_234
10
17.8232876
20
102.1166728
40
0.2536988
50
359.7694872
51
9.7663171
0
ARC
8
DEFAULT_255_1_234
10
17.8430377
20
102.1123764
40
0.2339696
50
335.8654732
51
0.8022045
0
ARC
8
DEFAULT_255_1_234
10
17.8505422
20
102.1137197
40
0.2277108
50
307.7357725
51
334.7849066
0
ARC
8
DEFAULT_255_1_234
10
17.8104597
20
102.1587645
40
0.2878951
50
307.0241536
51
308.5578354
0
ARC
8
DEFAULT_255_1_234
10
17.7846929
20
102.1973801
40
0.3342515
50
282.9362969
51
306.5646424
0
ARC
8
DEFAULT_255_1_234
10
17.7485226
20
102.3441108
40
0.4853615
50
271.1026298
51
283.2200835
0
ARC
8
DEFAULT_255_1_234
10
17.742147
20
102.4682418
40
0.6096052
50
269.9919117
51
271.4772449
0
ARC
8
DEFAULT_255_1_234
10
17.7395225
20
102.3604436
40
0.5018135
50
259.0723564
51
270.289833
0
ARC
8
DEFAULT_255_1_234
10
17.7182957
20
102.2487271
40
0.388099
50
245.4963068
51
259.0227342
0
ARC
8
DEFAULT_255_1_234
10
17.6904914
20
102.1905615
40
0.3236422
50
228.9684658
51
245.7044727
0
ARC
8
DEFAULT_255_1_234
10
17.6639357
20
102.1578575
40
0.2815426
50
214.4011705
51
228.6759915
0
ARC
8
DEFAULT_255_1_234
10
17.6350098
20
102.142029
40
0.2487548
50
179.9705531
51
215.1572795
0
ARC
8
DEFAULT_255_1_234
10
17.7050698
20
102.1493806
40
0.1703809
50
182.4299387
51
203.0329699
0
ARC
8
DEFAULT_255_1_234
10
17.6866355
20
102.1437396
40
0.1512226
50
203.798802
51
232.548466
0
ARC
8
DEFAULT_255_1_234
10
17.7142877
20
102.1788826
40
0.1959374
50
232.3782728
51
256.3934612
0
ARC
8
DEFAULT_255_1_234
10
17.7373238
20
102.2678842
40
0.2878639
50
256.104506
51
268.4626716
0
ARC
8
DEFAULT_255_1_234
10
17.7419723
20
102.3475487
40
0.3676329
50
268.0715632
51
270.0138206
0
ARC
8
DEFAULT_255_1_234
10
17.7438247
20
102.3203083
40
0.3403971
50
269.7031147
51
278.8341955
0
ARC
8
DEFAULT_255_1_234
10
17.7620341
20
102.2072876
40
0.2259217
50
278.6728789
51
292.8232582
0
ARC
8
DEFAULT_255_1_234
10
17.7820879
20
102.1571449
40
0.171929
50
293.1452328
51
303.6655899
0
ARC
8
DEFAULT_255_1_234
10
17.8085758
20
102.1195204
40
0.1259367
50
303.1248165
51
321.742847
0
ARC
8
DEFAULT_255_1_234
10
17.8271638
20
102.1032156
40
0.1012531
50
322.4748573
51
1.1291126
0
LINE
8
DEFAULT_255_2_778
10
9.3932417
20
92.4719078
11
10.7161417
21
92.4719078
0
LINE
8
DEFAULT_255_2_778
10
10.7161417
20
92.4719078
11
10.7161417
21
51.4615078
0
LINE
8
DEFAULT_255_2_778
10
9.3932834
20
51.4614333
11
12.0390834
21
51.4614333
0
LINE
8
DEFAULT_255_2_778
10
12.0390834
20
51.4614333
11
12.0390834
21
46.1697333
0
LINE
8
DEFAULT_255_2_778
10
12.0390834
20
46.1697333
11
9.3932834
21
46.1697333
0
LINE
8
DEFAULT_255_2_778
10
9.3932834
20
46.1697333
11
9.3932834
21
51.4614333
0
ARC
8
DEFAULT_255_2_778_1
10
13.1928591
20
46.272177
40
4.816461
50
120.9442904
51
122.351755
0
ARC
8
DEFAULT_255_2_778_1
10
12.7462523
20
46.9758039
40
3.9830657
50
122.3407904
51
124.1946752
0
ARC
8
DEFAULT_255_2_778_1
10
12.3063464
20
47.6223306
40
3.2010724
50
124.1855758
51
126.4338849
0
ARC
8
DEFAULT_255_2_778_1
10
11.9204129
20
48.1450611
40
2.5513094
50
126.4326926
51
128.8877368
0
ARC
8
DEFAULT_255_2_778_1
10
11.5855968
20
48.5594658
40
2.0185498
50
128.8749205
51
131.8726567
0
ARC
8
DEFAULT_255_2_778_1
10
11.2884677
20
48.8904854
40
1.5737356
50
131.8616166
51
135.4168838
0
ARC
8
DEFAULT_255_2_778_1
10
11.025668
20
49.1486765
40
1.2053256
50
135.3893975
51
139.9687014
0
ARC
8
DEFAULT_255_2_778_1
10
10.7927889
20
49.3435102
40
0.9016937
50
139.9301659
51
145.9260426
0
ARC
8
DEFAULT_255_2_778_1
10
10.596654
20
49.4755104
40
0.6652776
50
145.8787362
51
153.8146208
0
ARC
8
DEFAULT_255_2_778_1
10
10.4445553
20
49.5498797
40
0.4959714
50
153.770634
51
164.3484794
0
ARC
8
DEFAULT_255_2_778_1
10
10.3432387
20
49.5780786
40
0.3908039
50
164.3220276
51
179.8083066
0
ARC
8
DEFAULT_255_2_778_1
10
10.3642789
20
49.586215
40
0.4118985
50
180.9499449
51
213.8111542
0
ARC
8
DEFAULT_255_2_778_1
10
10.6401828
20
49.7557896
40
0.73561
50
212.8271214
51
224.258472
0
ARC
8
DEFAULT_255_2_778_1
10
11.0230335
20
50.1251236
40
1.267567
50
224.1376218
51
231.4508261
0
ARC
8
DEFAULT_255_2_778_1
10
11.6657195
20
50.9281168
40
2.2960809
50
231.3955893
51
236.1256478
0
ARC
8
DEFAULT_255_2_778_1
10
13.4980223
20
53.6746293
40
5.5976905
50
236.2233172
51
239.1314682
0
ARC
8
DEFAULT_255_2_778_1
10
25.447927
20
73.4023568
40
28.6623793
50
238.8606853
51
239.0711101
0
ARC
8
DEFAULT_255_2_778_1
10
6.2757281
20
41.3052653
40
8.7248518
50
57.2420924
51
59.4062964
0
ARC
8
DEFAULT_255_2_778_1
10
9.5034241
20
46.3362102
40
2.747542
50
52.8289294
51
57.079028
0
ARC
8
DEFAULT_255_2_778_1
10
10.2780783
20
47.3565488
40
1.466457
50
46.3041868
51
52.8596521
0
ARC
8
DEFAULT_255_2_778_1
10
10.7103073
20
47.8066842
40
0.8424061
50
36.2174211
51
46.4090895
0
ARC
8
DEFAULT_255_2_778_1
10
10.9948088
20
48.0115128
40
0.4918609
50
17.400375
51
36.5489745
0
ARC
8
DEFAULT_255_2_778_1
10
11.1088994
20
48.0513754
40
0.3710912
50
0.0676858
51
16.7951297
0
ARC
8
DEFAULT_255_2_778_1
10
11.0878613
20
48.0532428
40
0.3921317
50
343.8035191
51
359.7912046
0
ARC
8
DEFAULT_255_2_778_1
10
10.9815912
20
48.0837167
40
0.5026844
50
333.2506233
51
343.8465691
0
ARC
8
DEFAULT_255_2_778_1
10
10.8277757
20
48.1604313
40
0.6745679
50
325.6600948
51
333.3122657
0
ARC
8
DEFAULT_255_2_778_1
10
10.6323344
20
48.2932296
40
0.9108568
50
319.7560915
51
325.6976089
0
ARC
8
DEFAULT_255_2_778_1
10
10.404199
20
48.4850002
40
1.2088854
50
315.4577584
51
319.8037947
0
ARC
8
DEFAULT_255_2_778_1
10
10.1408127
20
48.7438507
40
1.5781764
50
311.7298824
51
315.4670864
0
ARC
8
DEFAULT_255_2_778_1
10
9.8317879
20
49.0894074
40
2.0417554
50
308.723055
51
311.7470879
0
ARC
8
DEFAULT_255_2_778_1
10
9.477589
20
49.5306492
40
2.6075745
50
306.1165163
51
308.7300151
0
ARC
8
DEFAULT_255_2_778_1
10
9.0746091
20
50.0819523
40
3.2904564
50
303.9559446
51
306.1266333
0
ARC
8
DEFAULT_255_2_778_1
10
8.6630432
20
50.691215
40
4.0257023
50
302.3733397
51
303.9712246
0
ARC
8
DEFAULT_255_2_778_1
10
8.2434347
20
51.3527058
40
4.8090549
50
300.9434827
51
302.3758078
0
LINE
8
DEFAULT_255_2_778
10
10.7161335
20
46.1697488
11
10.7161335
21
5.1593488
0
LINE
8
DEFAULT_255_2_778
10
10.7161335
20
5.1593488
11
9.3932335
21
5.1593488
0
LINE
8
DEFAULT_255_2_778
10
19.9765335
20
92.4718488
11
18.6536335
21
92.4718488
0
LINE
8
DEFAULT_255_2_778
10
18.6536335
20
92.4718488
11
18.6536335
21
75.2739488
0
LINE
8
DEFAULT_255_2_778
10
17.3307834
20
75.2739333
11
19.9765834
21
75.2739333
0
LINE
8
DEFAULT_255_2_778
10
19.9765834
20
75.2739333
11
19.9765834
21
69.9822333
0
LINE
8
DEFAULT_255_2_778
10
19.9765834
20
69.9822333
11
17.3307834
21
69.9822333
0
LINE
8
DEFAULT_255_2_778
10
17.3307834
20
69.9822333
11
17.3307834
21
75.2739333
0
ARC
8
DEFAULT_255_2_778_1
10
21.1303591
20
70.084677
40
4.816461
50
120.9442904
51
122.351755
0
ARC
8
DEFAULT_255_2_778_1
10
20.6837523
20
70.7883039
40
3.9830657
50
122.3407904
51
124.1946752
0
ARC
8
DEFAULT_255_2_778_1
10
20.2438464
20
71.4348306
40
3.2010724
50
124.1855758
51
126.4338849
0
ARC
8
DEFAULT_255_2_778_1
10
19.8579129
20
71.9575611
40
2.5513094
50
126.4326926
51
128.8877368
0
ARC
8
DEFAULT_255_2_778_1
10
19.5230968
20
72.3719658
40
2.0185498
50
128.8749205
51
131.8726567
0
ARC
8
DEFAULT_255_2_778_1
10
19.2259677
20
72.7029854
40
1.5737356
50
131.8616166
51
135.4168838
0
ARC
8
DEFAULT_255_2_778_1
10
18.963168
20
72.9611765
40
1.2053256
50
135.3893975
51
139.9687014
0
ARC
8
DEFAULT_255_2_778_1
10
18.7302889
20
73.1560102
40
0.9016937
50
139.9301659
51
145.9260426
0
ARC
8
DEFAULT_255_2_778_1
10
18.534154
20
73.2880104
40
0.6652776
50
145.8787362
51
153.8146208
0
ARC
8
DEFAULT_255_2_778_1
10
18.3820553
20
73.3623797
40
0.4959714
50
153.770634
51
164.3484794
0
ARC
8
DEFAULT_255_2_778_1
10
18.2807387
20
73.3905786
40
0.3908039
50
164.3220276
51
179.8083066
0
ARC
8
DEFAULT_255_2_778_1
10
18.3017789
20
73.398715
40
0.4118985
50
180.9499449
51
213.8111542
0
ARC
8
DEFAULT_255_2_778_1
10
18.5776828
20
73.5682896
40
0.73561
50
212.8271214
51
224.258472
0
ARC
8
DEFAULT_255_2_778_1
10
18.9605335
20
73.9376236
40
1.267567
50
224.1376218
51
231.4508261
0
ARC
8
DEFAULT_255_2_778_1
10
19.6032195
20
74.7406168
40
2.2960809
50
231.3955893
51
236.1256478
0
ARC
8
DEFAULT_255_2_778_1
10
21.4355223
20
77.4871293
40
5.5976905
50
236.2233172
51
239.1314682
0
ARC
8
DEFAULT_255_2_778_1
10
33.385427
20
97.2148568
40
28.6623793
50
238.8606853
51
239.0711101
0
ARC
8
DEFAULT_255_2_778_1
10
14.2132281
20
65.1177653
40
8.7248518
50
57.2420924
51
59.4062964
0
ARC
8
DEFAULT_255_2_778_1
10
17.4409241
20
70.1487102
40
2.747542
50
52.8289294
51
57.079028
0
ARC
8
DEFAULT_255_2_778_1
10
18.2155783
20
71.1690488
40
1.466457
50
46.3041868
51
52.8596521
0
ARC
8
DEFAULT_255_2_778_1
10
18.6478073
20
71.6191842
40
0.8424061
50
36.2174211
51
46.4090895
0
ARC
8
DEFAULT_255_2_778_1
10
18.9323088
20
71.8240128
40
0.4918609
50
17.400375
51
36.5489745
0
ARC
8
DEFAULT_255_2_778_1
10
19.0463994
20
71.8638754
40
0.3710912
50
0.0676858
51
16.7951297
0
ARC
8
DEFAULT_255_2_778_1
10
19.0253613
20
71.8657428
40
0.3921317
50
343.8035191
51
359.7912046
0
ARC
8
DEFAULT_255_2_778_1
10
18.9190912
20
71.8962167
40
0.5026844
50
333.2506233
51
343.8465691
0
ARC
8
DEFAULT_255_2_778_1
10
18.7652757
20
71.9729313
40
0.6745679
50
325.6600948
51
333.3122657
0
ARC
8
DEFAULT_255_2_778_1
10
18.5698344
20
72.1057296
40
0.9108568
50
319.7560915
51
325.6976089
0
ARC
8
DEFAULT_255_2_778_1
10
18.341699
20
72.2975002
40
1.2088854
50
315.4577584
51
319.8037947
0
ARC
8
DEFAULT_255_2_778_1
10
18.0783127
20
72.5563507
40
1.5781764
50
311.7298824
51
315.4670864
0
ARC
8
DEFAULT_255_2_778_1
10
17.7692879
20
72.9019074
40
2.0417554
50
308.723055
51
311.7470879
0
ARC
8
DEFAULT_255_2_778_1
10
17.415089
20
73.3431492
40
2.6075745
50
306.1165163
51
308.7300151
0
ARC
8
DEFAULT_255_2_778_1
10
17.0121091
20
73.8944523
40
3.2904564
50
303.9559446
51
306.1266333
0
ARC
8
DEFAULT_255_2_778_1
10
16.6005432
20
74.503715
40
4.0257023
50
302.3733397
51
303.9712246
0
ARC
8
DEFAULT_255_2_778_1
10
16.1809347
20
75.1652058
40
4.8090549
50
300.9434827
51
302.3758078
0
LINE
8
DEFAULT_255_2_778
10
18.6536417
20
69.9822581
11
18.6536417
21
52.7843581
0
LINE
8
DEFAULT_255_2_778
10
18.6536417
20
52.7843581
11
19.9765417
21
52.7843581
0
LINE
8
DEFAULT_255_1_234
10
4.9274119
20
100.0116792
11
4.9274119
21
99.8904
0
LINE
8
DEFAULT_255_1_234
10
4.9274119
20
99.8904
11
4.161184
21
99.8904
0
LINE
8
DEFAULT_255_1_234
10
4.161184
20
99.8904
11
4.161184
21
99.9972221
0
LINE
8
DEFAULT_255_1_234
10
4.161184
20
99.9972221
11
4.5659836
21
100.4469995
0
LINE
8
DEFAULT_255_1_234
10
4.2872823
20
100.7152595
11
4.1386952
21
100.7152595
0
LINE
8
DEFAULT_255_1_234
10
4.6535296
20
100.3514218
11
4.3402918
21
100.0116792
0
LINE
8
DEFAULT_255_1_234
10
4.3402918
20
100.0116792
11
4.9274119
21
100.0116792
0
ARC
8
DEFAULT_255_1_234
10
3.216967
20
101.6399527
40
1.8008286
50
318.5132453
51
320.7828378
0
ARC
8
DEFAULT_255_1_234
10
3.7456644
20
101.2096426
40
1.1191493
50
320.7372736
51
323.9737074
0
ARC
8
DEFAULT_255_1_234
10
4.1376501
20
100.9256361
40
0.6350923
50
323.8961724
51
328.6421089
0
ARC
8
DEFAULT_255_1_234
10
4.3423096
20
100.7994031
40
0.3946393
50
328.8299013
51
331.789948
0
ARC
8
DEFAULT_255_1_234
10
4.4420274
20
100.7479509
40
0.2824501
50
331.4255242
51
352.9364833
0
ARC
8
DEFAULT_255_1_234
10
4.4556775
20
100.7448976
40
0.2685315
50
353.2248685
51
0.0169286
0
ARC
8
DEFAULT_255_1_234
10
4.4766652
20
100.747195
40
0.2475536
50
359.4866256
51
15.9339782
0
ARC
8
DEFAULT_255_1_234
10
4.5273637
20
100.7608286
40
0.1950618
50
16.1714718
51
43.5284424
0
ARC
8
DEFAULT_255_1_234
10
4.5350946
20
100.7685573
40
0.184134
50
43.4415429
51
83.1661404
0
ARC
8
DEFAULT_255_1_234
10
4.5216864
20
100.6948771
40
0.258926
50
82.160215
51
90.1505798
0
ARC
8
DEFAULT_255_1_234
10
4.5185291
20
100.6411865
40
0.3126255
50
89.5460705
51
102.5418777
0
ARC
8
DEFAULT_255_1_234
10
4.4942377
20
100.7442665
40
0.2067346
50
102.1739365
51
129.2061916
0
ARC
8
DEFAULT_255_1_234
10
4.4863449
20
100.7567094
40
0.1921118
50
129.7279328
51
135.7542026
0
ARC
8
DEFAULT_255_1_234
10
4.4984977
20
100.7470045
40
0.2075944
50
136.175737
51
166.3674722
0
ARC
8
DEFAULT_255_1_234
10
4.5991896
20
100.7200182
40
0.3118201
50
165.9092917
51
178.8683903
0
ARC
8
DEFAULT_255_1_234
10
4.6856757
20
100.7153179
40
0.3983935
50
178.438168
51
180.0083905
0
ARC
8
DEFAULT_255_1_234
10
4.5455359
20
100.7192231
40
0.4068601
50
163.2878735
51
180.5581814
0
ARC
8
DEFAULT_255_1_234
10
4.4653621
20
100.741284
40
0.3237344
50
133.454115
51
162.9470031
0
ARC
8
DEFAULT_255_1_234
10
4.4832162
20
100.7223
40
0.349795
50
100.7869394
51
133.4384016
0
ARC
8
DEFAULT_255_1_234
10
4.5179934
20
100.5674319
40
0.5084616
50
89.6605301
51
101.3704185
0
ARC
8
DEFAULT_255_1_234
10
4.5246273
20
100.5735496
40
0.502348
50
78.2171172
51
90.4130393
0
ARC
8
DEFAULT_255_1_234
10
4.5601351
20
100.7359637
40
0.3361092
50
55.9268222
51
78.4888551
0
ARC
8
DEFAULT_255_1_234
10
4.5797791
20
100.7698324
40
0.2970617
50
47.9292255
51
55.4054003
0
ARC
8
DEFAULT_255_1_234
10
4.5899352
20
100.7801502
40
0.2825983
50
4.3347696
51
48.0560701
0
ARC
8
DEFAULT_255_1_234
10
4.4803745
20
100.7631601
40
0.393225
50
359.925209
51
5.5967654
0
ARC
8
DEFAULT_255_1_234
10
4.5232637
20
100.7687816
40
0.3503892
50
337.8914096
51
358.9967724
0
ARC
8
DEFAULT_255_1_234
10
4.2519049
20
100.8734706
40
0.6412172
50
326.9135351
51
338.3505194
0
ARC
8
DEFAULT_255_1_234
10
3.8533353
20
101.1289284
40
1.1146189
50
319.6472867
51
327.095818
0
ARC
8
DEFAULT_255_1_234
10
3.4700356
20
101.4451
40
1.6114559
50
317.2586784
51
319.9046139
0
LINE
8
DEFAULT_255_1_234
10
5.7121127
20
101.0598211
11
5.7121127
21
100.283152
0
LINE
8
DEFAULT_255_1_234
10
5.7121127
20
100.283152
11
5.8743538
21
100.283152
0
LINE
8
DEFAULT_255_1_234
10
5.8743538
20
100.283152
11
5.8743538
21
100.1618728
0
LINE
8
DEFAULT_255_1_234
10
5.8743538
20
100.1618728
11
5.7121127
21
100.1618728
0
LINE
8
DEFAULT_255_1_234
10
5.7121127
20
100.1618728
11
5.7121127
21
99.8904
0
LINE
8
DEFAULT_255_1_234
10
5.7121127
20
99.8904
11
5.5627224
21
99.8904
0
LINE
8
DEFAULT_255_1_234
10
5.5627224
20
99.8904
11
5.5627224
21
100.1618728
0
LINE
8
DEFAULT_255_1_234
10
5.5627224
20
100.1618728
11
5.0302181
21
100.1618728
0
LINE
8
DEFAULT_255_1_234
10
5.0302181
20
100.1618728
11
5.0302181
21
100.2494187
0
LINE
8
DEFAULT_255_1_234
10
5.0302181
20
100.2494187
11
5.5538875
21
101.0598211
0
LINE
8
DEFAULT_255_1_234
10
5.5538875
20
101.0598211
11
5.7121127
21
101.0598211
0
LINE
8
DEFAULT_255_1_234
10
5.5450525
20
100.8244912
11
5.1988846
21
100.283152
0
LINE
8
DEFAULT_255_1_234
10
5.1988846
20
100.283152
11
5.5627224
21
100.283152
0
LINE
8
DEFAULT_255_1_234
10
5.5627224
20
100.283152
11
5.5627224
21
100.8566181
0
LINE
8
DEFAULT_255_1_234
10
5.5627224
20
100.8566181
11
5.5450525
21
100.8244912
0
LINE
8
DEFAULT_255_1_234
10
6.101652
20
101.0598211
11
6.434166
21
100.0952093
0
LINE
8
DEFAULT_255_1_234
10
6.434166
20
100.0952093
11
6.7682863
21
101.0598211
0
LINE
8
DEFAULT_255_1_234
10
6.7682863
20
101.0598211
11
6.9369528
21
101.0598211
0
LINE
8
DEFAULT_255_1_234
10
6.9369528
20
101.0598211
11
6.5032389
21
99.8904
0
LINE
8
DEFAULT_255_1_234
10
6.5032389
20
99.8904
11
6.3666994
21
99.8904
0
LINE
8
DEFAULT_255_1_234
10
6.3666994
20
99.8904
11
5.9337887
21
101.0598211
0
LINE
8
DEFAULT_255_1_234
10
5.9337887
20
101.0598211
11
6.101652
21
101.0598211
0
LINE
8
DEFAULT_255_1_234
10
4.8248628
20
5.8098211
11
4.8248628
21
5.033152
0
LINE
8
DEFAULT_255_1_234
10
4.8248628
20
5.033152
11
4.9871039
21
5.033152
0
LINE
8
DEFAULT_255_1_234
10
4.9871039
20
5.033152
11
4.9871039
21
4.9118728
0
LINE
8
DEFAULT_255_1_234
10
4.9871039
20
4.9118728
11
4.8248628
21
4.9118728
0
LINE
8
DEFAULT_255_1_234
10
4.8248628
20
4.9118728
11
4.8248628
21
4.6404
0
LINE
8
DEFAULT_255_1_234
10
4.8248628
20
4.6404
11
4.6754725
21
4.6404
0
LINE
8
DEFAULT_255_1_234
10
4.6754725
20
4.6404
11
4.6754725
21
4.9118728
0
LINE
8
DEFAULT_255_1_234
10
4.6754725
20
4.9118728
11
4.1429682
21
4.9118728
0
LINE
8
DEFAULT_255_1_234
10
4.1429682
20
4.9118728
11
4.1429682
21
4.9994187
0
LINE
8
DEFAULT_255_1_234
10
4.1429682
20
4.9994187
11
4.6666375
21
5.8098211
0
LINE
8
DEFAULT_255_1_234
10
4.6666375
20
5.8098211
11
4.8248628
21
5.8098211
0
LINE
8
DEFAULT_255_1_234
10
4.6578026
20
5.5744912
11
4.3116347
21
5.033152
0
LINE
8
DEFAULT_255_1_234
10
4.3116347
20
5.033152
11
4.6754725
21
5.033152
0
LINE
8
DEFAULT_255_1_234
10
4.6754725
20
5.033152
11
4.6754725
21
5.6066181
0
LINE
8
DEFAULT_255_1_234
10
4.6754725
20
5.6066181
11
4.6578026
21
5.5744912
0
LINE
8
DEFAULT_255_1_234
10
5.8649729
20
5.0114663
11
6.0199854
21
5.0114663
0
LINE
8
DEFAULT_255_1_234
10
5.1196276
20
5.1704947
11
5.1196276
21
5.2829391
0
LINE
8
DEFAULT_255_1_234
10
6.0199854
20
5.4339357
11
5.8649729
21
5.4339357
0
LINE
8
DEFAULT_255_1_234
10
5.2746401
20
5.2789232
11
5.2746401
21
5.1656757
0
ARC
8
DEFAULT_255_1_234
10
5.4719241
20
5.0711846
40
0.5513052
50
340.1774281
51
353.7814284
0
ARC
8
DEFAULT_255_1_234
10
5.6290594
20
5.0126582
40
0.3836379
50
311.4558989
51
340.4421614
0
ARC
8
DEFAULT_255_1_234
10
5.6257262
20
5.0237528
40
0.3941894
50
282.4333181
51
310.7513653
0
ARC
8
DEFAULT_255_1_234
10
5.5818001
20
5.2052679
40
0.5809175
50
269.9358511
51
282.809604
0
ARC
8
DEFAULT_255_1_234
10
5.5766067
20
5.3510212
40
0.7266847
50
270.0021091
51
270.3581957
0
ARC
8
DEFAULT_255_1_234
10
5.5713484
20
5.0909585
40
0.4666519
50
250.7884749
51
270.6489167
0
ARC
8
DEFAULT_255_1_234
10
5.5545319
20
5.0272319
40
0.4009729
50
219.3627325
51
250.0611886
0
ARC
8
DEFAULT_255_1_234
10
5.637453
20
5.0977042
40
0.5097822
50
193.5479632
51
219.5756669
0
ARC
8
DEFAULT_255_1_234
10
5.8746151
20
5.1592919
40
0.7547848
50
181.1218675
51
193.87563
0
ARC
8
DEFAULT_255_1_234
10
6.0816332
20
5.170358
40
0.9620055
50
179.9918545
51
181.5394234
0
ARC
8
DEFAULT_255_1_234
10
5.8965434
20
5.2866788
40
0.7769248
50
169.5837241
51
180.2757934
0
ARC
8
DEFAULT_255_1_234
10
5.7128372
20
5.3206229
40
0.590109
50
155.0365899
51
169.6003176
0
ARC
8
DEFAULT_255_1_234
10
5.5992836
20
5.3753677
40
0.4640625
50
136.783148
51
155.2472683
0
ARC
8
DEFAULT_255_1_234
10
5.5603313
20
5.4084562
40
0.4130255
50
121.7633186
51
136.428115
0
ARC
8
DEFAULT_255_1_234
10
5.5738275
20
5.3835227
40
0.4413323
50
95.6459699
51
121.5490577
0
ARC
8
DEFAULT_255_1_234
10
5.5895557
20
5.2726949
40
0.55319
50
89.924208
51
96.1377933
0
ARC
8
DEFAULT_255_1_234
10
5.594599
20
5.2845542
40
0.5413475
50
76.6779277
51
90.4563316
0
ARC
8
DEFAULT_255_1_234
10
5.6339613
20
5.4436114
40
0.3775041
50
47.485847
51
76.9287264
0
ARC
8
DEFAULT_255_1_234
10
5.6192586
20
5.4336159
40
0.3948286
50
16.5424086
51
46.8933463
0
ARC
8
DEFAULT_255_1_234
10
5.4584743
20
5.3807861
40
0.564021
50
5.4072051
51
17.0365086
0
ARC
8
DEFAULT_255_1_234
10
5.314576
20
5.3576679
40
0.5556559
50
7.8891745
51
15.9239216
0
ARC
8
DEFAULT_255_1_234
10
5.5132773
20
5.4153631
40
0.3487515
50
15.7653144
51
27.9410532
0
ARC
8
DEFAULT_255_1_234
10
5.6236991
20
5.474479
40
0.2235026
50
27.8166557
51
46.4008329
0
ARC
8
DEFAULT_255_1_234
10
5.6286634
20
5.4739082
40
0.2205286
50
47.4371857
51
75.0698205
0
ARC
8
DEFAULT_255_1_234
10
5.5978029
20
5.3664765
40
0.3322915
50
74.7008593
51
87.8124495
0
ARC
8
DEFAULT_255_1_234
10
5.5904716
20
5.2608844
40
0.4380987
50
87.3814673
51
90.0240855
0
ARC
8
DEFAULT_255_1_234
10
5.5866259
20
5.3786291
40
0.3203749
50
89.3451631
51
108.5745436
0
ARC
8
DEFAULT_255_1_234
10
5.5729365
20
5.4299908
40
0.2673494
50
109.2998449
51
143.3037509
0
ARC
8
DEFAULT_255_1_234
10
5.6491437
20
5.3713881
40
0.3634757
50
143.0753173
51
163.1916937
0
ARC
8
DEFAULT_255_1_234
10
5.8443165
20
5.3097967
40
0.5681262
50
162.9373603
51
174.6208611
0
ARC
8
DEFAULT_255_1_234
10
6.1069207
20
5.281001
40
0.8322832
50
174.3419979
51
180.1430411
0
ARC
8
DEFAULT_255_1_234
10
6.0138363
20
5.1615698
40
0.7392076
50
179.6817502
51
189.150529
0
ARC
8
DEFAULT_255_1_234
10
5.7637611
20
5.119919
40
0.4856932
50
188.9910863
51
203.5773039
0
ARC
8
DEFAULT_255_1_234
10
5.6557944
20
5.0751211
40
0.3688271
50
203.9077269
51
215.1312379
0
ARC
8
DEFAULT_255_1_234
10
5.5635038
20
5.0035941
40
0.2522457
50
213.9071664
51
263.8849284
0
ARC
8
DEFAULT_255_1_234
10
5.5760367
20
5.0820518
40
0.3316174
50
263.1758525
51
270.1031083
0
ARC
8
DEFAULT_255_1_234
10
5.5792459
20
5.2067365
40
0.4563091
50
269.6719807
51
279.0609165
0
ARC
8
DEFAULT_255_1_234
10
5.6059227
20
5.0454907
40
0.2928759
50
278.8750225
51
293.6346586
0
ARC
8
DEFAULT_255_1_234
10
5.6379435
20
4.97029
40
0.2111472
50
293.8553404
51
310.0518804
0
ARC
8
DEFAULT_255_1_234
10
5.6384289
20
4.9640516
40
0.2060917
50
311.0646779
51
332.0108348
0
ARC
8
DEFAULT_255_1_234
10
5.5192016
20
5.0297978
40
0.3422352
50
331.6588543
51
343.2878891
0
ARC
8
DEFAULT_255_1_234
10
5.3129531
20
5.0931798
40
0.5580003
50
343.1446044
51
351.010618
0
ARC
8
DEFAULT_255_1_234
10
5.1588177
20
5.1212871
40
0.7146438
50
350.7157277
51
351.1602153
0
LINE
8
DEFAULT_255_1_234
10
4.8673341
20
12.5779
11
4.6135312
21
13.0509694
0
LINE
8
DEFAULT_255_1_234
10
4.6135312
20
13.0509694
11
4.3388458
21
13.0509694
0
LINE
8
DEFAULT_255_1_234
10
4.3388458
20
13.0509694
11
4.3388458
21
12.5779
0
LINE
8
DEFAULT_255_1_234
10
4.3388458
20
12.5779
11
4.1838332
21
12.5779
0
LINE
8
DEFAULT_255_1_234
10
4.1838332
20
12.5779
11
4.1838332
21
13.7473211
0
LINE
8
DEFAULT_255_1_234
10
4.1838332
20
13.7473211
11
4.570963
21
13.7473211
0
LINE
8
DEFAULT_255_1_234
10
4.7581025
20
13.0838995
11
5.0327879
21
12.5875381
0
LINE
8
DEFAULT_255_1_234
10
5.0327879
20
12.5875381
11
5.0327879
21
12.5779
0
LINE
8
DEFAULT_255_1_234
10
5.0327879
20
12.5779
11
4.8673341
21
12.5779
0
LINE
8
DEFAULT_255_1_234
10
4.3388458
20
13.6204196
11
4.3388458
21
13.1770677
0
LINE
8
DEFAULT_255_1_234
10
4.3388458
20
13.1770677
11
4.575782
21
13.1770677
0
LINE
8
DEFAULT_255_1_234
10
4.5749789
20
13.6204196
11
4.3388458
21
13.6204196
0
ARC
8
DEFAULT_255_1_234
10
4.5751269
20
13.0511761
40
0.6961575
50
80.653586
51
90.3427061
0
ARC
8
DEFAULT_255_1_234
10
4.6170744
20
13.2974348
40
0.4463577
50
65.6987447
51
80.8329603
0
ARC
8
DEFAULT_255_1_234
10
4.6648385
20
13.4069322
40
0.3269094
50
50.0017161
51
65.4305835
0
ARC
8
DEFAULT_255_1_234
10
4.6866849
20
13.4364482
40
0.2902647
50
11.628416
51
49.5603263
0
ARC
8
DEFAULT_255_1_234
10
4.5331185
20
13.3989299
40
0.4482792
50
359.5655735
51
12.3691
0
ARC
8
DEFAULT_255_1_234
10
4.6408045
20
13.3926644
40
0.3405924
50
341.9983148
51
0.4822259
0
ARC
8
DEFAULT_255_1_234
10
4.6802885
20
13.3819471
40
0.2997359
50
323.8609373
51
341.61416
0
ARC
8
DEFAULT_255_1_234
10
4.6501129
20
13.4052484
40
0.3378487
50
296.7018614
51
323.6876402
0
ARC
8
DEFAULT_255_1_234
10
4.6060024
20
13.4841235
40
0.4281516
50
290.8086567
51
297.2323311
0
ARC
8
DEFAULT_255_1_234
10
4.5783554
20
13.5364351
40
0.3593766
50
269.589728
51
281.8058135
0
ARC
8
DEFAULT_255_1_234
10
4.6034453
20
13.4216743
40
0.2419125
50
281.5501019
51
303.9357432
0
ARC
8
DEFAULT_255_1_234
10
4.6171641
20
13.3978936
40
0.2145323
50
304.4415616
51
311.2106213
0
ARC
8
DEFAULT_255_1_234
10
4.6303746
20
13.3839632
40
0.1953505
50
310.9875673
51
356.2715578
0
ARC
8
DEFAULT_255_1_234
10
4.5547395
20
13.3952422
40
0.2716331
50
354.9348262
51
0.0609027
0
ARC
8
DEFAULT_255_1_234
10
4.5360269
20
13.3979435
40
0.2903554
50
359.5239371
51
12.8808918
0
ARC
8
DEFAULT_255_1_234
10
4.6337824
20
13.4218728
40
0.1897315
50
12.4173452
51
43.1022135
0
ARC
8
DEFAULT_255_1_234
10
4.6399429
20
13.4255724
40
0.1827118
50
43.5751728
51
48.203944
0
ARC
8
DEFAULT_255_1_234
10
4.6229921
20
13.4034302
40
0.2105272
50
48.7809703
51
72.6969569
0
ARC
8
DEFAULT_255_1_234
10
4.5875546
20
13.295882
40
0.3237537
50
72.3702241
51
84.8791103
0
ARC
8
DEFAULT_255_1_234
10
4.5728022
20
13.1616769
40
0.4587478
50
84.5400526
51
89.7281406
0
LINE
8
DEFAULT_255_1_234
10
5.37494
20
13.1136169
11
5.37494
21
13.2348962
0
LINE
8
DEFAULT_255_1_234
10
5.37494
20
13.2348962
11
5.4865812
21
13.2348962
0
LINE
8
DEFAULT_255_1_234
10
5.296229
20
13.4405087
11
5.1476418
21
13.4405087
0
LINE
8
DEFAULT_255_1_234
10
5.1372005
20
12.8863188
11
5.2865909
21
12.8863188
0
LINE
8
DEFAULT_255_1_234
10
5.4865812
20
13.1136169
11
5.37494
21
13.1136169
0
ARC
8
DEFAULT_255_1_234
10
5.4836678
20
13.5741713
40
0.3392876
50
270.4919872
51
281.8951556
0
ARC
8
DEFAULT_255_1_234
10
5.507794
20
13.4639702
40
0.2264817
50
281.6691735
51
301.2943132
0
ARC
8
DEFAULT_255_1_234
10
5.524815
20
13.4328304
40
0.1910381
50
301.7833094
51
311.7545298
0
ARC
8
DEFAULT_255_1_234
10
5.5339726
20
13.4226748
40
0.1773635
50
311.7323931
51
354.2802411
0
ARC
8
DEFAULT_255_1_234
10
5.4613351
20
13.4351722
40
0.2509385
50
353.0937916
51
0.1181479
0
ARC
8
DEFAULT_255_1_234
10
5.4152136
20
13.4399386
40
0.2970898
50
359.1805295
51
15.0453146
0
ARC
8
DEFAULT_255_1_234
10
5.5497973
20
13.4791992
40
0.1569564
50
13.9577229
51
77.6713066
0
ARC
8
DEFAULT_255_1_234
10
5.5111502
20
13.3406949
40
0.3006298
50
76.1116566
51
90.7026153
0
ARC
8
DEFAULT_255_1_234
10
5.505234
20
13.3680545
40
0.2732568
50
89.5324876
51
103.531937
0
ARC
8
DEFAULT_255_1_234
10
5.4851784
20
13.4479884
40
0.1908508
50
103.2931773
51
133.5619022
0
ARC
8
DEFAULT_255_1_234
10
5.4807273
20
13.4539375
40
0.1834746
50
133.8349307
51
173.5344437
0
ARC
8
DEFAULT_255_1_234
10
5.5530316
20
13.4411213
40
0.2568033
50
172.5096846
51
180.1366907
0
ARC
8
DEFAULT_255_1_234
10
5.457921
20
13.4445622
40
0.3103056
50
155.3484492
51
180.7484736
0
ARC
8
DEFAULT_255_1_234
10
5.4530299
20
13.4416846
40
0.3070957
50
131.5744599
51
154.4798489
0
ARC
8
DEFAULT_255_1_234
10
5.4843446
20
13.410031
40
0.3515643
50
96.9875458
51
131.9690667
0
ARC
8
DEFAULT_255_1_234
10
5.5062926
20
13.2854636
40
0.4779224
50
89.8596053
51
97.7825159
0
ARC
8
DEFAULT_255_1_234
10
5.5110989
20
13.2592616
40
0.5041361
50
78.3655447
51
90.4131539
0
ARC
8
DEFAULT_255_1_234
10
5.5468907
20
13.4251887
40
0.3344039
50
56.6229102
51
78.638727
0
ARC
8
DEFAULT_255_1_234
10
5.5683851
20
13.4627805
40
0.2912001
50
47.0253525
51
56.0854072
0
ARC
8
DEFAULT_255_1_234
10
5.5703631
20
13.4667223
40
0.2869704
50
10.9208013
51
46.7778124
0
ARC
8
DEFAULT_255_1_234
10
5.4339697
20
13.4351857
40
0.426899
50
359.6364486
51
11.6087304
0
ARC
8
DEFAULT_255_1_234
10
5.6174541
20
13.4336752
40
0.243409
50
332.3549906
51
359.7179418
0
ARC
8
DEFAULT_255_1_234
10
5.5524143
20
13.4645142
40
0.3153459
50
325.2333722
51
332.8745602
0
ARC
8
DEFAULT_255_1_234
10
5.5676766
20
13.4538828
40
0.2967456
50
292.9802137
51
325.2392345
0
ARC
8
DEFAULT_255_1_234
10
5.540214
20
13.5072863
40
0.3566604
50
292.5402179
51
293.6924929
0
ARC
8
DEFAULT_255_1_234
10
5.5794736
20
12.8618091
40
0.3307468
50
57.6435486
51
72.8625112
0
ARC
8
DEFAULT_255_1_234
10
5.6149236
20
12.9192549
40
0.2632492
50
36.7248896
51
57.4697979
0
ARC
8
DEFAULT_255_1_234
10
5.6137869
20
12.920522
40
0.2634081
50
8.0545065
51
36.356114
0
ARC
8
DEFAULT_255_1_234
10
5.5275054
20
12.9050174
40
0.3510261
50
359.8320645
51
8.5869982
0
ARC
8
DEFAULT_255_1_234
10
5.489983
20
12.9002101
40
0.3885653
50
343.9829931
51
0.5571613
0
ARC
8
DEFAULT_255_1_234
10
5.5786027
20
12.8759438
40
0.2966924
50
311.6359546
51
343.7651759
0
ARC
8
DEFAULT_255_1_234
10
5.5407596
20
12.9186102
40
0.3537231
50
279.7829875
51
311.6255694
0
ARC
8
DEFAULT_255_1_234
10
5.5106372
20
13.062328
40
0.5004971
50
269.7286406
51
280.3856417
0
ARC
8
DEFAULT_255_1_234
10
5.5044445
20
13.0581996
40
0.4963778
50
256.6828919
51
270.4412052
0
ARC
8
DEFAULT_255_1_234
10
5.4705741
20
12.9197394
40
0.3538406
50
229.4223008
51
256.8556159
0
ARC
8
DEFAULT_255_1_234
10
5.4291134
20
12.8730736
40
0.2914296
50
181.818294
51
229.6455059
0
ARC
8
DEFAULT_255_1_234
10
5.533109
20
12.8861496
40
0.3959084
50
179.9755256
51
183.2323064
0
ARC
8
DEFAULT_255_1_234
10
5.5158836
20
12.8841037
40
0.2293034
50
179.4465117
51
196.2869258
0
ARC
8
DEFAULT_255_1_234
10
5.4671244
20
12.8707651
40
0.1787621
50
196.5661473
51
227.705904
0
ARC
8
DEFAULT_255_1_234
10
5.4835339
20
12.8891155
40
0.2033784
50
227.7652068
51
257.8762805
0
ARC
8
DEFAULT_255_1_234
10
5.5060309
20
12.9834156
40
0.3003081
50
257.4584385
51
270.426602
0
ARC
8
DEFAULT_255_1_234
10
5.5105875
20
13.0123996
40
0.329292
50
269.5962073
51
280.8789248
0
ARC
8
DEFAULT_255_1_234
10
5.5335404
20
12.8977685
40
0.2123908
50
280.6346389
51
299.8595945
0
ARC
8
DEFAULT_255_1_234
10
5.5526311
20
12.8615212
40
0.171457
50
300.3576302
51
314.5517981
0
ARC
8
DEFAULT_255_1_234
10
5.5443371
20
12.8675919
40
0.1816095
50
315.0728369
51
345.0431014
0
ARC
8
DEFAULT_255_1_234
10
5.4520185
20
12.8944841
40
0.2777492
50
344.5986631
51
357.9269593
0
ARC
8
DEFAULT_255_1_234
10
5.3624511
20
12.9006276
40
0.3674917
50
357.4748886
51
0.0231117
0
ARC
8
DEFAULT_255_1_234
10
5.4647621
20
12.9030679
40
0.2651907
50
359.5047933
51
13.4239635
0
ARC
8
DEFAULT_255_1_234
10
5.5514264
20
12.9252478
40
0.1757509
50
12.9498199
51
48.7551375
0
ARC
8
DEFAULT_255_1_234
10
5.5331998
20
12.90034
40
0.2065134
50
49.5088623
51
72.1836453
0
ARC
8
DEFAULT_255_1_234
10
5.4974151
20
12.7941291
40
0.3185836
50
71.9010081
51
84.3554254
0
ARC
8
DEFAULT_255_1_234
10
5.4812783
20
12.6580326
40
0.4556151
50
84.0193428
51
89.333121
0
LINE
8
DEFAULT_255_1_234
10
6.4070184
20
13.1353026
11
6.4070184
21
13.0140234
0
LINE
8
DEFAULT_255_1_234
10
6.4070184
20
13.0140234
11
6.0150695
21
13.0140234
0
LINE
8
DEFAULT_255_1_234
10
6.0150695
20
13.0140234
11
6.0150695
21
13.1353026
0
LINE
8
DEFAULT_255_1_234
10
6.0150695
20
13.1353026
11
6.4070184
21
13.1353026
0
LINE
8
DEFAULT_255_1_234
10
4.8391341
20
20.5154
11
4.5853312
21
20.9884694
0
LINE
8
DEFAULT_255_1_234
10
4.5853312
20
20.9884694
11
4.3106458
21
20.9884694
0
LINE
8
DEFAULT_255_1_234
10
4.3106458
20
20.9884694
11
4.3106458
21
20.5154
0
LINE
8
DEFAULT_255_1_234
10
4.3106458
20
20.5154
11
4.1556332
21
20.5154
0
LINE
8
DEFAULT_255_1_234
10
4.1556332
20
20.5154
11
4.1556332
21
21.6848211
0
LINE
8
DEFAULT_255_1_234
10
4.1556332
20
21.6848211
11
4.542763
21
21.6848211
0
LINE
8
DEFAULT_255_1_234
10
4.7299025
20
21.0213995
11
5.0045879
21
20.5250381
0
LINE
8
DEFAULT_255_1_234
10
5.0045879
20
20.5250381
11
5.0045879
21
20.5154
0
LINE
8
DEFAULT_255_1_234
10
5.0045879
20
20.5154
11
4.8391341
21
20.5154
0
LINE
8
DEFAULT_255_1_234
10
4.3106458
20
21.5579196
11
4.3106458
21
21.1145677
0
LINE
8
DEFAULT_255_1_234
10
4.3106458
20
21.1145677
11
4.547582
21
21.1145677
0
LINE
8
DEFAULT_255_1_234
10
4.5467789
20
21.5579196
11
4.3106458
21
21.5579196
0
ARC
8
DEFAULT_255_1_234
10
4.5469269
20
20.9886761
40
0.6961575
50
80.653586
51
90.3427061
0
ARC
8
DEFAULT_255_1_234
10
4.5888744
20
21.2349348
40
0.4463577
50
65.6987447
51
80.8329603
0
ARC
8
DEFAULT_255_1_234
10
4.6366385
20
21.3444322
40
0.3269094
50
50.0017161
51
65.4305835
0
ARC
8
DEFAULT_255_1_234
10
4.6584849
20
21.3739482
40
0.2902647
50
11.628416
51
49.5603263
0
ARC
8
DEFAULT_255_1_234
10
4.5049185
20
21.3364299
40
0.4482792
50
359.5655735
51
12.3691
0
ARC
8
DEFAULT_255_1_234
10
4.6126045
20
21.3301644
40
0.3405924
50
341.9983148
51
0.4822259
0
ARC
8
DEFAULT_255_1_234
10
4.6520885
20
21.3194471
40
0.2997359
50
323.8609373
51
341.61416
0
ARC
8
DEFAULT_255_1_234
10
4.6219129
20
21.3427484
40
0.3378487
50
296.7018614
51
323.6876402
0
ARC
8
DEFAULT_255_1_234
10
4.5778024
20
21.4216235
40
0.4281516
50
290.8086567
51
297.2323311
0
ARC
8
DEFAULT_255_1_234
10
4.5501554
20
21.4739351
40
0.3593766
50
269.589728
51
281.8058135
0
ARC
8
DEFAULT_255_1_234
10
4.5752453
20
21.3591743
40
0.2419125
50
281.5501019
51
303.9357432
0
ARC
8
DEFAULT_255_1_234
10
4.5889641
20
21.3353936
40
0.2145323
50
304.4415616
51
311.2106213
0
ARC
8
DEFAULT_255_1_234
10
4.6021746
20
21.3214632
40
0.1953505
50
310.9875673
51
356.2715578
0
ARC
8
DEFAULT_255_1_234
10
4.5265395
20
21.3327422
40
0.2716331
50
354.9348262
51
0.0609027
0
ARC
8
DEFAULT_255_1_234
10
4.5078269
20
21.3354435
40
0.2903554
50
359.5239371
51
12.8808918
0
ARC
8
DEFAULT_255_1_234
10
4.6055824
20
21.3593728
40
0.1897315
50
12.4173452
51
43.1022135
0
ARC
8
DEFAULT_255_1_234
10
4.6117429
20
21.3630724
40
0.1827118
50
43.5751728
51
48.203944
0
ARC
8
DEFAULT_255_1_234
10
4.5947921
20
21.3409302
40
0.2105272
50
48.7809703
51
72.6969569
0
ARC
8
DEFAULT_255_1_234
10
4.5593546
20
21.233382
40
0.3237537
50
72.3702241
51
84.8791103
0
ARC
8
DEFAULT_255_1_234
10
4.5446022
20
21.0991769
40
0.4587478
50
84.5400526
51
89.7281406
0
LINE
8
DEFAULT_255_1_234
10
5.34674
20
21.0511169
11
5.34674
21
21.1723962
0
LINE
8
DEFAULT_255_1_234
10
5.34674
20
21.1723962
11
5.4583812
21
21.1723962
0
LINE
8
DEFAULT_255_1_234
10
5.268029
20
21.3780087
11
5.1194418
21
21.3780087
0
LINE
8
DEFAULT_255_1_234
10
5.1090005
20
20.8238188
11
5.2583909
21
20.8238188
0
LINE
8
DEFAULT_255_1_234
10
5.4583812
20
21.0511169
11
5.34674
21
21.0511169
0
ARC
8
DEFAULT_255_1_234
10
5.4554678
20
21.5116713
40
0.3392876
50
270.4919872
51
281.8951556
0
ARC
8
DEFAULT_255_1_234
10
5.479594
20
21.4014702
40
0.2264817
50
281.6691735
51
301.2943132
0
ARC
8
DEFAULT_255_1_234
10
5.496615
20
21.3703304
40
0.1910381
50
301.7833094
51
311.7545298
0
ARC
8
DEFAULT_255_1_234
10
5.5057726
20
21.3601748
40
0.1773635
50
311.7323931
51
354.2802411
0
ARC
8
DEFAULT_255_1_234
10
5.4331351
20
21.3726722
40
0.2509385
50
353.0937916
51
0.1181479
0
ARC
8
DEFAULT_255_1_234
10
5.3870136
20
21.3774386
40
0.2970898
50
359.1805295
51
15.0453146
0
ARC
8
DEFAULT_255_1_234
10
5.5215973
20
21.4166992
40
0.1569564
50
13.9577229
51
77.6713066
0
ARC
8
DEFAULT_255_1_234
10
5.4829502
20
21.2781949
40
0.3006298
50
76.1116566
51
90.7026153
0
ARC
8
DEFAULT_255_1_234
10
5.477034
20
21.3055545
40
0.2732568
50
89.5324876
51
103.531937
0
ARC
8
DEFAULT_255_1_234
10
5.4569784
20
21.3854884
40
0.1908508
50
103.2931773
51
133.5619022
0
ARC
8
DEFAULT_255_1_234
10
5.4525273
20
21.3914375
40
0.1834746
50
133.8349307
51
173.5344437
0
ARC
8
DEFAULT_255_1_234
10
5.5248316
20
21.3786213
40
0.2568033
50
172.5096846
51
180.1366907
0
ARC
8
DEFAULT_255_1_234
10
5.429721
20
21.3820622
40
0.3103056
50
155.3484492
51
180.7484736
0
ARC
8
DEFAULT_255_1_234
10
5.4248299
20
21.3791846
40
0.3070957
50
131.5744599
51
154.4798489
0
ARC
8
DEFAULT_255_1_234
10
5.4561446
20
21.347531
40
0.3515643
50
96.9875458
51
131.9690667
0
ARC
8
DEFAULT_255_1_234
10
5.4780926
20
21.2229636
40
0.4779224
50
89.8596053
51
97.7825159
0
ARC
8
DEFAULT_255_1_234
10
5.4828989
20
21.1967616
40
0.5041361
50
78.3655447
51
90.4131539
0
ARC
8
DEFAULT_255_1_234
10
5.5186907
20
21.3626887
40
0.3344039
50
56.6229102
51
78.638727
0
ARC
8
DEFAULT_255_1_234
10
5.5401851
20
21.4002805
40
0.2912001
50
47.0253525
51
56.0854072
0
ARC
8
DEFAULT_255_1_234
10
5.5421631
20
21.4042223
40
0.2869704
50
10.9208013
51
46.7778124
0
ARC
8
DEFAULT_255_1_234
10
5.4057697
20
21.3726857
40
0.426899
50
359.6364486
51
11.6087304
0
ARC
8
DEFAULT_255_1_234
10
5.5892541
20
21.3711752
40
0.243409
50
332.3549906
51
359.7179418
0
ARC
8
DEFAULT_255_1_234
10
5.5242143
20
21.4020142
40
0.3153459
50
325.2333722
51
332.8745602
0
ARC
8
DEFAULT_255_1_234
10
5.5394766
20
21.3913828
40
0.2967456
50
292.9802137
51
325.2392345
0
ARC
8
DEFAULT_255_1_234
10
5.512014
20
21.4447863
40
0.3566604
50
292.5402179
51
293.6924929
0
ARC
8
DEFAULT_255_1_234
10
5.5512736
20
20.7993091
40
0.3307468
50
57.6435486
51
72.8625112
0
ARC
8
DEFAULT_255_1_234
10
5.5867236
20
20.8567549
40
0.2632492
50
36.7248896
51
57.4697979
0
ARC
8
DEFAULT_255_1_234
10
5.5855869
20
20.858022
40
0.2634081
50
8.0545065
51
36.356114
0
ARC
8
DEFAULT_255_1_234
10
5.4993054
20
20.8425174
40
0.3510261
50
359.8320645
51
8.5869982
0
ARC
8
DEFAULT_255_1_234
10
5.461783
20
20.8377101
40
0.3885653
50
343.9829931
51
0.5571613
0
ARC
8
DEFAULT_255_1_234
10
5.5504027
20
20.8134438
40
0.2966924
50
311.6359546
51
343.7651759
0
ARC
8
DEFAULT_255_1_234
10
5.5125596
20
20.8561102
40
0.3537231
50
279.7829875
51
311.6255694
0
ARC
8
DEFAULT_255_1_234
10
5.4824372
20
20.999828
40
0.5004971
50
269.7286406
51
280.3856417
0
ARC
8
DEFAULT_255_1_234
10
5.4762445
20
20.9956996
40
0.4963778
50
256.6828919
51
270.4412052
0
ARC
8
DEFAULT_255_1_234
10
5.4423741
20
20.8572394
40
0.3538406
50
229.4223008
51
256.8556159
0
ARC
8
DEFAULT_255_1_234
10
5.4009134
20
20.8105736
40
0.2914296
50
181.818294
51
229.6455059
0
ARC
8
DEFAULT_255_1_234
10
5.504909
20
20.8236496
40
0.3959084
50
179.9755256
51
183.2323064
0
ARC
8
DEFAULT_255_1_234
10
5.4876836
20
20.8216037
40
0.2293034
50
179.4465117
51
196.2869258
0
ARC
8
DEFAULT_255_1_234
10
5.4389244
20
20.8082651
40
0.1787621
50
196.5661473
51
227.705904
0
ARC
8
DEFAULT_255_1_234
10
5.4553339
20
20.8266155
40
0.2033784
50
227.7652068
51
257.8762805
0
ARC
8
DEFAULT_255_1_234
10
5.4778309
20
20.9209156
40
0.3003081
50
257.4584385
51
270.426602
0
ARC
8
DEFAULT_255_1_234
10
5.4823875
20
20.9498996
40
0.329292
50
269.5962073
51
280.8789248
0
ARC
8
DEFAULT_255_1_234
10
5.5053404
20
20.8352685
40
0.2123908
50
280.6346389
51
299.8595945
0
ARC
8
DEFAULT_255_1_234
10
5.5244311
20
20.7990212
40
0.171457
50
300.3576302
51
314.5517981
0
ARC
8
DEFAULT_255_1_234
10
5.5161371
20
20.8050919
40
0.1816095
50
315.0728369
51
345.0431014
0
ARC
8
DEFAULT_255_1_234
10
5.4238185
20
20.8319841
40
0.2777492
50
344.5986631
51
357.9269593
0
ARC
8
DEFAULT_255_1_234
10
5.3342511
20
20.8381276
40
0.3674917
50
357.4748886
51
0.0231117
0
ARC
8
DEFAULT_255_1_234
10
5.4365621
20
20.8405679
40
0.2651907
50
359.5047933
51
13.4239635
0
ARC
8
DEFAULT_255_1_234
10
5.5232264
20
20.8627478
40
0.1757509
50
12.9498199
51
48.7551375
0
ARC
8
DEFAULT_255_1_234
10
5.5049998
20
20.83784
40
0.2065134
50
49.5088623
51
72.1836453
0
ARC
8
DEFAULT_255_1_234
10
5.4692151
20
20.7316291
40
0.3185836
50
71.9010081
51
84.3554254
0
ARC
8
DEFAULT_255_1_234
10
5.4530783
20
20.5955326
40
0.4556151
50
84.0193428
51
89.333121
0
LINE
8
DEFAULT_255_1_234
10
6.4952786
20
21.4840276
11
6.4952786
21
21.1426788
0
LINE
8
DEFAULT_255_1_234
10
6.4952786
20
21.1426788
11
6.8213671
21
21.1426788
0
LINE
8
DEFAULT_255_1_234
10
6.8213671
20
21.1426788
11
6.8213671
21
21.0021233
0
LINE
8
DEFAULT_255_1_234
10
6.8213671
20
21.0021233
11
6.4952786
21
21.0021233
0
LINE
8
DEFAULT_255_1_234
10
6.4952786
20
21.0021233
11
6.4952786
21
20.6326634
0
LINE
8
DEFAULT_255_1_234
10
6.4952786
20
20.6326634
11
6.3458882
21
20.6326634
0
LINE
8
DEFAULT_255_1_234
10
6.3458882
20
20.6326634
11
6.3458882
21
21.0021233
0
LINE
8
DEFAULT_255_1_234
10
6.3458882
20
21.0021233
11
6.0197997
21
21.0021233
0
LINE
8
DEFAULT_255_1_234
10
6.0197997
20
21.0021233
11
6.0197997
21
21.1426788
0
LINE
8
DEFAULT_255_1_234
10
6.0197997
20
21.1426788
11
6.3458882
21
21.1426788
0
LINE
8
DEFAULT_255_1_234
10
6.3458882
20
21.1426788
11
6.3458882
21
21.4840276
0
LINE
8
DEFAULT_255_1_234
10
6.3458882
20
21.4840276
11
6.4952786
21
21.4840276
0
LINE
8
DEFAULT_255_1_234
10
4.5801137
20
29.6279433
11
4.5801137
21
28.4529
0
LINE
8
DEFAULT_255_1_234
10
4.5801137
20
28.4529
11
4.4307234
21
28.4529
0
LINE
8
DEFAULT_255_1_234
10
4.4307234
20
28.4529
11
4.4307234
21
29.4432133
0
LINE
8
DEFAULT_255_1_234
10
4.4307234
20
29.4432133
11
4.1311396
21
29.3331785
0
LINE
8
DEFAULT_255_1_234
10
4.1311396
20
29.3331785
11
4.1311396
21
29.4681117
0
LINE
8
DEFAULT_255_1_234
10
4.1311396
20
29.4681117
11
4.5568217
21
29.6279433
0
LINE
8
DEFAULT_255_1_234
10
4.5568217
20
29.6279433
11
4.5801137
21
29.6279433
0
LINE
8
DEFAULT_255_1_234
10
5.7591729
20
28.8239663
11
5.9141854
21
28.8239663
0
LINE
8
DEFAULT_255_1_234
10
5.0138276
20
28.9829947
11
5.0138276
21
29.0954391
0
LINE
8
DEFAULT_255_1_234
10
5.9141854
20
29.2464357
11
5.7591729
21
29.2464357
0
LINE
8
DEFAULT_255_1_234
10
5.1688401
20
29.0914232
11
5.1688401
21
28.9781757
0
ARC
8
DEFAULT_255_1_234
10
5.3661241
20
28.8836846
40
0.5513052
50
340.1774281
51
353.7814284
0
ARC
8
DEFAULT_255_1_234
10
5.5232594
20
28.8251582
40
0.3836379
50
311.4558989
51
340.4421614
0
ARC
8
DEFAULT_255_1_234
10
5.5199262
20
28.8362528
40
0.3941894
50
282.4333181
51
310.7513653
0
ARC
8
DEFAULT_255_1_234
10
5.4760001
20
29.0177679
40
0.5809175
50
269.9358511
51
282.809604
0
ARC
8
DEFAULT_255_1_234
10
5.4708067
20
29.1635212
40
0.7266847
50
270.0021091
51
270.3581957
0
ARC
8
DEFAULT_255_1_234
10
5.4655484
20
28.9034585
40
0.4666519
50
250.7884749
51
270.6489167
0
ARC
8
DEFAULT_255_1_234
10
5.4487319
20
28.8397319
40
0.4009729
50
219.3627325
51
250.0611886
0
ARC
8
DEFAULT_255_1_234
10
5.531653
20
28.9102042
40
0.5097822
50
193.5479632
51
219.5756669
0
ARC
8
DEFAULT_255_1_234
10
5.7688151
20
28.9717919
40
0.7547848
50
181.1218675
51
193.87563
0
ARC
8
DEFAULT_255_1_234
10
5.9758332
20
28.982858
40
0.9620055
50
179.9918545
51
181.5394234
0
ARC
8
DEFAULT_255_1_234
10
5.7907434
20
29.0991788
40
0.7769248
50
169.5837241
51
180.2757934
0
ARC
8
DEFAULT_255_1_234
10
5.6070372
20
29.1331229
40
0.590109
50
155.0365899
51
169.6003176
0
ARC
8
DEFAULT_255_1_234
10
5.4934836
20
29.1878677
40
0.4640625
50
136.783148
51
155.2472683
0
ARC
8
DEFAULT_255_1_234
10
5.4545313
20
29.2209562
40
0.4130255
50
121.7633186
51
136.428115
0
ARC
8
DEFAULT_255_1_234
10
5.4680275
20
29.1960227
40
0.4413323
50
95.6459699
51
121.5490577
0
ARC
8
DEFAULT_255_1_234
10
5.4837557
20
29.0851949
40
0.55319
50
89.924208
51
96.1377933
0
ARC
8
DEFAULT_255_1_234
10
5.488799
20
29.0970542
40
0.5413475
50
76.6779277
51
90.4563316
0
ARC
8
DEFAULT_255_1_234
10
5.5281613
20
29.2561114
40
0.3775041
50
47.485847
51
76.9287264
0
ARC
8
DEFAULT_255_1_234
10
5.5134586
20
29.2461159
40
0.3948286
50
16.5424086
51
46.8933463
0
ARC
8
DEFAULT_255_1_234
10
5.3526743
20
29.1932861
40
0.564021
50
5.4072051
51
17.0365086
0
ARC
8
DEFAULT_255_1_234
10
5.208776
20
29.1701679
40
0.5556559
50
7.8891745
51
15.9239216
0
ARC
8
DEFAULT_255_1_234
10
5.4074773
20
29.2278631
40
0.3487515
50
15.7653144
51
27.9410532
0
ARC
8
DEFAULT_255_1_234
10
5.5178991
20
29.286979
40
0.2235026
50
27.8166557
51
46.4008329
0
ARC
8
DEFAULT_255_1_234
10
5.5228634
20
29.2864082
40
0.2205286
50
47.4371857
51
75.0698205
0
ARC
8
DEFAULT_255_1_234
10
5.4920029
20
29.1789765
40
0.3322915
50
74.7008593
51
87.8124495
0
ARC
8
DEFAULT_255_1_234
10
5.4846716
20
29.0733844
40
0.4380987
50
87.3814673
51
90.0240855
0
ARC
8
DEFAULT_255_1_234
10
5.4808259
20
29.1911291
40
0.3203749
50
89.3451631
51
108.5745436
0
ARC
8
DEFAULT_255_1_234
10
5.4671365
20
29.2424908
40
0.2673494
50
109.2998449
51
143.3037509
0
ARC
8
DEFAULT_255_1_234
10
5.5433437
20
29.1838881
40
0.3634757
50
143.0753173
51
163.1916937
0
ARC
8
DEFAULT_255_1_234
10
5.7385165
20
29.1222967
40
0.5681262
50
162.9373603
51
174.6208611
0
ARC
8
DEFAULT_255_1_234
10
6.0011207
20
29.093501
40
0.8322832
50
174.3419979
51
180.1430411
0
ARC
8
DEFAULT_255_1_234
10
5.9080363
20
28.9740698
40
0.7392076
50
179.6817502
51
189.150529
0
ARC
8
DEFAULT_255_1_234
10
5.6579611
20
28.932419
40
0.4856932
50
188.9910863
51
203.5773039
0
ARC
8
DEFAULT_255_1_234
10
5.5499944
20
28.8876211
40
0.3688271
50
203.9077269
51
215.1312379
0
ARC
8
DEFAULT_255_1_234
10
5.4577038
20
28.8160941
40
0.2522457
50
213.9071664
51
263.8849284
0
ARC
8
DEFAULT_255_1_234
10
5.4702367
20
28.8945518
40
0.3316174
50
263.1758525
51
270.1031083
0
ARC
8
DEFAULT_255_1_234
10
5.4734459
20
29.0192365
40
0.4563091
50
269.6719807
51
279.0609165
0
ARC
8
DEFAULT_255_1_234
10
5.5001227
20
28.8579907
40
0.2928759
50
278.8750225
51
293.6346586
0
ARC
8
DEFAULT_255_1_234
10
5.5321435
20
28.78279
40
0.2111472
50
293.8553404
51
310.0518804
0
ARC
8
DEFAULT_255_1_234
10
5.5326289
20
28.7765516
40
0.2060917
50
311.0646779
51
332.0108348
0
ARC
8
DEFAULT_255_1_234
10
5.4134016
20
28.8422978
40
0.3422352
50
331.6588543
51
343.2878891
0
ARC
8
DEFAULT_255_1_234
10
5.2071531
20
28.9056798
40
0.5580003
50
343.1446044
51
351.010618
0
ARC
8
DEFAULT_255_1_234
10
5.0530177
20
28.9337871
40
0.7146438
50
350.7157277
51
351.1602153
0
LINE
8
DEFAULT_255_1_234
10
4.8673341
20
36.3904
11
4.6135312
21
36.8634694
0
LINE
8
DEFAULT_255_1_234
10
4.6135312
20
36.8634694
11
4.3388458
21
36.8634694
0
LINE
8
DEFAULT_255_1_234
10
4.3388458
20
36.8634694
11
4.3388458
21
36.3904
0
LINE
8
DEFAULT_255_1_234
10
4.3388458
20
36.3904
11
4.1838332
21
36.3904
0
LINE
8
DEFAULT_255_1_234
10
4.1838332
20
36.3904
11
4.1838332
21
37.5598211
0
LINE
8
DEFAULT_255_1_234
10
4.1838332
20
37.5598211
11
4.570963
21
37.5598211
0
LINE
8
DEFAULT_255_1_234
10
4.7581025
20
36.8963995
11
5.0327879
21
36.4000381
0
LINE
8
DEFAULT_255_1_234
10
5.0327879
20
36.4000381
11
5.0327879
21
36.3904
0
LINE
8
DEFAULT_255_1_234
10
5.0327879
20
36.3904
11
4.8673341
21
36.3904
0
LINE
8
DEFAULT_255_1_234
10
4.3388458
20
37.4329196
11
4.3388458
21
36.9895677
0
LINE
8
DEFAULT_255_1_234
10
4.3388458
20
36.9895677
11
4.575782
21
36.9895677
0
LINE
8
DEFAULT_255_1_234
10
4.5749789
20
37.4329196
11
4.3388458
21
37.4329196
0
ARC
8
DEFAULT_255_1_234
10
4.5751269
20
36.8636761
40
0.6961575
50
80.653586
51
90.3427061
0
ARC
8
DEFAULT_255_1_234
10
4.6170744
20
37.1099348
40
0.4463577
50
65.6987447
51
80.8329603
0
ARC
8
DEFAULT_255_1_234
10
4.6648385
20
37.2194322
40
0.3269094
50
50.0017161
51
65.4305835
0
ARC
8
DEFAULT_255_1_234
10
4.6866849
20
37.2489482
40
0.2902647
50
11.628416
51
49.5603263
0
ARC
8
DEFAULT_255_1_234
10
4.5331185
20
37.2114299
40
0.4482792
50
359.5655735
51
12.3691
0
ARC
8
DEFAULT_255_1_234
10
4.6408045
20
37.2051644
40
0.3405924
50
341.9983148
51
0.4822259
0
ARC
8
DEFAULT_255_1_234
10
4.6802885
20
37.1944471
40
0.2997359
50
323.8609373
51
341.61416
0
ARC
8
DEFAULT_255_1_234
10
4.6501129
20
37.2177484
40
0.3378487
50
296.7018614
51
323.6876402
0
ARC
8
DEFAULT_255_1_234
10
4.6060024
20
37.2966235
40
0.4281516
50
290.8086567
51
297.2323311
0
ARC
8
DEFAULT_255_1_234
10
4.5783554
20
37.3489351
40
0.3593766
50
269.589728
51
281.8058135
0
ARC
8
DEFAULT_255_1_234
10
4.6034453
20
37.2341743
40
0.2419125
50
281.5501019
51
303.9357432
0
ARC
8
DEFAULT_255_1_234
10
4.6171641
20
37.2103936
40
0.2145323
50
304.4415616
51
311.2106213
0
ARC
8
DEFAULT_255_1_234
10
4.6303746
20
37.1964632
40
0.1953505
50
310.9875673
51
356.2715578
0
ARC
8
DEFAULT_255_1_234
10
4.5547395
20
37.2077422
40
0.2716331
50
354.9348262
51
0.0609027
0
ARC
8
DEFAULT_255_1_234
10
4.5360269
20
37.2104435
40
0.2903554
50
359.5239371
51
12.8808918
0
ARC
8
DEFAULT_255_1_234
10
4.6337824
20
37.2343728
40
0.1897315
50
12.4173452
51
43.1022135
0
ARC
8
DEFAULT_255_1_234
10
4.6399429
20
37.2380724
40
0.1827118
50
43.5751728
51
48.203944
0
ARC
8
DEFAULT_255_1_234
10
4.6229921
20
37.2159302
40
0.2105272
50
48.7809703
51
72.6969569
0
ARC
8
DEFAULT_255_1_234
10
4.5875546
20
37.108382
40
0.3237537
50
72.3702241
51
84.8791103
0
ARC
8
DEFAULT_255_1_234
10
4.5728022
20
36.9741769
40
0.4587478
50
84.5400526
51
89.7281406
0
LINE
8
DEFAULT_255_1_234
10
5.9251141
20
36.5116792
11
5.9251141
21
36.3904
0
LINE
8
DEFAULT_255_1_234
10
5.9251141
20
36.3904
11
5.1588862
21
36.3904
0
LINE
8
DEFAULT_255_1_234
10
5.1588862
20
36.3904
11
5.1588862
21
36.4972221
0
LINE
8
DEFAULT_255_1_234
10
5.1588862
20
36.4972221
11
5.5636858
21
36.9469995
0
LINE
8
DEFAULT_255_1_234
10
5.2849845
20
37.2152595
11
5.1363974
21
37.2152595
0
LINE
8
DEFAULT_255_1_234
10
5.6512318
20
36.8514218
11
5.337994
21
36.5116792
0
LINE
8
DEFAULT_255_1_234
10
5.337994
20
36.5116792
11
5.9251141
21
36.5116792
0
ARC
8
DEFAULT_255_1_234
10
4.2146692
20
38.1399527
40
1.8008286
50
318.5132453
51
320.7828378
0
ARC
8
DEFAULT_255_1_234
10
4.7433666
20
37.7096426
40
1.1191493
50
320.7372736
51
323.9737074
0
ARC
8
DEFAULT_255_1_234
10
5.1353522
20
37.4256361
40
0.6350923
50
323.8961724
51
328.6421089
0
ARC
8
DEFAULT_255_1_234
10
5.3400118
20
37.2994031
40
0.3946393
50
328.8299013
51
331.789948
0
ARC
8
DEFAULT_255_1_234
10
5.4397296
20
37.2479509
40
0.2824501
50
331.4255242
51
352.9364833
0
ARC
8
DEFAULT_255_1_234
10
5.4533797
20
37.2448976
40
0.2685315
50
353.2248685
51
0.0169286
0
ARC
8
DEFAULT_255_1_234
10
5.4743674
20
37.247195
40
0.2475536
50
359.4866256
51
15.9339782
0
ARC
8
DEFAULT_255_1_234
10
5.5250659
20
37.2608286
40
0.1950618
50
16.1714718
51
43.5284424
0
ARC
8
DEFAULT_255_1_234
10
5.5327968
20
37.2685573
40
0.184134
50
43.4415429
51
83.1661404
0
ARC
8
DEFAULT_255_1_234
10
5.5193886
20
37.1948771
40
0.258926
50
82.160215
51
90.1505798
0
ARC
8
DEFAULT_255_1_234
10
5.5162313
20
37.1411865
40
0.3126255
50
89.5460705
51
102.5418777
0
ARC
8
DEFAULT_255_1_234
10
5.4919399
20
37.2442665
40
0.2067346
50
102.1739365
51
129.2061916
0
ARC
8
DEFAULT_255_1_234
10
5.4840471
20
37.2567094
40
0.1921118
50
129.7279328
51
135.7542026
0
ARC
8
DEFAULT_255_1_234
10
5.4961999
20
37.2470045
40
0.2075944
50
136.175737
51
166.3674722
0
ARC
8
DEFAULT_255_1_234
10
5.5968918
20
37.2200182
40
0.3118201
50
165.9092917
51
178.8683903
0
ARC
8
DEFAULT_255_1_234
10
5.6833779
20
37.2153179
40
0.3983935
50
178.438168
51
180.0083905
0
ARC
8
DEFAULT_255_1_234
10
5.5432381
20
37.2192231
40
0.4068601
50
163.2878735
51
180.5581814
0
ARC
8
DEFAULT_255_1_234
10
5.4630643
20
37.241284
40
0.3237344
50
133.454115
51
162.9470031
0
ARC
8
DEFAULT_255_1_234
10
5.4809184
20
37.2223
40
0.349795
50
100.7869394
51
133.4384016
0
ARC
8
DEFAULT_255_1_234
10
5.5156956
20
37.0674319
40
0.5084616
50
89.6605301
51
101.3704185
0
ARC
8
DEFAULT_255_1_234
10
5.5223294
20
37.0735496
40
0.502348
50
78.2171172
51
90.4130393
0
ARC
8
DEFAULT_255_1_234
10
5.5578373
20
37.2359637
40
0.3361092
50
55.9268222
51
78.4888551
0
ARC
8
DEFAULT_255_1_234
10
5.5774813
20
37.2698324
40
0.2970617
50
47.9292255
51
55.4054003
0
ARC
8
DEFAULT_255_1_234
10
5.5876374
20
37.2801502
40
0.2825983
50
4.3347696
51
48.0560701
0
ARC
8
DEFAULT_255_1_234
10
5.4780767
20
37.2631601
40
0.393225
50
359.925209
51
5.5967654
0
ARC
8
DEFAULT_255_1_234
10
5.5209659
20
37.2687816
40
0.3503892
50
337.8914096
51
358.9967724
0
ARC
8
DEFAULT_255_1_234
10
5.2496071
20
37.3734706
40
0.6412172
50
326.9135351
51
338.3505194
0
ARC
8
DEFAULT_255_1_234
10
4.8510375
20
37.6289284
40
1.1146189
50
319.6472867
51
327.095818
0
ARC
8
DEFAULT_255_1_234
10
4.4677378
20
37.9451
40
1.6114559
50
317.2586784
51
319.9046139
0
LINE
8
DEFAULT_255_1_234
10
6.4070184
20
36.9478026
11
6.4070184
21
36.8265234
0
LINE
8
DEFAULT_255_1_234
10
6.4070184
20
36.8265234
11
6.0150695
21
36.8265234
0
LINE
8
DEFAULT_255_1_234
10
6.0150695
20
36.8265234
11
6.0150695
21
36.9478026
0
LINE
8
DEFAULT_255_1_234
10
6.0150695
20
36.9478026
11
6.4070184
21
36.9478026
0
LINE
8
DEFAULT_255_1_234
10
4.8391341
20
44.3279
11
4.5853312
21
44.8009694
0
LINE
8
DEFAULT_255_1_234
10
4.5853312
20
44.8009694
11
4.3106458
21
44.8009694
0
LINE
8
DEFAULT_255_1_234
10
4.3106458
20
44.8009694
11
4.3106458
21
44.3279
0
LINE
8
DEFAULT_255_1_234
10
4.3106458
20
44.3279
11
4.1556332
21
44.3279
0
LINE
8
DEFAULT_255_1_234
10
4.1556332
20
44.3279
11
4.1556332
21
45.4973211
0
LINE
8
DEFAULT_255_1_234
10
4.1556332
20
45.4973211
11
4.542763
21
45.4973211
0
LINE
8
DEFAULT_255_1_234
10
4.7299025
20
44.8338995
11
5.0045879
21
44.3375381
0
LINE
8
DEFAULT_255_1_234
10
5.0045879
20
44.3375381
11
5.0045879
21
44.3279
0
LINE
8
DEFAULT_255_1_234
10
5.0045879
20
44.3279
11
4.8391341
21
44.3279
0
LINE
8
DEFAULT_255_1_234
10
4.3106458
20
45.3704196
11
4.3106458
21
44.9270677
0
LINE
8
DEFAULT_255_1_234
10
4.3106458
20
44.9270677
11
4.547582
21
44.9270677
0
LINE
8
DEFAULT_255_1_234
10
4.5467789
20
45.3704196
11
4.3106458
21
45.3704196
0
ARC
8
DEFAULT_255_1_234
10
4.5469269
20
44.8011761
40
0.6961575
50
80.653586
51
90.3427061
0
ARC
8
DEFAULT_255_1_234
10
4.5888744
20
45.0474348
40
0.4463577
50
65.6987447
51
80.8329603
0
ARC
8
DEFAULT_255_1_234
10
4.6366385
20
45.1569322
40
0.3269094
50
50.0017161
51
65.4305835
0
ARC
8
DEFAULT_255_1_234
10
4.6584849
20
45.1864482
40
0.2902647
50
11.628416
51
49.5603263
0
ARC
8
DEFAULT_255_1_234
10
4.5049185
20
45.1489299
40
0.4482792
50
359.5655735
51
12.3691
0
ARC
8
DEFAULT_255_1_234
10
4.6126045
20
45.1426644
40
0.3405924
50
341.9983148
51
0.4822259
0
ARC
8
DEFAULT_255_1_234
10
4.6520885
20
45.1319471
40
0.2997359
50
323.8609373
51
341.61416
0
ARC
8
DEFAULT_255_1_234
10
4.6219129
20
45.1552484
40
0.3378487
50
296.7018614
51
323.6876402
0
ARC
8
DEFAULT_255_1_234
10
4.5778024
20
45.2341235
40
0.4281516
50
290.8086567
51
297.2323311
0
ARC
8
DEFAULT_255_1_234
10
4.5501554
20
45.2864351
40
0.3593766
50
269.589728
51
281.8058135
0
ARC
8
DEFAULT_255_1_234
10
4.5752453
20
45.1716743
40
0.2419125
50
281.5501019
51
303.9357432
0
ARC
8
DEFAULT_255_1_234
10
4.5889641
20
45.1478936
40
0.2145323
50
304.4415616
51
311.2106213
0
ARC
8
DEFAULT_255_1_234
10
4.6021746
20
45.1339632
40
0.1953505
50
310.9875673
51
356.2715578
0
ARC
8
DEFAULT_255_1_234
10
4.5265395
20
45.1452422
40
0.2716331
50
354.9348262
51
0.0609027
0
ARC
8
DEFAULT_255_1_234
10
4.5078269
20
45.1479435
40
0.2903554
50
359.5239371
51
12.8808918
0
ARC
8
DEFAULT_255_1_234
10
4.6055824
20
45.1718728
40
0.1897315
50
12.4173452
51
43.1022135
0
ARC
8
DEFAULT_255_1_234
10
4.6117429
20
45.1755724
40
0.1827118
50
43.5751728
51
48.203944
0
ARC
8
DEFAULT_255_1_234
10
4.5947921
20
45.1534302
40
0.2105272
50
48.7809703
51
72.6969569
0
ARC
8
DEFAULT_255_1_234
10
4.5593546
20
45.045882
40
0.3237537
50
72.3702241
51
84.8791103
0
ARC
8
DEFAULT_255_1_234
10
4.5446022
20
44.9116769
40
0.4587478
50
84.5400526
51
89.7281406
0
LINE
8
DEFAULT_255_1_234
10
5.8969141
20
44.4491792
11
5.8969141
21
44.3279
0
LINE
8
DEFAULT_255_1_234
10
5.8969141
20
44.3279
11
5.1306862
21
44.3279
0
LINE
8
DEFAULT_255_1_234
10
5.1306862
20
44.3279
11
5.1306862
21
44.4347221
0
LINE
8
DEFAULT_255_1_234
10
5.1306862
20
44.4347221
11
5.5354858
21
44.8844995
0
LINE
8
DEFAULT_255_1_234
10
5.2567845
20
45.1527595
11
5.1081974
21
45.1527595
0
LINE
8
DEFAULT_255_1_234
10
5.6230318
20
44.7889218
11
5.309794
21
44.4491792
0
LINE
8
DEFAULT_255_1_234
10
5.309794
20
44.4491792
11
5.8969141
21
44.4491792
0
ARC
8
DEFAULT_255_1_234
10
4.1864692
20
46.0774527
40
1.8008286
50
318.5132453
51
320.7828378
0
ARC
8
DEFAULT_255_1_234
10
4.7151666
20
45.6471426
40
1.1191493
50
320.7372736
51
323.9737074
0
ARC
8
DEFAULT_255_1_234
10
5.1071522
20
45.3631361
40
0.6350923
50
323.8961724
51
328.6421089
0
ARC
8
DEFAULT_255_1_234
10
5.3118118
20
45.2369031
40
0.3946393
50
328.8299013
51
331.789948
0
ARC
8
DEFAULT_255_1_234
10
5.4115296
20
45.1854509
40
0.2824501
50
331.4255242
51
352.9364833
0
ARC
8
DEFAULT_255_1_234
10
5.4251797
20
45.1823976
40
0.2685315
50
353.2248685
51
0.0169286
0
ARC
8
DEFAULT_255_1_234
10
5.4461674
20
45.184695
40
0.2475536
50
359.4866256
51
15.9339782
0
ARC
8
DEFAULT_255_1_234
10
5.4968659
20
45.1983286
40
0.1950618
50
16.1714718
51
43.5284424
0
ARC
8
DEFAULT_255_1_234
10
5.5045968
20
45.2060573
40
0.184134
50
43.4415429
51
83.1661404
0
ARC
8
DEFAULT_255_1_234
10
5.4911886
20
45.1323771
40
0.258926
50
82.160215
51
90.1505798
0
ARC
8
DEFAULT_255_1_234
10
5.4880313
20
45.0786865
40
0.3126255
50
89.5460705
51
102.5418777
0
ARC
8
DEFAULT_255_1_234
10
5.4637399
20
45.1817665
40
0.2067346
50
102.1739365
51
129.2061916
0
ARC
8
DEFAULT_255_1_234
10
5.4558471
20
45.1942094
40
0.1921118
50
129.7279328
51
135.7542026
0
ARC
8
DEFAULT_255_1_234
10
5.4679999
20
45.1845045
40
0.2075944
50
136.175737
51
166.3674722
0
ARC
8
DEFAULT_255_1_234
10
5.5686918
20
45.1575182
40
0.3118201
50
165.9092917
51
178.8683903
0
ARC
8
DEFAULT_255_1_234
10
5.6551779
20
45.1528179
40
0.3983935
50
178.438168
51
180.0083905
0
ARC
8
DEFAULT_255_1_234
10
5.5150381
20
45.1567231
40
0.4068601
50
163.2878735
51
180.5581814
0
ARC
8
DEFAULT_255_1_234
10
5.4348643
20
45.178784
40
0.3237344
50
133.454115
51
162.9470031
0
ARC
8
DEFAULT_255_1_234
10
5.4527184
20
45.1598
40
0.349795
50
100.7869394
51
133.4384016
0
ARC
8
DEFAULT_255_1_234
10
5.4874956
20
45.0049319
40
0.5084616
50
89.6605301
51
101.3704185
0
ARC
8
DEFAULT_255_1_234
10
5.4941294
20
45.0110496
40
0.502348
50
78.2171172
51
90.4130393
0
ARC
8
DEFAULT_255_1_234
10
5.5296373
20
45.1734637
40
0.3361092
50
55.9268222
51
78.4888551
0
ARC
8
DEFAULT_255_1_234
10
5.5492813
20
45.2073324
40
0.2970617
50
47.9292255
51
55.4054003
0
ARC
8
DEFAULT_255_1_234
10
5.5594374
20
45.2176502
40
0.2825983
50
4.3347696
51
48.0560701
0
ARC
8
DEFAULT_255_1_234
10
5.4498767
20
45.2006601
40
0.393225
50
359.925209
51
5.5967654
0
ARC
8
DEFAULT_255_1_234
10
5.4927659
20
45.2062816
40
0.3503892
50
337.8914096
51
358.9967724
0
ARC
8
DEFAULT_255_1_234
10
5.2214071
20
45.3109706
40
0.6412172
50
326.9135351
51
338.3505194
0
ARC
8
DEFAULT_255_1_234
10
4.8228375
20
45.5664284
40
1.1146189
50
319.6472867
51
327.095818
0
ARC
8
DEFAULT_255_1_234
10
4.4395378
20
45.8826
40
1.6114559
50
317.2586784
51
319.9046139
0
LINE
8
DEFAULT_255_1_234
10
6.4952786
20
45.2965276
11
6.4952786
21
44.9551788
0
LINE
8
DEFAULT_255_1_234
10
6.4952786
20
44.9551788
11
6.8213671
21
44.9551788
0
LINE
8
DEFAULT_255_1_234
10
6.8213671
20
44.9551788
11
6.8213671
21
44.8146233
0
LINE
8
DEFAULT_255_1_234
10
6.8213671
20
44.8146233
11
6.4952786
21
44.8146233
0
LINE
8
DEFAULT_255_1_234
10
6.4952786
20
44.8146233
11
6.4952786
21
44.4451634
0
LINE
8
DEFAULT_255_1_234
10
6.4952786
20
44.4451634
11
6.3458882
21
44.4451634
0
LINE
8
DEFAULT_255_1_234
10
6.3458882
20
44.4451634
11
6.3458882
21
44.8146233
0
LINE
8
DEFAULT_255_1_234
10
6.3458882
20
44.8146233
11
6.0197997
21
44.8146233
0
LINE
8
DEFAULT_255_1_234
10
6.0197997
20
44.8146233
11
6.0197997
21
44.9551788
0
LINE
8
DEFAULT_255_1_234
10
6.0197997
20
44.9551788
11
6.3458882
21
44.9551788
0
LINE
8
DEFAULT_255_1_234
10
6.3458882
20
44.9551788
11
6.3458882
21
45.2965276
0
LINE
8
DEFAULT_255_1_234
10
6.3458882
20
45.2965276
11
6.4952786
21
45.2965276
0
LINE
8
DEFAULT_255_1_234
10
4.5801137
20
53.4404433
11
4.5801137
21
52.2654
0
LINE
8
DEFAULT_255_1_234
10
4.5801137
20
52.2654
11
4.4307234
21
52.2654
0
LINE
8
DEFAULT_255_1_234
10
4.4307234
20
52.2654
11
4.4307234
21
53.2557133
0
LINE
8
DEFAULT_255_1_234
10
4.4307234
20
53.2557133
11
4.1311396
21
53.1456785
0
LINE
8
DEFAULT_255_1_234
10
4.1311396
20
53.1456785
11
4.1311396
21
53.2806117
0
LINE
8
DEFAULT_255_1_234
10
4.1311396
20
53.2806117
11
4.5568217
21
53.4404433
0
LINE
8
DEFAULT_255_1_234
10
4.5568217
20
53.4404433
11
4.5801137
21
53.4404433
0
LINE
8
DEFAULT_255_1_234
10
5.7591729
20
52.6364663
11
5.9141854
21
52.6364663
0
LINE
8
DEFAULT_255_1_234
10
5.0138276
20
52.7954947
11
5.0138276
21
52.9079391
0
LINE
8
DEFAULT_255_1_234
10
5.9141854
20
53.0589357
11
5.7591729
21
53.0589357
0
LINE
8
DEFAULT_255_1_234
10
5.1688401
20
52.9039232
11
5.1688401
21
52.7906757
0
ARC
8
DEFAULT_255_1_234
10
5.3661241
20
52.6961846
40
0.5513052
50
340.1774281
51
353.7814284
0
ARC
8
DEFAULT_255_1_234
10
5.5232594
20
52.6376582
40
0.3836379
50
311.4558989
51
340.4421614
0
ARC
8
DEFAULT_255_1_234
10
5.5199262
20
52.6487528
40
0.3941894
50
282.4333181
51
310.7513653
0
ARC
8
DEFAULT_255_1_234
10
5.4760001
20
52.8302679
40
0.5809175
50
269.9358511
51
282.809604
0
ARC
8
DEFAULT_255_1_234
10
5.4708067
20
52.9760212
40
0.7266847
50
270.0021091
51
270.3581957
0
ARC
8
DEFAULT_255_1_234
10
5.4655484
20
52.7159585
40
0.4666519
50
250.7884749
51
270.6489167
0
ARC
8
DEFAULT_255_1_234
10
5.4487319
20
52.6522319
40
0.4009729
50
219.3627325
51
250.0611886
0
ARC
8
DEFAULT_255_1_234
10
5.531653
20
52.7227042
40
0.5097822
50
193.5479632
51
219.5756669
0
ARC
8
DEFAULT_255_1_234
10
5.7688151
20
52.7842919
40
0.7547848
50
181.1218675
51
193.87563
0
ARC
8
DEFAULT_255_1_234
10
5.9758332
20
52.795358
40
0.9620055
50
179.9918545
51
181.5394234
0
ARC
8
DEFAULT_255_1_234
10
5.7907434
20
52.9116788
40
0.7769248
50
169.5837241
51
180.2757934
0
ARC
8
DEFAULT_255_1_234
10
5.6070372
20
52.9456229
40
0.590109
50
155.0365899
51
169.6003176
0
ARC
8
DEFAULT_255_1_234
10
5.4934836
20
53.0003677
40
0.4640625
50
136.783148
51
155.2472683
0
ARC
8
DEFAULT_255_1_234
10
5.4545313
20
53.0334562
40
0.4130255
50
121.7633186
51
136.428115
0
ARC
8
DEFAULT_255_1_234
10
5.4680275
20
53.0085227
40
0.4413323
50
95.6459699
51
121.5490577
0
ARC
8
DEFAULT_255_1_234
10
5.4837557
20
52.8976949
40
0.55319
50
89.924208
51
96.1377933
0
ARC
8
DEFAULT_255_1_234
10
5.488799
20
52.9095542
40
0.5413475
50
76.6779277
51
90.4563316
0
ARC
8
DEFAULT_255_1_234
10
5.5281613
20
53.0686114
40
0.3775041
50
47.485847
51
76.9287264
0
ARC
8
DEFAULT_255_1_234
10
5.5134586
20
53.0586159
40
0.3948286
50
16.5424086
51
46.8933463
0
ARC
8
DEFAULT_255_1_234
10
5.3526743
20
53.0057861
40
0.564021
50
5.4072051
51
17.0365086
0
ARC
8
DEFAULT_255_1_234
10
5.208776
20
52.9826679
40
0.5556559
50
7.8891745
51
15.9239216
0
ARC
8
DEFAULT_255_1_234
10
5.4074773
20
53.0403631
40
0.3487515
50
15.7653144
51
27.9410532
0
ARC
8
DEFAULT_255_1_234
10
5.5178991
20
53.099479
40
0.2235026
50
27.8166557
51
46.4008329
0
ARC
8
DEFAULT_255_1_234
10
5.5228634
20
53.0989082
40
0.2205286
50
47.4371857
51
75.0698205
0
ARC
8
DEFAULT_255_1_234
10
5.4920029
20
52.9914765
40
0.3322915
50
74.7008593
51
87.8124495
0
ARC
8
DEFAULT_255_1_234
10
5.4846716
20
52.8858844
40
0.4380987
50
87.3814673
51
90.0240855
0
ARC
8
DEFAULT_255_1_234
10
5.4808259
20
53.0036291
40
0.3203749
50
89.3451631
51
108.5745436
0
ARC
8
DEFAULT_255_1_234
10
5.4671365
20
53.0549908
40
0.2673494
50
109.2998449
51
143.3037509
0
ARC
8
DEFAULT_255_1_234
10
5.5433437
20
52.9963881
40
0.3634757
50
143.0753173
51
163.1916937
0
ARC
8
DEFAULT_255_1_234
10
5.7385165
20
52.9347967
40
0.5681262
50
162.9373603
51
174.6208611
0
ARC
8
DEFAULT_255_1_234
10
6.0011207
20
52.906001
40
0.8322832
50
174.3419979
51
180.1430411
0
ARC
8
DEFAULT_255_1_234
10
5.9080363
20
52.7865698
40
0.7392076
50
179.6817502
51
189.150529
0
ARC
8
DEFAULT_255_1_234
10
5.6579611
20
52.744919
40
0.4856932
50
188.9910863
51
203.5773039
0
ARC
8
DEFAULT_255_1_234
10
5.5499944
20
52.7001211
40
0.3688271
50
203.9077269
51
215.1312379
0
ARC
8
DEFAULT_255_1_234
10
5.4577038
20
52.6285941
40
0.2522457
50
213.9071664
51
263.8849284
0
ARC
8
DEFAULT_255_1_234
10
5.4702367
20
52.7070518
40
0.3316174
50
263.1758525
51
270.1031083
0
ARC
8
DEFAULT_255_1_234
10
5.4734459
20
52.8317365
40
0.4563091
50
269.6719807
51
279.0609165
0
ARC
8
DEFAULT_255_1_234
10
5.5001227
20
52.6704907
40
0.2928759
50
278.8750225
51
293.6346586
0
ARC
8
DEFAULT_255_1_234
10
5.5321435
20
52.59529
40
0.2111472
50
293.8553404
51
310.0518804
0
ARC
8
DEFAULT_255_1_234
10
5.5326289
20
52.5890516
40
0.2060917
50
311.0646779
51
332.0108348
0
ARC
8
DEFAULT_255_1_234
10
5.4134016
20
52.6547978
40
0.3422352
50
331.6588543
51
343.2878891
0
ARC
8
DEFAULT_255_1_234
10
5.2071531
20
52.7181798
40
0.5580003
50
343.1446044
51
351.010618
0
ARC
8
DEFAULT_255_1_234
10
5.0530177
20
52.7462871
40
0.7146438
50
350.7157277
51
351.1602153
0
LINE
8
DEFAULT_255_1_234
10
4.8673341
20
60.2029
11
4.6135312
21
60.6759694
0
LINE
8
DEFAULT_255_1_234
10
4.6135312
20
60.6759694
11
4.3388458
21
60.6759694
0
LINE
8
DEFAULT_255_1_234
10
4.3388458
20
60.6759694
11
4.3388458
21
60.2029
0
LINE
8
DEFAULT_255_1_234
10
4.3388458
20
60.2029
11
4.1838332
21
60.2029
0
LINE
8
DEFAULT_255_1_234
10
4.1838332
20
60.2029
11
4.1838332
21
61.3723211
0
LINE
8
DEFAULT_255_1_234
10
4.1838332
20
61.3723211
11
4.570963
21
61.3723211
0
LINE
8
DEFAULT_255_1_234
10
4.7581025
20
60.7088995
11
5.0327879
21
60.2125381
0
LINE
8
DEFAULT_255_1_234
10
5.0327879
20
60.2125381
11
5.0327879
21
60.2029
0
LINE
8
DEFAULT_255_1_234
10
5.0327879
20
60.2029
11
4.8673341
21
60.2029
0
LINE
8
DEFAULT_255_1_234
10
4.3388458
20
61.2454196
11
4.3388458
21
60.8020677
0
LINE
8
DEFAULT_255_1_234
10
4.3388458
20
60.8020677
11
4.575782
21
60.8020677
0
LINE
8
DEFAULT_255_1_234
10
4.5749789
20
61.2454196
11
4.3388458
21
61.2454196
0
ARC
8
DEFAULT_255_1_234
10
4.5751269
20
60.6761761
40
0.6961575
50
80.653586
51
90.3427061
0
ARC
8
DEFAULT_255_1_234
10
4.6170744
20
60.9224348
40
0.4463577
50
65.6987447
51
80.8329603
0
ARC
8
DEFAULT_255_1_234
10
4.6648385
20
61.0319322
40
0.3269094
50
50.0017161
51
65.4305835
0
ARC
8
DEFAULT_255_1_234
10
4.6866849
20
61.0614482
40
0.2902647
50
11.628416
51
49.5603263
0
ARC
8
DEFAULT_255_1_234
10
4.5331185
20
61.0239299
40
0.4482792
50
359.5655735
51
12.3691
0
ARC
8
DEFAULT_255_1_234
10
4.6408045
20
61.0176644
40
0.3405924
50
341.9983148
51
0.4822259
0
ARC
8
DEFAULT_255_1_234
10
4.6802885
20
61.0069471
40
0.2997359
50
323.8609373
51
341.61416
0
ARC
8
DEFAULT_255_1_234
10
4.6501129
20
61.0302484
40
0.3378487
50
296.7018614
51
323.6876402
0
ARC
8
DEFAULT_255_1_234
10
4.6060024
20
61.1091235
40
0.4281516
50
290.8086567
51
297.2323311
0
ARC
8
DEFAULT_255_1_234
10
4.5783554
20
61.1614351
40
0.3593766
50
269.589728
51
281.8058135
0
ARC
8
DEFAULT_255_1_234
10
4.6034453
20
61.0466743
40
0.2419125
50
281.5501019
51
303.9357432
0
ARC
8
DEFAULT_255_1_234
10
4.6171641
20
61.0228936
40
0.2145323
50
304.4415616
51
311.2106213
0
ARC
8
DEFAULT_255_1_234
10
4.6303746
20
61.0089632
40
0.1953505
50
310.9875673
51
356.2715578
0
ARC
8
DEFAULT_255_1_234
10
4.5547395
20
61.0202422
40
0.2716331
50
354.9348262
51
0.0609027
0
ARC
8
DEFAULT_255_1_234
10
4.5360269
20
61.0229435
40
0.2903554
50
359.5239371
51
12.8808918
0
ARC
8
DEFAULT_255_1_234
10
4.6337824
20
61.0468728
40
0.1897315
50
12.4173452
51
43.1022135
0
ARC
8
DEFAULT_255_1_234
10
4.6399429
20
61.0505724
40
0.1827118
50
43.5751728
51
48.203944
0
ARC
8
DEFAULT_255_1_234
10
4.6229921
20
61.0284302
40
0.2105272
50
48.7809703
51
72.6969569
0
ARC
8
DEFAULT_255_1_234
10
4.5875546
20
60.920882
40
0.3237537
50
72.3702241
51
84.8791103
0
ARC
8
DEFAULT_255_1_234
10
4.5728022
20
60.7866769
40
0.4587478
50
84.5400526
51
89.7281406
0
LINE
8
DEFAULT_255_1_234
10
5.6472159
20
61.3779433
11
5.6472159
21
60.2029
0
LINE
8
DEFAULT_255_1_234
10
5.6472159
20
60.2029
11
5.4978256
21
60.2029
0
LINE
8
DEFAULT_255_1_234
10
5.4978256
20
60.2029
11
5.4978256
21
61.1932133
0
LINE
8
DEFAULT_255_1_234
10
5.4978256
20
61.1932133
11
5.1982417
21
61.0831785
0
LINE
8
DEFAULT_255_1_234
10
5.1982417
20
61.0831785
11
5.1982417
21
61.2181117
0
LINE
8
DEFAULT_255_1_234
10
5.1982417
20
61.2181117
11
5.6239239
21
61.3779433
0
LINE
8
DEFAULT_255_1_234
10
5.6239239
20
61.3779433
11
5.6472159
21
61.3779433
0
LINE
8
DEFAULT_255_1_234
10
6.4070184
20
60.7603026
11
6.4070184
21
60.6390234
0
LINE
8
DEFAULT_255_1_234
10
6.4070184
20
60.6390234
11
6.0150695
21
60.6390234
0
LINE
8
DEFAULT_255_1_234
10
6.0150695
20
60.6390234
11
6.0150695
21
60.7603026
0
LINE
8
DEFAULT_255_1_234
10
6.0150695
20
60.7603026
11
6.4070184
21
60.7603026
0
LINE
8
DEFAULT_255_1_234
10
4.8391341
20
68.1404
11
4.5853312
21
68.6134694
0
LINE
8
DEFAULT_255_1_234
10
4.5853312
20
68.6134694
11
4.3106458
21
68.6134694
0
LINE
8
DEFAULT_255_1_234
10
4.3106458
20
68.6134694
11
4.3106458
21
68.1404
0
LINE
8
DEFAULT_255_1_234
10
4.3106458
20
68.1404
11
4.1556332
21
68.1404
0
LINE
8
DEFAULT_255_1_234
10
4.1556332
20
68.1404
11
4.1556332
21
69.3098211
0
LINE
8
DEFAULT_255_1_234
10
4.1556332
20
69.3098211
11
4.542763
21
69.3098211
0
LINE
8
DEFAULT_255_1_234
10
4.7299025
20
68.6463995
11
5.0045879
21
68.1500381
0
LINE
8
DEFAULT_255_1_234
10
5.0045879
20
68.1500381
11
5.0045879
21
68.1404
0
LINE
8
DEFAULT_255_1_234
10
5.0045879
20
68.1404
11
4.8391341
21
68.1404
0
LINE
8
DEFAULT_255_1_234
10
4.3106458
20
69.1829196
11
4.3106458
21
68.7395677
0
LINE
8
DEFAULT_255_1_234
10
4.3106458
20
68.7395677
11
4.547582
21
68.7395677
0
LINE
8
DEFAULT_255_1_234
10
4.5467789
20
69.1829196
11
4.3106458
21
69.1829196
0
ARC
8
DEFAULT_255_1_234
10
4.5469269
20
68.6136761
40
0.6961575
50
80.653586
51
90.3427061
0
ARC
8
DEFAULT_255_1_234
10
4.5888744
20
68.8599348
40
0.4463577
50
65.6987447
51
80.8329603
0
ARC
8
DEFAULT_255_1_234
10
4.6366385
20
68.9694322
40
0.3269094
50
50.0017161
51
65.4305835
0
ARC
8
DEFAULT_255_1_234
10
4.6584849
20
68.9989482
40
0.2902647
50
11.628416
51
49.5603263
0
ARC
8
DEFAULT_255_1_234
10
4.5049185
20
68.9614299
40
0.4482792
50
359.5655735
51
12.3691
0
ARC
8
DEFAULT_255_1_234
10
4.6126045
20
68.9551644
40
0.3405924
50
341.9983148
51
0.4822259
0
ARC
8
DEFAULT_255_1_234
10
4.6520885
20
68.9444471
40
0.2997359
50
323.8609373
51
341.61416
0
ARC
8
DEFAULT_255_1_234
10
4.6219129
20
68.9677484
40
0.3378487
50
296.7018614
51
323.6876402
0
ARC
8
DEFAULT_255_1_234
10
4.5778024
20
69.0466235
40
0.4281516
50
290.8086567
51
297.2323311
0
ARC
8
DEFAULT_255_1_234
10
4.5501554
20
69.0989351
40
0.3593766
50
269.589728
51
281.8058135
0
ARC
8
DEFAULT_255_1_234
10
4.5752453
20
68.9841743
40
0.2419125
50
281.5501019
51
303.9357432
0
ARC
8
DEFAULT_255_1_234
10
4.5889641
20
68.9603936
40
0.2145323
50
304.4415616
51
311.2106213
0
ARC
8
DEFAULT_255_1_234
10
4.6021746
20
68.9464632
40
0.1953505
50
310.9875673
51
356.2715578
0
ARC
8
DEFAULT_255_1_234
10
4.5265395
20
68.9577422
40
0.2716331
50
354.9348262
51
0.0609027
0
ARC
8
DEFAULT_255_1_234
10
4.5078269
20
68.9604435
40
0.2903554
50
359.5239371
51
12.8808918
0
ARC
8
DEFAULT_255_1_234
10
4.6055824
20
68.9843728
40
0.1897315
50
12.4173452
51
43.1022135
0
ARC
8
DEFAULT_255_1_234
10
4.6117429
20
68.9880724
40
0.1827118
50
43.5751728
51
48.203944
0
ARC
8
DEFAULT_255_1_234
10
4.5947921
20
68.9659302
40
0.2105272
50
48.7809703
51
72.6969569
0
ARC
8
DEFAULT_255_1_234
10
4.5593546
20
68.858382
40
0.3237537
50
72.3702241
51
84.8791103
0
ARC
8
DEFAULT_255_1_234
10
4.5446022
20
68.7241769
40
0.4587478
50
84.5400526
51
89.7281406
0
LINE
8
DEFAULT_255_1_234
10
5.6190159
20
69.3154433
11
5.6190159
21
68.1404
0
LINE
8
DEFAULT_255_1_234
10
5.6190159
20
68.1404
11
5.4696256
21
68.1404
0
LINE
8
DEFAULT_255_1_234
10
5.4696256
20
68.1404
11
5.4696256
21
69.1307133
0
LINE
8
DEFAULT_255_1_234
10
5.4696256
20
69.1307133
11
5.1700417
21
69.0206785
0
LINE
8
DEFAULT_255_1_234
10
5.1700417
20
69.0206785
11
5.1700417
21
69.1556117
0
LINE
8
DEFAULT_255_1_234
10
5.1700417
20
69.1556117
11
5.5957239
21
69.3154433
0
LINE
8
DEFAULT_255_1_234
10
5.5957239
20
69.3154433
11
5.6190159
21
69.3154433
0
LINE
8
DEFAULT_255_1_234
10
6.4952786
20
69.1090276
11
6.4952786
21
68.7676788
0
LINE
8
DEFAULT_255_1_234
10
6.4952786
20
68.7676788
11
6.8213671
21
68.7676788
0
LINE
8
DEFAULT_255_1_234
10
6.8213671
20
68.7676788
11
6.8213671
21
68.6271233
0
LINE
8
DEFAULT_255_1_234
10
6.8213671
20
68.6271233
11
6.4952786
21
68.6271233
0
LINE
8
DEFAULT_255_1_234
10
6.4952786
20
68.6271233
11
6.4952786
21
68.2576634
0
LINE
8
DEFAULT_255_1_234
10
6.4952786
20
68.2576634
11
6.3458882
21
68.2576634
0
LINE
8
DEFAULT_255_1_234
10
6.3458882
20
68.2576634
11
6.3458882
21
68.6271233
0
LINE
8
DEFAULT_255_1_234
10
6.3458882
20
68.6271233
11
6.0197997
21
68.6271233
0
LINE
8
DEFAULT_255_1_234
10
6.0197997
20
68.6271233
11
6.0197997
21
68.7676788
0
LINE
8
DEFAULT_255_1_234
10
6.0197997
20
68.7676788
11
6.3458882
21
68.7676788
0
LINE
8
DEFAULT_255_1_234
10
6.3458882
20
68.7676788
11
6.3458882
21
69.1090276
0
LINE
8
DEFAULT_255_1_234
10
6.3458882
20
69.1090276
11
6.4952786
21
69.1090276
0
LINE
8
DEFAULT_255_1_234
10
4.5801137
20
77.2529433
11
4.5801137
21
76.0779
0
LINE
8
DEFAULT_255_1_234
10
4.5801137
20
76.0779
11
4.4307234
21
76.0779
0
LINE
8
DEFAULT_255_1_234
10
4.4307234
20
76.0779
11
4.4307234
21
77.0682133
0
LINE
8
DEFAULT_255_1_234
10
4.4307234
20
77.0682133
11
4.1311396
21
76.9581785
0
LINE
8
DEFAULT_255_1_234
10
4.1311396
20
76.9581785
11
4.1311396
21
77.0931117
0
LINE
8
DEFAULT_255_1_234
10
4.1311396
20
77.0931117
11
4.5568217
21
77.2529433
0
LINE
8
DEFAULT_255_1_234
10
4.5568217
20
77.2529433
11
4.5801137
21
77.2529433
0
LINE
8
DEFAULT_255_1_234
10
5.7591729
20
76.4489663
11
5.9141854
21
76.4489663
0
LINE
8
DEFAULT_255_1_234
10
5.0138276
20
76.6079947
11
5.0138276
21
76.7204391
0
LINE
8
DEFAULT_255_1_234
10
5.9141854
20
76.8714357
11
5.7591729
21
76.8714357
0
LINE
8
DEFAULT_255_1_234
10
5.1688401
20
76.7164232
11
5.1688401
21
76.6031757
0
ARC
8
DEFAULT_255_1_234
10
5.3661241
20
76.5086846
40
0.5513052
50
340.1774281
51
353.7814284
0
ARC
8
DEFAULT_255_1_234
10
5.5232594
20
76.4501582
40
0.3836379
50
311.4558989
51
340.4421614
0
ARC
8
DEFAULT_255_1_234
10
5.5199262
20
76.4612528
40
0.3941894
50
282.4333181
51
310.7513653
0
ARC
8
DEFAULT_255_1_234
10
5.4760001
20
76.6427679
40
0.5809175
50
269.9358511
51
282.809604
0
ARC
8
DEFAULT_255_1_234
10
5.4708067
20
76.7885212
40
0.7266847
50
270.0021091
51
270.3581957
0
ARC
8
DEFAULT_255_1_234
10
5.4655484
20
76.5284585
40
0.4666519
50
250.7884749
51
270.6489167
0
ARC
8
DEFAULT_255_1_234
10
5.4487319
20
76.4647319
40
0.4009729
50
219.3627325
51
250.0611886
0
ARC
8
DEFAULT_255_1_234
10
5.531653
20
76.5352042
40
0.5097822
50
193.5479632
51
219.5756669
0
ARC
8
DEFAULT_255_1_234
10
5.7688151
20
76.5967919
40
0.7547848
50
181.1218675
51
193.87563
0
ARC
8
DEFAULT_255_1_234
10
5.9758332
20
76.607858
40
0.9620055
50
179.9918545
51
181.5394234
0
ARC
8
DEFAULT_255_1_234
10
5.7907434
20
76.7241788
40
0.7769248
50
169.5837241
51
180.2757934
0
ARC
8
DEFAULT_255_1_234
10
5.6070372
20
76.7581229
40
0.590109
50
155.0365899
51
169.6003176
0
ARC
8
DEFAULT_255_1_234
10
5.4934836
20
76.8128677
40
0.4640625
50
136.783148
51
155.2472683
0
ARC
8
DEFAULT_255_1_234
10
5.4545313
20
76.8459562
40
0.4130255
50
121.7633186
51
136.428115
0
ARC
8
DEFAULT_255_1_234
10
5.4680275
20
76.8210227
40
0.4413323
50
95.6459699
51
121.5490577
0
ARC
8
DEFAULT_255_1_234
10
5.4837557
20
76.7101949
40
0.55319
50
89.924208
51
96.1377933
0
ARC
8
DEFAULT_255_1_234
10
5.488799
20
76.7220542
40
0.5413475
50
76.6779277
51
90.4563316
0
ARC
8
DEFAULT_255_1_234
10
5.5281613
20
76.8811114
40
0.3775041
50
47.485847
51
76.9287264
0
ARC
8
DEFAULT_255_1_234
10
5.5134586
20
76.8711159
40
0.3948286
50
16.5424086
51
46.8933463
0
ARC
8
DEFAULT_255_1_234
10
5.3526743
20
76.8182861
40
0.564021
50
5.4072051
51
17.0365086
0
ARC
8
DEFAULT_255_1_234
10
5.208776
20
76.7951679
40
0.5556559
50
7.8891745
51
15.9239216
0
ARC
8
DEFAULT_255_1_234
10
5.4074773
20
76.8528631
40
0.3487515
50
15.7653144
51
27.9410532
0
ARC
8
DEFAULT_255_1_234
10
5.5178991
20
76.911979
40
0.2235026
50
27.8166557
51
46.4008329
0
ARC
8
DEFAULT_255_1_234
10
5.5228634
20
76.9114082
40
0.2205286
50
47.4371857
51
75.0698205
0
ARC
8
DEFAULT_255_1_234
10
5.4920029
20
76.8039765
40
0.3322915
50
74.7008593
51
87.8124495
0
ARC
8
DEFAULT_255_1_234
10
5.4846716
20
76.6983844
40
0.4380987
50
87.3814673
51
90.0240855
0
ARC
8
DEFAULT_255_1_234
10
5.4808259
20
76.8161291
40
0.3203749
50
89.3451631
51
108.5745436
0
ARC
8
DEFAULT_255_1_234
10
5.4671365
20
76.8674908
40
0.2673494
50
109.2998449
51
143.3037509
0
ARC
8
DEFAULT_255_1_234
10
5.5433437
20
76.8088881
40
0.3634757
50
143.0753173
51
163.1916937
0
ARC
8
DEFAULT_255_1_234
10
5.7385165
20
76.7472967
40
0.5681262
50
162.9373603
51
174.6208611
0
ARC
8
DEFAULT_255_1_234
10
6.0011207
20
76.718501
40
0.8322832
50
174.3419979
51
180.1430411
0
ARC
8
DEFAULT_255_1_234
10
5.9080363
20
76.5990698
40
0.7392076
50
179.6817502
51
189.150529
0
ARC
8
DEFAULT_255_1_234
10
5.6579611
20
76.557419
40
0.4856932
50
188.9910863
51
203.5773039
0
ARC
8
DEFAULT_255_1_234
10
5.5499944
20
76.5126211
40
0.3688271
50
203.9077269
51
215.1312379
0
ARC
8
DEFAULT_255_1_234
10
5.4577038
20
76.4410941
40
0.2522457
50
213.9071664
51
263.8849284
0
ARC
8
DEFAULT_255_1_234
10
5.4702367
20
76.5195518
40
0.3316174
50
263.1758525
51
270.1031083
0
ARC
8
DEFAULT_255_1_234
10
5.4734459
20
76.6442365
40
0.4563091
50
269.6719807
51
279.0609165
0
ARC
8
DEFAULT_255_1_234
10
5.5001227
20
76.4829907
40
0.2928759
50
278.8750225
51
293.6346586
0
ARC
8
DEFAULT_255_1_234
10
5.5321435
20
76.40779
40
0.2111472
50
293.8553404
51
310.0518804
0
ARC
8
DEFAULT_255_1_234
10
5.5326289
20
76.4015516
40
0.2060917
50
311.0646779
51
332.0108348
0
ARC
8
DEFAULT_255_1_234
10
5.4134016
20
76.4672978
40
0.3422352
50
331.6588543
51
343.2878891
0
ARC
8
DEFAULT_255_1_234
10
5.2071531
20
76.5306798
40
0.5580003
50
343.1446044
51
351.010618
0
ARC
8
DEFAULT_255_1_234
10
5.0530177
20
76.5587871
40
0.7146438
50
350.7157277
51
351.1602153
0
LINE
8
DEFAULT_255_1_234
10
4.8673341
20
84.0154
11
4.6135312
21
84.4884694
0
LINE
8
DEFAULT_255_1_234
10
4.6135312
20
84.4884694
11
4.3388458
21
84.4884694
0
LINE
8
DEFAULT_255_1_234
10
4.3388458
20
84.4884694
11
4.3388458
21
84.0154
0
LINE
8
DEFAULT_255_1_234
10
4.3388458
20
84.0154
11
4.1838332
21
84.0154
0
LINE
8
DEFAULT_255_1_234
10
4.1838332
20
84.0154
11
4.1838332
21
85.1848211
0
LINE
8
DEFAULT_255_1_234
10
4.1838332
20
85.1848211
11
4.570963
21
85.1848211
0
LINE
8
DEFAULT_255_1_234
10
4.7581025
20
84.5213995
11
5.0327879
21
84.0250381
0
LINE
8
DEFAULT_255_1_234
10
5.0327879
20
84.0250381
11
5.0327879
21
84.0154
0
LINE
8
DEFAULT_255_1_234
10
5.0327879
20
84.0154
11
4.8673341
21
84.0154
0
LINE
8
DEFAULT_255_1_234
10
4.3388458
20
85.0579196
11
4.3388458
21
84.6145677
0
LINE
8
DEFAULT_255_1_234
10
4.3388458
20
84.6145677
11
4.575782
21
84.6145677
0
LINE
8
DEFAULT_255_1_234
10
4.5749789
20
85.0579196
11
4.3388458
21
85.0579196
0
ARC
8
DEFAULT_255_1_234
10
4.5751269
20
84.4886761
40
0.6961575
50
80.653586
51
90.3427061
0
ARC
8
DEFAULT_255_1_234
10
4.6170744
20
84.7349348
40
0.4463577
50
65.6987447
51
80.8329603
0
ARC
8
DEFAULT_255_1_234
10
4.6648385
20
84.8444322
40
0.3269094
50
50.0017161
51
65.4305835
0
ARC
8
DEFAULT_255_1_234
10
4.6866849
20
84.8739482
40
0.2902647
50
11.628416
51
49.5603263
0
ARC
8
DEFAULT_255_1_234
10
4.5331185
20
84.8364299
40
0.4482792
50
359.5655735
51
12.3691
0
ARC
8
DEFAULT_255_1_234
10
4.6408045
20
84.8301644
40
0.3405924
50
341.9983148
51
0.4822259
0
ARC
8
DEFAULT_255_1_234
10
4.6802885
20
84.8194471
40
0.2997359
50
323.8609373
51
341.61416
0
ARC
8
DEFAULT_255_1_234
10
4.6501129
20
84.8427484
40
0.3378487
50
296.7018614
51
323.6876402
0
ARC
8
DEFAULT_255_1_234
10
4.6060024
20
84.9216235
40
0.4281516
50
290.8086567
51
297.2323311
0
ARC
8
DEFAULT_255_1_234
10
4.5783554
20
84.9739351
40
0.3593766
50
269.589728
51
281.8058135
0
ARC
8
DEFAULT_255_1_234
10
4.6034453
20
84.8591743
40
0.2419125
50
281.5501019
51
303.9357432
0
ARC
8
DEFAULT_255_1_234
10
4.6171641
20
84.8353936
40
0.2145323
50
304.4415616
51
311.2106213
0
ARC
8
DEFAULT_255_1_234
10
4.6303746
20
84.8214632
40
0.1953505
50
310.9875673
51
356.2715578
0
ARC
8
DEFAULT_255_1_234
10
4.5547395
20
84.8327422
40
0.2716331
50
354.9348262
51
0.0609027
0
ARC
8
DEFAULT_255_1_234
10
4.5360269
20
84.8354435
40
0.2903554
50
359.5239371
51
12.8808918
0
ARC
8
DEFAULT_255_1_234
10
4.6337824
20
84.8593728
40
0.1897315
50
12.4173452
51
43.1022135
0
ARC
8
DEFAULT_255_1_234
10
4.6399429
20
84.8630724
40
0.1827118
50
43.5751728
51
48.203944
0
ARC
8
DEFAULT_255_1_234
10
4.6229921
20
84.8409302
40
0.2105272
50
48.7809703
51
72.6969569
0
ARC
8
DEFAULT_255_1_234
10
4.5875546
20
84.733382
40
0.3237537
50
72.3702241
51
84.8791103
0
ARC
8
DEFAULT_255_1_234
10
4.5728022
20
84.5991769
40
0.4587478
50
84.5400526
51
89.7281406
0
LINE
8
DEFAULT_255_1_234
10
5.8921839
20
84.7069327
11
5.8921839
21
84.5141709
0
LINE
8
DEFAULT_255_1_234
10
5.1540672
20
84.4940916
11
5.1540672
21
84.6924755
0
LINE
8
DEFAULT_255_1_234
10
5.7435968
20
84.4740123
11
5.7435968
21
84.7173739
0
LINE
8
DEFAULT_255_1_234
10
5.3026543
20
84.7286184
11
5.3026543
21
84.4908789
0
ARC
8
DEFAULT_255_1_234
10
4.6674729
20
84.5092805
40
1.2247208
50
353.8441951
51
0.2287902
0
ARC
8
DEFAULT_255_1_234
10
5.1314233
20
84.4574806
40
0.7578929
50
344.4934747
51
353.9765454
0
ARC
8
DEFAULT_255_1_234
10
5.4306823
20
84.3723981
40
0.4467846
50
329.2803592
51
344.7472793
0
ARC
8
DEFAULT_255_1_234
10
5.5299648
20
84.3179018
40
0.3336173
50
324.9352394
51
328.6160465
0
ARC
8
DEFAULT_255_1_234
10
5.5676756
20
84.2915427
40
0.2876076
50
280.580143
51
324.9173126
0
ARC
8
DEFAULT_255_1_234
10
5.5275549
20
84.4586099
40
0.4592847
50
269.5977311
51
281.6734359
0
ARC
8
DEFAULT_255_1_234
10
5.5203455
20
84.4466173
40
0.4472986
50
256.6228859
51
270.51044
0
ARC
8
DEFAULT_255_1_234
10
5.4801432
20
84.2917877
40
0.2873874
50
215.8618325
51
257.2788573
0
ARC
8
DEFAULT_255_1_234
10
5.5822464
20
84.3602977
40
0.4102928
50
197.9693508
51
215.2623606
0
ARC
8
DEFAULT_255_1_234
10
5.830758
20
84.4441709
40
0.6725652
50
187.8816417
51
198.2346507
0
ARC
8
DEFAULT_255_1_234
10
6.2265788
20
84.5013079
40
1.0724845
50
180.8976217
51
188.0055519
0
ARC
8
DEFAULT_255_1_234
10
6.5065976
20
84.5116777
40
1.3526448
50
180.7449369
51
181.1510016
0
ARC
8
DEFAULT_255_1_234
10
6.3488705
20
84.6973042
40
1.1948131
50
173.7675579
51
180.231553
0
ARC
8
DEFAULT_255_1_234
10
5.8970852
20
84.7483666
40
0.7401564
50
164.3058563
51
173.9002247
0
ARC
8
DEFAULT_255_1_234
10
5.6058921
20
84.8322656
40
0.4371288
50
148.7922025
51
164.568378
0
ARC
8
DEFAULT_255_1_234
10
5.5107373
20
84.8853929
40
0.3282386
50
144.5883898
51
148.1176286
0
ARC
8
DEFAULT_255_1_234
10
5.4764271
20
84.9093315
40
0.2864044
50
101.6440918
51
144.514236
0
ARC
8
DEFAULT_255_1_234
10
5.5189337
20
84.7404069
40
0.4604934
50
89.5284041
51
102.5819763
0
ARC
8
DEFAULT_255_1_234
10
5.5268425
20
84.7365018
40
0.464401
50
77.0437873
51
90.5081339
0
ARC
8
DEFAULT_255_1_234
10
5.5670427
20
84.9007615
40
0.2953195
50
48.2778575
51
77.4994676
0
ARC
8
DEFAULT_255_1_234
10
5.5743058
20
84.9136746
40
0.2808655
50
36.3142134
51
47.6305865
0
ARC
8
DEFAULT_255_1_234
10
5.4874365
20
84.8551515
40
0.3855453
50
18.2931786
51
35.6769206
0
ARC
8
DEFAULT_255_1_234
10
5.2331124
20
84.7678593
40
0.654423
50
8.024666
51
18.5605216
0
ARC
8
DEFAULT_255_1_234
10
4.8168044
20
84.7063792
40
1.0752407
50
1.1274072
51
8.1718305
0
ARC
8
DEFAULT_255_1_234
10
4.4932235
20
84.6936885
40
1.3990231
50
0.5424119
51
1.3863029
0
ARC
8
DEFAULT_255_1_234
10
4.6753612
20
84.7209342
40
1.0682415
50
359.8090433
51
4.9407866
0
ARC
8
DEFAULT_255_1_234
10
5.0963626
20
84.7585113
40
0.6455691
50
4.8362157
51
12.2904523
0
ARC
8
DEFAULT_255_1_234
10
5.3718741
20
84.8198965
40
0.3633074
50
12.0805627
51
23.8173984
0
ARC
8
DEFAULT_255_1_234
10
5.4892447
20
84.8695919
40
0.2358723
50
24.2871213
51
31.3935614
0
ARC
8
DEFAULT_255_1_234
10
5.5417144
20
84.9039233
40
0.1732111
50
30.7407893
51
82.4657128
0
ARC
8
DEFAULT_255_1_234
10
5.5237278
20
84.8155691
40
0.263235
50
81.1060089
51
90.2184952
0
ARC
8
DEFAULT_255_1_234
10
5.5201577
20
84.8413924
40
0.2374236
50
89.3806855
51
105.6762551
0
ARC
8
DEFAULT_255_1_234
10
5.5018208
20
84.9080567
40
0.1682847
50
105.7981136
51
149.7388061
0
ARC
8
DEFAULT_255_1_234
10
5.6082286
20
84.844095
40
0.2924306
50
149.4208916
51
163.6286378
0
ARC
8
DEFAULT_255_1_234
10
5.8173174
20
84.780325
40
0.5110213
50
163.3763315
51
172.1410975
0
ARC
8
DEFAULT_255_1_234
10
6.1473893
20
84.7330518
40
0.8444586
50
172.0259487
51
178.0703232
0
ARC
8
DEFAULT_255_1_234
10
6.4503982
20
84.7186906
40
1.1477868
50
177.8631668
51
179.5044149
0
ARC
8
DEFAULT_255_1_234
10
6.3431387
20
84.4872389
40
1.0404907
50
179.7995573
51
185.2460446
0
ARC
8
DEFAULT_255_1_234
10
5.9388426
20
84.4489513
40
0.6343885
50
185.1411642
51
193.0079639
0
ARC
8
DEFAULT_255_1_234
10
5.6744899
20
84.3864641
40
0.3627568
50
192.7897626
51
205.2507664
0
ARC
8
DEFAULT_255_1_234
10
5.5698446
20
84.3397415
40
0.2481908
50
205.8005384
51
211.2537509
0
ARC
8
DEFAULT_255_1_234
10
5.5174886
20
84.304658
40
0.1852521
50
210.3789793
51
238.4008143
0
ARC
8
DEFAULT_255_1_234
10
5.5155408
20
84.3093376
40
0.1882621
50
239.6520629
51
265.9793761
0
ARC
8
DEFAULT_255_1_234
10
5.5240608
20
84.3765427
40
0.2559272
50
265.1315437
51
270.060332
0
ARC
8
DEFAULT_255_1_234
10
5.5269387
20
84.3441534
40
0.2235528
50
269.3314664
51
287.2178029
0
ARC
8
DEFAULT_255_1_234
10
5.5407239
20
84.2938279
40
0.1714108
50
287.7958004
51
329.080874
0
ARC
8
DEFAULT_255_1_234
10
5.4449696
20
84.353593
40
0.2842745
50
328.6634704
51
343.3325132
0
ARC
8
DEFAULT_255_1_234
10
5.2276716
20
84.4212863
40
0.5118644
50
343.0499468
51
351.9393422
0
ARC
8
DEFAULT_255_1_234
10
4.8810016
20
84.4723949
40
0.8622784
50
351.8069023
51
357.7959224
0
ARC
8
DEFAULT_255_1_234
10
4.5574572
20
84.4891721
40
1.1862365
50
357.5871873
51
359.2677531
0
LINE
8
DEFAULT_255_1_234
10
6.4070184
20
84.5728026
11
6.4070184
21
84.4515234
0
LINE
8
DEFAULT_255_1_234
10
6.4070184
20
84.4515234
11
6.0150695
21
84.4515234
0
LINE
8
DEFAULT_255_1_234
10
6.0150695
20
84.4515234
11
6.0150695
21
84.5728026
0
LINE
8
DEFAULT_255_1_234
10
6.0150695
20
84.5728026
11
6.4070184
21
84.5728026
0
LINE
8
DEFAULT_255_1_234
10
4.8391341
20
91.9529
11
4.5853312
21
92.4259694
0
LINE
8
DEFAULT_255_1_234
10
4.5853312
20
92.4259694
11
4.3106458
21
92.4259694
0
LINE
8
DEFAULT_255_1_234
10
4.3106458
20
92.4259694
11
4.3106458
21
91.9529
0
LINE
8
DEFAULT_255_1_234
10
4.3106458
20
91.9529
11
4.1556332
21
91.9529
0
LINE
8
DEFAULT_255_1_234
10
4.1556332
20
91.9529
11
4.1556332
21
93.1223211
0
LINE
8
DEFAULT_255_1_234
10
4.1556332
20
93.1223211
11
4.542763
21
93.1223211
0
LINE
8
DEFAULT_255_1_234
10
4.7299025
20
92.4588995
11
5.0045879
21
91.9625381
0
LINE
8
DEFAULT_255_1_234
10
5.0045879
20
91.9625381
11
5.0045879
21
91.9529
0
LINE
8
DEFAULT_255_1_234
10
5.0045879
20
91.9529
11
4.8391341
21
91.9529
0
LINE
8
DEFAULT_255_1_234
10
4.3106458
20
92.9954196
11
4.3106458
21
92.5520677
0
LINE
8
DEFAULT_255_1_234
10
4.3106458
20
92.5520677
11
4.547582
21
92.5520677
0
LINE
8
DEFAULT_255_1_234
10
4.5467789
20
92.9954196
11
4.3106458
21
92.9954196
0
ARC
8
DEFAULT_255_1_234
10
4.5469269
20
92.4261761
40
0.6961575
50
80.653586
51
90.3427061
0
ARC
8
DEFAULT_255_1_234
10
4.5888744
20
92.6724348
40
0.4463577
50
65.6987447
51
80.8329603
0
ARC
8
DEFAULT_255_1_234
10
4.6366385
20
92.7819322
40
0.3269094
50
50.0017161
51
65.4305835
0
ARC
8
DEFAULT_255_1_234
10
4.6584849
20
92.8114482
40
0.2902647
50
11.628416
51
49.5603263
0
ARC
8
DEFAULT_255_1_234
10
4.5049185
20
92.7739299
40
0.4482792
50
359.5655735
51
12.3691
0
ARC
8
DEFAULT_255_1_234
10
4.6126045
20
92.7676644
40
0.3405924
50
341.9983148
51
0.4822259
0
ARC
8
DEFAULT_255_1_234
10
4.6520885
20
92.7569471
40
0.2997359
50
323.8609373
51
341.61416
0
ARC
8
DEFAULT_255_1_234
10
4.6219129
20
92.7802484
40
0.3378487
50
296.7018614
51
323.6876402
0
ARC
8
DEFAULT_255_1_234
10
4.5778024
20
92.8591235
40
0.4281516
50
290.8086567
51
297.2323311
0
ARC
8
DEFAULT_255_1_234
10
4.5501554
20
92.9114351
40
0.3593766
50
269.589728
51
281.8058135
0
ARC
8
DEFAULT_255_1_234
10
4.5752453
20
92.7966743
40
0.2419125
50
281.5501019
51
303.9357432
0
ARC
8
DEFAULT_255_1_234
10
4.5889641
20
92.7728936
40
0.2145323
50
304.4415616
51
311.2106213
0
ARC
8
DEFAULT_255_1_234
10
4.6021746
20
92.7589632
40
0.1953505
50
310.9875673
51
356.2715578
0
ARC
8
DEFAULT_255_1_234
10
4.5265395
20
92.7702422
40
0.2716331
50
354.9348262
51
0.0609027
0
ARC
8
DEFAULT_255_1_234
10
4.5078269
20
92.7729435
40
0.2903554
50
359.5239371
51
12.8808918
0
ARC
8
DEFAULT_255_1_234
10
4.6055824
20
92.7968728
40
0.1897315
50
12.4173452
51
43.1022135
0
ARC
8
DEFAULT_255_1_234
10
4.6117429
20
92.8005724
40
0.1827118
50
43.5751728
51
48.203944
0
ARC
8
DEFAULT_255_1_234
10
4.5947921
20
92.7784302
40
0.2105272
50
48.7809703
51
72.6969569
0
ARC
8
DEFAULT_255_1_234
10
4.5593546
20
92.670882
40
0.3237537
50
72.3702241
51
84.8791103
0
ARC
8
DEFAULT_255_1_234
10
4.5446022
20
92.5366769
40
0.4587478
50
84.5400526
51
89.7281406
0
LINE
8
DEFAULT_255_1_234
10
5.8639839
20
92.6444327
11
5.8639839
21
92.4516709
0
LINE
8
DEFAULT_255_1_234
10
5.1258672
20
92.4315916
11
5.1258672
21
92.6299755
0
LINE
8
DEFAULT_255_1_234
10
5.7153968
20
92.4115123
11
5.7153968
21
92.6548739
0
LINE
8
DEFAULT_255_1_234
10
5.2744543
20
92.6661184
11
5.2744543
21
92.4283789
0
ARC
8
DEFAULT_255_1_234
10
4.6392729
20
92.4467805
40
1.2247208
50
353.8441951
51
0.2287902
0
ARC
8
DEFAULT_255_1_234
10
5.1032233
20
92.3949806
40
0.7578929
50
344.4934747
51
353.9765454
0
ARC
8
DEFAULT_255_1_234
10
5.4024823
20
92.3098981
40
0.4467846
50
329.2803592
51
344.7472793
0
ARC
8
DEFAULT_255_1_234
10
5.5017648
20
92.2554018
40
0.3336173
50
324.9352394
51
328.6160465
0
ARC
8
DEFAULT_255_1_234
10
5.5394756
20
92.2290427
40
0.2876076
50
280.580143
51
324.9173126
0
ARC
8
DEFAULT_255_1_234
10
5.4993549
20
92.3961099
40
0.4592847
50
269.5977311
51
281.6734359
0
ARC
8
DEFAULT_255_1_234
10
5.4921455
20
92.3841173
40
0.4472986
50
256.6228859
51
270.51044
0
ARC
8
DEFAULT_255_1_234
10
5.4519432
20
92.2292877
40
0.2873874
50
215.8618325
51
257.2788573
0
ARC
8
DEFAULT_255_1_234
10
5.5540464
20
92.2977977
40
0.4102928
50
197.9693508
51
215.2623606
0
ARC
8
DEFAULT_255_1_234
10
5.802558
20
92.3816709
40
0.6725652
50
187.8816417
51
198.2346507
0
ARC
8
DEFAULT_255_1_234
10
6.1983788
20
92.4388079
40
1.0724845
50
180.8976217
51
188.0055519
0
ARC
8
DEFAULT_255_1_234
10
6.4783976
20
92.4491777
40
1.3526448
50
180.7449369
51
181.1510016
0
ARC
8
DEFAULT_255_1_234
10
6.3206705
20
92.6348042
40
1.1948131
50
173.7675579
51
180.231553
0
ARC
8
DEFAULT_255_1_234
10
5.8688852
20
92.6858666
40
0.7401564
50
164.3058563
51
173.9002247
0
ARC
8
DEFAULT_255_1_234
10
5.5776921
20
92.7697656
40
0.4371288
50
148.7922025
51
164.568378
0
ARC
8
DEFAULT_255_1_234
10
5.4825373
20
92.8228929
40
0.3282386
50
144.5883898
51
148.1176286
0
ARC
8
DEFAULT_255_1_234
10
5.4482271
20
92.8468315
40
0.2864044
50
101.6440918
51
144.514236
0
ARC
8
DEFAULT_255_1_234
10
5.4907337
20
92.6779069
40
0.4604934
50
89.5284041
51
102.5819763
0
ARC
8
DEFAULT_255_1_234
10
5.4986425
20
92.6740018
40
0.464401
50
77.0437873
51
90.5081339
0
ARC
8
DEFAULT_255_1_234
10
5.5388427
20
92.8382615
40
0.2953195
50
48.2778575
51
77.4994676
0
ARC
8
DEFAULT_255_1_234
10
5.5461058
20
92.8511746
40
0.2808655
50
36.3142134
51
47.6305865
0
ARC
8
DEFAULT_255_1_234
10
5.4592365
20
92.7926515
40
0.3855453
50
18.2931786
51
35.6769206
0
ARC
8
DEFAULT_255_1_234
10
5.2049124
20
92.7053593
40
0.654423
50
8.024666
51
18.5605216
0
ARC
8
DEFAULT_255_1_234
10
4.7886044
20
92.6438792
40
1.0752407
50
1.1274072
51
8.1718305
0
ARC
8
DEFAULT_255_1_234
10
4.4650235
20
92.6311885
40
1.3990231
50
0.5424119
51
1.3863029
0
ARC
8
DEFAULT_255_1_234
10
4.6471612
20
92.6584342
40
1.0682415
50
359.8090433
51
4.9407866
0
ARC
8
DEFAULT_255_1_234
10
5.0681626
20
92.6960113
40
0.6455691
50
4.8362157
51
12.2904523
0
ARC
8
DEFAULT_255_1_234
10
5.3436741
20
92.7573965
40
0.3633074
50
12.0805627
51
23.8173984
0
ARC
8
DEFAULT_255_1_234
10
5.4610447
20
92.8070919
40
0.2358723
50
24.2871213
51
31.3935614
0
ARC
8
DEFAULT_255_1_234
10
5.5135144
20
92.8414233
40
0.1732111
50
30.7407893
51
82.4657128
0
ARC
8
DEFAULT_255_1_234
10
5.4955278
20
92.7530691
40
0.263235
50
81.1060089
51
90.2184952
0
ARC
8
DEFAULT_255_1_234
10
5.4919577
20
92.7788924
40
0.2374236
50
89.3806855
51
105.6762551
0
ARC
8
DEFAULT_255_1_234
10
5.4736208
20
92.8455567
40
0.1682847
50
105.7981136
51
149.7388061
0
ARC
8
DEFAULT_255_1_234
10
5.5800286
20
92.781595
40
0.2924306
50
149.4208916
51
163.6286378
0
ARC
8
DEFAULT_255_1_234
10
5.7891174
20
92.717825
40
0.5110213
50
163.3763315
51
172.1410975
0
ARC
8
DEFAULT_255_1_234
10
6.1191893
20
92.6705518
40
0.8444586
50
172.0259487
51
178.0703232
0
ARC
8
DEFAULT_255_1_234
10
6.4221982
20
92.6561906
40
1.1477868
50
177.8631668
51
179.5044149
0
ARC
8
DEFAULT_255_1_234
10
6.3149387
20
92.4247389
40
1.0404907
50
179.7995573
51
185.2460446
0
ARC
8
DEFAULT_255_1_234
10
5.9106426
20
92.3864513
40
0.6343885
50
185.1411642
51
193.0079639
0
ARC
8
DEFAULT_255_1_234
10
5.6462899
20
92.3239641
40
0.3627568
50
192.7897626
51
205.2507664
0
ARC
8
DEFAULT_255_1_234
10
5.5416446
20
92.2772415
40
0.2481908
50
205.8005384
51
211.2537509
0
ARC
8
DEFAULT_255_1_234
10
5.4892886
20
92.242158
40
0.1852521
50
210.3789793
51
238.4008143
0
ARC
8
DEFAULT_255_1_234
10
5.4873408
20
92.2468376
40
0.1882621
50
239.6520629
51
265.9793761
0
ARC
8
DEFAULT_255_1_234
10
5.4958608
20
92.3140427
40
0.2559272
50
265.1315437
51
270.060332
0
ARC
8
DEFAULT_255_1_234
10
5.4987387
20
92.2816534
40
0.2235528
50
269.3314664
51
287.2178029
0
ARC
8
DEFAULT_255_1_234
10
5.5125239
20
92.2313279
40
0.1714108
50
287.7958004
51
329.080874
0
ARC
8
DEFAULT_255_1_234
10
5.4167696
20
92.291093
40
0.2842745
50
328.6634704
51
343.3325132
0
ARC
8
DEFAULT_255_1_234
10
5.1994716
20
92.3587863
40
0.5118644
50
343.0499468
51
351.9393422
0
ARC
8
DEFAULT_255_1_234
10
4.8528016
20
92.4098949
40
0.8622784
50
351.8069023
51
357.7959224
0
ARC
8
DEFAULT_255_1_234
10
4.5292572
20
92.4266721
40
1.1862365
50
357.5871873
51
359.2677531
0
LINE
8
DEFAULT_255_1_234
10
6.4952786
20
92.9215276
11
6.4952786
21
92.5801788
0
LINE
8
DEFAULT_255_1_234
10
6.4952786
20
92.5801788
11
6.8213671
21
92.5801788
0
LINE
8
DEFAULT_255_1_234
10
6.8213671
20
92.5801788
11
6.8213671
21
92.4396233
0
LINE
8
DEFAULT_255_1_234
10
6.8213671
20
92.4396233
11
6.4952786
21
92.4396233
0
LINE
8
DEFAULT_255_1_234
10
6.4952786
20
92.4396233
11
6.4952786
21
92.0701634
0
LINE
8
DEFAULT_255_1_234
10
6.4952786
20
92.0701634
11
6.3458882
21
92.0701634
0
LINE
8
DEFAULT_255_1_234
10
6.3458882
20
92.0701634
11
6.3458882
21
92.4396233
0
LINE
8
DEFAULT_255_1_234
10
6.3458882
20
92.4396233
11
6.0197997
21
92.4396233
0
LINE
8
DEFAULT_255_1_234
10
6.0197997
20
92.4396233
11
6.0197997
21
92.5801788
0
LINE
8
DEFAULT_255_1_234
10
6.0197997
20
92.5801788
11
6.3458882
21
92.5801788
0
LINE
8
DEFAULT_255_1_234
10
6.3458882
20
92.5801788
11
6.3458882
21
92.9215276
0
LINE
8
DEFAULT_255_1_234
10
6.3458882
20
92.9215276
11
6.4952786
21
92.9215276
0
LINE
8
DEFAULT_255_1_234
10
23.1649817
20
100.5819327
11
23.1649817
21
100.3891709
0
LINE
8
DEFAULT_255_1_234
10
22.426865
20
100.3690916
11
22.426865
21
100.5674755
0
LINE
8
DEFAULT_255_1_234
10
23.0163946
20
100.3490123
11
23.0163946
21
100.5923739
0
LINE
8
DEFAULT_255_1_234
10
22.5754521
20
100.6036184
11
22.5754521
21
100.3658789
0
ARC
8
DEFAULT_255_1_234
10
21.9402707
20
100.3842805
40
1.2247208
50
353.8441951
51
0.2287902
0
ARC
8
DEFAULT_255_1_234
10
22.4042211
20
100.3324806
40
0.7578929
50
344.4934747
51
353.9765454
0
ARC
8
DEFAULT_255_1_234
10
22.7034801
20
100.2473981
40
0.4467846
50
329.2803592
51
344.7472793
0
ARC
8
DEFAULT_255_1_234
10
22.8027626
20
100.1929018
40
0.3336173
50
324.9352394
51
328.6160465
0
ARC
8
DEFAULT_255_1_234
10
22.8404734
20
100.1665427
40
0.2876076
50
280.580143
51
324.9173126
0
ARC
8
DEFAULT_255_1_234
10
22.8003527
20
100.3336099
40
0.4592847
50
269.5977311
51
281.6734359
0
ARC
8
DEFAULT_255_1_234
10
22.7931433
20
100.3216173
40
0.4472986
50
256.6228859
51
270.51044
0
ARC
8
DEFAULT_255_1_234
10
22.752941
20
100.1667877
40
0.2873874
50
215.8618325
51
257.2788573
0
ARC
8
DEFAULT_255_1_234
10
22.8550442
20
100.2352977
40
0.4102928
50
197.9693508
51
215.2623606
0
ARC
8
DEFAULT_255_1_234
10
23.1035558
20
100.3191709
40
0.6725652
50
187.8816417
51
198.2346507
0
ARC
8
DEFAULT_255_1_234
10
23.4993766
20
100.3763079
40
1.0724845
50
180.8976217
51
188.0055519
0
ARC
8
DEFAULT_255_1_234
10
23.7793954
20
100.3866777
40
1.3526448
50
180.7449369
51
181.1510016
0
ARC
8
DEFAULT_255_1_234
10
23.6216683
20
100.5723042
40
1.1948131
50
173.7675579
51
180.231553
0
ARC
8
DEFAULT_255_1_234
10
23.169883
20
100.6233666
40
0.7401564
50
164.3058563
51
173.9002247
0
ARC
8
DEFAULT_255_1_234
10
22.8786899
20
100.7072656
40
0.4371288
50
148.7922025
51
164.568378
0
ARC
8
DEFAULT_255_1_234
10
22.7835351
20
100.7603929
40
0.3282386
50
144.5883898
51
148.1176286
0
ARC
8
DEFAULT_255_1_234
10
22.7492249
20
100.7843315
40
0.2864044
50
101.6440918
51
144.514236
0
ARC
8
DEFAULT_255_1_234
10
22.7917315
20
100.6154069
40
0.4604934
50
89.5284041
51
102.5819763
0
ARC
8
DEFAULT_255_1_234
10
22.7996403
20
100.6115018
40
0.464401
50
77.0437873
51
90.5081339
0
ARC
8
DEFAULT_255_1_234
10
22.8398405
20
100.7757615
40
0.2953195
50
48.2778575
51
77.4994676
0
ARC
8
DEFAULT_255_1_234
10
22.8471036
20
100.7886746
40
0.2808655
50
36.3142134
51
47.6305865
0
ARC
8
DEFAULT_255_1_234
10
22.7602343
20
100.7301515
40
0.3855453
50
18.2931786
51
35.6769206
0
ARC
8
DEFAULT_255_1_234
10
22.5059102
20
100.6428593
40
0.654423
50
8.024666
51
18.5605216
0
ARC
8
DEFAULT_255_1_234
10
22.0896022
20
100.5813792
40
1.0752407
50
1.1274072
51
8.1718305
0
ARC
8
DEFAULT_255_1_234
10
21.7660213
20
100.5686885
40
1.3990231
50
0.5424119
51
1.3863029
0
ARC
8
DEFAULT_255_1_234
10
21.948159
20
100.5959342
40
1.0682415
50
359.8090433
51
4.9407866
0
ARC
8
DEFAULT_255_1_234
10
22.3691604
20
100.6335113
40
0.6455691
50
4.8362157
51
12.2904523
0
ARC
8
DEFAULT_255_1_234
10
22.6446719
20
100.6948965
40
0.3633074
50
12.0805627
51
23.8173984
0
ARC
8
DEFAULT_255_1_234
10
22.7620425
20
100.7445919
40
0.2358723
50
24.2871213
51
31.3935614
0
ARC
8
DEFAULT_255_1_234
10
22.8145122
20
100.7789233
40
0.1732111
50
30.7407893
51
82.4657128
0
ARC
8
DEFAULT_255_1_234
10
22.7965256
20
100.6905691
40
0.263235
50
81.1060089
51
90.2184952
0
ARC
8
DEFAULT_255_1_234
10
22.7929555
20
100.7163924
40
0.2374236
50
89.3806855
51
105.6762551
0
ARC
8
DEFAULT_255_1_234
10
22.7746186
20
100.7830567
40
0.1682847
50
105.7981136
51
149.7388061
0
ARC
8
DEFAULT_255_1_234
10
22.8810264
20
100.719095
40
0.2924306
50
149.4208916
51
163.6286378
0
ARC
8
DEFAULT_255_1_234
10
23.0901152
20
100.655325
40
0.5110213
50
163.3763315
51
172.1410975
0
ARC
8
DEFAULT_255_1_234
10
23.4201871
20
100.6080518
40
0.8444586
50
172.0259487
51
178.0703232
0
ARC
8
DEFAULT_255_1_234
10
23.723196
20
100.5936906
40
1.1477868
50
177.8631668
51
179.5044149
0
ARC
8
DEFAULT_255_1_234
10
23.6159365
20
100.3622389
40
1.0404907
50
179.7995573
51
185.2460446
0
ARC
8
DEFAULT_255_1_234
10
23.2116404
20
100.3239513
40
0.6343885
50
185.1411642
51
193.0079639
0
ARC
8
DEFAULT_255_1_234
10
22.9472877
20
100.2614641
40
0.3627568
50
192.7897626
51
205.2507664
0
ARC
8
DEFAULT_255_1_234
10
22.8426424
20
100.2147415
40
0.2481908
50
205.8005384
51
211.2537509
0
ARC
8
DEFAULT_255_1_234
10
22.7902864
20
100.179658
40
0.1852521
50
210.3789793
51
238.4008143
0
ARC
8
DEFAULT_255_1_234
10
22.7883386
20
100.1843376
40
0.1882621
50
239.6520629
51
265.9793761
0
ARC
8
DEFAULT_255_1_234
10
22.7968586
20
100.2515427
40
0.2559272
50
265.1315437
51
270.060332
0
ARC
8
DEFAULT_255_1_234
10
22.7997365
20
100.2191534
40
0.2235528
50
269.3314664
51
287.2178029
0
ARC
8
DEFAULT_255_1_234
10
22.8135217
20
100.1688279
40
0.1714108
50
287.7958004
51
329.080874
0
ARC
8
DEFAULT_255_1_234
10
22.7177674
20
100.228593
40
0.2842745
50
328.6634704
51
343.3325132
0
ARC
8
DEFAULT_255_1_234
10
22.5004694
20
100.2962863
40
0.5118644
50
343.0499468
51
351.9393422
0
ARC
8
DEFAULT_255_1_234
10
22.1537994
20
100.3473949
40
0.8622784
50
351.8069023
51
357.7959224
0
ARC
8
DEFAULT_255_1_234
10
21.830255
20
100.3641721
40
1.1862365
50
357.5871873
51
359.2677531
0
LINE
8
DEFAULT_255_1_234
10
23.4485021
20
101.0598211
11
23.7810161
21
100.0952093
0
LINE
8
DEFAULT_255_1_234
10
23.7810161
20
100.0952093
11
24.1151364
21
101.0598211
0
LINE
8
DEFAULT_255_1_234
10
24.1151364
20
101.0598211
11
24.2838029
21
101.0598211
0
LINE
8
DEFAULT_255_1_234
10
24.2838029
20
101.0598211
11
23.850089
21
99.8904
0
LINE
8
DEFAULT_255_1_234
10
23.850089
20
99.8904
11
23.7135495
21
99.8904
0
LINE
8
DEFAULT_255_1_234
10
23.7135495
20
99.8904
11
23.2806388
21
101.0598211
0
LINE
8
DEFAULT_255_1_234
10
23.2806388
20
101.0598211
11
23.4485021
21
101.0598211
0
LINE
8
DEFAULT_255_1_234
10
22.6085235
20
52.8211963
11
22.4896538
21
52.8517169
0
LINE
8
DEFAULT_255_1_234
10
22.4896538
20
52.8517169
11
22.5490887
21
53.4348211
0
LINE
8
DEFAULT_255_1_234
10
22.5490887
20
53.4348211
11
23.1482563
21
53.4348211
0
LINE
8
DEFAULT_255_1_234
10
23.1482563
20
53.4348211
11
23.1482563
21
53.2974784
0
LINE
8
DEFAULT_255_1_234
10
23.1482563
20
53.2974784
11
22.675187
21
53.2974784
0
LINE
8
DEFAULT_255_1_234
10
22.675187
20
53.2974784
11
22.6398473
21
52.9786184
0
LINE
8
DEFAULT_255_1_234
10
22.4478888
20
52.5730156
11
22.5884442
21
52.5730156
0
LINE
8
DEFAULT_255_1_234
10
22.6478791
20
52.8533232
11
22.6085235
21
52.8211963
0
ARC
8
DEFAULT_255_1_234
10
22.8253257
20
52.660623
40
0.3681349
50
93.7182161
51
120.2538958
0
ARC
8
DEFAULT_255_1_234
10
22.834752
20
52.5798394
40
0.449379
50
89.9660152
51
94.2496022
0
ARC
8
DEFAULT_255_1_234
10
22.8388254
20
52.6387549
40
0.390482
50
73.8043271
51
90.5585896
0
ARC
8
DEFAULT_255_1_234
10
22.8623151
20
52.7245602
40
0.3015334
50
41.3071453
51
73.5430202
0
ARC
8
DEFAULT_255_1_234
10
22.8206978
20
52.6887324
40
0.3564457
50
13.5075983
51
41.2174222
0
ARC
8
DEFAULT_255_1_234
10
22.6565182
20
52.6457486
40
0.5261351
50
1.1331335
51
13.8829381
0
ARC
8
DEFAULT_255_1_234
10
22.5153551
20
52.6381665
40
0.6674378
50
359.9919444
51
1.544251
0
ARC
8
DEFAULT_255_1_234
10
22.6430377
20
52.634028
40
0.5397702
50
347.8572367
51
0.4293338
0
ARC
8
DEFAULT_255_1_234
10
22.8180695
20
52.5943736
40
0.3603188
50
323.673004
51
348.1672506
0
ARC
8
DEFAULT_255_1_234
10
22.8475203
20
52.5764168
40
0.3259678
50
316.8171152
51
323.1492751
0
ARC
8
DEFAULT_255_1_234
10
22.8536392
20
52.572746
40
0.3189975
50
281.8396411
51
316.5457803
0
ARC
8
DEFAULT_255_1_234
10
22.8160656
20
52.7282762
40
0.4789527
50
269.5770101
51
282.4214771
0
ARC
8
DEFAULT_255_1_234
10
22.8089467
20
52.7069125
40
0.45759
50
256.2427136
51
270.4486331
0
ARC
8
DEFAULT_255_1_234
10
22.779037
20
52.5869229
40
0.3339303
50
228.9023911
51
256.3314342
0
ARC
8
DEFAULT_255_1_234
10
22.7716602
20
52.5752746
40
0.32031
50
193.753695
51
228.5271154
0
ARC
8
DEFAULT_255_1_234
10
22.8954556
20
52.61158
40
0.4492253
50
184.924711
51
194.497588
0
ARC
8
DEFAULT_255_1_234
10
22.9147123
20
52.6151591
40
0.3289787
50
187.3600538
51
198.6732863
0
ARC
8
DEFAULT_255_1_234
10
22.8097417
20
52.5787674
40
0.217884
50
198.4451669
51
217.794479
0
ARC
8
DEFAULT_255_1_234
10
22.7801592
20
52.5578085
40
0.1816698
50
218.2887171
51
228.5612368
0
ARC
8
DEFAULT_255_1_234
10
22.7899379
20
52.5709963
40
0.1980329
50
228.9654866
51
258.1234728
0
ARC
8
DEFAULT_255_1_234
10
22.8105089
20
52.6590833
40
0.2884748
50
257.7258293
51
270.401361
0
ARC
8
DEFAULT_255_1_234
10
22.8149975
20
52.6145821
40
0.2439788
50
269.4204404
51
286.4209037
0
ARC
8
DEFAULT_255_1_234
10
22.8298463
20
52.5606657
40
0.1880666
50
286.7251356
51
320.600362
0
ARC
8
DEFAULT_255_1_234
10
22.7915288
20
52.5917595
40
0.2374121
50
320.6712579
51
344.5441685
0
ARC
8
DEFAULT_255_1_234
10
22.6758614
20
52.6257045
40
0.3579479
50
344.2412205
51
356.7357071
0
ARC
8
DEFAULT_255_1_234
10
22.5509763
20
52.6360444
40
0.4832297
50
356.3548756
51
0.0500261
0
ARC
8
DEFAULT_255_1_234
10
22.6846272
20
52.639165
40
0.3495889
50
359.5576869
51
12.953486
0
ARC
8
DEFAULT_255_1_234
10
22.7901169
20
52.6647434
40
0.2410532
50
12.6490276
51
41.6081334
0
ARC
8
DEFAULT_255_1_234
10
22.813154
20
52.6843321
40
0.2108218
50
41.7850273
51
85.9892764
0
ARC
8
DEFAULT_255_1_234
10
22.8008277
20
52.6030462
40
0.2928454
50
84.6957577
51
90.0676183
0
ARC
8
DEFAULT_255_1_234
10
22.7984761
20
52.5361716
40
0.3597255
50
89.6804936
51
99.1614436
0
ARC
8
DEFAULT_255_1_234
10
22.7779392
20
52.6589131
40
0.235281
50
98.9830931
51
113.8908934
0
ARC
8
DEFAULT_255_1_234
10
22.7549802
20
52.7130587
40
0.176479
50
114.1950727
51
127.3641004
0
LINE
8
DEFAULT_255_1_234
10
24.0887729
20
52.6364663
11
24.2437854
21
52.6364663
0
LINE
8
DEFAULT_255_1_234
10
23.3434276
20
52.7954947
11
23.3434276
21
52.9079391
0
LINE
8
DEFAULT_255_1_234
10
24.2437854
20
53.0589357
11
24.0887729
21
53.0589357
0
LINE
8
DEFAULT_255_1_234
10
23.4984401
20
52.9039232
11
23.4984401
21
52.7906757
0
ARC
8
DEFAULT_255_1_234
10
23.6957241
20
52.6961846
40
0.5513052
50
340.1774281
51
353.7814284
0
ARC
8
DEFAULT_255_1_234
10
23.8528594
20
52.6376582
40
0.3836379
50
311.4558989
51
340.4421614
0
ARC
8
DEFAULT_255_1_234
10
23.8495262
20
52.6487528
40
0.3941894
50
282.4333181
51
310.7513653
0
ARC
8
DEFAULT_255_1_234
10
23.8056001
20
52.8302679
40
0.5809175
50
269.9358511
51
282.809604
0
ARC
8
DEFAULT_255_1_234
10
23.8004067
20
52.9760212
40
0.7266847
50
270.0021091
51
270.3581957
0
ARC
8
DEFAULT_255_1_234
10
23.7951484
20
52.7159585
40
0.4666519
50
250.7884749
51
270.6489167
0
ARC
8
DEFAULT_255_1_234
10
23.7783319
20
52.6522319
40
0.4009729
50
219.3627325
51
250.0611886
0
ARC
8
DEFAULT_255_1_234
10
23.861253
20
52.7227042
40
0.5097822
50
193.5479632
51
219.5756669
0
ARC
8
DEFAULT_255_1_234
10
24.0984151
20
52.7842919
40
0.7547848
50
181.1218675
51
193.87563
0
ARC
8
DEFAULT_255_1_234
10
24.3054332
20
52.795358
40
0.9620055
50
179.9918545
51
181.5394234
0
ARC
8
DEFAULT_255_1_234
10
24.1203434
20
52.9116788
40
0.7769248
50
169.5837241
51
180.2757934
0
ARC
8
DEFAULT_255_1_234
10
23.9366372
20
52.9456229
40
0.590109
50
155.0365899
51
169.6003176
0
ARC
8
DEFAULT_255_1_234
10
23.8230836
20
53.0003677
40
0.4640625
50
136.783148
51
155.2472683
0
ARC
8
DEFAULT_255_1_234
10
23.7841313
20
53.0334562
40
0.4130255
50
121.7633186
51
136.428115
0
ARC
8
DEFAULT_255_1_234
10
23.7976275
20
53.0085227
40
0.4413323
50
95.6459699
51
121.5490577
0
ARC
8
DEFAULT_255_1_234
10
23.8133557
20
52.8976949
40
0.55319
50
89.924208
51
96.1377933
0
ARC
8
DEFAULT_255_1_234
10
23.818399
20
52.9095542
40
0.5413475
50
76.6779277
51
90.4563316
0
ARC
8
DEFAULT_255_1_234
10
23.8577613
20
53.0686114
40
0.3775041
50
47.485847
51
76.9287264
0
ARC
8
DEFAULT_255_1_234
10
23.8430586
20
53.0586159
40
0.3948286
50
16.5424086
51
46.8933463
0
ARC
8
DEFAULT_255_1_234
10
23.6822743
20
53.0057861
40
0.564021
50
5.4072051
51
17.0365086
0
ARC
8
DEFAULT_255_1_234
10
23.538376
20
52.9826679
40
0.5556559
50
7.8891745
51
15.9239216
0
ARC
8
DEFAULT_255_1_234
10
23.7370773
20
53.0403631
40
0.3487515
50
15.7653144
51
27.9410532
0
ARC
8
DEFAULT_255_1_234
10
23.8474991
20
53.099479
40
0.2235026
50
27.8166557
51
46.4008329
0
ARC
8
DEFAULT_255_1_234
10
23.8524634
20
53.0989082
40
0.2205286
50
47.4371857
51
75.0698205
0
ARC
8
DEFAULT_255_1_234
10
23.8216029
20
52.9914765
40
0.3322915
50
74.7008593
51
87.8124495
0
ARC
8
DEFAULT_255_1_234
10
23.8142716
20
52.8858844
40
0.4380987
50
87.3814673
51
90.0240855
0
ARC
8
DEFAULT_255_1_234
10
23.8104259
20
53.0036291
40
0.3203749
50
89.3451631
51
108.5745436
0
ARC
8
DEFAULT_255_1_234
10
23.7967365
20
53.0549908
40
0.2673494
50
109.2998449
51
143.3037509
0
ARC
8
DEFAULT_255_1_234
10
23.8729437
20
52.9963881
40
0.3634757
50
143.0753173
51
163.1916937
0
ARC
8
DEFAULT_255_1_234
10
24.0681165
20
52.9347967
40
0.5681262
50
162.9373603
51
174.6208611
0
ARC
8
DEFAULT_255_1_234
10
24.3307207
20
52.906001
40
0.8322832
50
174.3419979
51
180.1430411
0
ARC
8
DEFAULT_255_1_234
10
24.2376363
20
52.7865698
40
0.7392076
50
179.6817502
51
189.150529
0
ARC
8
DEFAULT_255_1_234
10
23.9875611
20
52.744919
40
0.4856932
50
188.9910863
51
203.5773039
0
ARC
8
DEFAULT_255_1_234
10
23.8795944
20
52.7001211
40
0.3688271
50
203.9077269
51
215.1312379
0
ARC
8
DEFAULT_255_1_234
10
23.7873038
20
52.6285941
40
0.2522457
50
213.9071664
51
263.8849284
0
ARC
8
DEFAULT_255_1_234
10
23.7998367
20
52.7070518
40
0.3316174
50
263.1758525
51
270.1031083
0
ARC
8
DEFAULT_255_1_234
10
23.8030459
20
52.8317365
40
0.4563091
50
269.6719807
51
279.0609165
0
ARC
8
DEFAULT_255_1_234
10
23.8297227
20
52.6704907
40
0.2928759
50
278.8750225
51
293.6346586
0
ARC
8
DEFAULT_255_1_234
10
23.8617435
20
52.59529
40
0.2111472
50
293.8553404
51
310.0518804
0
ARC
8
DEFAULT_255_1_234
10
23.8622289
20
52.5890516
40
0.2060917
50
311.0646779
51
332.0108348
0
ARC
8
DEFAULT_255_1_234
10
23.7430016
20
52.6547978
40
0.3422352
50
331.6588543
51
343.2878891
0
ARC
8
DEFAULT_255_1_234
10
23.5367531
20
52.7181798
40
0.5580003
50
343.1446044
51
351.010618
0
ARC
8
DEFAULT_255_1_234
10
23.3826177
20
52.7462871
40
0.7146438
50
350.7157277
51
351.1602153
0
LINE
8
DEFAULT_255_1_234
10
22.3243902
20
61.3723211
11
22.3243902
21
60.2029
0
LINE
8
DEFAULT_255_1_234
10
22.3243902
20
60.2029
11
22.1701808
21
60.2029
0
LINE
8
DEFAULT_255_1_234
10
22.1701808
20
60.2029
11
22.1701808
21
61.3723211
0
LINE
8
DEFAULT_255_1_234
10
22.1701808
20
61.3723211
11
22.3243902
21
61.3723211
0
LINE
8
DEFAULT_255_1_234
10
22.7838056
20
60.7386169
11
22.7838056
21
60.8598962
0
LINE
8
DEFAULT_255_1_234
10
22.7838056
20
60.8598962
11
22.8954468
21
60.8598962
0
LINE
8
DEFAULT_255_1_234
10
22.7050946
20
61.0655087
11
22.5565074
21
61.0655087
0
LINE
8
DEFAULT_255_1_234
10
22.5460662
20
60.5113188
11
22.6954565
21
60.5113188
0
LINE
8
DEFAULT_255_1_234
10
22.8954468
20
60.7386169
11
22.7838056
21
60.7386169
0
ARC
8
DEFAULT_255_1_234
10
22.8925334
20
61.1991713
40
0.3392876
50
270.4919872
51
281.8951556
0
ARC
8
DEFAULT_255_1_234
10
22.9166596
20
61.0889702
40
0.2264817
50
281.6691735
51
301.2943132
0
ARC
8
DEFAULT_255_1_234
10
22.9336806
20
61.0578304
40
0.1910381
50
301.7833094
51
311.7545298
0
ARC
8
DEFAULT_255_1_234
10
22.9428382
20
61.0476748
40
0.1773635
50
311.7323931
51
354.2802411
0
ARC
8
DEFAULT_255_1_234
10
22.8702007
20
61.0601722
40
0.2509385
50
353.0937916
51
0.1181479
0
ARC
8
DEFAULT_255_1_234
10
22.8240792
20
61.0649386
40
0.2970898
50
359.1805295
51
15.0453146
0
ARC
8
DEFAULT_255_1_234
10
22.9586629
20
61.1041992
40
0.1569564
50
13.9577229
51
77.6713066
0
ARC
8
DEFAULT_255_1_234
10
22.9200158
20
60.9656949
40
0.3006298
50
76.1116566
51
90.7026153
0
ARC
8
DEFAULT_255_1_234
10
22.9140996
20
60.9930545
40
0.2732568
50
89.5324876
51
103.531937
0
ARC
8
DEFAULT_255_1_234
10
22.8940441
20
61.0729884
40
0.1908508
50
103.2931773
51
133.5619022
0
ARC
8
DEFAULT_255_1_234
10
22.8895929
20
61.0789375
40
0.1834746
50
133.8349307
51
173.5344437
0
ARC
8
DEFAULT_255_1_234
10
22.9618972
20
61.0661213
40
0.2568033
50
172.5096846
51
180.1366907
0
ARC
8
DEFAULT_255_1_234
10
22.8667866
20
61.0695622
40
0.3103056
50
155.3484492
51
180.7484736
0
ARC
8
DEFAULT_255_1_234
10
22.8618955
20
61.0666846
40
0.3070957
50
131.5744599
51
154.4798489
0
ARC
8
DEFAULT_255_1_234
10
22.8932102
20
61.035031
40
0.3515643
50
96.9875458
51
131.9690667
0
ARC
8
DEFAULT_255_1_234
10
22.9151582
20
60.9104636
40
0.4779224
50
89.8596053
51
97.7825159
0
ARC
8
DEFAULT_255_1_234
10
22.9199645
20
60.8842616
40
0.5041361
50
78.3655447
51
90.4131539
0
ARC
8
DEFAULT_255_1_234
10
22.9557563
20
61.0501887
40
0.3344039
50
56.6229102
51
78.638727
0
ARC
8
DEFAULT_255_1_234
10
22.9772507
20
61.0877805
40
0.2912001
50
47.0253525
51
56.0854072
0
ARC
8
DEFAULT_255_1_234
10
22.9792287
20
61.0917223
40
0.2869704
50
10.9208013
51
46.7778124
0
ARC
8
DEFAULT_255_1_234
10
22.8428354
20
61.0601857
40
0.426899
50
359.6364486
51
11.6087304
0
ARC
8
DEFAULT_255_1_234
10
23.0263198
20
61.0586752
40
0.243409
50
332.3549906
51
359.7179418
0
ARC
8
DEFAULT_255_1_234
10
22.9612799
20
61.0895142
40
0.3153459
50
325.2333722
51
332.8745602
0
ARC
8
DEFAULT_255_1_234
10
22.9765423
20
61.0788828
40
0.2967456
50
292.9802137
51
325.2392345
0
ARC
8
DEFAULT_255_1_234
10
22.9490797
20
61.1322863
40
0.3566604
50
292.5402179
51
293.6924929
0
ARC
8
DEFAULT_255_1_234
10
22.9883393
20
60.4868091
40
0.3307468
50
57.6435486
51
72.8625112
0
ARC
8
DEFAULT_255_1_234
10
23.0237892
20
60.5442549
40
0.2632492
50
36.7248896
51
57.4697979
0
ARC
8
DEFAULT_255_1_234
10
23.0226525
20
60.545522
40
0.2634081
50
8.0545065
51
36.356114
0
ARC
8
DEFAULT_255_1_234
10
22.936371
20
60.5300174
40
0.3510261
50
359.8320645
51
8.5869982
0
ARC
8
DEFAULT_255_1_234
10
22.8988486
20
60.5252101
40
0.3885653
50
343.9829931
51
0.5571613
0
ARC
8
DEFAULT_255_1_234
10
22.9874684
20
60.5009438
40
0.2966924
50
311.6359546
51
343.7651759
0
ARC
8
DEFAULT_255_1_234
10
22.9496253
20
60.5436102
40
0.3537231
50
279.7829875
51
311.6255694
0
ARC
8
DEFAULT_255_1_234
10
22.9195029
20
60.687328
40
0.5004971
50
269.7286406
51
280.3856417
0
ARC
8
DEFAULT_255_1_234
10
22.9133102
20
60.6831996
40
0.4963778
50
256.6828919
51
270.4412052
0
ARC
8
DEFAULT_255_1_234
10
22.8794397
20
60.5447394
40
0.3538406
50
229.4223008
51
256.8556159
0
ARC
8
DEFAULT_255_1_234
10
22.837979
20
60.4980736
40
0.2914296
50
181.818294
51
229.6455059
0
ARC
8
DEFAULT_255_1_234
10
22.9419746
20
60.5111496
40
0.3959084
50
179.9755256
51
183.2323064
0
ARC
8
DEFAULT_255_1_234
10
22.9247492
20
60.5091037
40
0.2293034
50
179.4465117
51
196.2869258
0
ARC
8
DEFAULT_255_1_234
10
22.87599
20
60.4957651
40
0.1787621
50
196.5661473
51
227.705904
0
ARC
8
DEFAULT_255_1_234
10
22.8923995
20
60.5141155
40
0.2033784
50
227.7652068
51
257.8762805
0
ARC
8
DEFAULT_255_1_234
10
22.9148965
20
60.6084156
40
0.3003081
50
257.4584385
51
270.426602
0
ARC
8
DEFAULT_255_1_234
10
22.9194531
20
60.6373996
40
0.329292
50
269.5962073
51
280.8789248
0
ARC
8
DEFAULT_255_1_234
10
22.942406
20
60.5227685
40
0.2123908
50
280.6346389
51
299.8595945
0
ARC
8
DEFAULT_255_1_234
10
22.9614967
20
60.4865212
40
0.171457
50
300.3576302
51
314.5517981
0
ARC
8
DEFAULT_255_1_234
10
22.9532027
20
60.4925919
40
0.1816095
50
315.0728369
51
345.0431014
0
ARC
8
DEFAULT_255_1_234
10
22.8608841
20
60.5194841
40
0.2777492
50
344.5986631
51
357.9269593
0
ARC
8
DEFAULT_255_1_234
10
22.7713168
20
60.5256276
40
0.3674917
50
357.4748886
51
0.0231117
0
ARC
8
DEFAULT_255_1_234
10
22.8736277
20
60.5280679
40
0.2651907
50
359.5047933
51
13.4239635
0
ARC
8
DEFAULT_255_1_234
10
22.9602921
20
60.5502478
40
0.1757509
50
12.9498199
51
48.7551375
0
ARC
8
DEFAULT_255_1_234
10
22.9420655
20
60.52534
40
0.2065134
50
49.5088623
51
72.1836453
0
ARC
8
DEFAULT_255_1_234
10
22.9062807
20
60.4191291
40
0.3185836
50
71.9010081
51
84.3554254
0
ARC
8
DEFAULT_255_1_234
10
22.8901439
20
60.2830326
40
0.4556151
50
84.0193428
51
89.333121
0
LINE
8
DEFAULT_255_1_234
10
23.9323442
20
61.1715276
11
23.9323442
21
60.8301788
0
LINE
8
DEFAULT_255_1_234
10
23.9323442
20
60.8301788
11
24.2584328
21
60.8301788
0
LINE
8
DEFAULT_255_1_234
10
24.2584328
20
60.8301788
11
24.2584328
21
60.6896233
0
LINE
8
DEFAULT_255_1_234
10
24.2584328
20
60.6896233
11
23.9323442
21
60.6896233
0
LINE
8
DEFAULT_255_1_234
10
23.9323442
20
60.6896233
11
23.9323442
21
60.3201634
0
LINE
8
DEFAULT_255_1_234
10
23.9323442
20
60.3201634
11
23.7829539
21
60.3201634
0
LINE
8
DEFAULT_255_1_234
10
23.7829539
20
60.3201634
11
23.7829539
21
60.6896233
0
LINE
8
DEFAULT_255_1_234
10
23.7829539
20
60.6896233
11
23.4568653
21
60.6896233
0
LINE
8
DEFAULT_255_1_234
10
23.4568653
20
60.6896233
11
23.4568653
21
60.8301788
0
LINE
8
DEFAULT_255_1_234
10
23.4568653
20
60.8301788
11
23.7829539
21
60.8301788
0
LINE
8
DEFAULT_255_1_234
10
23.7829539
20
60.8301788
11
23.7829539
21
61.1715276
0
LINE
8
DEFAULT_255_1_234
10
23.7829539
20
61.1715276
11
23.9323442
21
61.1715276
0
LINE
8
DEFAULT_255_1_234
10
22.3243902
20
69.3098211
11
22.3243902
21
68.1404
0
LINE
8
DEFAULT_255_1_234
10
22.3243902
20
68.1404
11
22.1701808
21
68.1404
0
LINE
8
DEFAULT_255_1_234
10
22.1701808
20
68.1404
11
22.1701808
21
69.3098211
0
LINE
8
DEFAULT_255_1_234
10
22.1701808
20
69.3098211
11
22.3243902
21
69.3098211
0
LINE
8
DEFAULT_255_1_234
10
23.3339797
20
68.2616792
11
23.3339797
21
68.1404
0
LINE
8
DEFAULT_255_1_234
10
23.3339797
20
68.1404
11
22.5677519
21
68.1404
0
LINE
8
DEFAULT_255_1_234
10
22.5677519
20
68.1404
11
22.5677519
21
68.2472221
0
LINE
8
DEFAULT_255_1_234
10
22.5677519
20
68.2472221
11
22.9725515
21
68.6969995
0
LINE
8
DEFAULT_255_1_234
10
22.6938501
20
68.9652595
11
22.545263
21
68.9652595
0
LINE
8
DEFAULT_255_1_234
10
23.0600974
20
68.6014218
11
22.7468596
21
68.2616792
0
LINE
8
DEFAULT_255_1_234
10
22.7468596
20
68.2616792
11
23.3339797
21
68.2616792
0
ARC
8
DEFAULT_255_1_234
10
21.6235348
20
69.8899527
40
1.8008286
50
318.5132453
51
320.7828378
0
ARC
8
DEFAULT_255_1_234
10
22.1522322
20
69.4596426
40
1.1191493
50
320.7372736
51
323.9737074
0
ARC
8
DEFAULT_255_1_234
10
22.5442179
20
69.1756361
40
0.6350923
50
323.8961724
51
328.6421089
0
ARC
8
DEFAULT_255_1_234
10
22.7488774
20
69.0494031
40
0.3946393
50
328.8299013
51
331.789948
0
ARC
8
DEFAULT_255_1_234
10
22.8485953
20
68.9979509
40
0.2824501
50
331.4255242
51
352.9364833
0
ARC
8
DEFAULT_255_1_234
10
22.8622453
20
68.9948976
40
0.2685315
50
353.2248685
51
0.0169286
0
ARC
8
DEFAULT_255_1_234
10
22.883233
20
68.997195
40
0.2475536
50
359.4866256
51
15.9339782
0
ARC
8
DEFAULT_255_1_234
10
22.9339316
20
69.0108286
40
0.1950618
50
16.1714718
51
43.5284424
0
ARC
8
DEFAULT_255_1_234
10
22.9416624
20
69.0185573
40
0.184134
50
43.4415429
51
83.1661404
0
ARC
8
DEFAULT_255_1_234
10
22.9282542
20
68.9448771
40
0.258926
50
82.160215
51
90.1505798
0
ARC
8
DEFAULT_255_1_234
10
22.925097
20
68.8911865
40
0.3126255
50
89.5460705
51
102.5418777
0
ARC
8
DEFAULT_255_1_234
10
22.9008056
20
68.9942665
40
0.2067346
50
102.1739365
51
129.2061916
0
ARC
8
DEFAULT_255_1_234
10
22.8929127
20
69.0067094
40
0.1921118
50
129.7279328
51
135.7542026
0
ARC
8
DEFAULT_255_1_234
10
22.9050655
20
68.9970045
40
0.2075944
50
136.175737
51
166.3674722
0
ARC
8
DEFAULT_255_1_234
10
23.0057574
20
68.9700182
40
0.3118201
50
165.9092917
51
178.8683903
0
ARC
8
DEFAULT_255_1_234
10
23.0922436
20
68.9653179
40
0.3983935
50
178.438168
51
180.0083905
0
ARC
8
DEFAULT_255_1_234
10
22.9521038
20
68.9692231
40
0.4068601
50
163.2878735
51
180.5581814
0
ARC
8
DEFAULT_255_1_234
10
22.8719299
20
68.991284
40
0.3237344
50
133.454115
51
162.9470031
0
ARC
8
DEFAULT_255_1_234
10
22.8897841
20
68.9723
40
0.349795
50
100.7869394
51
133.4384016
0
ARC
8
DEFAULT_255_1_234
10
22.9245612
20
68.8174319
40
0.5084616
50
89.6605301
51
101.3704185
0
ARC
8
DEFAULT_255_1_234
10
22.9311951
20
68.8235496
40
0.502348
50
78.2171172
51
90.4130393
0
ARC
8
DEFAULT_255_1_234
10
22.9667029
20
68.9859637
40
0.3361092
50
55.9268222
51
78.4888551
0
ARC
8
DEFAULT_255_1_234
10
22.9863469
20
69.0198324
40
0.2970617
50
47.9292255
51
55.4054003
0
ARC
8
DEFAULT_255_1_234
10
22.996503
20
69.0301502
40
0.2825983
50
4.3347696
51
48.0560701
0
ARC
8
DEFAULT_255_1_234
10
22.8869424
20
69.0131601
40
0.393225
50
359.925209
51
5.5967654
0
ARC
8
DEFAULT_255_1_234
10
22.9298315
20
69.0187816
40
0.3503892
50
337.8914096
51
358.9967724
0
ARC
8
DEFAULT_255_1_234
10
22.6584727
20
69.1234706
40
0.6412172
50
326.9135351
51
338.3505194
0
ARC
8
DEFAULT_255_1_234
10
22.2599031
20
69.3789284
40
1.1146189
50
319.6472867
51
327.095818
0
ARC
8
DEFAULT_255_1_234
10
21.8766034
20
69.6951
40
1.6114559
50
317.2586784
51
319.9046139
0
LINE
8
DEFAULT_255_1_234
10
23.9323442
20
69.1090276
11
23.9323442
21
68.7676788
0
LINE
8
DEFAULT_255_1_234
10
23.9323442
20
68.7676788
11
24.2584328
21
68.7676788
0
LINE
8
DEFAULT_255_1_234
10
24.2584328
20
68.7676788
11
24.2584328
21
68.6271233
0
LINE
8
DEFAULT_255_1_234
10
24.2584328
20
68.6271233
11
23.9323442
21
68.6271233
0
LINE
8
DEFAULT_255_1_234
10
23.9323442
20
68.6271233
11
23.9323442
21
68.2576634
0
LINE
8
DEFAULT_255_1_234
10
23.9323442
20
68.2576634
11
23.7829539
21
68.2576634
0
LINE
8
DEFAULT_255_1_234
10
23.7829539
20
68.2576634
11
23.7829539
21
68.6271233
0
LINE
8
DEFAULT_255_1_234
10
23.7829539
20
68.6271233
11
23.4568653
21
68.6271233
0
LINE
8
DEFAULT_255_1_234
10
23.4568653
20
68.6271233
11
23.4568653
21
68.7676788
0
LINE
8
DEFAULT_255_1_234
10
23.4568653
20
68.7676788
11
23.7829539
21
68.7676788
0
LINE
8
DEFAULT_255_1_234
10
23.7829539
20
68.7676788
11
23.7829539
21
69.1090276
0
LINE
8
DEFAULT_255_1_234
10
23.7829539
20
69.1090276
11
23.9323442
21
69.1090276
0
LINE
8
DEFAULT_255_1_234
10
22.3243902
20
77.2473211
11
22.3243902
21
76.0779
0
LINE
8
DEFAULT_255_1_234
10
22.3243902
20
76.0779
11
22.1701808
21
76.0779
0
LINE
8
DEFAULT_255_1_234
10
22.1701808
20
76.0779
11
22.1701808
21
77.2473211
0
LINE
8
DEFAULT_255_1_234
10
22.1701808
20
77.2473211
11
22.3243902
21
77.2473211
0
LINE
8
DEFAULT_255_1_234
10
23.0560815
20
77.2529433
11
23.0560815
21
76.0779
0
LINE
8
DEFAULT_255_1_234
10
23.0560815
20
76.0779
11
22.9066912
21
76.0779
0
LINE
8
DEFAULT_255_1_234
10
22.9066912
20
76.0779
11
22.9066912
21
77.0682133
0
LINE
8
DEFAULT_255_1_234
10
22.9066912
20
77.0682133
11
22.6071074
21
76.9581785
0
LINE
8
DEFAULT_255_1_234
10
22.6071074
20
76.9581785
11
22.6071074
21
77.0931117
0
LINE
8
DEFAULT_255_1_234
10
22.6071074
20
77.0931117
11
23.0327895
21
77.2529433
0
LINE
8
DEFAULT_255_1_234
10
23.0327895
20
77.2529433
11
23.0560815
21
77.2529433
0
LINE
8
DEFAULT_255_1_234
10
23.9323442
20
77.0465276
11
23.9323442
21
76.7051788
0
LINE
8
DEFAULT_255_1_234
10
23.9323442
20
76.7051788
11
24.2584328
21
76.7051788
0
LINE
8
DEFAULT_255_1_234
10
24.2584328
20
76.7051788
11
24.2584328
21
76.5646233
0
LINE
8
DEFAULT_255_1_234
10
24.2584328
20
76.5646233
11
23.9323442
21
76.5646233
0
LINE
8
DEFAULT_255_1_234
10
23.9323442
20
76.5646233
11
23.9323442
21
76.1951634
0
LINE
8
DEFAULT_255_1_234
10
23.9323442
20
76.1951634
11
23.7829539
21
76.1951634
0
LINE
8
DEFAULT_255_1_234
10
23.7829539
20
76.1951634
11
23.7829539
21
76.5646233
0
LINE
8
DEFAULT_255_1_234
10
23.7829539
20
76.5646233
11
23.4568653
21
76.5646233
0
LINE
8
DEFAULT_255_1_234
10
23.4568653
20
76.5646233
11
23.4568653
21
76.7051788
0
LINE
8
DEFAULT_255_1_234
10
23.4568653
20
76.7051788
11
23.7829539
21
76.7051788
0
LINE
8
DEFAULT_255_1_234
10
23.7829539
20
76.7051788
11
23.7829539
21
77.0465276
0
LINE
8
DEFAULT_255_1_234
10
23.7829539
20
77.0465276
11
23.9323442
21
77.0465276
0
LINE
8
DEFAULT_255_1_234
10
22.3243902
20
85.1848211
11
22.3243902
21
84.0154
0
LINE
8
DEFAULT_255_1_234
10
22.3243902
20
84.0154
11
22.1701808
21
84.0154
0
LINE
8
DEFAULT_255_1_234
10
22.1701808
20
84.0154
11
22.1701808
21
85.1848211
0
LINE
8
DEFAULT_255_1_234
10
22.1701808
20
85.1848211
11
22.3243902
21
85.1848211
0
LINE
8
DEFAULT_255_1_234
10
23.3010496
20
84.7069327
11
23.3010496
21
84.5141709
0
LINE
8
DEFAULT_255_1_234
10
22.5629328
20
84.4940916
11
22.5629328
21
84.6924755
0
LINE
8
DEFAULT_255_1_234
10
23.1524624
20
84.4740123
11
23.1524624
21
84.7173739
0
LINE
8
DEFAULT_255_1_234
10
22.71152
20
84.7286184
11
22.71152
21
84.4908789
0
ARC
8
DEFAULT_255_1_234
10
22.0763385
20
84.5092805
40
1.2247208
50
353.8441951
51
0.2287902
0
ARC
8
DEFAULT_255_1_234
10
22.5402889
20
84.4574806
40
0.7578929
50
344.4934747
51
353.9765454
0
ARC
8
DEFAULT_255_1_234
10
22.8395479
20
84.3723981
40
0.4467846
50
329.2803592
51
344.7472793
0
ARC
8
DEFAULT_255_1_234
10
22.9388304
20
84.3179018
40
0.3336173
50
324.9352394
51
328.6160465
0
ARC
8
DEFAULT_255_1_234
10
22.9765413
20
84.2915427
40
0.2876076
50
280.580143
51
324.9173126
0
ARC
8
DEFAULT_255_1_234
10
22.9364205
20
84.4586099
40
0.4592847
50
269.5977311
51
281.6734359
0
ARC
8
DEFAULT_255_1_234
10
22.9292111
20
84.4466173
40
0.4472986
50
256.6228859
51
270.51044
0
ARC
8
DEFAULT_255_1_234
10
22.8890089
20
84.2917877
40
0.2873874
50
215.8618325
51
257.2788573
0
ARC
8
DEFAULT_255_1_234
10
22.991112
20
84.3602977
40
0.4102928
50
197.9693508
51
215.2623606
0
ARC
8
DEFAULT_255_1_234
10
23.2396236
20
84.4441709
40
0.6725652
50
187.8816417
51
198.2346507
0
ARC
8
DEFAULT_255_1_234
10
23.6354444
20
84.5013079
40
1.0724845
50
180.8976217
51
188.0055519
0
ARC
8
DEFAULT_255_1_234
10
23.9154632
20
84.5116777
40
1.3526448
50
180.7449369
51
181.1510016
0
ARC
8
DEFAULT_255_1_234
10
23.7577361
20
84.6973042
40
1.1948131
50
173.7675579
51
180.231553
0
ARC
8
DEFAULT_255_1_234
10
23.3059508
20
84.7483666
40
0.7401564
50
164.3058563
51
173.9002247
0
ARC
8
DEFAULT_255_1_234
10
23.0147577
20
84.8322656
40
0.4371288
50
148.7922025
51
164.568378
0
ARC
8
DEFAULT_255_1_234
10
22.9196029
20
84.8853929
40
0.3282386
50
144.5883898
51
148.1176286
0
ARC
8
DEFAULT_255_1_234
10
22.8852927
20
84.9093315
40
0.2864044
50
101.6440918
51
144.514236
0
ARC
8
DEFAULT_255_1_234
10
22.9277994
20
84.7404069
40
0.4604934
50
89.5284041
51
102.5819763
0
ARC
8
DEFAULT_255_1_234
10
22.9357081
20
84.7365018
40
0.464401
50
77.0437873
51
90.5081339
0
ARC
8
DEFAULT_255_1_234
10
22.9759083
20
84.9007615
40
0.2953195
50
48.2778575
51
77.4994676
0
ARC
8
DEFAULT_255_1_234
10
22.9831714
20
84.9136746
40
0.2808655
50
36.3142134
51
47.6305865
0
ARC
8
DEFAULT_255_1_234
10
22.8963021
20
84.8551515
40
0.3855453
50
18.2931786
51
35.6769206
0
ARC
8
DEFAULT_255_1_234
10
22.641978
20
84.7678593
40
0.654423
50
8.024666
51
18.5605216
0
ARC
8
DEFAULT_255_1_234
10
22.22567
20
84.7063792
40
1.0752407
50
1.1274072
51
8.1718305
0
ARC
8
DEFAULT_255_1_234
10
21.9020891
20
84.6936885
40
1.3990231
50
0.5424119
51
1.3863029
0
ARC
8
DEFAULT_255_1_234
10
22.0842269
20
84.7209342
40
1.0682415
50
359.8090433
51
4.9407866
0
ARC
8
DEFAULT_255_1_234
10
22.5052283
20
84.7585113
40
0.6455691
50
4.8362157
51
12.2904523
0
ARC
8
DEFAULT_255_1_234
10
22.7807398
20
84.8198965
40
0.3633074
50
12.0805627
51
23.8173984
0
ARC
8
DEFAULT_255_1_234
10
22.8981103
20
84.8695919
40
0.2358723
50
24.2871213
51
31.3935614
0
ARC
8
DEFAULT_255_1_234
10
22.95058
20
84.9039233
40
0.1732111
50
30.7407893
51
82.4657128
0
ARC
8
DEFAULT_255_1_234
10
22.9325934
20
84.8155691
40
0.263235
50
81.1060089
51
90.2184952
0
ARC
8
DEFAULT_255_1_234
10
22.9290233
20
84.8413924
40
0.2374236
50
89.3806855
51
105.6762551
0
ARC
8
DEFAULT_255_1_234
10
22.9106864
20
84.9080567
40
0.1682847
50
105.7981136
51
149.7388061
0
ARC
8
DEFAULT_255_1_234
10
23.0170942
20
84.844095
40
0.2924306
50
149.4208916
51
163.6286378
0
ARC
8
DEFAULT_255_1_234
10
23.226183
20
84.780325
40
0.5110213
50
163.3763315
51
172.1410975
0
ARC
8
DEFAULT_255_1_234
10
23.5562549
20
84.7330518
40
0.8444586
50
172.0259487
51
178.0703232
0
ARC
8
DEFAULT_255_1_234
10
23.8592639
20
84.7186906
40
1.1477868
50
177.8631668
51
179.5044149
0
ARC
8
DEFAULT_255_1_234
10
23.7520043
20
84.4872389
40
1.0404907
50
179.7995573
51
185.2460446
0
ARC
8
DEFAULT_255_1_234
10
23.3477083
20
84.4489513
40
0.6343885
50
185.1411642
51
193.0079639
0
ARC
8
DEFAULT_255_1_234
10
23.0833555
20
84.3864641
40
0.3627568
50
192.7897626
51
205.2507664
0
ARC
8
DEFAULT_255_1_234
10
22.9787102
20
84.3397415
40
0.2481908
50
205.8005384
51
211.2537509
0
ARC
8
DEFAULT_255_1_234
10
22.9263543
20
84.304658
40
0.1852521
50
210.3789793
51
238.4008143
0
ARC
8
DEFAULT_255_1_234
10
22.9244064
20
84.3093376
40
0.1882621
50
239.6520629
51
265.9793761
0
ARC
8
DEFAULT_255_1_234
10
22.9329265
20
84.3765427
40
0.2559272
50
265.1315437
51
270.060332
0
ARC
8
DEFAULT_255_1_234
10
22.9358043
20
84.3441534
40
0.2235528
50
269.3314664
51
287.2178029
0
ARC
8
DEFAULT_255_1_234
10
22.9495895
20
84.2938279
40
0.1714108
50
287.7958004
51
329.080874
0
ARC
8
DEFAULT_255_1_234
10
22.8538352
20
84.353593
40
0.2842745
50
328.6634704
51
343.3325132
0
ARC
8
DEFAULT_255_1_234
10
22.6365372
20
84.4212863
40
0.5118644
50
343.0499468
51
351.9393422
0
ARC
8
DEFAULT_255_1_234
10
22.2898672
20
84.4723949
40
0.8622784
50
351.8069023
51
357.7959224
0
ARC
8
DEFAULT_255_1_234
10
21.9663228
20
84.4891721
40
1.1862365
50
357.5871873
51
359.2677531
0
LINE
8
DEFAULT_255_1_234
10
23.9323442
20
84.9840276
11
23.9323442
21
84.6426788
0
LINE
8
DEFAULT_255_1_234
10
23.9323442
20
84.6426788
11
24.2584328
21
84.6426788
0
LINE
8
DEFAULT_255_1_234
10
24.2584328
20
84.6426788
11
24.2584328
21
84.5021233
0
LINE
8
DEFAULT_255_1_234
10
24.2584328
20
84.5021233
11
23.9323442
21
84.5021233
0
LINE
8
DEFAULT_255_1_234
10
23.9323442
20
84.5021233
11
23.9323442
21
84.1326634
0
LINE
8
DEFAULT_255_1_234
10
23.9323442
20
84.1326634
11
23.7829539
21
84.1326634
0
LINE
8
DEFAULT_255_1_234
10
23.7829539
20
84.1326634
11
23.7829539
21
84.5021233
0
LINE
8
DEFAULT_255_1_234
10
23.7829539
20
84.5021233
11
23.4568653
21
84.5021233
0
LINE
8
DEFAULT_255_1_234
10
23.4568653
20
84.5021233
11
23.4568653
21
84.6426788
0
LINE
8
DEFAULT_255_1_234
10
23.4568653
20
84.6426788
11
23.7829539
21
84.6426788
0
LINE
8
DEFAULT_255_1_234
10
23.7829539
20
84.6426788
11
23.7829539
21
84.9840276
0
LINE
8
DEFAULT_255_1_234
10
23.7829539
20
84.9840276
11
23.9323442
21
84.9840276
0
LINE
8
DEFAULT_255_1_234
10
22.6085235
20
92.5086963
11
22.4896538
21
92.5392169
0
LINE
8
DEFAULT_255_1_234
10
22.4896538
20
92.5392169
11
22.5490887
21
93.1223211
0
LINE
8
DEFAULT_255_1_234
10
22.5490887
20
93.1223211
11
23.1482563
21
93.1223211
0
LINE
8
DEFAULT_255_1_234
10
23.1482563
20
93.1223211
11
23.1482563
21
92.9849784
0
LINE
8
DEFAULT_255_1_234
10
23.1482563
20
92.9849784
11
22.675187
21
92.9849784
0
LINE
8
DEFAULT_255_1_234
10
22.675187
20
92.9849784
11
22.6398473
21
92.6661184
0
LINE
8
DEFAULT_255_1_234
10
22.4478888
20
92.2605156
11
22.5884442
21
92.2605156
0
LINE
8
DEFAULT_255_1_234
10
22.6478791
20
92.5408232
11
22.6085235
21
92.5086963
0
ARC
8
DEFAULT_255_1_234
10
22.8253257
20
92.348123
40
0.3681349
50
93.7182161
51
120.2538958
0
ARC
8
DEFAULT_255_1_234
10
22.834752
20
92.2673394
40
0.449379
50
89.9660152
51
94.2496022
0
ARC
8
DEFAULT_255_1_234
10
22.8388254
20
92.3262549
40
0.390482
50
73.8043271
51
90.5585896
0
ARC
8
DEFAULT_255_1_234
10
22.8623151
20
92.4120602
40
0.3015334
50
41.3071453
51
73.5430202
0
ARC
8
DEFAULT_255_1_234
10
22.8206978
20
92.3762324
40
0.3564457
50
13.5075983
51
41.2174222
0
ARC
8
DEFAULT_255_1_234
10
22.6565182
20
92.3332486
40
0.5261351
50
1.1331335
51
13.8829381
0
ARC
8
DEFAULT_255_1_234
10
22.5153551
20
92.3256665
40
0.6674378
50
359.9919444
51
1.544251
0
ARC
8
DEFAULT_255_1_234
10
22.6430377
20
92.321528
40
0.5397702
50
347.8572367
51
0.4293338
0
ARC
8
DEFAULT_255_1_234
10
22.8180695
20
92.2818736
40
0.3603188
50
323.673004
51
348.1672506
0
ARC
8
DEFAULT_255_1_234
10
22.8475203
20
92.2639168
40
0.3259678
50
316.8171152
51
323.1492751
0
ARC
8
DEFAULT_255_1_234
10
22.8536392
20
92.260246
40
0.3189975
50
281.8396411
51
316.5457803
0
ARC
8
DEFAULT_255_1_234
10
22.8160656
20
92.4157762
40
0.4789527
50
269.5770101
51
282.4214771
0
ARC
8
DEFAULT_255_1_234
10
22.8089467
20
92.3944125
40
0.45759
50
256.2427136
51
270.4486331
0
ARC
8
DEFAULT_255_1_234
10
22.779037
20
92.2744229
40
0.3339303
50
228.9023911
51
256.3314342
0
ARC
8
DEFAULT_255_1_234
10
22.7716602
20
92.2627746
40
0.32031
50
193.753695
51
228.5271154
0
ARC
8
DEFAULT_255_1_234
10
22.8954556
20
92.29908
40
0.4492253
50
184.924711
51
194.497588
0
ARC
8
DEFAULT_255_1_234
10
22.9147123
20
92.3026591
40
0.3289787
50
187.3600538
51
198.6732863
0
ARC
8
DEFAULT_255_1_234
10
22.8097417
20
92.2662674
40
0.217884
50
198.4451669
51
217.794479
0
ARC
8
DEFAULT_255_1_234
10
22.7801592
20
92.2453085
40
0.1816698
50
218.2887171
51
228.5612368
0
ARC
8
DEFAULT_255_1_234
10
22.7899379
20
92.2584963
40
0.1980329
50
228.9654866
51
258.1234728
0
ARC
8
DEFAULT_255_1_234
10
22.8105089
20
92.3465833
40
0.2884748
50
257.7258293
51
270.401361
0
ARC
8
DEFAULT_255_1_234
10
22.8149975
20
92.3020821
40
0.2439788
50
269.4204404
51
286.4209037
0
ARC
8
DEFAULT_255_1_234
10
22.8298463
20
92.2481657
40
0.1880666
50
286.7251356
51
320.600362
0
ARC
8
DEFAULT_255_1_234
10
22.7915288
20
92.2792595
40
0.2374121
50
320.6712579
51
344.5441685
0
ARC
8
DEFAULT_255_1_234
10
22.6758614
20
92.3132045
40
0.3579479
50
344.2412205
51
356.7357071
0
ARC
8
DEFAULT_255_1_234
10
22.5509763
20
92.3235444
40
0.4832297
50
356.3548756
51
0.0500261
0
ARC
8
DEFAULT_255_1_234
10
22.6846272
20
92.326665
40
0.3495889
50
359.5576869
51
12.953486
0
ARC
8
DEFAULT_255_1_234
10
22.7901169
20
92.3522434
40
0.2410532
50
12.6490276
51
41.6081334
0
ARC
8
DEFAULT_255_1_234
10
22.813154
20
92.3718321
40
0.2108218
50
41.7850273
51
85.9892764
0
ARC
8
DEFAULT_255_1_234
10
22.8008277
20
92.2905462
40
0.2928454
50
84.6957577
51
90.0676183
0
ARC
8
DEFAULT_255_1_234
10
22.7984761
20
92.2236716
40
0.3597255
50
89.6804936
51
99.1614436
0
ARC
8
DEFAULT_255_1_234
10
22.7779392
20
92.3464131
40
0.235281
50
98.9830931
51
113.8908934
0
ARC
8
DEFAULT_255_1_234
10
22.7549802
20
92.4005587
40
0.176479
50
114.1950727
51
127.3641004
0
LINE
8
DEFAULT_255_1_234
10
24.0887729
20
92.3239663
11
24.2437854
21
92.3239663
0
LINE
8
DEFAULT_255_1_234
10
23.3434276
20
92.4829947
11
23.3434276
21
92.5954391
0
LINE
8
DEFAULT_255_1_234
10
24.2437854
20
92.7464357
11
24.0887729
21
92.7464357
0
LINE
8
DEFAULT_255_1_234
10
23.4984401
20
92.5914232
11
23.4984401
21
92.4781757
0
ARC
8
DEFAULT_255_1_234
10
23.6957241
20
92.3836846
40
0.5513052
50
340.1774281
51
353.7814284
0
ARC
8
DEFAULT_255_1_234
10
23.8528594
20
92.3251582
40
0.3836379
50
311.4558989
51
340.4421614
0
ARC
8
DEFAULT_255_1_234
10
23.8495262
20
92.3362528
40
0.3941894
50
282.4333181
51
310.7513653
0
ARC
8
DEFAULT_255_1_234
10
23.8056001
20
92.5177679
40
0.5809175
50
269.9358511
51
282.809604
0
ARC
8
DEFAULT_255_1_234
10
23.8004067
20
92.6635212
40
0.7266847
50
270.0021091
51
270.3581957
0
ARC
8
DEFAULT_255_1_234
10
23.7951484
20
92.4034585
40
0.4666519
50
250.7884749
51
270.6489167
0
ARC
8
DEFAULT_255_1_234
10
23.7783319
20
92.3397319
40
0.4009729
50
219.3627325
51
250.0611886
0
ARC
8
DEFAULT_255_1_234
10
23.861253
20
92.4102042
40
0.5097822
50
193.5479632
51
219.5756669
0
ARC
8
DEFAULT_255_1_234
10
24.0984151
20
92.4717919
40
0.7547848
50
181.1218675
51
193.87563
0
ARC
8
DEFAULT_255_1_234
10
24.3054332
20
92.482858
40
0.9620055
50
179.9918545
51
181.5394234
0
ARC
8
DEFAULT_255_1_234
10
24.1203434
20
92.5991788
40
0.7769248
50
169.5837241
51
180.2757934
0
ARC
8
DEFAULT_255_1_234
10
23.9366372
20
92.6331229
40
0.590109
50
155.0365899
51
169.6003176
0
ARC
8
DEFAULT_255_1_234
10
23.8230836
20
92.6878677
40
0.4640625
50
136.783148
51
155.2472683
0
ARC
8
DEFAULT_255_1_234
10
23.7841313
20
92.7209562
40
0.4130255
50
121.7633186
51
136.428115
0
ARC
8
DEFAULT_255_1_234
10
23.7976275
20
92.6960227
40
0.4413323
50
95.6459699
51
121.5490577
0
ARC
8
DEFAULT_255_1_234
10
23.8133557
20
92.5851949
40
0.55319
50
89.924208
51
96.1377933
0
ARC
8
DEFAULT_255_1_234
10
23.818399
20
92.5970542
40
0.5413475
50
76.6779277
51
90.4563316
0
ARC
8
DEFAULT_255_1_234
10
23.8577613
20
92.7561114
40
0.3775041
50
47.485847
51
76.9287264
0
ARC
8
DEFAULT_255_1_234
10
23.8430586
20
92.7461159
40
0.3948286
50
16.5424086
51
46.8933463
0
ARC
8
DEFAULT_255_1_234
10
23.6822743
20
92.6932861
40
0.564021
50
5.4072051
51
17.0365086
0
ARC
8
DEFAULT_255_1_234
10
23.538376
20
92.6701679
40
0.5556559
50
7.8891745
51
15.9239216
0
ARC
8
DEFAULT_255_1_234
10
23.7370773
20
92.7278631
40
0.3487515
50
15.7653144
51
27.9410532
0
ARC
8
DEFAULT_255_1_234
10
23.8474991
20
92.786979
40
0.2235026
50
27.8166557
51
46.4008329
0
ARC
8
DEFAULT_255_1_234
10
23.8524634
20
92.7864082
40
0.2205286
50
47.4371857
51
75.0698205
0
ARC
8
DEFAULT_255_1_234
10
23.8216029
20
92.6789765
40
0.3322915
50
74.7008593
51
87.8124495
0
ARC
8
DEFAULT_255_1_234
10
23.8142716
20
92.5733844
40
0.4380987
50
87.3814673
51
90.0240855
0
ARC
8
DEFAULT_255_1_234
10
23.8104259
20
92.6911291
40
0.3203749
50
89.3451631
51
108.5745436
0
ARC
8
DEFAULT_255_1_234
10
23.7967365
20
92.7424908
40
0.2673494
50
109.2998449
51
143.3037509
0
ARC
8
DEFAULT_255_1_234
10
23.8729437
20
92.6838881
40
0.3634757
50
143.0753173
51
163.1916937
0
ARC
8
DEFAULT_255_1_234
10
24.0681165
20
92.6222967
40
0.5681262
50
162.9373603
51
174.6208611
0
ARC
8
DEFAULT_255_1_234
10
24.3307207
20
92.593501
40
0.8322832
50
174.3419979
51
180.1430411
0
ARC
8
DEFAULT_255_1_234
10
24.2376363
20
92.4740698
40
0.7392076
50
179.6817502
51
189.150529
0
ARC
8
DEFAULT_255_1_234
10
23.9875611
20
92.432419
40
0.4856932
50
188.9910863
51
203.5773039
0
ARC
8
DEFAULT_255_1_234
10
23.8795944
20
92.3876211
40
0.3688271
50
203.9077269
51
215.1312379
0
ARC
8
DEFAULT_255_1_234
10
23.7873038
20
92.3160941
40
0.2522457
50
213.9071664
51
263.8849284
0
ARC
8
DEFAULT_255_1_234
10
23.7998367
20
92.3945518
40
0.3316174
50
263.1758525
51
270.1031083
0
ARC
8
DEFAULT_255_1_234
10
23.8030459
20
92.5192365
40
0.4563091
50
269.6719807
51
279.0609165
0
ARC
8
DEFAULT_255_1_234
10
23.8297227
20
92.3579907
40
0.2928759
50
278.8750225
51
293.6346586
0
ARC
8
DEFAULT_255_1_234
10
23.8617435
20
92.28279
40
0.2111472
50
293.8553404
51
310.0518804
0
ARC
8
DEFAULT_255_1_234
10
23.8622289
20
92.2765516
40
0.2060917
50
311.0646779
51
332.0108348
0
ARC
8
DEFAULT_255_1_234
10
23.7430016
20
92.3422978
40
0.3422352
50
331.6588543
51
343.2878891
0
ARC
8
DEFAULT_255_1_234
10
23.5367531
20
92.4056798
40
0.5580003
50
343.1446044
51
351.010618
0
ARC
8
DEFAULT_255_1_234
10
23.3826177
20
92.4337871
40
0.7146438
50
350.7157277
51
351.1602153
0
ENDSEC
0
EOF