0
SECTION
2
HEADER
9
$MEASUREMENT
70
1
0
ENDSEC
0
SECTION
2
TABLES
0
TABLE
2
LTYPE
0
LTYPE
72
65
70
64
2
CONTINUOUS
3
______
73
0
40
0
0
ENDTAB
0
TABLE
2
LAYER
0
LAYER
2
DEFAULT_255_2_778
70
0
62
255
6
CONTINUOUS
0
LAYER
2
DEFAULT_255_1_388
70
0
62
255
6
CONTINUOUS
0
LAYER
2
DEFAULT_255_2_778_1
70
0
62
255
6
CONTINUOUS
0
ENDTAB
0
ENDSEC
0
SECTION
2
ENTITIES
0
ARC
8
DEFAULT_255_2_778
10
3.5700693
20
107.5552026
40
0.7914215
50
129.1312896
51
180.1450914
0
ARC
8
DEFAULT_255_2_778
10
3.5703345
20
107.5556897
40
0.7912112
50
89.854026
51
129.1684493
0
ARC
8
DEFAULT_255_2_778
10
25.7993937
20
107.5553762
40
0.7915249
50
39.4792447
51
90.147911
0
ARC
8
DEFAULT_255_2_778
10
25.7999935
20
107.5552229
40
0.7911595
50
359.8533901
51
39.5154338
0
ARC
8
DEFAULT_255_2_778
10
25.7996693
20
-1.9863497
40
0.7914836
50
309.4761667
51
0.1482649
0
ARC
8
DEFAULT_255_2_778
10
25.799398
20
-1.9867808
40
0.7913235
50
269.8517415
51
309.511178
0
ARC
8
DEFAULT_255_2_778
10
3.570342
20
-1.9867226
40
0.7913815
50
219.1282118
51
270.1454017
0
ARC
8
DEFAULT_255_2_778
10
3.5700247
20
-1.9863401
40
0.7913769
50
179.8524075
51
219.1641908
0
LINE
8
DEFAULT_255_2_778
10
3.5723503
20
108.3468985
11
25.7973503
21
108.3468985
0
LINE
8
DEFAULT_255_2_778
10
26.5911503
20
107.5531985
11
26.5911503
21
-1.9843015
0
LINE
8
DEFAULT_255_2_778
10
25.7973503
20
-2.7781015
11
3.5723503
21
-2.7781015
0
LINE
8
DEFAULT_255_2_778
10
2.7786503
20
-1.9843015
11
2.7786503
21
107.5531985
0
LINE
8
DEFAULT_255_1_388
10
9.2121024
20
-0.6398
11
8.7558024
21
-0.6398
0
LINE
8
DEFAULT_255_1_388
10
8.7558024
20
-0.6398
11
8.7558024
21
0.6757898
0
LINE
8
DEFAULT_255_1_388
10
8.7558024
20
0.6757898
11
9.1858991
21
0.6757898
0
LINE
8
DEFAULT_255_1_388
10
9.2184274
20
-0.0244726
11
8.9292868
21
-0.0244726
0
LINE
8
DEFAULT_255_1_388
10
8.9292868
20
-0.0244726
11
8.9292868
21
-0.4979404
0
LINE
8
DEFAULT_255_1_388
10
8.9292868
20
-0.4979404
11
9.2157167
21
-0.4979404
0
LINE
8
DEFAULT_255_1_388
10
8.9292868
20
0.5330267
11
8.9292868
21
0.1146763
0
LINE
8
DEFAULT_255_1_388
10
8.9292868
20
0.1146763
11
9.1913205
21
0.1146763
0
LINE
8
DEFAULT_255_1_388
10
9.1858991
20
0.5330267
11
8.9292868
21
0.5330267
0
ARC
8
DEFAULT_255_1_388
10
9.1901411
20
-0.1530176
40
0.8288183
50
82.1256322
51
90.2932506
0
ARC
8
DEFAULT_255_1_388
10
9.2338986
20
0.152759
40
0.5199321
50
69.9044202
51
82.2857574
0
ARC
8
DEFAULT_255_1_388
10
9.2980979
20
0.3262993
40
0.3348993
50
51.1840204
51
70.018125
0
ARC
8
DEFAULT_255_1_388
10
9.3267811
20
0.3679945
40
0.2844579
50
12.1018086
51
50.421322
0
ARC
8
DEFAULT_255_1_388
10
9.1710682
20
0.3288937
40
0.4449429
50
359.5252354
51
12.8212369
0
ARC
8
DEFAULT_255_1_388
10
9.3488112
20
0.3210943
40
0.2672162
50
323.4907456
51
0.8818258
0
ARC
8
DEFAULT_255_1_388
10
9.3017525
20
0.3574523
40
0.3266736
50
298.6824053
51
323.2758285
0
ARC
8
DEFAULT_255_1_388
10
9.2610816
20
0.4250509
40
0.4055105
50
293.1994739
51
299.139634
0
ARC
8
DEFAULT_255_1_388
10
9.3367766
20
-0.2595349
40
0.3229926
50
54.0009997
51
74.9168635
0
ARC
8
DEFAULT_255_1_388
10
9.3498693
20
-0.2373489
40
0.2973581
50
36.3578854
51
53.5293172
0
ARC
8
DEFAULT_255_1_388
10
9.3356061
20
-0.247515
40
0.3148715
50
4.8189348
51
36.3090187
0
ARC
8
DEFAULT_255_1_388
10
9.2479085
20
-0.2598617
40
0.4033265
50
359.9373213
51
5.5201284
0
ARC
8
DEFAULT_255_1_388
10
9.2114415
20
-0.2644267
40
0.4398126
50
344.7479357
51
0.5372278
0
ARC
8
DEFAULT_255_1_388
10
9.3229314
20
-0.2944795
40
0.3243441
50
311.1785587
51
344.6887681
0
ARC
8
DEFAULT_255_1_388
10
9.2900857
20
-0.2535916
40
0.3767511
50
286.0417804
51
310.8440924
0
ARC
8
DEFAULT_255_1_388
10
9.2330266
20
-0.0683115
40
0.5705957
50
274.1044074
51
286.4070149
0
ARC
8
DEFAULT_255_1_388
10
9.2131482
20
0.1434901
40
0.7832907
50
269.9235077
51
274.4458593
0
ARC
8
DEFAULT_255_1_388
10
9.21832
20
-0.1196538
40
0.3782955
50
269.6057074
51
281.3740795
0
ARC
8
DEFAULT_255_1_388
10
9.2442698
20
-0.2426431
40
0.2526069
50
281.105298
51
302.5134029
0
ARC
8
DEFAULT_255_1_388
10
9.2608086
20
-0.2723056
40
0.2187131
50
303.0365425
51
311.8818034
0
ARC
8
DEFAULT_255_1_388
10
9.2688263
20
-0.2818398
40
0.2062624
50
311.9916937
51
351.7143773
0
ARC
8
DEFAULT_255_1_388
10
9.1769288
20
-0.2632729
40
0.2999202
50
350.7343295
51
0.2221526
0
ARC
8
DEFAULT_255_1_388
10
9.1648376
20
-0.256913
40
0.3120525
50
359.045729
51
17.2295312
0
ARC
8
DEFAULT_255_1_388
10
9.2817406
20
-0.2221845
40
0.1901144
50
17.6685208
51
78.9940245
0
ARC
8
DEFAULT_255_1_388
10
9.2235767
20
-0.4309989
40
0.4065575
50
76.565218
51
90.7103392
0
LINE
8
DEFAULT_255_1_388
10
9.2185364
20
-0.0244726
11
9.2184274
21
-0.0244726
0
ARC
8
DEFAULT_255_1_388
10
9.1938593
20
0.4842949
40
0.3696273
50
269.6064514
51
281.4533785
0
ARC
8
DEFAULT_255_1_388
10
9.2189234
20
0.3660283
40
0.2487412
50
281.2044438
51
302.5143998
0
ARC
8
DEFAULT_255_1_388
10
9.2343488
20
0.3382576
40
0.2170405
50
303.0211308
51
309.8378766
0
ARC
8
DEFAULT_255_1_388
10
9.2549605
20
0.3151486
40
0.1860946
50
309.5229446
51
356.9509628
0
ARC
8
DEFAULT_255_1_388
10
9.1803731
20
0.3258831
40
0.2612347
50
355.4699226
51
0.0498632
0
ARC
8
DEFAULT_255_1_388
10
9.1489404
20
0.3283789
40
0.2926762
50
359.5558955
51
11.2092924
0
ARC
8
DEFAULT_255_1_388
10
9.2566372
20
0.3506667
40
0.1827036
50
10.9185717
51
31.322519
0
ARC
8
DEFAULT_255_1_388
10
9.288792
20
0.3685571
40
0.1459418
50
31.8850633
51
52.1415586
0
ARC
8
DEFAULT_255_1_388
10
9.2579349
20
0.3249674
40
0.1993088
50
52.8283418
51
71.9850132
0
ARC
8
DEFAULT_255_1_388
10
9.215651
20
0.2005158
40
0.3307407
50
71.686634
51
82.8453416
0
ARC
8
DEFAULT_255_1_388
10
9.1887157
20
-0.0030108
40
0.536039
50
82.6981895
51
90.1730083
0
ARC
8
DEFAULT_255_1_388
10
9.1861989
20
0.0848836
40
0.4481429
50
89.8851568
51
90.0383283
0
LINE
8
DEFAULT_255_1_388
10
10.0198891
20
0.6757898
11
10.3370402
21
0.1716009
0
LINE
8
DEFAULT_255_1_388
10
10.3370402
20
0.1716009
11
10.6523842
21
0.6757898
0
LINE
8
DEFAULT_255_1_388
10
10.6523842
20
0.6757898
11
10.8565897
21
0.6757898
0
LINE
8
DEFAULT_255_1_388
10
10.8565897
20
0.6757898
11
10.4409501
21
0.0234163
0
LINE
8
DEFAULT_255_1_388
10
10.4409501
20
0.0234163
11
10.866529
21
-0.6398
0
LINE
8
DEFAULT_255_1_388
10
10.866529
20
-0.6398
11
10.6605163
21
-0.6398
0
LINE
8
DEFAULT_255_1_388
10
10.6605163
20
-0.6398
11
10.3370402
21
-0.1265754
0
LINE
8
DEFAULT_255_1_388
10
10.3370402
20
-0.1265754
11
10.011757
21
-0.6398
0
LINE
8
DEFAULT_255_1_388
10
10.011757
20
-0.6398
11
9.8066479
21
-0.6398
0
LINE
8
DEFAULT_255_1_388
10
9.8066479
20
-0.6398
11
10.2331303
21
0.0234163
0
LINE
8
DEFAULT_255_1_388
10
10.2331303
20
0.0234163
11
9.8165871
21
0.6757898
0
LINE
8
DEFAULT_255_1_388
10
9.8165871
20
0.6757898
11
10.0198891
21
0.6757898
0
LINE
8
DEFAULT_255_1_388
10
11.3481288
20
-0.0127263
11
11.3481288
21
-0.1491645
0
LINE
8
DEFAULT_255_1_388
10
11.3481288
20
-0.1491645
11
10.9071894
21
-0.1491645
0
LINE
8
DEFAULT_255_1_388
10
10.9071894
20
-0.1491645
11
10.9071894
21
-0.0127263
0
LINE
8
DEFAULT_255_1_388
10
10.9071894
20
-0.0127263
11
11.3481288
21
-0.0127263
0
LINE
8
DEFAULT_255_1_388
10
12.1992865
20
0.6757898
11
12.1992865
21
-0.197957
0
LINE
8
DEFAULT_255_1_388
10
12.1992865
20
-0.197957
11
12.3818065
21
-0.197957
0
LINE
8
DEFAULT_255_1_388
10
12.3818065
20
-0.197957
11
12.3818065
21
-0.3343952
0
LINE
8
DEFAULT_255_1_388
10
12.3818065
20
-0.3343952
11
12.1992865
21
-0.3343952
0
LINE
8
DEFAULT_255_1_388
10
12.1992865
20
-0.3343952
11
12.1992865
21
-0.6398
0
LINE
8
DEFAULT_255_1_388
10
12.1992865
20
-0.6398
11
12.0312235
21
-0.6398
0
LINE
8
DEFAULT_255_1_388
10
12.0312235
20
-0.6398
11
12.0312235
21
-0.3343952
0
LINE
8
DEFAULT_255_1_388
10
12.0312235
20
-0.3343952
11
11.4321603
21
-0.3343952
0
LINE
8
DEFAULT_255_1_388
10
11.4321603
20
-0.3343952
11
11.4321603
21
-0.2359067
0
LINE
8
DEFAULT_255_1_388
10
11.4321603
20
-0.2359067
11
12.0212843
21
0.6757898
0
LINE
8
DEFAULT_255_1_388
10
12.0212843
20
0.6757898
11
12.1992865
21
0.6757898
0
LINE
8
DEFAULT_255_1_388
10
12.0113451
20
0.4110455
11
11.6219088
21
-0.197957
0
LINE
8
DEFAULT_255_1_388
10
11.6219088
20
-0.197957
11
12.0312235
21
-0.197957
0
LINE
8
DEFAULT_255_1_388
10
12.0312235
20
-0.197957
11
12.0312235
21
0.447188
0
LINE
8
DEFAULT_255_1_388
10
12.0312235
20
0.447188
11
12.0113451
21
0.4110455
0
LINE
8
DEFAULT_255_1_388
10
13.3278385
20
0.6757898
11
13.5022265
21
0.6757898
0
LINE
8
DEFAULT_255_1_388
10
13.5022265
20
0.6757898
11
13.5022265
21
-0.218739
0
LINE
8
DEFAULT_255_1_388
10
13.0703227
20
-0.6560642
11
13.0242409
21
-0.6578713
0
LINE
8
DEFAULT_255_1_388
10
12.5498695
20
-0.2205461
11
12.5498695
21
0.6757898
0
LINE
8
DEFAULT_255_1_388
10
12.5498695
20
0.6757898
11
12.7215468
21
0.6757898
0
LINE
8
DEFAULT_255_1_388
10
12.7215468
20
0.6757898
11
12.7215468
21
-0.2151247
0
LINE
8
DEFAULT_255_1_388
10
13.3278385
20
-0.2160283
11
13.3278385
21
0.6757898
0
ARC
8
DEFAULT_255_1_388
10
13.0125063
20
-0.220973
40
0.4897252
50
343.0897723
51
0.2613727
0
ARC
8
DEFAULT_255_1_388
10
13.1057034
20
-0.246973
40
0.3930016
50
315.3344451
51
342.7642569
0
ARC
8
DEFAULT_255_1_388
10
13.080553
20
-0.2208915
40
0.4292244
50
284.6605441
51
315.2183439
0
ARC
8
DEFAULT_255_1_388
10
13.029331
20
-0.0469492
40
0.6104926
50
273.8500371
51
285.1796441
0
ARC
8
DEFAULT_255_1_388
10
13.0194375
20
-0.0085238
40
0.6493653
50
257.6315393
51
270.4238259
0
ARC
8
DEFAULT_255_1_388
10
12.9716458
20
-0.2134085
40
0.4390079
50
230.6086859
51
257.9965362
0
ARC
8
DEFAULT_255_1_388
10
12.9570516
20
-0.2363357
40
0.4120404
50
227.745033
51
230.1538266
0
ARC
8
DEFAULT_255_1_388
10
12.9417045
20
-0.2547747
40
0.3880742
50
189.2524335
51
227.5915299
0
ARC
8
DEFAULT_255_1_388
10
13.1128916
20
-0.2179265
40
0.5630282
50
180.2665782
51
190.1525221
0
ARC
8
DEFAULT_255_1_388
10
13.1378644
20
-0.2182746
40
0.4163296
50
179.566507
51
191.9954402
0
ARC
8
DEFAULT_255_1_388
10
12.9997333
20
-0.2490849
40
0.274815
50
191.6974619
51
215.1403758
0
ARC
8
DEFAULT_255_1_388
10
12.9729725
20
-0.2650311
40
0.2437647
50
215.6958251
51
224.8509274
0
ARC
8
DEFAULT_255_1_388
10
12.9792202
20
-0.2560984
40
0.2545012
50
225.2846515
51
255.0110023
0
ARC
8
DEFAULT_255_1_388
10
13.0156648
20
-0.1307983
40
0.384974
50
254.5945979
51
267.9129427
0
ARC
8
DEFAULT_255_1_388
10
13.0240341
20
-0.0090556
40
0.506956
50
267.4687563
51
270.0233681
0
ARC
8
DEFAULT_255_1_388
10
13.0274336
20
-0.0750712
40
0.440952
50
269.5851384
51
281.1845308
0
ARC
8
DEFAULT_255_1_388
10
13.058794
20
-0.2272531
40
0.2855802
50
280.9345159
51
300.9740496
0
ARC
8
DEFAULT_255_1_388
10
13.082712
20
-0.2712872
40
0.2355257
50
301.4982546
51
315.1468616
0
ARC
8
DEFAULT_255_1_388
10
13.0664617
20
-0.2579512
40
0.2564594
50
315.5952932
51
345.6679188
0
ARC
8
DEFAULT_255_1_388
10
12.9405174
20
-0.2228765
40
0.3871766
50
345.2525685
51
358.6303941
0
ARC
8
DEFAULT_255_1_388
10
12.8261564
20
-0.2161305
40
0.5016822
50
358.1723541
51
0.0116795
0
LINE
8
DEFAULT_255_1_388
10
14.6849923
20
0.6757898
11
14.6849923
21
0.5330267
0
LINE
8
DEFAULT_255_1_388
10
14.6849923
20
0.5330267
11
14.2621242
21
0.5330267
0
LINE
8
DEFAULT_255_1_388
10
14.2621242
20
0.5330267
11
14.2621242
21
-0.6398
0
LINE
8
DEFAULT_255_1_388
10
14.2621242
20
-0.6398
11
14.0895434
21
-0.6398
0
LINE
8
DEFAULT_255_1_388
10
14.0895434
20
-0.6398
11
14.0895434
21
0.5330267
0
LINE
8
DEFAULT_255_1_388
10
14.0895434
20
0.5330267
11
13.6675788
21
0.5330267
0
LINE
8
DEFAULT_255_1_388
10
13.6675788
20
0.5330267
11
13.6675788
21
0.6757898
0
LINE
8
DEFAULT_255_1_388
10
13.6675788
20
0.6757898
11
14.6849923
21
0.6757898
0
LINE
8
DEFAULT_255_1_388
10
15.542475
20
0.6757898
11
15.542475
21
-0.197957
0
LINE
8
DEFAULT_255_1_388
10
15.542475
20
-0.197957
11
15.724995
21
-0.197957
0
LINE
8
DEFAULT_255_1_388
10
15.724995
20
-0.197957
11
15.724995
21
-0.3343952
0
LINE
8
DEFAULT_255_1_388
10
15.724995
20
-0.3343952
11
15.542475
21
-0.3343952
0
LINE
8
DEFAULT_255_1_388
10
15.542475
20
-0.3343952
11
15.542475
21
-0.6398
0
LINE
8
DEFAULT_255_1_388
10
15.542475
20
-0.6398
11
15.374412
21
-0.6398
0
LINE
8
DEFAULT_255_1_388
10
15.374412
20
-0.6398
11
15.374412
21
-0.3343952
0
LINE
8
DEFAULT_255_1_388
10
15.374412
20
-0.3343952
11
14.7753488
21
-0.3343952
0
LINE
8
DEFAULT_255_1_388
10
14.7753488
20
-0.3343952
11
14.7753488
21
-0.2359067
0
LINE
8
DEFAULT_255_1_388
10
14.7753488
20
-0.2359067
11
15.3644728
21
0.6757898
0
LINE
8
DEFAULT_255_1_388
10
15.3644728
20
0.6757898
11
15.542475
21
0.6757898
0
LINE
8
DEFAULT_255_1_388
10
15.3545336
20
0.4110455
11
14.9650973
21
-0.197957
0
LINE
8
DEFAULT_255_1_388
10
14.9650973
20
-0.197957
11
15.374412
21
-0.197957
0
LINE
8
DEFAULT_255_1_388
10
15.374412
20
-0.197957
11
15.374412
21
0.447188
0
LINE
8
DEFAULT_255_1_388
10
15.374412
20
0.447188
11
15.3545336
21
0.4110455
0
LINE
8
DEFAULT_255_1_388
10
16.2833979
20
-0.6398
11
15.9192614
21
-0.6398
0
LINE
8
DEFAULT_255_1_388
10
15.9192614
20
-0.6398
11
15.9192614
21
0.6757898
0
LINE
8
DEFAULT_255_1_388
10
15.9192614
20
0.6757898
11
16.2906264
21
0.6757898
0
LINE
8
DEFAULT_255_1_388
10
16.8707147
20
0.0622696
11
16.8707147
21
-0.0217619
0
LINE
8
DEFAULT_255_1_388
10
16.2951442
20
0.5330267
11
16.0927458
21
0.5330267
0
LINE
8
DEFAULT_255_1_388
10
16.0927458
20
0.5330267
11
16.0927458
21
-0.4979404
0
LINE
8
DEFAULT_255_1_388
10
16.0927458
20
-0.4979404
11
16.2752658
21
-0.4979404
0
LINE
8
DEFAULT_255_1_388
10
16.6990375
20
-0.0181477
11
16.6990375
21
0.0586553
0
ARC
8
DEFAULT_255_1_388
10
16.2950058
20
0.0159436
40
0.6598608
50
75.4100343
51
90.3802731
0
ARC
8
DEFAULT_255_1_388
10
16.3208304
20
0.1235691
40
0.5492049
50
60.1455157
51
75.1889627
0
ARC
8
DEFAULT_255_1_388
10
16.3386895
20
0.1546914
40
0.5133226
50
26.525419
51
60.1451222
0
ARC
8
DEFAULT_255_1_388
10
16.2126682
20
0.0878642
40
0.6559324
50
7.4029944
51
26.832209
0
ARC
8
DEFAULT_255_1_388
10
16.0333079
20
0.0599229
40
0.8374103
50
0.1605597
51
7.7176135
0
ARC
8
DEFAULT_255_1_388
10
16.0517479
20
-0.0260679
40
0.8189782
50
348.7289744
51
0.30125
0
ARC
8
DEFAULT_255_1_388
10
16.2380943
20
-0.0630844
40
0.628991
50
333.0706936
51
348.7181455
0
ARC
8
DEFAULT_255_1_388
10
16.3468571
20
-0.1221551
40
0.5052808
50
299.2531435
51
333.4571133
0
ARC
8
DEFAULT_255_1_388
10
16.3062602
20
-0.0450371
40
0.5924066
50
278.1072193
51
299.0340218
0
ARC
8
DEFAULT_255_1_388
10
16.2774651
20
0.1245979
40
0.7644209
50
270.4446841
51
278.4508355
0
ARC
8
DEFAULT_255_1_388
10
16.2798134
20
0.02003
40
0.5179903
50
269.4969684
51
284.0204874
0
ARC
8
DEFAULT_255_1_388
10
16.3197853
20
-0.1335585
40
0.3592968
50
283.7699076
51
318.1557121
0
ARC
8
DEFAULT_255_1_388
10
16.2818398
20
-0.1051601
40
0.4065308
50
318.7417595
51
343.687252
0
ARC
8
DEFAULT_255_1_388
10
16.0788977
20
-0.0417725
40
0.6191194
50
343.3324891
51
355.8548594
0
ARC
8
DEFAULT_255_1_388
10
15.8428014
20
-0.0193281
40
0.856237
50
355.4988754
51
0.0789913
0
ARC
8
DEFAULT_255_1_388
10
15.9308813
20
0.063408
40
0.7681709
50
359.6455047
51
9.8607559
0
ARC
8
DEFAULT_255_1_388
10
16.1964537
20
0.1113664
40
0.498312
50
9.6573037
51
26.1931522
0
ARC
8
DEFAULT_255_1_388
10
16.3008612
20
0.1598587
40
0.3832303
50
26.5777895
51
40.1533752
0
ARC
8
DEFAULT_255_1_388
10
16.3296277
20
0.182302
40
0.3467742
50
40.3839958
51
80.1430923
0
ARC
8
DEFAULT_255_1_388
10
16.2928532
20
0.0192486
40
0.5137832
50
79.2153636
51
89.7445174
0
LINE
8
DEFAULT_255_1_388
10
17.9658349
20
-0.6398
11
17.8402394
21
-0.2964455
0
LINE
8
DEFAULT_255_1_388
10
17.8402394
20
-0.2964455
11
17.2890651
21
-0.2964455
0
LINE
8
DEFAULT_255_1_388
10
17.2890651
20
-0.2964455
11
17.1652768
21
-0.6398
0
LINE
8
DEFAULT_255_1_388
10
17.1652768
20
-0.6398
11
16.986371
21
-0.6398
0
LINE
8
DEFAULT_255_1_388
10
16.986371
20
-0.6398
11
17.4887528
21
0.6757898
0
LINE
8
DEFAULT_255_1_388
10
17.4887528
20
0.6757898
11
17.6405517
21
0.6757898
0
LINE
8
DEFAULT_255_1_388
10
17.6405517
20
0.6757898
11
18.1438371
21
-0.6398
0
LINE
8
DEFAULT_255_1_388
10
18.1438371
20
-0.6398
11
17.9658349
21
-0.6398
0
LINE
8
DEFAULT_255_1_388
10
17.5646522
20
0.4616451
11
17.3414718
21
-0.1536823
0
LINE
8
DEFAULT_255_1_388
10
17.3414718
20
-0.1536823
11
17.7887362
21
-0.1536823
0
LINE
8
DEFAULT_255_1_388
10
17.7887362
20
-0.1536823
11
17.5646522
21
0.4616451
0
LINE
8
DEFAULT_255_1_388
10
18.6426046
20
-0.0127263
11
18.6426046
21
-0.1491645
0
LINE
8
DEFAULT_255_1_388
10
18.6426046
20
-0.1491645
11
18.2016652
21
-0.1491645
0
LINE
8
DEFAULT_255_1_388
10
18.2016652
20
-0.1491645
11
18.2016652
21
-0.0127263
0
LINE
8
DEFAULT_255_1_388
10
18.2016652
20
-0.0127263
11
18.6426046
21
-0.0127263
0
LINE
8
DEFAULT_255_1_388
10
19.0311374
20
-0.0371225
11
19.0311374
21
0.0993157
0
LINE
8
DEFAULT_255_1_388
10
19.0311374
20
0.0993157
11
19.1567328
21
0.0993157
0
LINE
8
DEFAULT_255_1_388
10
18.942588
20
0.3306282
11
18.7754286
21
0.3306282
0
LINE
8
DEFAULT_255_1_388
10
18.7636823
20
-0.2928312
11
18.9317453
21
-0.2928312
0
LINE
8
DEFAULT_255_1_388
10
19.1567328
20
-0.0371225
11
19.0311374
21
-0.0371225
0
ARC
8
DEFAULT_255_1_388
10
19.1534555
20
0.4809922
40
0.3816905
50
270.491971
51
281.8953028
0
ARC
8
DEFAULT_255_1_388
10
19.1805982
20
0.3570199
40
0.2547877
50
281.6690378
51
301.2943765
0
ARC
8
DEFAULT_255_1_388
10
19.1997433
20
0.3219926
40
0.2149197
50
301.7834992
51
311.754567
0
ARC
8
DEFAULT_255_1_388
10
19.2100474
20
0.310565
40
0.1995326
50
311.7325027
51
354.2803031
0
ARC
8
DEFAULT_255_1_388
10
19.128289
20
0.324628
40
0.2823461
50
353.0941646
51
0.1174696
0
ARC
8
DEFAULT_255_1_388
10
19.0764448
20
0.3299874
40
0.3342238
50
359.1804452
51
15.0452323
0
ARC
8
DEFAULT_255_1_388
10
19.2278506
20
0.3741546
40
0.1765747
50
13.957816
51
77.6713812
0
ARC
8
DEFAULT_255_1_388
10
19.1843742
20
0.2183464
40
0.3381982
50
76.111571
51
90.7028736
0
ARC
8
DEFAULT_255_1_388
10
19.1777154
20
0.249125
40
0.3074046
50
89.5321574
51
103.5319393
0
ARC
8
DEFAULT_255_1_388
10
19.1551538
20
0.3390443
40
0.2147041
50
103.2930114
51
133.5619756
0
ARC
8
DEFAULT_255_1_388
10
19.150148
20
0.3457351
40
0.2064084
50
133.8349761
51
173.5343225
0
ARC
8
DEFAULT_255_1_388
10
19.2315137
20
0.3313144
40
0.2889266
50
172.5097183
51
180.1360699
0
ARC
8
DEFAULT_255_1_388
10
19.1244901
20
0.335188
40
0.3490913
50
155.3483706
51
180.7484035
0
ARC
8
DEFAULT_255_1_388
10
19.1189877
20
0.3319519
40
0.3454798
50
131.5745177
51
154.4799474
0
ARC
8
DEFAULT_255_1_388
10
19.1542159
20
0.2963422
40
0.3955058
50
96.9874487
51
131.9690874
0
ARC
8
DEFAULT_255_1_388
10
19.1789052
20
0.1562407
40
0.537622
50
89.8592909
51
97.7827481
0
ARC
8
DEFAULT_255_1_388
10
19.1843161
20
0.126736
40
0.5671399
50
78.3654493
51
90.4132586
0
ARC
8
DEFAULT_255_1_388
10
19.2245802
20
0.3133918
40
0.3762034
50
56.6229818
51
78.6387103
0
ARC
8
DEFAULT_255_1_388
10
19.2487631
20
0.3556846
40
0.3275964
50
47.0254604
51
56.085558
0
ARC
8
DEFAULT_255_1_388
10
19.2509882
20
0.3601189
40
0.3228382
50
10.9207523
51
46.777927
0
ARC
8
DEFAULT_255_1_388
10
19.0975476
20
0.3246401
40
0.4802559
50
359.6364235
51
11.6087615
0
ARC
8
DEFAULT_255_1_388
10
19.3039642
20
0.3229404
40
0.273833
50
332.3549969
51
359.7179765
0
ARC
8
DEFAULT_255_1_388
10
19.2308042
20
0.3576285
40
0.3547505
50
325.2332381
51
332.8746682
0
ARC
8
DEFAULT_255_1_388
10
19.2479625
20
0.3456763
40
0.3338396
50
292.9803892
51
325.2391113
0
ARC
8
DEFAULT_255_1_388
10
19.2168821
20
0.4061679
40
0.4016959
50
292.542178
51
293.6931461
0
ARC
8
DEFAULT_255_1_388
10
19.2612393
20
-0.3203964
40
0.372079
50
57.643292
51
72.8626085
0
ARC
8
DEFAULT_255_1_388
10
19.3011228
20
-0.2557727
40
0.2961455
50
36.7246661
51
57.4701329
0
ARC
8
DEFAULT_255_1_388
10
19.2998384
20
-0.254353
40
0.2963321
50
8.054535
51
36.3561529
0
ARC
8
DEFAULT_255_1_388
10
19.2028057
20
-0.2717927
40
0.3948682
50
359.8316595
51
8.5873361
0
ARC
8
DEFAULT_255_1_388
10
19.1605531
20
-0.277203
40
0.4371398
50
343.9831631
51
0.557075
0
ARC
8
DEFAULT_255_1_388
10
19.2602581
20
-0.3045037
40
0.3337749
50
311.6358204
51
343.7652116
0
ARC
8
DEFAULT_255_1_388
10
19.2176834
20
-0.2565045
40
0.3979351
50
279.7829743
51
311.625622
0
ARC
8
DEFAULT_255_1_388
10
19.183797
20
-0.0948358
40
0.5630417
50
269.7285092
51
280.3857694
0
ARC
8
DEFAULT_255_1_388
10
19.1768283
20
-0.0994759
40
0.5584119
50
256.6827433
51
270.4412869
0
ARC
8
DEFAULT_255_1_388
10
19.1387269
20
-0.2552302
40
0.3980715
50
229.4223821
51
256.8554507
0
ARC
8
DEFAULT_255_1_388
10
19.0920822
20
-0.3077317
40
0.3278564
50
181.8183354
51
229.6455015
0
ARC
8
DEFAULT_255_1_388
10
19.2090432
20
-0.2930175
40
0.4453611
50
179.9760419
51
183.2330638
0
ARC
8
DEFAULT_255_1_388
10
19.1896984
20
-0.2953219
40
0.2579652
50
179.4467996
51
196.2871626
0
ARC
8
DEFAULT_255_1_388
10
19.1348438
20
-0.3103291
40
0.2011057
50
196.5661293
51
227.7059371
0
ARC
8
DEFAULT_255_1_388
10
19.1533045
20
-0.2896845
40
0.2287994
50
227.7653015
51
257.8763321
0
ARC
8
DEFAULT_255_1_388
10
19.1786128
20
-0.1836039
40
0.3378385
50
257.4583525
51
270.4267406
0
ARC
8
DEFAULT_255_1_388
10
19.1837378
20
-0.150977
40
0.3704652
50
269.5965319
51
280.8788143
0
ARC
8
DEFAULT_255_1_388
10
19.2095606
20
-0.2799471
40
0.2389415
50
280.6347277
51
299.8594068
0
ARC
8
DEFAULT_255_1_388
10
19.2310376
20
-0.3207264
40
0.19289
50
300.3575552
51
314.5515667
0
ARC
8
DEFAULT_255_1_388
10
19.2217051
20
-0.3138975
40
0.204312
50
315.0730962
51
345.0429362
0
ARC
8
DEFAULT_255_1_388
10
19.1178559
20
-0.2836461
40
0.31246
50
344.598526
51
357.9270698
0
ARC
8
DEFAULT_255_1_388
10
19.0168864
20
-0.2767295
40
0.4136265
50
357.4755098
51
0.0224936
0
ARC
8
DEFAULT_255_1_388
10
19.1321741
20
-0.2739901
40
0.2983498
50
359.5051035
51
13.4236939
0
ARC
8
DEFAULT_255_1_388
10
19.2296831
20
-0.2490363
40
0.1977186
50
12.9497905
51
48.7550905
0
ARC
8
DEFAULT_255_1_388
10
19.2091753
20
-0.2770627
40
0.2323321
50
49.509109
51
72.1832965
0
ARC
8
DEFAULT_255_1_388
10
19.1689221
20
-0.3965368
40
0.358397
50
71.9008458
51
84.3555134
0
ARC
8
DEFAULT_255_1_388
10
19.1507616
20
-0.5497288
40
0.512641
50
84.019632
51
89.3326067
0
ARC
8
DEFAULT_255_2_778
10
20.2534188
20
104.7366525
40
0.3580657
50
89.9945037
51
180.0054963
0
ARC
8
DEFAULT_255_2_778
10
20.2534875
20
104.7366525
40
0.3580657
50
359.9945037
51
90.0054963
0
ARC
8
DEFAULT_255_2_778
10
20.2534875
20
104.7365838
40
0.3580657
50
269.9945037
51
0.0054963
0
ARC
8
DEFAULT_255_2_778
10
20.2534188
20
104.7365838
40
0.3580657
50
179.9945037
51
270.0054963
0
ARC
8
DEFAULT_255_2_778
10
22.9622406
20
104.468282
40
2.3282817
50
111.9150345
51
128.7655504
0
ARC
8
DEFAULT_255_2_778
10
22.8791007
20
104.600352
40
2.1733214
50
129.2366206
51
154.7721516
0
ARC
8
DEFAULT_255_2_778
10
23.480657
20
104.3045583
40
2.8435961
50
154.5467617
51
165.9285636
0
ARC
8
DEFAULT_255_2_778
10
23.9646902
20
104.1671212
40
3.3465569
50
165.6609748
51
166.525375
0
ARC
8
DEFAULT_255_2_778
10
21.5282291
20
105.3853171
40
1.414623
50
156.0627036
51
175.7189082
0
ARC
8
DEFAULT_255_2_778
10
22.1164502
20
105.131783
40
2.0551309
50
144.7505594
51
156.2560535
0
ARC
8
DEFAULT_255_2_778
10
22.8861799
20
104.5964863
40
2.9926766
50
137.345293
51
144.8863205
0
ARC
8
DEFAULT_255_2_778
10
23.8131446
20
103.7473407
40
4.2497776
50
131.6389266
51
137.393651
0
ARC
8
DEFAULT_255_2_778
10
24.5393492
20
102.9506248
40
5.3277326
50
130.1334351
51
131.7826198
0
LINE
8
DEFAULT_255_2_778
10
19.8953532
20
104.7366182
11
19.8953532
21
104.7366182
0
LINE
8
DEFAULT_255_2_778
10
21.1052532
20
107.0239182
11
22.0932532
21
106.6283182
0
LINE
8
DEFAULT_255_2_778
10
20.7102532
20
104.9469182
11
20.1175532
21
105.4909182
0
LINE
8
DEFAULT_255_2_778
10
21.1052532
20
107.0239182
11
21.1052532
21
107.0239182
0
ARC
8
DEFAULT_255_2_778
10
13.7594907
20
105.5601437
40
0.8717226
50
88.9281645
51
133.9885749
0
ARC
8
DEFAULT_255_2_778
10
13.7757454
20
105.3350604
40
1.0966534
50
88.9487005
51
89.9972984
0
ARC
8
DEFAULT_255_2_778
10
13.7953
20
105.6305011
40
0.8010283
50
72.1310318
51
89.9594908
0
ARC
8
DEFAULT_255_2_778
10
13.8705373
20
105.8875083
40
0.5333823
50
60.6505783
51
71.3519493
0
ARC
8
DEFAULT_255_2_778
10
13.9543387
20
106.0146349
40
0.3816498
50
20.3938858
51
62.2625554
0
ARC
8
DEFAULT_255_2_778
10
14.9704645
20
105.5266628
40
0.9050345
50
89.7568633
51
136.6758865
0
ARC
8
DEFAULT_255_2_778
10
14.9742773
20
105.4090709
40
1.0226182
50
88.9864436
51
89.9984426
0
ARC
8
DEFAULT_255_2_778
10
14.992248
20
105.648192
40
0.7833372
50
71.373585
51
89.9913488
0
ARC
8
DEFAULT_255_2_778
10
15.0841803
20
105.927042
40
0.489734
50
42.2193789
51
71.1458349
0
ARC
8
DEFAULT_255_2_778
10
15.0590908
20
105.9195658
40
0.5134635
50
8.5226311
51
40.9558105
0
ARC
8
DEFAULT_255_2_778
10
14.7367896
20
105.8543045
40
0.8420446
50
359.6942069
51
9.6641803
0
ARC
8
DEFAULT_255_2_778
10
14.4472507
20
105.8513277
40
1.1315727
50
355.5855084
51
359.923173
0
ARC
8
DEFAULT_255_2_778
10
14.2502845
20
105.8236289
40
0.7547163
50
352.4548626
51
359.7652122
0
ARC
8
DEFAULT_255_2_778
10
14.4078893
20
105.8207192
40
0.5971052
50
359.9824407
51
2.1700815
0
ARC
8
DEFAULT_255_2_778
10
14.8167551
20
105.8365752
40
0.1879327
50
2.0595693
51
88.944897
0
ARC
8
DEFAULT_255_2_778
10
14.7529878
20
105.5492725
40
0.4799353
50
81.9476992
51
88.9638763
0
ARC
8
DEFAULT_255_2_778
10
14.7641352
20
105.5431844
40
0.4859511
50
90.2910974
51
140.7094043
0
ARC
8
DEFAULT_255_2_778
10
14.950423
20
105.3503111
40
0.7529164
50
138.3264016
51
141.8088804
0
ARC
8
DEFAULT_255_2_778
10
13.0111845
20
105.8202289
40
0.7547163
50
352.4548626
51
359.7652122
0
ARC
8
DEFAULT_255_2_778
10
13.1687893
20
105.8173192
40
0.5971052
50
359.9824407
51
2.1700815
0
ARC
8
DEFAULT_255_2_778
10
13.5767327
20
105.8341775
40
0.1888212
50
1.7455696
51
88.6065628
0
ARC
8
DEFAULT_255_2_778
10
13.5151974
20
105.5578897
40
0.469731
50
81.9072271
51
88.8693446
0
ARC
8
DEFAULT_255_2_778
10
13.5126914
20
105.5178568
40
0.5098084
50
88.6765396
51
89.9981553
0
ARC
8
DEFAULT_255_2_778
10
13.5179114
20
105.5214569
40
0.5062351
50
90.5889431
51
134.9317856
0
ARC
8
DEFAULT_255_2_778
10
13.6708307
20
105.3310835
40
0.749469
50
132.9288129
51
135.7848647
0
LINE
8
DEFAULT_255_2_778
10
12.6682663
20
106.3974292
11
13.2005663
21
106.3990292
0
LINE
8
DEFAULT_255_2_778
10
13.2005663
20
106.3990292
11
13.1540663
21
106.1873292
0
LINE
8
DEFAULT_255_2_778
10
15.5754663
20
105.7642292
11
15.5715663
21
105.7214292
0
LINE
8
DEFAULT_255_2_778
10
15.5715663
20
105.7214292
11
15.3386663
21
104.5360292
0
LINE
8
DEFAULT_255_2_778
10
15.3386663
20
104.5360292
11
14.7655663
21
104.5360292
0
LINE
8
DEFAULT_255_2_778
10
14.7655663
20
104.5360292
11
14.9984663
21
105.7245292
0
LINE
8
DEFAULT_255_2_778
10
14.3586663
20
105.8158292
11
14.3525663
21
105.7764292
0
LINE
8
DEFAULT_255_2_778
10
14.3525663
20
105.7764292
11
14.0975663
21
104.5360292
0
LINE
8
DEFAULT_255_2_778
10
14.0975663
20
104.5360292
11
13.5265663
21
104.5360292
0
LINE
8
DEFAULT_255_2_778
10
13.5265663
20
104.5360292
11
13.7593663
21
105.7211292
0
LINE
8
DEFAULT_255_2_778
10
13.1336663
20
105.8537292
11
12.8603663
21
104.5360292
0
LINE
8
DEFAULT_255_2_778
10
12.8603663
20
104.5360292
11
12.2893663
21
104.5360292
0
LINE
8
DEFAULT_255_2_778
10
12.2893663
20
104.5360292
11
12.6679663
21
106.3971292
0
LINE
8
DEFAULT_255_2_778
10
12.6679663
20
106.3971292
11
12.6682663
21
106.3974292
0
ARC
8
DEFAULT_255_2_778
10
16.6200314
20
105.2468402
40
1.1831221
50
72.5008211
51
90.0103536
0
ARC
8
DEFAULT_255_2_778
10
16.6947546
20
105.5098399
40
0.9098586
50
60.3242318
51
72.0085714
0
ARC
8
DEFAULT_255_2_778
10
16.7751051
20
105.6303126
40
0.7654736
50
24.9543019
51
61.0852427
0
ARC
8
DEFAULT_255_2_778
10
16.6805787
20
105.5884465
40
0.8688408
50
359.4872778
51
24.8275177
0
ARC
8
DEFAULT_255_2_778
10
16.4736992
20
105.5820476
40
1.0756863
50
353.6171666
51
359.9267064
0
ARC
8
DEFAULT_255_2_778
10
16.4716416
20
105.5520267
40
1.0748142
50
309.833105
51
355.2199932
0
ARC
8
DEFAULT_255_2_778
10
16.4131023
20
105.6186469
40
1.1634726
50
274.0073872
51
309.9453537
0
ARC
8
DEFAULT_255_2_778
10
16.3618881
20
105.9871028
40
1.5348158
50
269.9462811
51
274.9533663
0
ARC
8
DEFAULT_255_2_778
10
16.3604833
20
106.1108871
40
1.6585995
50
269.1686307
51
269.9988202
0
ARC
8
DEFAULT_255_2_778
10
16.3366284
20
105.6233137
40
1.1708514
50
252.109196
51
269.9896888
0
ARC
8
DEFAULT_255_2_778
10
16.2647024
20
105.3739636
40
0.9114995
50
240.54759
51
251.5966758
0
ARC
8
DEFAULT_255_2_778
10
16.185195
20
105.2512089
40
0.7655666
50
205.2400495
51
241.211713
0
ARC
8
DEFAULT_255_2_778
10
16.2656131
20
105.2885634
40
0.8542357
50
179.5359208
51
205.2063167
0
ARC
8
DEFAULT_255_2_778
10
16.4526722
20
105.2941956
40
1.0412677
50
173.5392122
51
179.9291923
0
ARC
8
DEFAULT_255_2_778
10
16.6391822
20
105.2826758
40
1.2279263
50
153.4099026
51
173.9843619
0
ARC
8
DEFAULT_255_2_778
10
16.4795759
20
105.3504448
40
1.0549233
50
129.6863931
51
152.8211827
0
ARC
8
DEFAULT_255_2_778
10
16.5417015
20
105.2798495
40
1.1489256
50
92.7623759
51
129.8224215
0
ARC
8
DEFAULT_255_2_778
10
16.5842324
20
104.9364549
40
1.494196
50
89.9700369
51
93.7568045
0
ARC
8
DEFAULT_255_2_778
10
16.5849025
20
104.8348597
40
1.5957911
50
88.7355209
51
89.9960014
0
ARC
8
DEFAULT_255_2_778
10
16.440941
20
105.2268885
40
0.4286317
50
179.6425826
51
209.446387
0
ARC
8
DEFAULT_255_2_778
10
16.3397227
20
105.1797221
40
0.3174207
50
211.0145463
51
223.1431724
0
ARC
8
DEFAULT_255_2_778
10
16.3473644
20
105.1976914
40
0.3353769
50
224.4904912
51
268.822899
0
ARC
8
DEFAULT_255_2_778
10
16.3773318
20
105.4096578
40
0.5485121
50
266.1471365
51
268.8180779
0
ARC
8
DEFAULT_255_2_778
10
16.3834553
20
105.5392665
40
0.6782284
50
268.5267288
51
269.9955114
0
ARC
8
DEFAULT_255_2_778
10
16.3990244
20
105.3487446
40
0.4879566
50
268.1653241
51
325.4286401
0
ARC
8
DEFAULT_255_2_778
10
16.1704714
20
105.5153589
40
0.7707306
50
324.8706977
51
351.0886768
0
ARC
8
DEFAULT_255_2_778
10
15.7623203
20
105.594259
40
1.1862684
50
350.3775551
51
0.2885744
0
ARC
8
DEFAULT_255_2_778
10
15.4717207
20
105.5999545
40
1.4768528
50
0.0108339
51
1.7075744
0
ARC
8
DEFAULT_255_2_778
10
16.4937051
20
105.6348496
40
0.454304
50
1.1493477
51
31.2464652
0
ARC
8
DEFAULT_255_2_778
10
16.5878645
20
105.6815769
40
0.3496776
50
32.703807
51
41.7810929
0
ARC
8
DEFAULT_255_2_778
10
16.6096538
20
105.6909534
40
0.3272685
50
43.0987922
51
88.7571407
0
ARC
8
DEFAULT_255_2_778
10
16.5789566
20
105.4786359
40
0.5408314
50
85.992647
51
88.8704975
0
ARC
8
DEFAULT_255_2_778
10
16.5725658
20
105.3767668
40
0.6428217
50
88.4799611
51
89.9943311
0
ARC
8
DEFAULT_255_2_778
10
16.5615546
20
105.5300787
40
0.4896349
50
88.7039519
51
145.0513377
0
ARC
8
DEFAULT_255_2_778
10
16.7596375
20
105.3767936
40
0.7399051
50
144.1087108
51
170.2824956
0
ARC
8
DEFAULT_255_2_778
10
17.1861971
20
105.2896764
40
1.1751307
50
169.6063184
51
180.3528002
0
ARC
8
DEFAULT_255_2_778
10
17.5222698
20
105.2828441
40
1.5111813
50
180.0153016
51
182.009194
0
LINE
8
DEFAULT_255_2_778
10
16.6201176
20
106.4302623
11
16.6198176
21
106.4299623
0
LINE
8
DEFAULT_255_2_778
10
16.0120176
20
105.2298623
11
16.0123176
21
105.2295623
0
ARC
8
DEFAULT_255_2_778
10
18.587937
20
104.3080854
40
1.642039
50
81.2830361
51
86.628458
0
ARC
8
DEFAULT_255_2_778
10
18.6429757
20
105.1465313
40
0.8018272
50
87.0310432
51
89.8986713
0
ARC
8
DEFAULT_255_2_778
10
18.6242064
20
105.0578997
40
0.8906863
50
88.7012797
51
89.9954117
0
ARC
8
DEFAULT_255_2_778
10
18.6103452
20
105.3021623
40
0.6465738
50
88.765285
51
116.6201427
0
ARC
8
DEFAULT_255_2_778
10
18.5802548
20
105.3861694
40
0.5580924
50
117.7228833
51
138.7756782
0
ARC
8
DEFAULT_255_2_778
10
18.7590475
20
105.7523707
40
0.6980151
50
116.489914
51
143.0810972
0
ARC
8
DEFAULT_255_2_778
10
18.7053938
20
105.8324223
40
0.6025621
50
89.4580016
51
115.3188873
0
ARC
8
DEFAULT_255_2_778
10
18.6965205
20
105.4976885
40
0.9373821
50
77.9674605
51
89.1092017
0
ARC
8
DEFAULT_255_2_778
10
18.6028478
20
104.9671466
40
1.4759175
50
78.008513
51
78.7045202
0
LINE
8
DEFAULT_255_2_778
10
18.9094938
20
106.4111573
11
18.8367938
21
105.9311573
0
LINE
8
DEFAULT_255_2_778
10
18.1604938
20
105.7539573
11
17.9072938
21
104.5360573
0
LINE
8
DEFAULT_255_2_778
10
17.9072938
20
104.5360573
11
17.3362938
21
104.5360573
0
LINE
8
DEFAULT_255_2_778
10
17.3362938
20
104.5360573
11
17.7169938
21
106.3971573
0
LINE
8
DEFAULT_255_2_778
10
17.7169938
20
106.3971573
11
18.2535938
21
106.3987573
0
LINE
8
DEFAULT_255_2_778
10
18.2535938
20
106.3987573
11
18.2009938
21
106.1716573
0
LINE
8
DEFAULT_255_2_778
10
18.9094938
20
106.4108573
11
18.9094938
21
106.4111573
0
ARC
8
DEFAULT_255_2_778
10
19.1571667
20
105.622675
40
1.1701724
50
250.1393411
51
270.3226852
0
ARC
8
DEFAULT_255_2_778
10
19.1022051
20
105.4428343
40
0.9824012
50
242.0502734
51
249.5907868
0
ARC
8
DEFAULT_255_2_778
10
19.001531
20
105.2833015
40
0.794417
50
208.3292132
51
243.0715083
0
ARC
8
DEFAULT_255_2_778
10
18.9933547
20
105.2742013
40
0.7829125
50
179.569171
51
208.0269435
0
ARC
8
DEFAULT_255_2_778
10
19.1411392
20
105.2792824
40
0.9306752
50
174.3677827
51
179.9503835
0
ARC
8
DEFAULT_255_2_778
10
19.3222378
20
105.32118
40
1.1074063
50
145.2485417
51
173.7769976
0
ARC
8
DEFAULT_255_2_778
10
19.3043239
20
105.3456177
40
1.0788028
50
116.4826416
51
145.7726174
0
ARC
8
DEFAULT_255_2_778
10
19.3348976
20
105.2759316
40
1.1548163
50
89.3335424
51
116.2986099
0
ARC
8
DEFAULT_255_2_778
10
19.3482483
20
105.0335133
40
1.3971563
50
88.7200635
51
89.9966493
0
ARC
8
DEFAULT_255_2_778
10
19.3739264
20
105.3179187
40
1.1124162
50
73.6937809
51
89.7151452
0
ARC
8
DEFAULT_255_2_778
10
19.4851962
20
105.6898827
40
0.7241771
50
40.439997
51
73.880282
0
ARC
8
DEFAULT_255_2_778
10
19.4514712
20
105.6679387
40
0.7640962
50
0.3370816
51
40.0519836
0
ARC
8
DEFAULT_255_2_778
10
19.2137457
20
105.644313
40
1.0022031
50
359.994028
51
1.6078833
0
ARC
8
DEFAULT_255_2_778
10
19.0846833
20
105.6464808
40
1.1312679
50
353.167063
51
359.8849147
0
ARC
8
DEFAULT_255_2_778
10
18.9406155
20
105.6612227
40
1.2760687
50
352.3939633
51
353.279462
0
ARC
8
DEFAULT_255_2_778
10
19.1535012
20
105.2226798
40
0.3608489
50
171.5634883
51
179.9015639
0
ARC
8
DEFAULT_255_2_778
10
19.1262943
20
105.2268702
40
0.3336607
50
180.6131262
51
227.843893
0
ARC
8
DEFAULT_255_2_778
10
19.2043051
20
105.4885151
40
0.5918171
50
239.3225098
51
268.8255118
0
ARC
8
DEFAULT_255_2_778
10
19.2271512
20
105.7219017
40
0.8258202
50
267.5725716
51
270.0162941
0
ARC
8
DEFAULT_255_2_778
10
19.2268973
20
105.8056346
40
0.9095533
50
270.0307885
51
273.2244191
0
ARC
8
DEFAULT_255_2_778
10
19.2542379
20
105.1452649
40
0.2488861
50
275.4917641
51
302.3582203
0
ARC
8
DEFAULT_255_2_778
10
19.3200418
20
105.0293064
40
0.115896
50
305.561706
51
314.7657745
0
ARC
8
DEFAULT_255_2_778
10
19.3095773
20
105.0621064
40
0.1473882
50
308.6632861
51
359.3837416
0
ARC
8
DEFAULT_255_2_778
10
17.807225
20
106.7847828
40
2.962762
50
318.8021847
51
324.4102292
0
ARC
8
DEFAULT_255_2_778
10
18.7925821
20
105.9164506
40
1.6494092
50
310.4033061
51
318.953359
0
ARC
8
DEFAULT_255_2_778
10
19.3188808
20
105.2898187
40
0.831118
50
295.9312381
51
310.7744109
0
ARC
8
DEFAULT_255_2_778
10
19.4407027
20
105.0609772
40
0.5721233
50
294.3678437
51
294.9811966
0
ARC
8
DEFAULT_255_2_778
10
19.1940828
20
105.8279614
40
1.3756016
50
269.5724547
51
290.5412856
0
ARC
8
DEFAULT_255_2_778
10
19.1838577
20
106.0462488
40
1.5938505
50
269.2881822
51
269.9985732
0
ARC
8
DEFAULT_255_2_778
10
19.3390649
20
105.4596819
40
0.5598634
50
88.7931239
51
89.9984438
0
ARC
8
DEFAULT_255_2_778
10
19.3326983
20
105.5565553
40
0.463034
50
89.2102909
51
125.5845733
0
ARC
8
DEFAULT_255_2_778
10
19.4008068
20
105.4848825
40
0.5611219
50
126.9818839
51
147.669232
0
ARC
8
DEFAULT_255_2_778
10
19.876359
20
105.1651894
40
1.1340353
50
146.870707
51
156.2884785
0
ARC
8
DEFAULT_255_2_778
10
19.2333366
20
105.7433392
40
0.4293753
50
349.7481736
51
359.8266598
0
ARC
8
DEFAULT_255_2_778
10
19.2961469
20
105.7425983
40
0.3665636
50
359.9127606
51
9.1392387
0
ARC
8
DEFAULT_255_2_778
10
19.4131569
20
105.7570587
40
0.2487794
50
10.1315408
51
54.8294252
0
ARC
8
DEFAULT_255_2_778
10
19.3593417
20
105.6612414
40
0.3582778
50
56.6210187
51
91.3472693
0
LINE
8
DEFAULT_255_2_778
10
18.2149569
20
105.3706211
11
18.2213569
21
105.4412211
0
LINE
8
DEFAULT_255_2_778
10
20.2054569
20
105.4923211
11
20.1723569
21
105.2756211
0
LINE
8
DEFAULT_255_2_778
10
20.1723569
20
105.2756211
11
18.7965569
21
105.2756211
0
LINE
8
DEFAULT_255_2_778
10
19.4569569
20
105.0605211
11
20.2165569
21
105.0605211
0
LINE
8
DEFAULT_255_2_778
10
18.8380569
20
105.6212211
11
19.6434569
21
105.6212211
0
LINE
8
DEFAULT_255_2_778
10
19.6434569
20
105.6212211
11
19.6558569
21
105.6669211
0
LINE
8
DEFAULT_255_2_778
10
11.4252281
20
106.2080177
11
12.8081281
21
105.3920177
0
LINE
8
DEFAULT_255_2_778
10
12.8081281
20
105.3920177
11
11.2770281
21
104.7986177
0
LINE
8
DEFAULT_255_2_778
10
11.2770281
20
104.7986177
11
11.5979281
21
105.5156177
0
LINE
8
DEFAULT_255_2_778
10
11.5979281
20
105.5156177
11
11.4252281
21
106.2080177
0
ARC
8
DEFAULT_255_2_778
10
7.8633492
20
105.9276349
40
1.734445
50
345.0500681
51
0.450213
0
ARC
8
DEFAULT_255_2_778
10
8.1424128
20
105.8634315
40
1.4482985
50
339.8011311
51
344.6559926
0
ARC
8
DEFAULT_255_2_778
10
8.2241959
20
105.8179595
40
1.3559213
50
318.9869254
51
340.4112117
0
ARC
8
DEFAULT_255_2_778
10
8.3403786
20
105.7300223
40
1.2105876
50
317.7755753
51
318.5188915
0
ARC
8
DEFAULT_255_2_778
10
8.3677776
20
105.7041224
40
1.1728926
50
293.4453171
51
317.8130059
0
ARC
8
DEFAULT_255_2_778
10
8.3381728
20
105.7823502
40
1.2564472
50
269.4376299
51
293.2645473
0
ARC
8
DEFAULT_255_2_778
10
8.6390116
20
105.9904305
40
1.0182316
50
68.112945
51
90.7974227
0
ARC
8
DEFAULT_255_2_778
10
8.6827218
20
106.1257759
40
0.8764035
50
66.6600337
51
67.4660887
0
ARC
8
DEFAULT_255_2_778
10
8.6950616
20
106.1375129
40
0.860764
50
41.8199578
51
67.1046866
0
ARC
8
DEFAULT_255_2_778
10
8.5939144
20
106.0612866
40
0.9870277
50
18.4442061
51
41.2024761
0
ARC
8
DEFAULT_255_2_778
10
8.2913394
20
105.9576986
40
1.3068358
50
359.9236227
51
18.5554774
0
ARC
8
DEFAULT_255_2_778
10
7.9767371
20
105.9412824
40
1.6215036
50
359.9993331
51
0.5185192
0
ARC
8
DEFAULT_255_2_778
10
8.1161265
20
105.9474191
40
1.1556879
50
359.3527282
51
15.3461488
0
ARC
8
DEFAULT_255_2_778
10
8.3555709
20
106.0025091
40
0.9102591
50
15.9909101
51
17.2384514
0
ARC
8
DEFAULT_255_2_778
10
8.5215656
20
106.0659942
40
0.7329962
50
16.3441173
51
39.0583428
0
ARC
8
DEFAULT_255_2_778
10
8.6385861
20
106.1515513
40
0.5882641
50
39.7694118
51
66.0014919
0
ARC
8
DEFAULT_255_2_778
10
8.6052911
20
106.0585083
40
0.6868457
50
66.6208799
51
90.9301944
0
ARC
8
DEFAULT_255_2_778
10
8.3674619
20
105.6535777
40
0.865983
50
269.2774049
51
294.6427005
0
ARC
8
DEFAULT_255_2_778
10
8.3809787
20
105.6055801
40
0.8167574
50
295.184769
51
321.1699914
0
ARC
8
DEFAULT_255_2_778
10
8.188821
20
105.7520326
40
1.0582969
50
321.5163412
51
341.7776814
0
ARC
8
DEFAULT_255_2_778
10
7.8940618
20
105.8675931
40
1.374523
50
341.044332
51
342.4824039
0
ARC
8
DEFAULT_255_2_778
10
7.7898077
20
105.8892334
40
1.4804949
50
342.8981919
51
356.6952858
0
ARC
8
DEFAULT_255_2_778
10
7.2862441
20
105.9329849
40
1.9857973
50
356.2725814
51
0.0484329
0
LINE
8
DEFAULT_255_2_778
10
8.3258407
20
104.5259635
11
7.2765407
21
104.5016635
0
LINE
8
DEFAULT_255_2_778
10
7.2765407
20
104.5016635
11
7.7858407
21
107.0085635
0
LINE
8
DEFAULT_255_2_778
10
7.7858407
20
107.0085635
11
8.6248407
21
107.0085635
0
LINE
8
DEFAULT_255_2_778
10
9.5982407
20
105.9412635
11
9.5977407
21
105.9412635
0
LINE
8
DEFAULT_255_2_778
10
8.5941407
20
106.7452635
11
7.9962407
21
106.7272635
0
LINE
8
DEFAULT_255_2_778
10
7.9962407
20
106.7272635
11
7.6363407
21
104.7490635
0
LINE
8
DEFAULT_255_2_778
10
7.6363407
20
104.7490635
11
8.3565407
21
104.7876635
0
LINE
8
DEFAULT_255_2_778
10
9.2720407
20
105.9346635
11
9.2717407
21
105.9343635
0
ARC
8
DEFAULT_255_2_778
10
10.302374
20
105.329919
40
0.5777251
50
269.3131992
51
298.9193317
0
ARC
8
DEFAULT_255_2_778
10
10.2422898
20
105.4345114
40
0.6983333
50
299.0845099
51
323.1838183
0
ARC
8
DEFAULT_255_2_778
10
10.0730419
20
105.5584915
40
0.9081244
50
323.3206017
51
342.9705556
0
ARC
8
DEFAULT_255_2_778
10
9.9076255
20
105.6159416
40
1.0831324
50
342.6274164
51
0.2324268
0
ARC
8
DEFAULT_255_2_778
10
10.2433391
20
105.6330185
40
0.7475175
50
359.0278167
51
16.1300251
0
ARC
8
DEFAULT_255_2_778
10
10.5672449
20
105.7261392
40
0.4104922
50
16.2042834
51
41.9480466
0
ARC
8
DEFAULT_255_2_778
10
10.5796118
20
105.7179262
40
0.4070383
50
43.9719544
51
85.3997935
0
ARC
8
DEFAULT_255_2_778
10
10.5322186
20
105.4422297
40
0.686108
50
83.300847
51
90.1477804
0
ARC
8
DEFAULT_255_2_778
10
10.5219616
20
105.5469474
40
0.58145
50
89.163628
51
118.6648078
0
ARC
8
DEFAULT_255_2_778
10
10.581079
20
105.4499564
40
0.6949321
50
119.1056578
51
143.2104754
0
ARC
8
DEFAULT_255_2_778
10
10.7542438
20
105.3229766
40
0.9096571
50
143.3373192
51
162.9538381
0
ARC
8
DEFAULT_255_2_778
10
10.9180519
20
105.2659321
40
1.0830106
50
162.6089297
51
180.2167337
0
ARC
8
DEFAULT_255_2_778
10
10.590132
20
105.2491465
40
0.7551896
50
179.037255
51
196.0102976
0
ARC
8
DEFAULT_255_2_778
10
10.2623689
20
105.1556213
40
0.4143448
50
196.0798237
51
221.5429745
0
ARC
8
DEFAULT_255_2_778
10
10.2435386
20
105.1572741
40
0.4015819
50
223.501568
51
264.945498
0
ARC
8
DEFAULT_255_2_778
10
10.2934062
20
105.437423
40
0.6854906
50
262.8561454
51
270.170743
0
ARC
8
DEFAULT_255_2_778
10
10.2496801
20
105.4951733
40
0.993603
50
251.4783364
51
270.6555979
0
ARC
8
DEFAULT_255_2_778
10
10.1671823
20
105.2494369
40
0.7343883
50
228.2272369
51
251.4910714
0
ARC
8
DEFAULT_255_2_778
10
10.1298392
20
105.1987077
40
0.671704
50
202.6960886
51
227.720176
0
ARC
8
DEFAULT_255_2_778
10
10.2495562
20
105.2440656
40
0.7996635
50
179.6456167
51
202.3846702
0
ARC
8
DEFAULT_255_2_778
10
10.5173927
20
105.2602351
40
1.0675438
50
179.9999853
51
180.6023814
0
ARC
8
DEFAULT_255_2_778
10
10.5536721
20
105.267223
40
1.1038452
50
157.230675
51
180.3627006
0
ARC
8
DEFAULT_255_2_778
10
10.5843324
20
105.2576196
40
1.135837
50
135.6908415
51
157.3825693
0
ARC
8
DEFAULT_255_2_778
10
10.5546282
20
105.284315
40
1.0959349
50
113.1058727
51
135.604761
0
ARC
8
DEFAULT_255_2_778
10
10.5551078
20
105.2885049
40
1.0922713
50
89.5047522
51
113.2152626
0
ARC
8
DEFAULT_255_2_778
10
10.5759287
20
105.3854295
40
0.9953709
50
71.5130801
51
90.6550541
0
ARC
8
DEFAULT_255_2_778
10
10.6573575
20
105.6312115
40
0.7364524
50
48.2602918
51
71.4580165
0
ARC
8
DEFAULT_255_2_778
10
10.6956984
20
105.6846961
40
0.6710546
50
22.5497085
51
47.6627683
0
ARC
8
DEFAULT_255_2_778
10
10.5670556
20
105.6353328
40
0.8088011
50
359.0650515
51
22.2845409
0
ARC
8
DEFAULT_255_2_778
10
10.2767028
20
105.6160709
40
1.0990629
50
337.1812514
51
0.316152
0
ARC
8
DEFAULT_255_2_778
10
10.2412655
20
105.6266512
40
1.135837
50
315.6908415
51
337.3825693
0
ARC
8
DEFAULT_255_2_778
10
10.2631229
20
105.6086107
40
1.1075969
50
293.2336194
51
315.5688359
0
ARC
8
DEFAULT_255_2_778
10
10.268874
20
105.5879991
40
1.0863919
50
269.5873092
51
293.383724
0
LINE
8
DEFAULT_255_2_778
10
10.295449
20
104.7519354
11
10.295449
21
104.7522354
0
LINE
8
DEFAULT_255_2_778
10
10.261049
20
104.5016354
11
10.261049
21
104.5016354
0
LINE
8
DEFAULT_255_1_388
10
10.2689024
20
101.8863
11
9.8126024
21
101.8863
0
LINE
8
DEFAULT_255_1_388
10
9.8126024
20
101.8863
11
9.8126024
21
103.2018898
0
LINE
8
DEFAULT_255_1_388
10
9.8126024
20
103.2018898
11
10.2426991
21
103.2018898
0
LINE
8
DEFAULT_255_1_388
10
10.2752274
20
102.5016274
11
9.9860868
21
102.5016274
0
LINE
8
DEFAULT_255_1_388
10
9.9860868
20
102.5016274
11
9.9860868
21
102.0281596
0
LINE
8
DEFAULT_255_1_388
10
9.9860868
20
102.0281596
11
10.2725167
21
102.0281596
0
LINE
8
DEFAULT_255_1_388
10
9.9860868
20
103.0591267
11
9.9860868
21
102.6407763
0
LINE
8
DEFAULT_255_1_388
10
9.9860868
20
102.6407763
11
10.2481205
21
102.6407763
0
LINE
8
DEFAULT_255_1_388
10
10.2426991
20
103.0591267
11
9.9860868
21
103.0591267
0
ARC
8
DEFAULT_255_1_388
10
10.2469411
20
102.3730824
40
0.8288183
50
82.1256322
51
90.2932506
0
ARC
8
DEFAULT_255_1_388
10
10.2906986
20
102.678859
40
0.5199321
50
69.9044202
51
82.2857574
0
ARC
8
DEFAULT_255_1_388
10
10.3548979
20
102.8523993
40
0.3348993
50
51.1840204
51
70.018125
0
ARC
8
DEFAULT_255_1_388
10
10.3835811
20
102.8940945
40
0.2844579
50
12.1018086
51
50.421322
0
ARC
8
DEFAULT_255_1_388
10
10.2278682
20
102.8549937
40
0.4449429
50
359.5252354
51
12.8212369
0
ARC
8
DEFAULT_255_1_388
10
10.4056112
20
102.8471943
40
0.2672162
50
323.4907456
51
0.8818258
0
ARC
8
DEFAULT_255_1_388
10
10.3585525
20
102.8835523
40
0.3266736
50
298.6824053
51
323.2758285
0
ARC
8
DEFAULT_255_1_388
10
10.3178816
20
102.9511509
40
0.4055105
50
293.1994739
51
299.139634
0
ARC
8
DEFAULT_255_1_388
10
10.3935766
20
102.2665651
40
0.3229926
50
54.0009997
51
74.9168635
0
ARC
8
DEFAULT_255_1_388
10
10.4066693
20
102.2887511
40
0.2973581
50
36.3578854
51
53.5293172
0
ARC
8
DEFAULT_255_1_388
10
10.3924061
20
102.278585
40
0.3148715
50
4.8189348
51
36.3090187
0
ARC
8
DEFAULT_255_1_388
10
10.3047085
20
102.2662383
40
0.4033265
50
359.9373213
51
5.5201284
0
ARC
8
DEFAULT_255_1_388
10
10.2682415
20
102.2616733
40
0.4398126
50
344.7479357
51
0.5372278
0
ARC
8
DEFAULT_255_1_388
10
10.3797314
20
102.2316205
40
0.3243441
50
311.1785587
51
344.6887681
0
ARC
8
DEFAULT_255_1_388
10
10.3468857
20
102.2725084
40
0.3767511
50
286.0417804
51
310.8440924
0
ARC
8
DEFAULT_255_1_388
10
10.2898266
20
102.4577885
40
0.5705957
50
274.1044074
51
286.4070149
0
ARC
8
DEFAULT_255_1_388
10
10.2699482
20
102.6695901
40
0.7832907
50
269.9235077
51
274.4458593
0
ARC
8
DEFAULT_255_1_388
10
10.27512
20
102.4064462
40
0.3782955
50
269.6057074
51
281.3740795
0
ARC
8
DEFAULT_255_1_388
10
10.3010698
20
102.2834569
40
0.2526069
50
281.105298
51
302.5134029
0
ARC
8
DEFAULT_255_1_388
10
10.3176086
20
102.2537944
40
0.2187131
50
303.0365425
51
311.8818034
0
ARC
8
DEFAULT_255_1_388
10
10.3256263
20
102.2442602
40
0.2062624
50
311.9916937
51
351.7143773
0
ARC
8
DEFAULT_255_1_388
10
10.2337288
20
102.2628271
40
0.2999202
50
350.7343295
51
0.2221526
0
ARC
8
DEFAULT_255_1_388
10
10.2216376
20
102.269187
40
0.3120525
50
359.045729
51
17.2295312
0
ARC
8
DEFAULT_255_1_388
10
10.3385406
20
102.3039155
40
0.1901144
50
17.6685208
51
78.9940245
0
ARC
8
DEFAULT_255_1_388
10
10.2803767
20
102.0951011
40
0.4065575
50
76.565218
51
90.7103392
0
LINE
8
DEFAULT_255_1_388
10
10.2753364
20
102.5016274
11
10.2752274
21
102.5016274
0
ARC
8
DEFAULT_255_1_388
10
10.2506593
20
103.0103949
40
0.3696273
50
269.6064514
51
281.4533785
0
ARC
8
DEFAULT_255_1_388
10
10.2757234
20
102.8921283
40
0.2487412
50
281.2044438
51
302.5143998
0
ARC
8
DEFAULT_255_1_388
10
10.2911488
20
102.8643576
40
0.2170405
50
303.0211308
51
309.8378766
0
ARC
8
DEFAULT_255_1_388
10
10.3117605
20
102.8412486
40
0.1860946
50
309.5229446
51
356.9509628
0
ARC
8
DEFAULT_255_1_388
10
10.2371731
20
102.8519831
40
0.2612347
50
355.4699226
51
0.0498632
0
ARC
8
DEFAULT_255_1_388
10
10.2057404
20
102.8544789
40
0.2926762
50
359.5558955
51
11.2092924
0
ARC
8
DEFAULT_255_1_388
10
10.3134372
20
102.8767667
40
0.1827036
50
10.9185717
51
31.322519
0
ARC
8
DEFAULT_255_1_388
10
10.345592
20
102.8946571
40
0.1459418
50
31.8850633
51
52.1415586
0
ARC
8
DEFAULT_255_1_388
10
10.3147349
20
102.8510674
40
0.1993088
50
52.8283418
51
71.9850132
0
ARC
8
DEFAULT_255_1_388
10
10.272451
20
102.7266158
40
0.3307407
50
71.686634
51
82.8453416
0
ARC
8
DEFAULT_255_1_388
10
10.2455157
20
102.5230892
40
0.536039
50
82.6981895
51
90.1730083
0
ARC
8
DEFAULT_255_1_388
10
10.2429989
20
102.6109836
40
0.4481429
50
89.8851568
51
90.0383283
0
LINE
8
DEFAULT_255_1_388
10
11.7326769
20
101.8863
11
11.4471505
21
102.4184995
0
LINE
8
DEFAULT_255_1_388
10
11.4471505
20
102.4184995
11
11.1381314
21
102.4184995
0
LINE
8
DEFAULT_255_1_388
10
11.1381314
20
102.4184995
11
11.1381314
21
101.8863
0
LINE
8
DEFAULT_255_1_388
10
11.1381314
20
101.8863
11
10.9637435
21
101.8863
0
LINE
8
DEFAULT_255_1_388
10
10.9637435
20
101.8863
11
10.9637435
21
103.2018898
0
LINE
8
DEFAULT_255_1_388
10
10.9637435
20
103.2018898
11
11.3992616
21
103.2018898
0
LINE
8
DEFAULT_255_1_388
10
11.6097921
20
102.4555456
11
11.9188111
21
101.8971428
0
LINE
8
DEFAULT_255_1_388
10
11.9188111
20
101.8971428
11
11.9188111
21
101.8863
0
LINE
8
DEFAULT_255_1_388
10
11.9188111
20
101.8863
11
11.7326769
21
101.8863
0
LINE
8
DEFAULT_255_1_388
10
11.1381314
20
103.0591267
11
11.1381314
21
102.5603591
0
LINE
8
DEFAULT_255_1_388
10
11.1381314
20
102.5603591
11
11.404683
21
102.5603591
0
LINE
8
DEFAULT_255_1_388
10
11.4037794
20
103.0591267
11
11.1381314
21
103.0591267
0
ARC
8
DEFAULT_255_1_388
10
11.4039461
20
102.4187346
40
0.7831693
50
80.6535681
51
90.3427203
0
ARC
8
DEFAULT_255_1_388
10
11.4511372
20
102.6957722
40
0.5021479
50
65.6987674
51
80.8330164
0
ARC
8
DEFAULT_255_1_388
10
11.5048666
20
102.8189479
40
0.3677787
50
50.0019152
51
65.4304412
0
ARC
8
DEFAULT_255_1_388
10
11.5294482
20
102.8521603
40
0.3265454
50
11.6284215
51
49.5603681
0
ARC
8
DEFAULT_255_1_388
10
11.3566968
20
102.8099524
40
0.5043009
50
359.5655533
51
12.3693319
0
ARC
8
DEFAULT_255_1_388
10
11.4778304
20
102.8029038
40
0.3831661
50
341.998418
51
0.4822212
0
ARC
8
DEFAULT_255_1_388
10
11.5222491
20
102.7908479
40
0.3372036
50
323.8610842
51
341.6141514
0
ARC
8
DEFAULT_255_1_388
10
11.4883037
20
102.8170615
40
0.3800784
50
296.7019299
51
323.6876213
0
ARC
8
DEFAULT_255_1_388
10
11.4386995
20
102.9057532
40
0.4816219
50
290.808313
51
297.2325929
0
ARC
8
DEFAULT_255_1_388
10
11.4075789
20
102.9646377
40
0.404289
50
269.5895908
51
281.8058892
0
ARC
8
DEFAULT_255_1_388
10
11.4358055
20
102.835536
40
0.2721459
50
281.5499321
51
303.9358954
0
ARC
8
DEFAULT_255_1_388
10
11.4512589
20
102.8087588
40
0.2413121
50
304.4410786
51
311.211123
0
ARC
8
DEFAULT_255_1_388
10
11.4660995
20
102.7931152
40
0.2197678
50
310.9874923
51
356.2715203
0
ARC
8
DEFAULT_255_1_388
10
11.3810741
20
102.8057992
40
0.3055212
50
354.9346315
51
0.0617816
0
ARC
8
DEFAULT_255_1_388
10
11.3599582
20
102.8088427
40
0.3266482
50
359.5239293
51
12.8808621
0
ARC
8
DEFAULT_255_1_388
10
11.4699344
20
102.8357638
40
0.2134449
50
12.417206
51
43.1023141
0
ARC
8
DEFAULT_255_1_388
10
11.4768675
20
102.8399253
40
0.2055463
50
43.575886
51
48.2047245
0
ARC
8
DEFAULT_255_1_388
10
11.4577936
20
102.8150151
40
0.2368418
50
48.7809155
51
72.6968768
0
ARC
8
DEFAULT_255_1_388
10
11.4179299
20
102.6940385
40
0.364206
50
72.3699892
51
84.8793749
0
ARC
8
DEFAULT_255_1_388
10
11.4013305
20
102.5430651
40
0.5160674
50
84.5398226
51
89.7281165
0
LINE
8
DEFAULT_255_1_388
10
12.2160838
20
103.2018898
11
12.533235
21
102.6977009
0
LINE
8
DEFAULT_255_1_388
10
12.533235
20
102.6977009
11
12.848579
21
103.2018898
0
LINE
8
DEFAULT_255_1_388
10
12.848579
20
103.2018898
11
13.0527845
21
103.2018898
0
LINE
8
DEFAULT_255_1_388
10
13.0527845
20
103.2018898
11
12.6371449
21
102.5495163
0
LINE
8
DEFAULT_255_1_388
10
12.6371449
20
102.5495163
11
13.0627237
21
101.8863
0
LINE
8
DEFAULT_255_1_388
10
13.0627237
20
101.8863
11
12.856711
21
101.8863
0
LINE
8
DEFAULT_255_1_388
10
12.856711
20
101.8863
11
12.533235
21
102.3995246
0
LINE
8
DEFAULT_255_1_388
10
12.533235
20
102.3995246
11
12.2079518
21
101.8863
0
LINE
8
DEFAULT_255_1_388
10
12.2079518
20
101.8863
11
12.0028426
21
101.8863
0
LINE
8
DEFAULT_255_1_388
10
12.0028426
20
101.8863
11
12.429325
21
102.5495163
0
LINE
8
DEFAULT_255_1_388
10
12.429325
20
102.5495163
11
12.0127818
21
103.2018898
0
LINE
8
DEFAULT_255_1_388
10
12.0127818
20
103.2018898
11
12.2160838
21
103.2018898
0
LINE
8
DEFAULT_255_1_388
10
14.595169
20
102.8214892
11
14.4207811
21
102.8214892
0
LINE
8
DEFAULT_255_1_388
10
13.6419085
20
102.2676042
11
13.8162965
21
102.2676042
0
ARC
8
DEFAULT_255_1_388
10
14.4948538
20
103.8278821
40
1.4087688
50
248.9196578
51
254.1442424
0
ARC
8
DEFAULT_255_1_388
10
14.3058418
20
103.3412805
40
0.8867498
50
241.6337352
51
249.0064643
0
ARC
8
DEFAULT_255_1_388
10
14.1338731
20
103.0261764
40
0.5277799
50
230.4982261
51
241.8087583
0
ARC
8
DEFAULT_255_1_388
10
14.0456503
20
102.9137686
40
0.3849419
50
227.4062979
51
229.9877433
0
ARC
8
DEFAULT_255_1_388
10
13.9907849
20
102.8602155
40
0.3084129
50
200.6782127
51
228.1765252
0
ARC
8
DEFAULT_255_1_388
10
13.9989218
20
102.8585277
40
0.315461
50
179.506278
51
199.8695278
0
ARC
8
DEFAULT_255_1_388
10
13.9978807
20
102.8668671
40
0.3144584
50
132.4834401
51
181.0242352
0
ARC
8
DEFAULT_255_1_388
10
14.0648011
20
102.8036788
40
0.4063094
50
129.2526113
51
133.4249077
0
ARC
8
DEFAULT_255_1_388
10
14.0813604
20
102.7788619
40
0.436014
50
101.9878945
51
128.8741833
0
ARC
8
DEFAULT_255_1_388
10
14.1262019
20
102.585236
40
0.6347415
50
89.5906376
51
102.3170567
0
ARC
8
DEFAULT_255_1_388
10
14.134133
20
102.6210586
40
0.5989122
50
77.2359491
51
90.3248968
0
ARC
8
DEFAULT_255_1_388
10
14.1574261
20
102.7298554
40
0.4876594
50
63.8379856
51
77.0808925
0
ARC
8
DEFAULT_255_1_388
10
14.1886795
20
102.7880882
40
0.4216191
50
45.9863127
51
64.1608798
0
ARC
8
DEFAULT_255_1_388
10
14.2180189
20
102.821599
40
0.3771394
50
32.2747934
51
45.6544796
0
ARC
8
DEFAULT_255_1_388
10
14.2254995
20
102.8237426
40
0.3696765
50
359.6507495
51
32.6129943
0
ARC
8
DEFAULT_255_1_388
10
14.1194178
20
102.8242788
40
0.3013762
50
359.469654
51
14.983205
0
ARC
8
DEFAULT_255_1_388
10
14.198743
20
102.8455288
40
0.2192542
50
14.9781954
51
48.2004799
0
ARC
8
DEFAULT_255_1_388
10
14.1802541
20
102.8222937
40
0.2489048
50
48.5926661
51
74.1242559
0
ARC
8
DEFAULT_255_1_388
10
14.1427343
20
102.6984607
40
0.3782845
50
73.7889321
51
86.6653996
0
ARC
8
DEFAULT_255_1_388
10
14.1312158
20
102.5626955
40
0.5145025
50
86.2642725
51
90.0533288
0
ARC
8
DEFAULT_255_1_388
10
14.1280251
20
102.6071376
40
0.4700681
50
89.669455
51
99.2313411
0
ARC
8
DEFAULT_255_1_388
10
14.100741
20
102.7696401
40
0.3052945
50
99.0695987
51
113.7659242
0
ARC
8
DEFAULT_255_1_388
10
14.0699405
20
102.8422772
40
0.226407
50
114.0402885
51
127.9848946
0
ARC
8
DEFAULT_255_1_388
10
14.0428881
20
102.8755884
40
0.1835045
50
127.7287217
51
176.7106493
0
ARC
8
DEFAULT_255_1_388
10
14.1192546
20
102.864221
40
0.2604907
50
175.1780759
51
180.0581213
0
ARC
8
DEFAULT_255_1_388
10
14.024389
20
102.8628411
40
0.1656287
50
179.6140658
51
228.124674
0
ARC
8
DEFAULT_255_1_388
10
14.0741247
20
102.908894
40
0.2332038
50
226.5785315
51
230.8792476
0
ARC
8
DEFAULT_255_1_388
10
14.1270734
20
102.9791908
40
0.3211664
50
231.4636401
51
241.9261664
0
ARC
8
DEFAULT_255_1_388
10
14.2617517
20
103.2270349
40
0.6032345
50
241.7177136
51
248.3259138
0
ARC
8
DEFAULT_255_1_388
10
14.4176112
20
103.6131771
40
1.0196417
50
248.2007377
51
252.4527713
0
ARC
8
DEFAULT_255_1_388
10
14.5529638
20
104.0316092
40
1.4594143
50
252.3388938
51
254.347037
0
ARC
8
DEFAULT_255_1_388
10
13.7044939
20
100.9968095
40
1.6917621
50
71.0197462
51
74.4085467
0
ARC
8
DEFAULT_255_1_388
10
13.8952027
20
101.5473144
40
1.1091618
50
66.1845203
51
71.086519
0
ARC
8
DEFAULT_255_1_388
10
14.0702576
20
101.9414439
40
0.6779073
50
59.3537334
51
66.269255
0
ARC
8
DEFAULT_255_1_388
10
14.1702302
20
102.1105777
40
0.4814366
50
49.1021732
51
59.3294421
0
ARC
8
DEFAULT_255_1_388
10
14.262329
20
102.2155575
40
0.3417875
50
32.7924183
51
49.2503526
0
ARC
8
DEFAULT_255_1_388
10
14.2972904
20
102.2405311
40
0.2988789
50
31.121225
51
32.3977355
0
ARC
8
DEFAULT_255_1_388
10
14.2885082
20
102.2372728
40
0.3080861
50
8.1116803
51
30.7958224
0
ARC
8
DEFAULT_255_1_388
10
14.1973428
20
102.2217437
40
0.4005385
50
359.8390945
51
8.4707348
0
ARC
8
DEFAULT_255_1_388
10
14.2677475
20
102.2162751
40
0.3301608
50
337.4732479
51
0.7538283
0
ARC
8
DEFAULT_255_1_388
10
14.2878501
20
102.2140554
40
0.3107929
50
307.5917028
51
336.4313755
0
ARC
8
DEFAULT_255_1_388
10
14.2367558
20
102.2708509
40
0.3870096
50
307.6560665
51
308.4561779
0
ARC
8
DEFAULT_255_1_388
10
14.2101775
20
102.3116832
40
0.435591
50
284.3733666
51
307.1426212
0
ARC
8
DEFAULT_255_1_388
10
14.1544669
20
102.5166391
40
0.6479685
50
272.4384566
51
284.6464689
0
ARC
8
DEFAULT_255_1_388
10
14.1402054
20
102.7190434
40
0.8508149
50
269.9708517
51
272.8180721
0
ARC
8
DEFAULT_255_1_388
10
14.1353737
20
102.4898283
40
0.6216151
50
248.2707343
51
270.4054609
0
ARC
8
DEFAULT_255_1_388
10
14.1292608
20
102.4683673
40
0.5994203
50
246.1380358
51
248.054058
0
ARC
8
DEFAULT_255_1_388
10
14.0821751
20
102.3694705
40
0.4899388
50
233.1671897
51
246.4951656
0
ARC
8
DEFAULT_255_1_388
10
14.0198386
20
102.2853137
40
0.3852115
50
215.3403381
51
233.084328
0
ARC
8
DEFAULT_255_1_388
10
13.989175
20
102.2630093
40
0.3472969
50
179.2419235
51
215.2648426
0
ARC
8
DEFAULT_255_1_388
10
14.0755301
20
102.2645979
40
0.259251
50
179.3355796
51
199.1045873
0
ARC
8
DEFAULT_255_1_388
10
14.0381443
20
102.2548223
40
0.2207454
50
199.8830064
51
232.7061328
0
ARC
8
DEFAULT_255_1_388
10
14.0912717
20
102.3216456
40
0.306101
50
232.3736206
51
255.5136621
0
ARC
8
DEFAULT_255_1_388
10
14.1296223
20
102.4616177
40
0.4512213
50
255.2447928
51
267.5318292
0
ARC
8
DEFAULT_255_1_388
10
14.139469
20
102.6002709
40
0.5901825
50
267.1564563
51
270.0294721
0
ARC
8
DEFAULT_255_1_388
10
14.1426015
20
102.5503623
40
0.5402814
50
269.6999944
51
278.1662446
0
ARC
8
DEFAULT_255_1_388
10
14.1714043
20
102.3556974
40
0.3435003
50
278.0229022
51
290.6255326
0
ARC
8
DEFAULT_255_1_388
10
14.2105209
20
102.2513547
40
0.2320666
50
290.6616368
51
307.0374127
0
ARC
8
DEFAULT_255_1_388
10
14.2443109
20
102.209904
40
0.1786372
50
306.3942078
51
355.303191
0
ARC
8
DEFAULT_255_1_388
10
14.1867402
20
102.2185186
40
0.2367516
50
354.3662092
51
0.0709489
0
ARC
8
DEFAULT_255_1_388
10
14.2027271
20
102.2210561
40
0.2207761
50
359.4175379
51
16.1975911
0
ARC
8
DEFAULT_255_1_388
10
14.2539389
20
102.2350954
40
0.1676828
50
16.4721294
51
52.6261798
0
ARC
8
DEFAULT_255_1_388
10
14.1615896
20
102.1131606
40
0.3206412
50
52.7381828
51
62.4979144
0
ARC
8
DEFAULT_255_1_388
10
14.0057649
20
101.8199236
40
0.6527035
50
62.2517425
51
68.1219454
0
ARC
8
DEFAULT_255_1_388
10
13.8123137
20
101.3444951
40
1.1659797
50
68.006043
51
71.8055127
0
ARC
8
DEFAULT_255_1_388
10
13.6103045
20
100.7386723
40
1.8045908
50
71.718361
51
73.9260743
0
LINE
8
DEFAULT_255_1_388
10
14.7514857
20
102.3480214
11
14.7514857
21
102.3787426
0
LINE
8
DEFAULT_255_1_388
10
15.5809579
20
102.3968139
11
15.5809579
21
102.3272395
0
LINE
8
DEFAULT_255_1_388
10
15.5809579
20
102.3272395
11
14.9186451
21
102.3272395
0
LINE
8
DEFAULT_255_1_388
10
15.4662052
20
102.1365874
11
15.568308
21
102.0570737
0
LINE
8
DEFAULT_255_1_388
10
14.9240665
20
102.4645813
11
15.4137984
21
102.4645813
0
LINE
8
DEFAULT_255_1_388
10
15.4137984
20
102.4645813
11
15.4137984
21
102.4772312
0
ARC
8
DEFAULT_255_1_388
10
15.1946618
20
102.360521
40
0.4923176
50
252.326534
51
270.5809615
0
ARC
8
DEFAULT_255_1_388
10
15.1716082
20
102.277194
40
0.4059384
50
223.3000488
51
251.8562489
0
ARC
8
DEFAULT_255_1_388
10
15.1953862
20
102.3002898
40
0.4390832
50
190.9374369
51
223.3654369
0
ARC
8
DEFAULT_255_1_388
10
15.389454
20
102.3441598
40
0.63798
50
179.6531919
51
191.4988561
0
ARC
8
DEFAULT_255_1_388
10
15.4031567
20
102.3823571
40
0.6516811
50
167.4005523
51
180.3177836
0
ARC
8
DEFAULT_255_1_388
10
15.2848239
20
102.4073853
40
0.5307402
50
154.1835149
51
167.2508278
0
ARC
8
DEFAULT_255_1_388
10
15.213783
20
102.4447925
40
0.4505076
50
134.3150225
51
154.5315008
0
ARC
8
DEFAULT_255_1_388
10
15.1893165
20
102.466255
40
0.4180662
50
122.8617482
51
133.9707159
0
ARC
8
DEFAULT_255_1_388
10
15.1776772
20
102.4912882
40
0.3907416
50
89.8248474
51
123.4199325
0
ARC
8
DEFAULT_255_1_388
10
15.183307
20
102.4185352
40
0.4635141
50
74.7874349
51
90.5482648
0
ARC
8
DEFAULT_255_1_388
10
15.2163534
20
102.5405987
40
0.3370565
50
39.8178888
51
74.7634383
0
ARC
8
DEFAULT_255_1_388
10
15.1586776
20
102.4956356
40
0.4101553
50
16.8990848
51
39.4830125
0
ARC
8
DEFAULT_255_1_388
10
14.945539
20
102.4273711
40
0.6339427
50
4.9634768
51
17.2027767
0
ARC
8
DEFAULT_255_1_388
10
14.6734795
20
102.39866
40
0.9074803
50
359.8834402
51
5.2832409
0
ARC
8
DEFAULT_255_1_388
10
15.3527153
20
102.3346981
40
0.4341343
50
180.9844233
51
194.9402766
0
ARC
8
DEFAULT_255_1_388
10
15.2346319
20
102.302417
40
0.3117211
50
194.8030557
51
222.0412897
0
ARC
8
DEFAULT_255_1_388
10
15.2004191
20
102.2684715
40
0.2635903
50
221.541578
51
268.8616004
0
ARC
8
DEFAULT_255_1_388
10
15.2086311
20
102.344528
40
0.3398611
50
267.7321071
51
270.009808
0
ARC
8
DEFAULT_255_1_388
10
15.2106375
20
102.3672178
40
0.3625561
50
269.6921218
51
280.4122297
0
ARC
8
DEFAULT_255_1_388
10
15.2304786
20
102.2638767
40
0.2573323
50
280.2257165
51
298.633539
0
ARC
8
DEFAULT_255_1_388
10
15.24302
20
102.2374578
40
0.2281403
50
299.0485543
51
300.4624141
0
ARC
8
DEFAULT_255_1_388
10
15.167118
20
102.3639796
40
0.3756797
50
300.6578578
51
322.037749
0
ARC
8
DEFAULT_255_1_388
10
15.1300702
20
102.3963266
40
0.4247956
50
321.671786
51
322.3059078
0
ARC
8
DEFAULT_255_1_388
10
15.2324265
20
102.2669267
40
0.3960488
50
276.9729088
51
328.0035579
0
ARC
8
DEFAULT_255_1_388
10
15.2012735
20
102.4334609
40
0.5652345
50
269.8358003
51
278.0581296
0
ARC
8
DEFAULT_255_1_388
10
15.1757034
20
102.517282
40
0.2274263
50
89.2017936
51
117.2852353
0
ARC
8
DEFAULT_255_1_388
10
15.1816785
20
102.5125637
40
0.2343798
50
118.0546404
51
137.4544511
0
ARC
8
DEFAULT_255_1_388
10
15.2238429
20
102.4742556
40
0.2913471
50
137.5109688
51
158.8516701
0
ARC
8
DEFAULT_255_1_388
10
15.3518529
20
102.4225902
40
0.4293804
50
158.5845496
51
170.1719753
0
ARC
8
DEFAULT_255_1_388
10
15.4834865
20
102.3964519
40
0.5635533
50
169.8378964
51
173.0563877
0
ARC
8
DEFAULT_255_1_388
10
14.9550149
20
102.4539187
40
0.4593755
50
2.9089079
51
12.88469
0
ARC
8
DEFAULT_255_1_388
10
15.1092068
20
102.4902082
40
0.3009753
50
12.6957404
51
28.6405841
0
ARC
8
DEFAULT_255_1_388
10
15.1701565
20
102.5217577
40
0.232366
50
29.016559
51
41.1492981
0
ARC
8
DEFAULT_255_1_388
10
15.1929544
20
102.541608
40
0.2021373
50
41.1646967
51
85.001362
0
ARC
8
DEFAULT_255_1_388
10
15.1793548
20
102.4589775
40
0.2857091
50
83.728216
51
90.0968824
0
LINE
8
DEFAULT_255_1_388
10
16.2468849
20
102.8693781
11
16.2468849
21
102.713965
0
LINE
8
DEFAULT_255_1_388
10
15.9414801
20
102.5802375
11
15.9414801
21
101.8863
0
LINE
8
DEFAULT_255_1_388
10
15.9414801
20
101.8863
11
15.7743207
21
101.8863
0
LINE
8
DEFAULT_255_1_388
10
15.7743207
20
101.8863
11
15.7743207
21
102.8639567
0
LINE
8
DEFAULT_255_1_388
10
15.7743207
20
102.8639567
11
15.9369623
21
102.8639567
0
LINE
8
DEFAULT_255_1_388
10
15.9369623
20
102.8639567
11
15.9396729
21
102.7510112
0
ARC
8
DEFAULT_255_1_388
10
16.1719008
20
102.2573068
40
0.4627735
50
80.6751522
51
86.893806
0
ARC
8
DEFAULT_255_1_388
10
16.1650838
20
102.1481103
40
0.5721798
50
86.8046851
51
90.0423898
0
ARC
8
DEFAULT_255_1_388
10
16.1609258
20
102.4248197
40
0.2954939
50
89.2758283
51
106.6212906
0
ARC
8
DEFAULT_255_1_388
10
16.1379282
20
102.5084009
40
0.2088351
50
107.1347109
51
157.6456887
0
ARC
8
DEFAULT_255_1_388
10
16.2147345
20
102.4656908
40
0.296292
50
155.6557383
51
157.256838
0
ARC
8
DEFAULT_255_1_388
10
16.1926959
20
102.5967472
40
0.296341
50
127.8167201
51
148.6300223
0
ARC
8
DEFAULT_255_1_388
10
16.1641706
20
102.6260066
40
0.2557782
50
91.3329934
51
126.7875218
0
ARC
8
DEFAULT_255_1_388
10
16.1727094
20
102.5456718
40
0.3363561
50
89.9858247
51
92.4688453
0
ARC
8
DEFAULT_255_1_388
10
16.1736587
20
102.5765114
40
0.3055179
50
85.3587643
51
90.1624243
0
ARC
8
DEFAULT_255_1_388
10
16.1831652
20
102.6894458
40
0.1921848
50
78.4019195
51
85.4592653
0
ARC
8
DEFAULT_255_1_388
10
16.1994712
20
102.7672142
40
0.1127267
50
67.7849217
51
78.573798
0
ARC
8
DEFAULT_255_1_388
10
16.2116347
20
102.7987374
40
0.0789473
50
63.4805074
51
67.3074739
0
LINE
8
DEFAULT_255_1_388
10
16.5821073
20
102.8639567
11
16.5821073
21
101.8863
0
LINE
8
DEFAULT_255_1_388
10
16.5821073
20
101.8863
11
16.4149479
21
101.8863
0
LINE
8
DEFAULT_255_1_388
10
16.4149479
20
101.8863
11
16.4149479
21
102.8639567
0
LINE
8
DEFAULT_255_1_388
10
16.4149479
20
102.8639567
11
16.5821073
21
102.8639567
0
ARC
8
DEFAULT_255_1_388
10
16.5114841
20
103.1243428
40
0.1100948
50
161.4148232
51
180.5532607
0
ARC
8
DEFAULT_255_1_388
10
16.4975151
20
103.1281875
40
0.0956324
50
138.1830164
51
160.9307633
0
ARC
8
DEFAULT_255_1_388
10
16.4851338
20
103.1389313
40
0.0792417
50
104.6371663
51
138.0036136
0
ARC
8
DEFAULT_255_1_388
10
16.4971877
20
103.0976963
40
0.1221906
50
92.0601206
51
105.2198859
0
ARC
8
DEFAULT_255_1_388
10
16.4998241
20
103.0588583
40
0.161103
50
89.9790681
51
92.5006086
0
ARC
8
DEFAULT_255_1_388
10
16.5009417
20
103.0844998
40
0.1354654
50
78.0234649
51
90.4478111
0
ARC
8
DEFAULT_255_1_388
10
16.5113001
20
103.1310203
40
0.0878096
50
55.0521508
51
78.336297
0
ARC
8
DEFAULT_255_1_388
10
16.5169535
20
103.1405168
40
0.0767913
50
42.0506198
51
54.4508489
0
ARC
8
DEFAULT_255_1_388
10
16.5017568
20
103.1265821
40
0.0974091
50
1.7493657
51
42.1498724
0
ARC
8
DEFAULT_255_1_388
10
16.4731474
20
103.1233166
40
0.1261276
50
359.9832635
51
2.8353994
0
ARC
8
DEFAULT_255_1_388
10
16.4917884
20
103.1222412
40
0.1074916
50
342.1062453
51
0.5535864
0
ARC
8
DEFAULT_255_1_388
10
16.5078308
20
103.1178197
40
0.0908695
50
316.7110111
51
341.6513114
0
ARC
8
DEFAULT_255_1_388
10
16.515374
20
103.1110607
40
0.0807447
50
285.4398289
51
316.5320129
0
ARC
8
DEFAULT_255_1_388
10
16.5029911
20
103.1522023
40
0.1237022
50
272.3543902
51
285.8951677
0
ARC
8
DEFAULT_255_1_388
10
16.4999621
20
103.1937742
40
0.1653687
50
269.9725761
51
272.8112722
0
ARC
8
DEFAULT_255_1_388
10
16.4988673
20
103.1686727
40
0.1402709
50
258.8433431
51
270.4148607
0
ARC
8
DEFAULT_255_1_388
10
16.4887453
20
103.1196739
40
0.0902407
50
238.54281
51
259.1289544
0
ARC
8
DEFAULT_255_1_388
10
16.4810774
20
103.1057694
40
0.0743817
50
222.5056676
51
237.9918132
0
ARC
8
DEFAULT_255_1_388
10
16.4954368
20
103.1188295
40
0.0937918
50
184.1070774
51
222.4604165
0
ARC
8
DEFAULT_255_1_388
10
16.5256781
20
103.1231538
40
0.1242838
50
179.9419581
51
185.0970785
0
LINE
8
DEFAULT_255_1_388
10
16.8070948
20
102.3480214
11
16.8070948
21
102.3787426
0
LINE
8
DEFAULT_255_1_388
10
17.636567
20
102.3968139
11
17.636567
21
102.3272395
0
LINE
8
DEFAULT_255_1_388
10
17.636567
20
102.3272395
11
16.9742542
21
102.3272395
0
LINE
8
DEFAULT_255_1_388
10
17.5218143
20
102.1365874
11
17.6239171
21
102.0570737
0
LINE
8
DEFAULT_255_1_388
10
16.9796756
20
102.4645813
11
17.4694076
21
102.4645813
0
LINE
8
DEFAULT_255_1_388
10
17.4694076
20
102.4645813
11
17.4694076
21
102.4772312
0
ARC
8
DEFAULT_255_1_388
10
17.2502709
20
102.360521
40
0.4923176
50
252.326534
51
270.5809615
0
ARC
8
DEFAULT_255_1_388
10
17.2272174
20
102.277194
40
0.4059384
50
223.3000488
51
251.8562489
0
ARC
8
DEFAULT_255_1_388
10
17.2509954
20
102.3002898
40
0.4390832
50
190.9374369
51
223.3654369
0
ARC
8
DEFAULT_255_1_388
10
17.4450632
20
102.3441598
40
0.63798
50
179.6531919
51
191.4988561
0
ARC
8
DEFAULT_255_1_388
10
17.4587659
20
102.3823571
40
0.6516811
50
167.4005523
51
180.3177836
0
ARC
8
DEFAULT_255_1_388
10
17.340433
20
102.4073853
40
0.5307402
50
154.1835149
51
167.2508278
0
ARC
8
DEFAULT_255_1_388
10
17.2693921
20
102.4447925
40
0.4505076
50
134.3150225
51
154.5315008
0
ARC
8
DEFAULT_255_1_388
10
17.2449256
20
102.466255
40
0.4180662
50
122.8617482
51
133.9707159
0
ARC
8
DEFAULT_255_1_388
10
17.2332863
20
102.4912882
40
0.3907416
50
89.8248474
51
123.4199325
0
ARC
8
DEFAULT_255_1_388
10
17.2389161
20
102.4185352
40
0.4635141
50
74.7874349
51
90.5482648
0
ARC
8
DEFAULT_255_1_388
10
17.2719625
20
102.5405987
40
0.3370565
50
39.8178888
51
74.7634383
0
ARC
8
DEFAULT_255_1_388
10
17.2142867
20
102.4956356
40
0.4101553
50
16.8990848
51
39.4830125
0
ARC
8
DEFAULT_255_1_388
10
17.0011481
20
102.4273711
40
0.6339427
50
4.9634768
51
17.2027767
0
ARC
8
DEFAULT_255_1_388
10
16.7290886
20
102.39866
40
0.9074803
50
359.8834402
51
5.2832409
0
ARC
8
DEFAULT_255_1_388
10
17.4083244
20
102.3346981
40
0.4341343
50
180.9844233
51
194.9402766
0
ARC
8
DEFAULT_255_1_388
10
17.290241
20
102.302417
40
0.3117211
50
194.8030557
51
222.0412897
0
ARC
8
DEFAULT_255_1_388
10
17.2560282
20
102.2684715
40
0.2635903
50
221.541578
51
268.8616004
0
ARC
8
DEFAULT_255_1_388
10
17.2642403
20
102.344528
40
0.3398611
50
267.7321071
51
270.009808
0
ARC
8
DEFAULT_255_1_388
10
17.2662466
20
102.3672178
40
0.3625561
50
269.6921218
51
280.4122297
0
ARC
8
DEFAULT_255_1_388
10
17.2860878
20
102.2638767
40
0.2573323
50
280.2257165
51
298.633539
0
ARC
8
DEFAULT_255_1_388
10
17.2986291
20
102.2374578
40
0.2281403
50
299.0485543
51
300.4624141
0
ARC
8
DEFAULT_255_1_388
10
17.2227272
20
102.3639796
40
0.3756797
50
300.6578578
51
322.037749
0
ARC
8
DEFAULT_255_1_388
10
17.1856793
20
102.3963266
40
0.4247956
50
321.671786
51
322.3059078
0
ARC
8
DEFAULT_255_1_388
10
17.2880356
20
102.2669267
40
0.3960488
50
276.9729088
51
328.0035579
0
ARC
8
DEFAULT_255_1_388
10
17.2568827
20
102.4334609
40
0.5652345
50
269.8358003
51
278.0581296
0
ARC
8
DEFAULT_255_1_388
10
17.2313126
20
102.517282
40
0.2274263
50
89.2017936
51
117.2852353
0
ARC
8
DEFAULT_255_1_388
10
17.2372876
20
102.5125637
40
0.2343798
50
118.0546404
51
137.4544511
0
ARC
8
DEFAULT_255_1_388
10
17.279452
20
102.4742556
40
0.2913471
50
137.5109688
51
158.8516701
0
ARC
8
DEFAULT_255_1_388
10
17.407462
20
102.4225902
40
0.4293804
50
158.5845496
51
170.1719753
0
ARC
8
DEFAULT_255_1_388
10
17.5390956
20
102.3964519
40
0.5635533
50
169.8378964
51
173.0563877
0
ARC
8
DEFAULT_255_1_388
10
17.010624
20
102.4539187
40
0.4593755
50
2.9089079
51
12.88469
0
ARC
8
DEFAULT_255_1_388
10
17.1648159
20
102.4902082
40
0.3009753
50
12.6957404
51
28.6405841
0
ARC
8
DEFAULT_255_1_388
10
17.2257656
20
102.5217577
40
0.232366
50
29.016559
51
41.1492981
0
ARC
8
DEFAULT_255_1_388
10
17.2485635
20
102.541608
40
0.2021373
50
41.1646967
51
85.001362
0
ARC
8
DEFAULT_255_1_388
10
17.2349639
20
102.4589775
40
0.2857091
50
83.728216
51
90.0968824
0
LINE
8
DEFAULT_255_1_388
10
18.5572992
20
102.5766232
11
18.3892362
21
102.5766232
0
LINE
8
DEFAULT_255_1_388
10
17.7892694
20
102.187187
11
17.9564288
21
102.187187
0
ARC
8
DEFAULT_255_1_388
10
18.2555653
20
102.1472935
40
0.1436198
50
359.3335374
51
18.5869869
0
ARC
8
DEFAULT_255_1_388
10
18.2790392
20
102.1535015
40
0.1194022
50
19.3538149
51
54.6486387
0
ARC
8
DEFAULT_255_1_388
10
18.2223379
20
102.0753077
40
0.2159877
50
54.3821575
51
65.0627557
0
ARC
8
DEFAULT_255_1_388
10
18.1358727
20
101.8934032
40
0.4173927
50
64.8282172
51
71.4204388
0
ARC
8
DEFAULT_255_1_388
10
18.0343622
20
101.5955782
40
0.7320403
50
71.3166092
51
75.8005927
0
ARC
8
DEFAULT_255_1_388
10
17.9397508
20
101.2310881
40
1.108605
50
75.6810806
51
78.0063886
0
ARC
8
DEFAULT_255_1_388
10
18.4402097
20
103.591253
40
1.3040363
50
254.69024
51
258.0465557
0
ARC
8
DEFAULT_255_1_388
10
18.3233965
20
103.1682742
40
0.8652254
50
249.9010634
51
254.7555005
0
ARC
8
DEFAULT_255_1_388
10
18.2105018
20
102.861668
40
0.5384962
50
243.3097375
51
249.970939
0
ARC
8
DEFAULT_255_1_388
10
18.1397432
20
102.7205721
40
0.380652
50
234.4047808
51
243.2861752
0
ARC
8
DEFAULT_255_1_388
10
18.0697068
20
102.6238645
40
0.2612502
50
220.8665526
51
234.5497192
0
ARC
8
DEFAULT_255_1_388
10
18.0312066
20
102.5888203
40
0.2092097
50
214.3063391
51
220.5075055
0
ARC
8
DEFAULT_255_1_388
10
18.028318
20
102.5853577
40
0.2048755
50
186.9131438
51
213.9617385
0
ARC
8
DEFAULT_255_1_388
10
18.088157
20
102.5950431
40
0.2654563
50
179.8802037
51
187.4338578
0
ARC
8
DEFAULT_255_1_388
10
18.0707535
20
102.5973049
40
0.2480581
50
132.0053393
51
180.3942351
0
ARC
8
DEFAULT_255_1_388
10
18.1446448
20
102.5290997
40
0.3483116
50
129.2317021
51
133.5294826
0
ARC
8
DEFAULT_255_1_388
10
18.1506416
20
102.5185383
40
0.360291
50
100.440976
51
128.9081567
0
ARC
8
DEFAULT_255_1_388
10
18.1814534
20
102.3739357
40
0.5080996
50
89.6985063
51
100.9029043
0
ARC
8
DEFAULT_255_1_388
10
18.1878689
20
102.3558739
40
0.5261675
50
77.6967144
51
90.4074623
0
ARC
8
DEFAULT_255_1_388
10
18.2251041
20
102.5164503
40
0.3613511
50
50.7278431
51
78.0397473
0
ARC
8
DEFAULT_255_1_388
10
18.2751084
20
102.5747173
40
0.2845966
50
25.754382
51
51.0957456
0
ARC
8
DEFAULT_255_1_388
10
18.2752451
20
102.5803311
40
0.2820785
50
359.2468358
51
24.7393861
0
ARC
8
DEFAULT_255_1_388
10
18.2432338
20
102.5771204
40
0.1460032
50
359.8048924
51
45.1543866
0
ARC
8
DEFAULT_255_1_388
10
18.1974072
20
102.5379291
40
0.2061641
50
43.8053172
51
49.625485
0
ARC
8
DEFAULT_255_1_388
10
18.1983515
20
102.5380849
40
0.2054344
50
49.7979696
51
82.121802
0
ARC
8
DEFAULT_255_1_388
10
18.1849597
20
102.4653473
40
0.2793404
50
81.4458692
51
90.1707936
0
ARC
8
DEFAULT_255_1_388
10
18.1822174
20
102.4061478
40
0.3385438
50
89.6768097
51
99.1267111
0
ARC
8
DEFAULT_255_1_388
10
18.1629156
20
102.5224405
40
0.2206627
50
98.9679878
51
113.4573418
0
ARC
8
DEFAULT_255_1_388
10
18.1408836
20
102.5751193
40
0.1635691
50
113.7230234
51
127.4758155
0
ARC
8
DEFAULT_255_1_388
10
18.1219419
20
102.5976433
40
0.1341757
50
126.9086647
51
150.3160891
0
ARC
8
DEFAULT_255_1_388
10
18.116575
20
102.603368
40
0.1266992
50
151.363328
51
180.0701537
0
ARC
8
DEFAULT_255_1_388
10
18.1475971
20
102.601023
40
0.1577364
50
179.2045432
51
180.0012892
0
ARC
8
DEFAULT_255_1_388
10
18.1107082
20
102.5995515
40
0.1208564
50
179.3040542
51
198.4225767
0
ARC
8
DEFAULT_255_1_388
10
18.0891223
20
102.5939337
40
0.0986126
50
199.2893055
51
238.6036855
0
ARC
8
DEFAULT_255_1_388
10
18.1569317
20
102.7003752
40
0.2248082
50
237.9844191
51
246.8751643
0
ARC
8
DEFAULT_255_1_388
10
18.2534176
20
102.9210861
40
0.4656832
50
246.6226408
51
251.8174794
0
ARC
8
DEFAULT_255_1_388
10
18.3694644
20
103.2695909
40
0.8329993
50
251.7140983
51
255.0775146
0
ARC
8
DEFAULT_255_1_388
10
18.5044168
20
103.7722708
40
1.3534786
50
255.0370864
51
257.4701577
0
ARC
8
DEFAULT_255_1_388
10
17.9296713
20
101.1828535
40
1.298957
50
73.6835762
51
77.5015749
0
ARC
8
DEFAULT_255_1_388
10
18.0521627
20
101.5990699
40
0.8650912
50
68.7042835
51
73.7249997
0
ARC
8
DEFAULT_255_1_388
10
18.1537191
20
101.8607853
40
0.584363
50
63.5907059
51
68.6622978
0
ARC
8
DEFAULT_255_1_388
10
18.2404932
20
102.0338157
40
0.3907955
50
54.7106507
51
63.7018033
0
ARC
8
DEFAULT_255_1_388
10
18.310732
20
102.1319287
40
0.2701345
50
41.0624597
51
54.8488532
0
ARC
8
DEFAULT_255_1_388
10
18.3491098
20
102.1671439
40
0.2180695
50
34.4952722
51
40.7097584
0
ARC
8
DEFAULT_255_1_388
10
18.3544064
20
102.1726204
40
0.2106083
50
9.3761233
51
34.0834046
0
ARC
8
DEFAULT_255_1_388
10
18.2809192
20
102.1585174
40
0.2854177
50
359.7695264
51
9.7660556
0
ARC
8
DEFAULT_255_1_388
10
18.3031485
20
102.1536841
40
0.2632121
50
335.8653103
51
0.8022272
0
ARC
8
DEFAULT_255_1_388
10
18.3115891
20
102.1551951
40
0.2561728
50
307.7357819
51
334.7849324
0
ARC
8
DEFAULT_255_1_388
10
18.2670532
20
102.2051553
40
0.3229737
50
307.0217048
51
308.5596894
0
ARC
8
DEFAULT_255_1_388
10
18.2375116
20
102.2493063
40
0.3760237
50
282.9361285
51
306.5649033
0
ARC
8
DEFAULT_255_1_388
10
18.1968178
20
102.4143871
40
0.5460314
50
271.1026197
51
283.2199962
0
ARC
8
DEFAULT_255_1_388
10
18.1896367
20
102.5544744
40
0.6862456
50
269.9926344
51
271.4770056
0
ARC
8
DEFAULT_255_1_388
10
18.1866937
20
102.4327633
40
0.5645418
50
259.0723633
51
270.2897324
0
ARC
8
DEFAULT_255_1_388
10
18.1628161
20
102.3070887
40
0.4366198
50
245.4965026
51
259.0225745
0
ARC
8
DEFAULT_255_1_388
10
18.1315378
20
102.2416491
40
0.3641037
50
228.9686619
51
245.7042678
0
ARC
8
DEFAULT_255_1_388
10
18.1016653
20
102.2048573
40
0.3167435
50
214.4015391
51
228.6759028
0
ARC
8
DEFAULT_255_1_388
10
18.069115
20
102.1870429
40
0.2798456
50
179.9704983
51
215.1574389
0
ARC
8
DEFAULT_255_1_388
10
18.1479362
20
102.1953148
40
0.1916798
50
182.430239
51
203.0329751
0
ARC
8
DEFAULT_255_1_388
10
18.1271958
20
102.1889675
40
0.1701248
50
203.7987464
51
232.5483345
0
ARC
8
DEFAULT_255_1_388
10
18.1583043
20
102.2285049
40
0.2204299
50
232.3784541
51
256.3934343
0
ARC
8
DEFAULT_255_1_388
10
18.184219
20
102.3286359
40
0.3238512
50
256.1048329
51
268.4627478
0
ARC
8
DEFAULT_255_1_388
10
18.1894609
20
102.4190297
40
0.4143627
50
268.0734924
51
270.0121004
0
ARC
8
DEFAULT_255_1_388
10
18.1915327
20
102.3876191
40
0.3829573
50
269.7031202
51
278.8338867
0
ARC
8
DEFAULT_255_1_388
10
18.2120192
20
102.2604553
40
0.2541568
50
278.6727378
51
292.82331
0
ARC
8
DEFAULT_255_1_388
10
18.2345738
20
102.2040546
40
0.1934264
50
293.1457581
51
303.6656964
0
ARC
8
DEFAULT_255_1_388
10
18.2643811
20
102.1617159
40
0.1416713
50
303.1245849
51
321.7434683
0
ARC
8
DEFAULT_255_1_388
10
18.2852893
20
102.143378
40
0.1139081
50
322.4747616
51
1.1293039
0
LINE
8
DEFAULT_255_2_778
10
9.3932417
20
92.4719078
11
10.7161417
21
92.4719078
0
LINE
8
DEFAULT_255_2_778
10
10.7161417
20
92.4719078
11
10.7161417
21
51.4615078
0
LINE
8
DEFAULT_255_2_778
10
9.3932834
20
51.4614333
11
12.0390834
21
51.4614333
0
LINE
8
DEFAULT_255_2_778
10
12.0390834
20
51.4614333
11
12.0390834
21
46.1697333
0
LINE
8
DEFAULT_255_2_778
10
12.0390834
20
46.1697333
11
9.3932834
21
46.1697333
0
LINE
8
DEFAULT_255_2_778
10
9.3932834
20
46.1697333
11
9.3932834
21
51.4614333
0
ARC
8
DEFAULT_255_2_778_1
10
13.1928591
20
46.272177
40
4.816461
50
120.9442904
51
122.351755
0
ARC
8
DEFAULT_255_2_778_1
10
12.7462523
20
46.9758039
40
3.9830657
50
122.3407904
51
124.1946752
0
ARC
8
DEFAULT_255_2_778_1
10
12.3063464
20
47.6223306
40
3.2010724
50
124.1855758
51
126.4338849
0
ARC
8
DEFAULT_255_2_778_1
10
11.9204129
20
48.1450611
40
2.5513094
50
126.4326926
51
128.8877368
0
ARC
8
DEFAULT_255_2_778_1
10
11.5855968
20
48.5594658
40
2.0185498
50
128.8749205
51
131.8726567
0
ARC
8
DEFAULT_255_2_778_1
10
11.2884677
20
48.8904854
40
1.5737356
50
131.8616166
51
135.4168838
0
ARC
8
DEFAULT_255_2_778_1
10
11.025668
20
49.1486765
40
1.2053256
50
135.3893975
51
139.9687014
0
ARC
8
DEFAULT_255_2_778_1
10
10.7927889
20
49.3435102
40
0.9016937
50
139.9301659
51
145.9260426
0
ARC
8
DEFAULT_255_2_778_1
10
10.596654
20
49.4755104
40
0.6652776
50
145.8787362
51
153.8146208
0
ARC
8
DEFAULT_255_2_778_1
10
10.4445553
20
49.5498797
40
0.4959714
50
153.770634
51
164.3484794
0
ARC
8
DEFAULT_255_2_778_1
10
10.3432387
20
49.5780786
40
0.3908039
50
164.3220276
51
179.8083066
0
ARC
8
DEFAULT_255_2_778_1
10
10.3642789
20
49.586215
40
0.4118985
50
180.9499449
51
213.8111542
0
ARC
8
DEFAULT_255_2_778_1
10
10.6401828
20
49.7557896
40
0.73561
50
212.8271214
51
224.258472
0
ARC
8
DEFAULT_255_2_778_1
10
11.0230335
20
50.1251236
40
1.267567
50
224.1376218
51
231.4508261
0
ARC
8
DEFAULT_255_2_778_1
10
11.6657195
20
50.9281168
40
2.2960809
50
231.3955893
51
236.1256478
0
ARC
8
DEFAULT_255_2_778_1
10
13.4980223
20
53.6746293
40
5.5976905
50
236.2233172
51
239.1314682
0
ARC
8
DEFAULT_255_2_778_1
10
25.447927
20
73.4023568
40
28.6623793
50
238.8606853
51
239.0711101
0
ARC
8
DEFAULT_255_2_778_1
10
6.2757281
20
41.3052653
40
8.7248518
50
57.2420924
51
59.4062964
0
ARC
8
DEFAULT_255_2_778_1
10
9.5034241
20
46.3362102
40
2.747542
50
52.8289294
51
57.079028
0
ARC
8
DEFAULT_255_2_778_1
10
10.2780783
20
47.3565488
40
1.466457
50
46.3041868
51
52.8596521
0
ARC
8
DEFAULT_255_2_778_1
10
10.7103073
20
47.8066842
40
0.8424061
50
36.2174211
51
46.4090895
0
ARC
8
DEFAULT_255_2_778_1
10
10.9948088
20
48.0115128
40
0.4918609
50
17.400375
51
36.5489745
0
ARC
8
DEFAULT_255_2_778_1
10
11.1088994
20
48.0513754
40
0.3710912
50
0.0676858
51
16.7951297
0
ARC
8
DEFAULT_255_2_778_1
10
11.0878613
20
48.0532428
40
0.3921317
50
343.8035191
51
359.7912046
0
ARC
8
DEFAULT_255_2_778_1
10
10.9815912
20
48.0837167
40
0.5026844
50
333.2506233
51
343.8465691
0
ARC
8
DEFAULT_255_2_778_1
10
10.8277757
20
48.1604313
40
0.6745679
50
325.6600948
51
333.3122657
0
ARC
8
DEFAULT_255_2_778_1
10
10.6323344
20
48.2932296
40
0.9108568
50
319.7560915
51
325.6976089
0
ARC
8
DEFAULT_255_2_778_1
10
10.404199
20
48.4850002
40
1.2088854
50
315.4577584
51
319.8037947
0
ARC
8
DEFAULT_255_2_778_1
10
10.1408127
20
48.7438507
40
1.5781764
50
311.7298824
51
315.4670864
0
ARC
8
DEFAULT_255_2_778_1
10
9.8317879
20
49.0894074
40
2.0417554
50
308.723055
51
311.7470879
0
ARC
8
DEFAULT_255_2_778_1
10
9.477589
20
49.5306492
40
2.6075745
50
306.1165163
51
308.7300151
0
ARC
8
DEFAULT_255_2_778_1
10
9.0746091
20
50.0819523
40
3.2904564
50
303.9559446
51
306.1266333
0
ARC
8
DEFAULT_255_2_778_1
10
8.6630432
20
50.691215
40
4.0257023
50
302.3733397
51
303.9712246
0
ARC
8
DEFAULT_255_2_778_1
10
8.2434347
20
51.3527058
40
4.8090549
50
300.9434827
51
302.3758078
0
LINE
8
DEFAULT_255_2_778
10
10.7161335
20
46.1697488
11
10.7161335
21
5.1593488
0
LINE
8
DEFAULT_255_2_778
10
10.7161335
20
5.1593488
11
9.3932335
21
5.1593488
0
LINE
8
DEFAULT_255_2_778
10
19.9765335
20
92.4718488
11
18.6536335
21
92.4718488
0
LINE
8
DEFAULT_255_2_778
10
18.6536335
20
92.4718488
11
18.6536335
21
75.2739488
0
LINE
8
DEFAULT_255_2_778
10
17.3307834
20
75.2739333
11
19.9765834
21
75.2739333
0
LINE
8
DEFAULT_255_2_778
10
19.9765834
20
75.2739333
11
19.9765834
21
69.9822333
0
LINE
8
DEFAULT_255_2_778
10
19.9765834
20
69.9822333
11
17.3307834
21
69.9822333
0
LINE
8
DEFAULT_255_2_778
10
17.3307834
20
69.9822333
11
17.3307834
21
75.2739333
0
ARC
8
DEFAULT_255_2_778_1
10
21.1303591
20
70.084677
40
4.816461
50
120.9442904
51
122.351755
0
ARC
8
DEFAULT_255_2_778_1
10
20.6837523
20
70.7883039
40
3.9830657
50
122.3407904
51
124.1946752
0
ARC
8
DEFAULT_255_2_778_1
10
20.2438464
20
71.4348306
40
3.2010724
50
124.1855758
51
126.4338849
0
ARC
8
DEFAULT_255_2_778_1
10
19.8579129
20
71.9575611
40
2.5513094
50
126.4326926
51
128.8877368
0
ARC
8
DEFAULT_255_2_778_1
10
19.5230968
20
72.3719658
40
2.0185498
50
128.8749205
51
131.8726567
0
ARC
8
DEFAULT_255_2_778_1
10
19.2259677
20
72.7029854
40
1.5737356
50
131.8616166
51
135.4168838
0
ARC
8
DEFAULT_255_2_778_1
10
18.963168
20
72.9611765
40
1.2053256
50
135.3893975
51
139.9687014
0
ARC
8
DEFAULT_255_2_778_1
10
18.7302889
20
73.1560102
40
0.9016937
50
139.9301659
51
145.9260426
0
ARC
8
DEFAULT_255_2_778_1
10
18.534154
20
73.2880104
40
0.6652776
50
145.8787362
51
153.8146208
0
ARC
8
DEFAULT_255_2_778_1
10
18.3820553
20
73.3623797
40
0.4959714
50
153.770634
51
164.3484794
0
ARC
8
DEFAULT_255_2_778_1
10
18.2807387
20
73.3905786
40
0.3908039
50
164.3220276
51
179.8083066
0
ARC
8
DEFAULT_255_2_778_1
10
18.3017789
20
73.398715
40
0.4118985
50
180.9499449
51
213.8111542
0
ARC
8
DEFAULT_255_2_778_1
10
18.5776828
20
73.5682896
40
0.73561
50
212.8271214
51
224.258472
0
ARC
8
DEFAULT_255_2_778_1
10
18.9605335
20
73.9376236
40
1.267567
50
224.1376218
51
231.4508261
0
ARC
8
DEFAULT_255_2_778_1
10
19.6032195
20
74.7406168
40
2.2960809
50
231.3955893
51
236.1256478
0
ARC
8
DEFAULT_255_2_778_1
10
21.4355223
20
77.4871293
40
5.5976905
50
236.2233172
51
239.1314682
0
ARC
8
DEFAULT_255_2_778_1
10
33.385427
20
97.2148568
40
28.6623793
50
238.8606853
51
239.0711101
0
ARC
8
DEFAULT_255_2_778_1
10
14.2132281
20
65.1177653
40
8.7248518
50
57.2420924
51
59.4062964
0
ARC
8
DEFAULT_255_2_778_1
10
17.4409241
20
70.1487102
40
2.747542
50
52.8289294
51
57.079028
0
ARC
8
DEFAULT_255_2_778_1
10
18.2155783
20
71.1690488
40
1.466457
50
46.3041868
51
52.8596521
0
ARC
8
DEFAULT_255_2_778_1
10
18.6478073
20
71.6191842
40
0.8424061
50
36.2174211
51
46.4090895
0
ARC
8
DEFAULT_255_2_778_1
10
18.9323088
20
71.8240128
40
0.4918609
50
17.400375
51
36.5489745
0
ARC
8
DEFAULT_255_2_778_1
10
19.0463994
20
71.8638754
40
0.3710912
50
0.0676858
51
16.7951297
0
ARC
8
DEFAULT_255_2_778_1
10
19.0253613
20
71.8657428
40
0.3921317
50
343.8035191
51
359.7912046
0
ARC
8
DEFAULT_255_2_778_1
10
18.9190912
20
71.8962167
40
0.5026844
50
333.2506233
51
343.8465691
0
ARC
8
DEFAULT_255_2_778_1
10
18.7652757
20
71.9729313
40
0.6745679
50
325.6600948
51
333.3122657
0
ARC
8
DEFAULT_255_2_778_1
10
18.5698344
20
72.1057296
40
0.9108568
50
319.7560915
51
325.6976089
0
ARC
8
DEFAULT_255_2_778_1
10
18.341699
20
72.2975002
40
1.2088854
50
315.4577584
51
319.8037947
0
ARC
8
DEFAULT_255_2_778_1
10
18.0783127
20
72.5563507
40
1.5781764
50
311.7298824
51
315.4670864
0
ARC
8
DEFAULT_255_2_778_1
10
17.7692879
20
72.9019074
40
2.0417554
50
308.723055
51
311.7470879
0
ARC
8
DEFAULT_255_2_778_1
10
17.415089
20
73.3431492
40
2.6075745
50
306.1165163
51
308.7300151
0
ARC
8
DEFAULT_255_2_778_1
10
17.0121091
20
73.8944523
40
3.2904564
50
303.9559446
51
306.1266333
0
ARC
8
DEFAULT_255_2_778_1
10
16.6005432
20
74.503715
40
4.0257023
50
302.3733397
51
303.9712246
0
ARC
8
DEFAULT_255_2_778_1
10
16.1809347
20
75.1652058
40
4.8090549
50
300.9434827
51
302.3758078
0
LINE
8
DEFAULT_255_2_778
10
18.6536417
20
69.9822581
11
18.6536417
21
52.7843581
0
LINE
8
DEFAULT_255_2_778
10
18.6536417
20
52.7843581
11
19.9765417
21
52.7843581
0
LINE
8
DEFAULT_255_1_388
10
4.8809318
20
100.0383382
11
4.8809318
21
99.9019
0
LINE
8
DEFAULT_255_1_388
10
4.8809318
20
99.9019
11
4.0189313
21
99.9019
0
LINE
8
DEFAULT_255_1_388
10
4.0189313
20
99.9019
11
4.0189313
21
100.0220741
0
LINE
8
DEFAULT_255_1_388
10
4.0189313
20
100.0220741
11
4.4743278
21
100.5280702
0
LINE
8
DEFAULT_255_1_388
10
4.1607909
20
100.8298607
11
3.9936315
21
100.8298607
0
LINE
8
DEFAULT_255_1_388
10
4.5728163
20
100.420546
11
4.2204262
21
100.0383382
0
LINE
8
DEFAULT_255_1_388
10
4.2204262
20
100.0383382
11
4.8809318
21
100.0383382
0
ARC
8
DEFAULT_255_1_388
10
2.9567337
20
101.8700983
40
2.0258655
50
318.5132526
51
320.7829045
0
ARC
8
DEFAULT_255_1_388
10
3.5515294
20
101.3859929
40
1.2589638
50
320.7372878
51
323.9739031
0
ARC
8
DEFAULT_255_1_388
10
3.9924226
20
101.0665554
40
0.7145141
50
323.8962701
51
328.64194
0
ARC
8
DEFAULT_255_1_388
10
4.2226484
20
100.9245545
40
0.4440242
50
328.8294576
51
331.7891185
0
ARC
8
DEFAULT_255_1_388
10
4.3348804
20
100.8666374
40
0.3177517
50
331.4254512
51
352.9365785
0
ARC
8
DEFAULT_255_1_388
10
4.3501804
20
100.863205
40
0.3021496
50
353.2257659
51
0.0166158
0
ARC
8
DEFAULT_255_1_388
10
4.3738564
20
100.8657894
40
0.2784847
50
359.486299
51
15.9343185
0
ARC
8
DEFAULT_255_1_388
10
4.4308831
20
100.8811269
40
0.2194403
50
16.1712913
51
43.5286088
0
ARC
8
DEFAULT_255_1_388
10
4.4395776
20
100.8898191
40
0.2071504
50
43.4417391
51
83.1661095
0
ARC
8
DEFAULT_255_1_388
10
4.4244937
20
100.8069316
40
0.2912888
50
82.160179
51
90.1505708
0
ARC
8
DEFAULT_255_1_388
10
4.4209418
20
100.7465279
40
0.3517025
50
89.5460741
51
102.5418361
0
ARC
8
DEFAULT_255_1_388
10
4.3936138
20
100.8624933
40
0.2325748
50
102.1738499
51
129.206123
0
ARC
8
DEFAULT_255_1_388
10
4.3847592
20
100.8764664
40
0.2161591
50
129.72865
51
135.753947
0
ARC
8
DEFAULT_255_1_388
10
4.3984074
20
100.8655728
40
0.2335433
50
136.1757367
51
166.3673339
0
ARC
8
DEFAULT_255_1_388
10
4.5116762
20
100.8352148
40
0.3507873
50
165.9090694
51
178.8684636
0
ARC
8
DEFAULT_255_1_388
10
4.6092534
20
100.8299263
40
0.4484624
50
178.4391136
51
180.0083808
0
ARC
8
DEFAULT_255_1_388
10
4.4513235
20
100.8343197
40
0.4577138
50
163.2878482
51
180.5581842
0
ARC
8
DEFAULT_255_1_388
10
4.3611276
20
100.8591393
40
0.3641968
50
133.4540601
51
162.947111
0
ARC
8
DEFAULT_255_1_388
10
4.3812158
20
100.8377789
40
0.3935189
50
100.7869829
51
133.4382499
0
ARC
8
DEFAULT_255_1_388
10
4.4203403
20
100.6635399
40
0.5720313
50
89.660664
51
101.3702276
0
ARC
8
DEFAULT_255_1_388
10
4.4278012
20
100.6704263
40
0.5651495
50
78.2172678
51
90.412935
0
ARC
8
DEFAULT_255_1_388
10
4.4677478
20
100.8531511
40
0.378122
50
55.9269121
51
78.4888449
0
ARC
8
DEFAULT_255_1_388
10
4.4898193
20
100.8912187
40
0.3342379
50
47.929771
51
55.4049217
0
ARC
8
DEFAULT_255_1_388
10
4.5012723
20
100.9028618
40
0.3179217
50
4.334829
51
48.0560205
0
ARC
8
DEFAULT_255_1_388
10
4.3780525
20
100.8837487
40
0.442341
50
359.9251713
51
5.5971671
0
ARC
8
DEFAULT_255_1_388
10
4.426268
20
100.8900728
40
0.3941854
50
337.8914027
51
358.9967534
0
ARC
8
DEFAULT_255_1_388
10
4.121025
20
101.0078295
40
0.7213271
50
326.9132501
51
338.3508308
0
ARC
8
DEFAULT_255_1_388
10
3.6726362
20
101.2952105
40
1.2538973
50
319.6471833
51
327.0959558
0
ARC
8
DEFAULT_255_1_388
10
3.241302
20
101.651005
40
1.8129975
50
317.2588228
51
319.9045804
0
LINE
8
DEFAULT_255_1_388
10
5.7637143
20
101.2174898
11
5.7637143
21
100.343743
0
LINE
8
DEFAULT_255_1_388
10
5.7637143
20
100.343743
11
5.9462343
21
100.343743
0
LINE
8
DEFAULT_255_1_388
10
5.9462343
20
100.343743
11
5.9462343
21
100.2073048
0
LINE
8
DEFAULT_255_1_388
10
5.9462343
20
100.2073048
11
5.7637143
21
100.2073048
0
LINE
8
DEFAULT_255_1_388
10
5.7637143
20
100.2073048
11
5.7637143
21
99.9019
0
LINE
8
DEFAULT_255_1_388
10
5.7637143
20
99.9019
11
5.5956513
21
99.9019
0
LINE
8
DEFAULT_255_1_388
10
5.5956513
20
99.9019
11
5.5956513
21
100.2073048
0
LINE
8
DEFAULT_255_1_388
10
5.5956513
20
100.2073048
11
4.996588
21
100.2073048
0
LINE
8
DEFAULT_255_1_388
10
4.996588
20
100.2073048
11
4.996588
21
100.3057933
0
LINE
8
DEFAULT_255_1_388
10
4.996588
20
100.3057933
11
5.5857121
21
101.2174898
0
LINE
8
DEFAULT_255_1_388
10
5.5857121
20
101.2174898
11
5.7637143
21
101.2174898
0
LINE
8
DEFAULT_255_1_388
10
5.5757729
20
100.9527455
11
5.1863366
21
100.343743
0
LINE
8
DEFAULT_255_1_388
10
5.1863366
20
100.343743
11
5.5956513
21
100.343743
0
LINE
8
DEFAULT_255_1_388
10
5.5956513
20
100.343743
11
5.5956513
21
100.988888
0
LINE
8
DEFAULT_255_1_388
10
5.5956513
20
100.988888
11
5.5757729
21
100.9527455
0
LINE
8
DEFAULT_255_1_388
10
6.201943
20
101.2174898
11
6.5760187
21
100.1323089
0
LINE
8
DEFAULT_255_1_388
10
6.5760187
20
100.1323089
11
6.9519015
21
101.2174898
0
LINE
8
DEFAULT_255_1_388
10
6.9519015
20
101.2174898
11
7.14165
21
101.2174898
0
LINE
8
DEFAULT_255_1_388
10
7.14165
20
101.2174898
11
6.6537252
21
99.9019
0
LINE
8
DEFAULT_255_1_388
10
6.6537252
20
99.9019
11
6.5001193
21
99.9019
0
LINE
8
DEFAULT_255_1_388
10
6.5001193
20
99.9019
11
6.013098
21
101.2174898
0
LINE
8
DEFAULT_255_1_388
10
6.013098
20
101.2174898
11
6.201943
21
101.2174898
0
LINE
8
DEFAULT_255_1_388
10
4.8433151
20
5.9674898
11
4.8433151
21
5.093743
0
LINE
8
DEFAULT_255_1_388
10
4.8433151
20
5.093743
11
5.0258352
21
5.093743
0
LINE
8
DEFAULT_255_1_388
10
5.0258352
20
5.093743
11
5.0258352
21
4.9573048
0
LINE
8
DEFAULT_255_1_388
10
5.0258352
20
4.9573048
11
4.8433151
21
4.9573048
0
LINE
8
DEFAULT_255_1_388
10
4.8433151
20
4.9573048
11
4.8433151
21
4.6519
0
LINE
8
DEFAULT_255_1_388
10
4.8433151
20
4.6519
11
4.6752521
21
4.6519
0
LINE
8
DEFAULT_255_1_388
10
4.6752521
20
4.6519
11
4.6752521
21
4.9573048
0
LINE
8
DEFAULT_255_1_388
10
4.6752521
20
4.9573048
11
4.0761889
21
4.9573048
0
LINE
8
DEFAULT_255_1_388
10
4.0761889
20
4.9573048
11
4.0761889
21
5.0557933
0
LINE
8
DEFAULT_255_1_388
10
4.0761889
20
5.0557933
11
4.6653129
21
5.9674898
0
LINE
8
DEFAULT_255_1_388
10
4.6653129
20
5.9674898
11
4.8433151
21
5.9674898
0
LINE
8
DEFAULT_255_1_388
10
4.6553737
20
5.7027455
11
4.2659375
21
5.093743
0
LINE
8
DEFAULT_255_1_388
10
4.2659375
20
5.093743
11
4.6752521
21
5.093743
0
LINE
8
DEFAULT_255_1_388
10
4.6752521
20
5.093743
11
4.6752521
21
5.738888
0
LINE
8
DEFAULT_255_1_388
10
4.6752521
20
5.738888
11
4.6553737
21
5.7027455
0
LINE
8
DEFAULT_255_1_388
10
6.0134311
20
5.0693468
11
6.187819
21
5.0693468
0
LINE
8
DEFAULT_255_1_388
10
5.1749233
20
5.2482525
11
5.1749233
21
5.3747516
0
LINE
8
DEFAULT_255_1_388
10
6.187819
20
5.5446217
11
6.0134311
21
5.5446217
0
LINE
8
DEFAULT_255_1_388
10
5.3493112
20
5.3702337
11
5.3493112
21
5.2428312
0
ARC
8
DEFAULT_255_1_388
10
5.5712424
20
5.1365329
40
0.6202263
50
340.1774904
51
353.7812217
0
ARC
8
DEFAULT_255_1_388
10
5.7480277
20
5.0706893
40
0.4315926
50
311.4560052
51
340.4420756
0
ARC
8
DEFAULT_255_1_388
10
5.7442817
20
5.0831665
40
0.4434573
50
282.4332229
51
310.7514507
0
ARC
8
DEFAULT_255_1_388
10
5.6948635
20
5.2873703
40
0.6535262
50
269.9358869
51
282.8096729
0
ARC
8
DEFAULT_255_1_388
10
5.6890574
20
5.4386329
40
0.8048043
50
269.9995752
51
270.3612856
0
ARC
8
DEFAULT_255_1_388
10
5.6831064
20
5.1587781
40
0.5249831
50
250.7885263
51
270.6488451
0
ARC
8
DEFAULT_255_1_388
10
5.6641889
20
5.0870853
40
0.4510942
50
219.3628377
51
250.0611024
0
ARC
8
DEFAULT_255_1_388
10
5.7574763
20
5.1663653
40
0.5735046
50
193.5480293
51
219.5755675
0
ARC
8
DEFAULT_255_1_388
10
6.0242972
20
5.235652
40
0.849146
50
181.1220183
51
193.8754971
0
ARC
8
DEFAULT_255_1_388
10
6.2566206
20
5.2480914
40
1.0816971
50
179.9914644
51
181.5398227
0
ARC
8
DEFAULT_255_1_388
10
6.0489516
20
5.3789586
40
0.8740384
50
169.5837606
51
180.275782
0
ARC
8
DEFAULT_255_1_388
10
5.8422864
20
5.4171439
40
0.6638751
50
155.0367033
51
169.6002779
0
ARC
8
DEFAULT_255_1_388
10
5.7145322
20
5.4787336
40
0.5220662
50
136.7831557
51
155.2472983
0
ARC
8
DEFAULT_255_1_388
10
5.6707113
20
5.5159577
40
0.4646502
50
121.7633063
51
136.4281161
0
ARC
8
DEFAULT_255_1_388
10
5.6858953
20
5.4879049
40
0.4964979
50
95.6460018
51
121.5489589
0
ARC
8
DEFAULT_255_1_388
10
5.7035927
20
5.3631704
40
0.6223912
50
89.9245727
51
96.1375919
0
ARC
8
DEFAULT_255_1_388
10
5.7092632
20
5.3765721
40
0.6090084
50
76.6779212
51
90.456405
0
ARC
8
DEFAULT_255_1_388
10
5.7535445
20
5.555506
40
0.42469
50
47.4858803
51
76.9287069
0
ARC
8
DEFAULT_255_1_388
10
5.7370059
20
5.5442623
40
0.4441778
50
16.5424081
51
46.8934505
0
ARC
8
DEFAULT_255_1_388
10
5.5561109
20
5.4848265
40
0.6345318
50
5.4072971
51
17.0363711
0
ARC
8
DEFAULT_255_1_388
10
5.3942834
20
5.4588304
40
0.6250632
50
7.8888693
51
15.9242022
0
ARC
8
DEFAULT_255_1_388
10
5.6177819
20
5.5237309
40
0.3923364
50
15.7650676
51
27.9410069
0
ARC
8
DEFAULT_255_1_388
10
5.7419989
20
5.5902317
40
0.2514401
50
27.8167196
51
46.4007942
0
ARC
8
DEFAULT_255_1_388
10
5.747583
20
5.5895882
40
0.2480958
50
47.4372362
51
75.0695672
0
ARC
8
DEFAULT_255_1_388
10
5.7128666
20
5.4687277
40
0.3738281
50
74.7009379
51
87.8124314
0
ARC
8
DEFAULT_255_1_388
10
5.7046283
20
5.3503659
40
0.4924321
50
87.3802571
51
90.0251599
0
ARC
8
DEFAULT_255_1_388
10
5.700293
20
5.4823997
40
0.3604218
50
89.3451886
51
108.5744412
0
ARC
8
DEFAULT_255_1_388
10
5.6848922
20
5.5401836
40
0.3007661
50
109.2998307
51
143.3037387
0
ARC
8
DEFAULT_255_1_388
10
5.7706212
20
5.4742584
40
0.4089031
50
143.075267
51
163.1918576
0
ARC
8
DEFAULT_255_1_388
10
5.9902047
20
5.4049652
40
0.6391492
50
162.9375929
51
174.6208776
0
ARC
8
DEFAULT_255_1_388
10
6.2856428
20
5.3725711
40
0.9363344
50
174.342123
51
180.1430283
0
ARC
8
DEFAULT_255_1_388
10
6.180897
20
5.2382117
40
0.8315986
50
179.6817261
51
189.150555
0
ARC
8
DEFAULT_255_1_388
10
5.8995719
20
5.1913559
40
0.5464044
50
188.9911061
51
203.5772363
0
ARC
8
DEFAULT_255_1_388
10
5.778101
20
5.1409539
40
0.4149206
50
203.9075402
51
215.1312435
0
ARC
8
DEFAULT_255_1_388
10
5.6742808
20
5.0604907
40
0.2837747
50
213.9071511
51
263.8848919
0
ARC
8
DEFAULT_255_1_388
10
5.6883801
20
5.1487519
40
0.3730641
50
263.1757928
51
270.1031044
0
ARC
8
DEFAULT_255_1_388
10
5.6919881
20
5.2890511
40
0.5133712
50
269.6722503
51
279.0606936
0
ARC
8
DEFAULT_255_1_388
10
5.7220036
20
5.107615
40
0.3294739
50
278.8749101
51
293.6349581
0
ARC
8
DEFAULT_255_1_388
10
5.758024
20
5.0230251
40
0.2375405
50
293.8553806
51
310.0518171
0
ARC
8
DEFAULT_255_1_388
10
5.7585749
20
5.0160021
40
0.2318463
50
311.0644687
51
332.0111037
0
ARC
8
DEFAULT_255_1_388
10
5.6244422
20
5.0899702
40
0.3850112
50
331.6586806
51
343.2877423
0
ARC
8
DEFAULT_255_1_388
10
5.3923888
20
5.1612806
40
0.6277712
50
343.1446576
51
351.0103568
0
ARC
8
DEFAULT_255_1_388
10
5.2291211
20
5.1912873
40
0.7937327
50
350.71248
51
351.1626997
0
LINE
8
DEFAULT_255_1_388
10
4.9001322
20
12.5894
11
4.6146058
21
13.1215995
0
LINE
8
DEFAULT_255_1_388
10
4.6146058
20
13.1215995
11
4.3055868
21
13.1215995
0
LINE
8
DEFAULT_255_1_388
10
4.3055868
20
13.1215995
11
4.3055868
21
12.5894
0
LINE
8
DEFAULT_255_1_388
10
4.3055868
20
12.5894
11
4.1311988
21
12.5894
0
LINE
8
DEFAULT_255_1_388
10
4.1311988
20
12.5894
11
4.1311988
21
13.9049898
0
LINE
8
DEFAULT_255_1_388
10
4.1311988
20
13.9049898
11
4.5667169
21
13.9049898
0
LINE
8
DEFAULT_255_1_388
10
4.7772474
20
13.1586456
11
5.0862665
21
12.6002428
0
LINE
8
DEFAULT_255_1_388
10
5.0862665
20
12.6002428
11
5.0862665
21
12.5894
0
LINE
8
DEFAULT_255_1_388
10
5.0862665
20
12.5894
11
4.9001322
21
12.5894
0
LINE
8
DEFAULT_255_1_388
10
4.3055868
20
13.7622267
11
4.3055868
21
13.2634591
0
LINE
8
DEFAULT_255_1_388
10
4.3055868
20
13.2634591
11
4.5721383
21
13.2634591
0
LINE
8
DEFAULT_255_1_388
10
4.5712347
20
13.7622267
11
4.3055868
21
13.7622267
0
ARC
8
DEFAULT_255_1_388
10
4.5714015
20
13.1218346
40
0.7831693
50
80.6535681
51
90.3427203
0
ARC
8
DEFAULT_255_1_388
10
4.6185925
20
13.3988722
40
0.5021479
50
65.6987674
51
80.8330164
0
ARC
8
DEFAULT_255_1_388
10
4.6723219
20
13.5220479
40
0.3677787
50
50.0019152
51
65.4304412
0
ARC
8
DEFAULT_255_1_388
10
4.6969035
20
13.5552603
40
0.3265454
50
11.6284215
51
49.5603681
0
ARC
8
DEFAULT_255_1_388
10
4.5241521
20
13.5130524
40
0.5043009
50
359.5655533
51
12.3693319
0
ARC
8
DEFAULT_255_1_388
10
4.6452858
20
13.5060038
40
0.3831661
50
341.998418
51
0.4822212
0
ARC
8
DEFAULT_255_1_388
10
4.6897044
20
13.4939479
40
0.3372036
50
323.8610842
51
341.6141514
0
ARC
8
DEFAULT_255_1_388
10
4.655759
20
13.5201615
40
0.3800784
50
296.7019299
51
323.6876213
0
ARC
8
DEFAULT_255_1_388
10
4.6061548
20
13.6088532
40
0.4816219
50
290.808313
51
297.2325929
0
ARC
8
DEFAULT_255_1_388
10
4.5750342
20
13.6677377
40
0.404289
50
269.5895908
51
281.8058892
0
ARC
8
DEFAULT_255_1_388
10
4.6032608
20
13.538636
40
0.2721459
50
281.5499321
51
303.9358954
0
ARC
8
DEFAULT_255_1_388
10
4.6187143
20
13.5118588
40
0.2413121
50
304.4410786
51
311.211123
0
ARC
8
DEFAULT_255_1_388
10
4.6335548
20
13.4962152
40
0.2197678
50
310.9874923
51
356.2715203
0
ARC
8
DEFAULT_255_1_388
10
4.5485294
20
13.5088992
40
0.3055212
50
354.9346315
51
0.0617816
0
ARC
8
DEFAULT_255_1_388
10
4.5274135
20
13.5119427
40
0.3266482
50
359.5239293
51
12.8808621
0
ARC
8
DEFAULT_255_1_388
10
4.6373898
20
13.5388638
40
0.2134449
50
12.417206
51
43.1023141
0
ARC
8
DEFAULT_255_1_388
10
4.6443228
20
13.5430253
40
0.2055463
50
43.575886
51
48.2047245
0
ARC
8
DEFAULT_255_1_388
10
4.6252489
20
13.5181151
40
0.2368418
50
48.7809155
51
72.6968768
0
ARC
8
DEFAULT_255_1_388
10
4.5853853
20
13.3971385
40
0.364206
50
72.3699892
51
84.8793749
0
ARC
8
DEFAULT_255_1_388
10
4.5687859
20
13.2461651
40
0.5160674
50
84.5398226
51
89.7281165
0
LINE
8
DEFAULT_255_1_388
10
5.4711849
20
13.1920775
11
5.4711849
21
13.3285157
0
LINE
8
DEFAULT_255_1_388
10
5.4711849
20
13.3285157
11
5.5967804
21
13.3285157
0
LINE
8
DEFAULT_255_1_388
10
5.3826356
20
13.5598282
11
5.2154762
21
13.5598282
0
LINE
8
DEFAULT_255_1_388
10
5.2037298
20
12.9363687
11
5.3717928
21
12.9363687
0
LINE
8
DEFAULT_255_1_388
10
5.5967804
20
13.1920775
11
5.4711849
21
13.1920775
0
ARC
8
DEFAULT_255_1_388
10
5.593503
20
13.7101922
40
0.3816905
50
270.491971
51
281.8953028
0
ARC
8
DEFAULT_255_1_388
10
5.6206457
20
13.5862199
40
0.2547877
50
281.6690378
51
301.2943765
0
ARC
8
DEFAULT_255_1_388
10
5.6397908
20
13.5511926
40
0.2149197
50
301.7834992
51
311.754567
0
ARC
8
DEFAULT_255_1_388
10
5.650095
20
13.539765
40
0.1995326
50
311.7325027
51
354.2803031
0
ARC
8
DEFAULT_255_1_388
10
5.5683366
20
13.553828
40
0.2823461
50
353.0941646
51
0.1174696
0
ARC
8
DEFAULT_255_1_388
10
5.5164924
20
13.5591874
40
0.3342238
50
359.1804452
51
15.0452323
0
ARC
8
DEFAULT_255_1_388
10
5.6678982
20
13.6033546
40
0.1765747
50
13.957816
51
77.6713812
0
ARC
8
DEFAULT_255_1_388
10
5.6244218
20
13.4475464
40
0.3381982
50
76.111571
51
90.7028736
0
ARC
8
DEFAULT_255_1_388
10
5.617763
20
13.478325
40
0.3074046
50
89.5321574
51
103.5319393
0
ARC
8
DEFAULT_255_1_388
10
5.5952014
20
13.5682443
40
0.2147041
50
103.2930114
51
133.5619756
0
ARC
8
DEFAULT_255_1_388
10
5.5901955
20
13.5749351
40
0.2064084
50
133.8349761
51
173.5343225
0
ARC
8
DEFAULT_255_1_388
10
5.6715613
20
13.5605144
40
0.2889266
50
172.5097183
51
180.1360699
0
ARC
8
DEFAULT_255_1_388
10
5.5645377
20
13.564388
40
0.3490913
50
155.3483706
51
180.7484035
0
ARC
8
DEFAULT_255_1_388
10
5.5590352
20
13.5611519
40
0.3454798
50
131.5745177
51
154.4799474
0
ARC
8
DEFAULT_255_1_388
10
5.5942635
20
13.5255422
40
0.3955058
50
96.9874487
51
131.9690874
0
ARC
8
DEFAULT_255_1_388
10
5.6189527
20
13.3854407
40
0.537622
50
89.8592909
51
97.7827481
0
ARC
8
DEFAULT_255_1_388
10
5.6243636
20
13.355936
40
0.5671399
50
78.3654493
51
90.4132586
0
ARC
8
DEFAULT_255_1_388
10
5.6646277
20
13.5425918
40
0.3762034
50
56.6229818
51
78.6387103
0
ARC
8
DEFAULT_255_1_388
10
5.6888107
20
13.5848846
40
0.3275964
50
47.0254604
51
56.085558
0
ARC
8
DEFAULT_255_1_388
10
5.6910358
20
13.5893189
40
0.3228382
50
10.9207523
51
46.777927
0
ARC
8
DEFAULT_255_1_388
10
5.5375952
20
13.5538401
40
0.4802559
50
359.6364235
51
11.6087615
0
ARC
8
DEFAULT_255_1_388
10
5.7440117
20
13.5521404
40
0.273833
50
332.3549969
51
359.7179765
0
ARC
8
DEFAULT_255_1_388
10
5.6708518
20
13.5868285
40
0.3547505
50
325.2332381
51
332.8746682
0
ARC
8
DEFAULT_255_1_388
10
5.6880101
20
13.5748763
40
0.3338396
50
292.9803892
51
325.2391113
0
ARC
8
DEFAULT_255_1_388
10
5.6569297
20
13.6353679
40
0.4016959
50
292.542178
51
293.6931461
0
ARC
8
DEFAULT_255_1_388
10
5.7012869
20
12.9088036
40
0.372079
50
57.643292
51
72.8626085
0
ARC
8
DEFAULT_255_1_388
10
5.7411703
20
12.9734273
40
0.2961455
50
36.7246661
51
57.4701329
0
ARC
8
DEFAULT_255_1_388
10
5.739886
20
12.974847
40
0.2963321
50
8.054535
51
36.3561529
0
ARC
8
DEFAULT_255_1_388
10
5.6428532
20
12.9574073
40
0.3948682
50
359.8316595
51
8.5873361
0
ARC
8
DEFAULT_255_1_388
10
5.6006007
20
12.951997
40
0.4371398
50
343.9831631
51
0.557075
0
ARC
8
DEFAULT_255_1_388
10
5.7003056
20
12.9246963
40
0.3337749
50
311.6358204
51
343.7652116
0
ARC
8
DEFAULT_255_1_388
10
5.657731
20
12.9726955
40
0.3979351
50
279.7829743
51
311.625622
0
ARC
8
DEFAULT_255_1_388
10
5.6238445
20
13.1343642
40
0.5630417
50
269.7285092
51
280.3857694
0
ARC
8
DEFAULT_255_1_388
10
5.6168758
20
13.1297241
40
0.5584119
50
256.6827433
51
270.4412869
0
ARC
8
DEFAULT_255_1_388
10
5.5787745
20
12.9739698
40
0.3980715
50
229.4223821
51
256.8554507
0
ARC
8
DEFAULT_255_1_388
10
5.5321298
20
12.9214683
40
0.3278564
50
181.8183354
51
229.6455015
0
ARC
8
DEFAULT_255_1_388
10
5.6490908
20
12.9361825
40
0.4453611
50
179.9760419
51
183.2330638
0
ARC
8
DEFAULT_255_1_388
10
5.629746
20
12.9338781
40
0.2579652
50
179.4467996
51
196.2871626
0
ARC
8
DEFAULT_255_1_388
10
5.5748914
20
12.9188709
40
0.2011057
50
196.5661293
51
227.7059371
0
ARC
8
DEFAULT_255_1_388
10
5.5933521
20
12.9395155
40
0.2287994
50
227.7653015
51
257.8763321
0
ARC
8
DEFAULT_255_1_388
10
5.6186604
20
13.0455961
40
0.3378385
50
257.4583525
51
270.4267406
0
ARC
8
DEFAULT_255_1_388
10
5.6237853
20
13.078223
40
0.3704652
50
269.5965319
51
280.8788143
0
ARC
8
DEFAULT_255_1_388
10
5.6496082
20
12.9492529
40
0.2389415
50
280.6347277
51
299.8594068
0
ARC
8
DEFAULT_255_1_388
10
5.6710851
20
12.9084736
40
0.19289
50
300.3575552
51
314.5515667
0
ARC
8
DEFAULT_255_1_388
10
5.6617527
20
12.9153025
40
0.204312
50
315.0730962
51
345.0429362
0
ARC
8
DEFAULT_255_1_388
10
5.5579034
20
12.9455539
40
0.31246
50
344.598526
51
357.9270698
0
ARC
8
DEFAULT_255_1_388
10
5.4569339
20
12.9524705
40
0.4136265
50
357.4755098
51
0.0224936
0
ARC
8
DEFAULT_255_1_388
10
5.5722217
20
12.9552099
40
0.2983498
50
359.5051035
51
13.4236939
0
ARC
8
DEFAULT_255_1_388
10
5.6697307
20
12.9801637
40
0.1977186
50
12.9497905
51
48.7550905
0
ARC
8
DEFAULT_255_1_388
10
5.6492229
20
12.9521373
40
0.2323321
50
49.509109
51
72.1832965
0
ARC
8
DEFAULT_255_1_388
10
5.6089697
20
12.8326632
40
0.358397
50
71.9008458
51
84.3555134
0
ARC
8
DEFAULT_255_1_388
10
5.5908092
20
12.6794712
40
0.512641
50
84.019632
51
89.3326067
0
LINE
8
DEFAULT_255_1_388
10
6.6322652
20
13.2164737
11
6.6322652
21
13.0800355
0
LINE
8
DEFAULT_255_1_388
10
6.6322652
20
13.0800355
11
6.1913258
21
13.0800355
0
LINE
8
DEFAULT_255_1_388
10
6.1913258
20
13.0800355
11
6.1913258
21
13.2164737
0
LINE
8
DEFAULT_255_1_388
10
6.1913258
20
13.2164737
11
6.6322652
21
13.2164737
0
LINE
8
DEFAULT_255_1_388
10
4.7637322
20
20.5269
11
4.4782058
21
21.0590995
0
LINE
8
DEFAULT_255_1_388
10
4.4782058
20
21.0590995
11
4.1691868
21
21.0590995
0
LINE
8
DEFAULT_255_1_388
10
4.1691868
20
21.0590995
11
4.1691868
21
20.5269
0
LINE
8
DEFAULT_255_1_388
10
4.1691868
20
20.5269
11
3.9947988
21
20.5269
0
LINE
8
DEFAULT_255_1_388
10
3.9947988
20
20.5269
11
3.9947988
21
21.8424898
0
LINE
8
DEFAULT_255_1_388
10
3.9947988
20
21.8424898
11
4.4303169
21
21.8424898
0
LINE
8
DEFAULT_255_1_388
10
4.6408474
20
21.0961456
11
4.9498665
21
20.5377428
0
LINE
8
DEFAULT_255_1_388
10
4.9498665
20
20.5377428
11
4.9498665
21
20.5269
0
LINE
8
DEFAULT_255_1_388
10
4.9498665
20
20.5269
11
4.7637322
21
20.5269
0
LINE
8
DEFAULT_255_1_388
10
4.1691868
20
21.6997267
11
4.1691868
21
21.2009591
0
LINE
8
DEFAULT_255_1_388
10
4.1691868
20
21.2009591
11
4.4357383
21
21.2009591
0
LINE
8
DEFAULT_255_1_388
10
4.4348347
20
21.6997267
11
4.1691868
21
21.6997267
0
ARC
8
DEFAULT_255_1_388
10
4.4350015
20
21.0593346
40
0.7831693
50
80.6535681
51
90.3427203
0
ARC
8
DEFAULT_255_1_388
10
4.4821925
20
21.3363722
40
0.5021479
50
65.6987674
51
80.8330164
0
ARC
8
DEFAULT_255_1_388
10
4.5359219
20
21.4595479
40
0.3677787
50
50.0019152
51
65.4304412
0
ARC
8
DEFAULT_255_1_388
10
4.5605035
20
21.4927603
40
0.3265454
50
11.6284215
51
49.5603681
0
ARC
8
DEFAULT_255_1_388
10
4.3877521
20
21.4505524
40
0.5043009
50
359.5655533
51
12.3693319
0
ARC
8
DEFAULT_255_1_388
10
4.5088858
20
21.4435038
40
0.3831661
50
341.998418
51
0.4822212
0
ARC
8
DEFAULT_255_1_388
10
4.5533044
20
21.4314479
40
0.3372036
50
323.8610842
51
341.6141514
0
ARC
8
DEFAULT_255_1_388
10
4.519359
20
21.4576615
40
0.3800784
50
296.7019299
51
323.6876213
0
ARC
8
DEFAULT_255_1_388
10
4.4697548
20
21.5463532
40
0.4816219
50
290.808313
51
297.2325929
0
ARC
8
DEFAULT_255_1_388
10
4.4386342
20
21.6052377
40
0.404289
50
269.5895908
51
281.8058892
0
ARC
8
DEFAULT_255_1_388
10
4.4668608
20
21.476136
40
0.2721459
50
281.5499321
51
303.9358954
0
ARC
8
DEFAULT_255_1_388
10
4.4823143
20
21.4493588
40
0.2413121
50
304.4410786
51
311.211123
0
ARC
8
DEFAULT_255_1_388
10
4.4971548
20
21.4337152
40
0.2197678
50
310.9874923
51
356.2715203
0
ARC
8
DEFAULT_255_1_388
10
4.4121294
20
21.4463992
40
0.3055212
50
354.9346315
51
0.0617816
0
ARC
8
DEFAULT_255_1_388
10
4.3910135
20
21.4494427
40
0.3266482
50
359.5239293
51
12.8808621
0
ARC
8
DEFAULT_255_1_388
10
4.5009898
20
21.4763638
40
0.2134449
50
12.417206
51
43.1023141
0
ARC
8
DEFAULT_255_1_388
10
4.5079228
20
21.4805253
40
0.2055463
50
43.575886
51
48.2047245
0
ARC
8
DEFAULT_255_1_388
10
4.4888489
20
21.4556151
40
0.2368418
50
48.7809155
51
72.6968768
0
ARC
8
DEFAULT_255_1_388
10
4.4489853
20
21.3346385
40
0.364206
50
72.3699892
51
84.8793749
0
ARC
8
DEFAULT_255_1_388
10
4.4323859
20
21.1836651
40
0.5160674
50
84.5398226
51
89.7281165
0
LINE
8
DEFAULT_255_1_388
10
5.3347849
20
21.1295775
11
5.3347849
21
21.2660157
0
LINE
8
DEFAULT_255_1_388
10
5.3347849
20
21.2660157
11
5.4603804
21
21.2660157
0
LINE
8
DEFAULT_255_1_388
10
5.2462356
20
21.4973282
11
5.0790762
21
21.4973282
0
LINE
8
DEFAULT_255_1_388
10
5.0673298
20
20.8738687
11
5.2353928
21
20.8738687
0
LINE
8
DEFAULT_255_1_388
10
5.4603804
20
21.1295775
11
5.3347849
21
21.1295775
0
ARC
8
DEFAULT_255_1_388
10
5.457103
20
21.6476922
40
0.3816905
50
270.491971
51
281.8953028
0
ARC
8
DEFAULT_255_1_388
10
5.4842457
20
21.5237199
40
0.2547877
50
281.6690378
51
301.2943765
0
ARC
8
DEFAULT_255_1_388
10
5.5033908
20
21.4886926
40
0.2149197
50
301.7834992
51
311.754567
0
ARC
8
DEFAULT_255_1_388
10
5.513695
20
21.477265
40
0.1995326
50
311.7325027
51
354.2803031
0
ARC
8
DEFAULT_255_1_388
10
5.4319366
20
21.491328
40
0.2823461
50
353.0941646
51
0.1174696
0
ARC
8
DEFAULT_255_1_388
10
5.3800924
20
21.4966874
40
0.3342238
50
359.1804452
51
15.0452323
0
ARC
8
DEFAULT_255_1_388
10
5.5314982
20
21.5408546
40
0.1765747
50
13.957816
51
77.6713812
0
ARC
8
DEFAULT_255_1_388
10
5.4880218
20
21.3850464
40
0.3381982
50
76.111571
51
90.7028736
0
ARC
8
DEFAULT_255_1_388
10
5.481363
20
21.415825
40
0.3074046
50
89.5321574
51
103.5319393
0
ARC
8
DEFAULT_255_1_388
10
5.4588014
20
21.5057443
40
0.2147041
50
103.2930114
51
133.5619756
0
ARC
8
DEFAULT_255_1_388
10
5.4537955
20
21.5124351
40
0.2064084
50
133.8349761
51
173.5343225
0
ARC
8
DEFAULT_255_1_388
10
5.5351613
20
21.4980144
40
0.2889266
50
172.5097183
51
180.1360699
0
ARC
8
DEFAULT_255_1_388
10
5.4281377
20
21.501888
40
0.3490913
50
155.3483706
51
180.7484035
0
ARC
8
DEFAULT_255_1_388
10
5.4226352
20
21.4986519
40
0.3454798
50
131.5745177
51
154.4799474
0
ARC
8
DEFAULT_255_1_388
10
5.4578635
20
21.4630422
40
0.3955058
50
96.9874487
51
131.9690874
0
ARC
8
DEFAULT_255_1_388
10
5.4825527
20
21.3229407
40
0.537622
50
89.8592909
51
97.7827481
0
ARC
8
DEFAULT_255_1_388
10
5.4879636
20
21.293436
40
0.5671399
50
78.3654493
51
90.4132586
0
ARC
8
DEFAULT_255_1_388
10
5.5282277
20
21.4800918
40
0.3762034
50
56.6229818
51
78.6387103
0
ARC
8
DEFAULT_255_1_388
10
5.5524107
20
21.5223846
40
0.3275964
50
47.0254604
51
56.085558
0
ARC
8
DEFAULT_255_1_388
10
5.5546358
20
21.5268189
40
0.3228382
50
10.9207523
51
46.777927
0
ARC
8
DEFAULT_255_1_388
10
5.4011952
20
21.4913401
40
0.4802559
50
359.6364235
51
11.6087615
0
ARC
8
DEFAULT_255_1_388
10
5.6076117
20
21.4896404
40
0.273833
50
332.3549969
51
359.7179765
0
ARC
8
DEFAULT_255_1_388
10
5.5344518
20
21.5243285
40
0.3547505
50
325.2332381
51
332.8746682
0
ARC
8
DEFAULT_255_1_388
10
5.5516101
20
21.5123763
40
0.3338396
50
292.9803892
51
325.2391113
0
ARC
8
DEFAULT_255_1_388
10
5.5205297
20
21.5728679
40
0.4016959
50
292.542178
51
293.6931461
0
ARC
8
DEFAULT_255_1_388
10
5.5648869
20
20.8463036
40
0.372079
50
57.643292
51
72.8626085
0
ARC
8
DEFAULT_255_1_388
10
5.6047703
20
20.9109273
40
0.2961455
50
36.7246661
51
57.4701329
0
ARC
8
DEFAULT_255_1_388
10
5.603486
20
20.912347
40
0.2963321
50
8.054535
51
36.3561529
0
ARC
8
DEFAULT_255_1_388
10
5.5064532
20
20.8949073
40
0.3948682
50
359.8316595
51
8.5873361
0
ARC
8
DEFAULT_255_1_388
10
5.4642007
20
20.889497
40
0.4371398
50
343.9831631
51
0.557075
0
ARC
8
DEFAULT_255_1_388
10
5.5639056
20
20.8621963
40
0.3337749
50
311.6358204
51
343.7652116
0
ARC
8
DEFAULT_255_1_388
10
5.521331
20
20.9101955
40
0.3979351
50
279.7829743
51
311.625622
0
ARC
8
DEFAULT_255_1_388
10
5.4874445
20
21.0718642
40
0.5630417
50
269.7285092
51
280.3857694
0
ARC
8
DEFAULT_255_1_388
10
5.4804758
20
21.0672241
40
0.5584119
50
256.6827433
51
270.4412869
0
ARC
8
DEFAULT_255_1_388
10
5.4423745
20
20.9114698
40
0.3980715
50
229.4223821
51
256.8554507
0
ARC
8
DEFAULT_255_1_388
10
5.3957298
20
20.8589683
40
0.3278564
50
181.8183354
51
229.6455015
0
ARC
8
DEFAULT_255_1_388
10
5.5126908
20
20.8736825
40
0.4453611
50
179.9760419
51
183.2330638
0
ARC
8
DEFAULT_255_1_388
10
5.493346
20
20.8713781
40
0.2579652
50
179.4467996
51
196.2871626
0
ARC
8
DEFAULT_255_1_388
10
5.4384914
20
20.8563709
40
0.2011057
50
196.5661293
51
227.7059371
0
ARC
8
DEFAULT_255_1_388
10
5.4569521
20
20.8770155
40
0.2287994
50
227.7653015
51
257.8763321
0
ARC
8
DEFAULT_255_1_388
10
5.4822604
20
20.9830961
40
0.3378385
50
257.4583525
51
270.4267406
0
ARC
8
DEFAULT_255_1_388
10
5.4873853
20
21.015723
40
0.3704652
50
269.5965319
51
280.8788143
0
ARC
8
DEFAULT_255_1_388
10
5.5132082
20
20.8867529
40
0.2389415
50
280.6347277
51
299.8594068
0
ARC
8
DEFAULT_255_1_388
10
5.5346851
20
20.8459736
40
0.19289
50
300.3575552
51
314.5515667
0
ARC
8
DEFAULT_255_1_388
10
5.5253527
20
20.8528025
40
0.204312
50
315.0730962
51
345.0429362
0
ARC
8
DEFAULT_255_1_388
10
5.4215034
20
20.8830539
40
0.31246
50
344.598526
51
357.9270698
0
ARC
8
DEFAULT_255_1_388
10
5.3205339
20
20.8899705
40
0.4136265
50
357.4755098
51
0.0224936
0
ARC
8
DEFAULT_255_1_388
10
5.4358217
20
20.8927099
40
0.2983498
50
359.5051035
51
13.4236939
0
ARC
8
DEFAULT_255_1_388
10
5.5333307
20
20.9176637
40
0.1977186
50
12.9497905
51
48.7550905
0
ARC
8
DEFAULT_255_1_388
10
5.5128229
20
20.8896373
40
0.2323321
50
49.509109
51
72.1832965
0
ARC
8
DEFAULT_255_1_388
10
5.4725697
20
20.7701632
40
0.358397
50
71.9008458
51
84.3555134
0
ARC
8
DEFAULT_255_1_388
10
5.4544092
20
20.6169712
40
0.512641
50
84.019632
51
89.3326067
0
LINE
8
DEFAULT_255_1_388
10
6.6268821
20
21.6165987
11
6.6268821
21
21.2325838
0
LINE
8
DEFAULT_255_1_388
10
6.6268821
20
21.2325838
11
6.9937292
21
21.2325838
0
LINE
8
DEFAULT_255_1_388
10
6.9937292
20
21.2325838
11
6.9937292
21
21.0744601
0
LINE
8
DEFAULT_255_1_388
10
6.9937292
20
21.0744601
11
6.6268821
21
21.0744601
0
LINE
8
DEFAULT_255_1_388
10
6.6268821
20
21.0744601
11
6.6268821
21
20.6588204
0
LINE
8
DEFAULT_255_1_388
10
6.6268821
20
20.6588204
11
6.4588191
21
20.6588204
0
LINE
8
DEFAULT_255_1_388
10
6.4588191
20
20.6588204
11
6.4588191
21
21.0744601
0
LINE
8
DEFAULT_255_1_388
10
6.4588191
20
21.0744601
11
6.0919719
21
21.0744601
0
LINE
8
DEFAULT_255_1_388
10
6.0919719
20
21.0744601
11
6.0919719
21
21.2325838
0
LINE
8
DEFAULT_255_1_388
10
6.0919719
20
21.2325838
11
6.4588191
21
21.2325838
0
LINE
8
DEFAULT_255_1_388
10
6.4588191
20
21.2325838
11
6.4588191
21
21.6165987
0
LINE
8
DEFAULT_255_1_388
10
6.4588191
20
21.6165987
11
6.6268821
21
21.6165987
0
LINE
8
DEFAULT_255_1_388
10
4.5546985
20
29.7863148
11
4.5546985
21
28.4644
0
LINE
8
DEFAULT_255_1_388
10
4.5546985
20
28.4644
11
4.3866355
21
28.4644
0
LINE
8
DEFAULT_255_1_388
10
4.3866355
20
28.4644
11
4.3866355
21
29.578495
0
LINE
8
DEFAULT_255_1_388
10
4.3866355
20
29.578495
11
4.049606
21
29.4547066
0
LINE
8
DEFAULT_255_1_388
10
4.049606
20
29.4547066
11
4.049606
21
29.6065055
0
LINE
8
DEFAULT_255_1_388
10
4.049606
20
29.6065055
11
4.5284951
21
29.7863148
0
LINE
8
DEFAULT_255_1_388
10
4.5284951
20
29.7863148
11
4.5546985
21
29.7863148
0
LINE
8
DEFAULT_255_1_388
10
5.8811311
20
28.8818468
11
6.055519
21
28.8818468
0
LINE
8
DEFAULT_255_1_388
10
5.0426233
20
29.0607525
11
5.0426233
21
29.1872516
0
LINE
8
DEFAULT_255_1_388
10
6.055519
20
29.3571217
11
5.8811311
21
29.3571217
0
LINE
8
DEFAULT_255_1_388
10
5.2170112
20
29.1827337
11
5.2170112
21
29.0553312
0
ARC
8
DEFAULT_255_1_388
10
5.4389424
20
28.9490329
40
0.6202263
50
340.1774904
51
353.7812217
0
ARC
8
DEFAULT_255_1_388
10
5.6157277
20
28.8831893
40
0.4315926
50
311.4560052
51
340.4420756
0
ARC
8
DEFAULT_255_1_388
10
5.6119817
20
28.8956665
40
0.4434573
50
282.4332229
51
310.7514507
0
ARC
8
DEFAULT_255_1_388
10
5.5625635
20
29.0998703
40
0.6535262
50
269.9358869
51
282.8096729
0
ARC
8
DEFAULT_255_1_388
10
5.5567574
20
29.2511329
40
0.8048043
50
269.9995752
51
270.3612856
0
ARC
8
DEFAULT_255_1_388
10
5.5508064
20
28.9712781
40
0.5249831
50
250.7885263
51
270.6488451
0
ARC
8
DEFAULT_255_1_388
10
5.5318889
20
28.8995853
40
0.4510942
50
219.3628377
51
250.0611024
0
ARC
8
DEFAULT_255_1_388
10
5.6251763
20
28.9788653
40
0.5735046
50
193.5480293
51
219.5755675
0
ARC
8
DEFAULT_255_1_388
10
5.8919972
20
29.048152
40
0.849146
50
181.1220183
51
193.8754971
0
ARC
8
DEFAULT_255_1_388
10
6.1243206
20
29.0605914
40
1.0816971
50
179.9914644
51
181.5398227
0
ARC
8
DEFAULT_255_1_388
10
5.9166516
20
29.1914586
40
0.8740384
50
169.5837606
51
180.275782
0
ARC
8
DEFAULT_255_1_388
10
5.7099864
20
29.2296439
40
0.6638751
50
155.0367033
51
169.6002779
0
ARC
8
DEFAULT_255_1_388
10
5.5822322
20
29.2912336
40
0.5220662
50
136.7831557
51
155.2472983
0
ARC
8
DEFAULT_255_1_388
10
5.5384113
20
29.3284577
40
0.4646502
50
121.7633063
51
136.4281161
0
ARC
8
DEFAULT_255_1_388
10
5.5535953
20
29.3004049
40
0.4964979
50
95.6460018
51
121.5489589
0
ARC
8
DEFAULT_255_1_388
10
5.5712927
20
29.1756704
40
0.6223912
50
89.9245727
51
96.1375919
0
ARC
8
DEFAULT_255_1_388
10
5.5769632
20
29.1890721
40
0.6090084
50
76.6779212
51
90.456405
0
ARC
8
DEFAULT_255_1_388
10
5.6212445
20
29.368006
40
0.42469
50
47.4858803
51
76.9287069
0
ARC
8
DEFAULT_255_1_388
10
5.6047059
20
29.3567623
40
0.4441778
50
16.5424081
51
46.8934505
0
ARC
8
DEFAULT_255_1_388
10
5.4238109
20
29.2973265
40
0.6345318
50
5.4072971
51
17.0363711
0
ARC
8
DEFAULT_255_1_388
10
5.2619834
20
29.2713304
40
0.6250632
50
7.8888693
51
15.9242022
0
ARC
8
DEFAULT_255_1_388
10
5.4854819
20
29.3362309
40
0.3923364
50
15.7650676
51
27.9410069
0
ARC
8
DEFAULT_255_1_388
10
5.6096989
20
29.4027317
40
0.2514401
50
27.8167196
51
46.4007942
0
ARC
8
DEFAULT_255_1_388
10
5.615283
20
29.4020882
40
0.2480958
50
47.4372362
51
75.0695672
0
ARC
8
DEFAULT_255_1_388
10
5.5805666
20
29.2812277
40
0.3738281
50
74.7009379
51
87.8124314
0
ARC
8
DEFAULT_255_1_388
10
5.5723283
20
29.1628659
40
0.4924321
50
87.3802571
51
90.0251599
0
ARC
8
DEFAULT_255_1_388
10
5.567993
20
29.2948997
40
0.3604218
50
89.3451886
51
108.5744412
0
ARC
8
DEFAULT_255_1_388
10
5.5525922
20
29.3526836
40
0.3007661
50
109.2998307
51
143.3037387
0
ARC
8
DEFAULT_255_1_388
10
5.6383212
20
29.2867584
40
0.4089031
50
143.075267
51
163.1918576
0
ARC
8
DEFAULT_255_1_388
10
5.8579047
20
29.2174652
40
0.6391492
50
162.9375929
51
174.6208776
0
ARC
8
DEFAULT_255_1_388
10
6.1533428
20
29.1850711
40
0.9363344
50
174.342123
51
180.1430283
0
ARC
8
DEFAULT_255_1_388
10
6.048597
20
29.0507117
40
0.8315986
50
179.6817261
51
189.150555
0
ARC
8
DEFAULT_255_1_388
10
5.7672719
20
29.0038559
40
0.5464044
50
188.9911061
51
203.5772363
0
ARC
8
DEFAULT_255_1_388
10
5.645801
20
28.9534539
40
0.4149206
50
203.9075402
51
215.1312435
0
ARC
8
DEFAULT_255_1_388
10
5.5419808
20
28.8729907
40
0.2837747
50
213.9071511
51
263.8848919
0
ARC
8
DEFAULT_255_1_388
10
5.5560801
20
28.9612519
40
0.3730641
50
263.1757928
51
270.1031044
0
ARC
8
DEFAULT_255_1_388
10
5.5596881
20
29.1015511
40
0.5133712
50
269.6722503
51
279.0606936
0
ARC
8
DEFAULT_255_1_388
10
5.5897036
20
28.920115
40
0.3294739
50
278.8749101
51
293.6349581
0
ARC
8
DEFAULT_255_1_388
10
5.625724
20
28.8355251
40
0.2375405
50
293.8553806
51
310.0518171
0
ARC
8
DEFAULT_255_1_388
10
5.6262749
20
28.8285021
40
0.2318463
50
311.0644687
51
332.0111037
0
ARC
8
DEFAULT_255_1_388
10
5.4921422
20
28.9024702
40
0.3850112
50
331.6586806
51
343.2877423
0
ARC
8
DEFAULT_255_1_388
10
5.2600888
20
28.9737806
40
0.6277712
50
343.1446576
51
351.0103568
0
ARC
8
DEFAULT_255_1_388
10
5.0968211
20
29.0037873
40
0.7937327
50
350.71248
51
351.1626997
0
LINE
8
DEFAULT_255_1_388
10
4.9001322
20
36.4019
11
4.6146058
21
36.9340995
0
LINE
8
DEFAULT_255_1_388
10
4.6146058
20
36.9340995
11
4.3055868
21
36.9340995
0
LINE
8
DEFAULT_255_1_388
10
4.3055868
20
36.9340995
11
4.3055868
21
36.4019
0
LINE
8
DEFAULT_255_1_388
10
4.3055868
20
36.4019
11
4.1311988
21
36.4019
0
LINE
8
DEFAULT_255_1_388
10
4.1311988
20
36.4019
11
4.1311988
21
37.7174898
0
LINE
8
DEFAULT_255_1_388
10
4.1311988
20
37.7174898
11
4.5667169
21
37.7174898
0
LINE
8
DEFAULT_255_1_388
10
4.7772474
20
36.9711456
11
5.0862665
21
36.4127428
0
LINE
8
DEFAULT_255_1_388
10
5.0862665
20
36.4127428
11
5.0862665
21
36.4019
0
LINE
8
DEFAULT_255_1_388
10
5.0862665
20
36.4019
11
4.9001322
21
36.4019
0
LINE
8
DEFAULT_255_1_388
10
4.3055868
20
37.5747267
11
4.3055868
21
37.0759591
0
LINE
8
DEFAULT_255_1_388
10
4.3055868
20
37.0759591
11
4.5721383
21
37.0759591
0
LINE
8
DEFAULT_255_1_388
10
4.5712347
20
37.5747267
11
4.3055868
21
37.5747267
0
ARC
8
DEFAULT_255_1_388
10
4.5714015
20
36.9343346
40
0.7831693
50
80.6535681
51
90.3427203
0
ARC
8
DEFAULT_255_1_388
10
4.6185925
20
37.2113722
40
0.5021479
50
65.6987674
51
80.8330164
0
ARC
8
DEFAULT_255_1_388
10
4.6723219
20
37.3345479
40
0.3677787
50
50.0019152
51
65.4304412
0
ARC
8
DEFAULT_255_1_388
10
4.6969035
20
37.3677603
40
0.3265454
50
11.6284215
51
49.5603681
0
ARC
8
DEFAULT_255_1_388
10
4.5241521
20
37.3255524
40
0.5043009
50
359.5655533
51
12.3693319
0
ARC
8
DEFAULT_255_1_388
10
4.6452858
20
37.3185038
40
0.3831661
50
341.998418
51
0.4822212
0
ARC
8
DEFAULT_255_1_388
10
4.6897044
20
37.3064479
40
0.3372036
50
323.8610842
51
341.6141514
0
ARC
8
DEFAULT_255_1_388
10
4.655759
20
37.3326615
40
0.3800784
50
296.7019299
51
323.6876213
0
ARC
8
DEFAULT_255_1_388
10
4.6061548
20
37.4213532
40
0.4816219
50
290.808313
51
297.2325929
0
ARC
8
DEFAULT_255_1_388
10
4.5750342
20
37.4802377
40
0.404289
50
269.5895908
51
281.8058892
0
ARC
8
DEFAULT_255_1_388
10
4.6032608
20
37.351136
40
0.2721459
50
281.5499321
51
303.9358954
0
ARC
8
DEFAULT_255_1_388
10
4.6187143
20
37.3243588
40
0.2413121
50
304.4410786
51
311.211123
0
ARC
8
DEFAULT_255_1_388
10
4.6335548
20
37.3087152
40
0.2197678
50
310.9874923
51
356.2715203
0
ARC
8
DEFAULT_255_1_388
10
4.5485294
20
37.3213992
40
0.3055212
50
354.9346315
51
0.0617816
0
ARC
8
DEFAULT_255_1_388
10
4.5274135
20
37.3244427
40
0.3266482
50
359.5239293
51
12.8808621
0
ARC
8
DEFAULT_255_1_388
10
4.6373898
20
37.3513638
40
0.2134449
50
12.417206
51
43.1023141
0
ARC
8
DEFAULT_255_1_388
10
4.6443228
20
37.3555253
40
0.2055463
50
43.575886
51
48.2047245
0
ARC
8
DEFAULT_255_1_388
10
4.6252489
20
37.3306151
40
0.2368418
50
48.7809155
51
72.6968768
0
ARC
8
DEFAULT_255_1_388
10
4.5853853
20
37.2096385
40
0.364206
50
72.3699892
51
84.8793749
0
ARC
8
DEFAULT_255_1_388
10
4.5687859
20
37.0586651
40
0.5160674
50
84.5398226
51
89.7281165
0
LINE
8
DEFAULT_255_1_388
10
6.0901266
20
36.5383382
11
6.0901266
21
36.4019
0
LINE
8
DEFAULT_255_1_388
10
6.0901266
20
36.4019
11
5.2281261
21
36.4019
0
LINE
8
DEFAULT_255_1_388
10
5.2281261
20
36.4019
11
5.2281261
21
36.5220741
0
LINE
8
DEFAULT_255_1_388
10
5.2281261
20
36.5220741
11
5.6835226
21
37.0280702
0
LINE
8
DEFAULT_255_1_388
10
5.3699857
20
37.3298607
11
5.2028263
21
37.3298607
0
LINE
8
DEFAULT_255_1_388
10
5.7820111
20
36.920546
11
5.4296209
21
36.5383382
0
LINE
8
DEFAULT_255_1_388
10
5.4296209
20
36.5383382
11
6.0901266
21
36.5383382
0
ARC
8
DEFAULT_255_1_388
10
4.1659285
20
38.3700983
40
2.0258655
50
318.5132526
51
320.7829045
0
ARC
8
DEFAULT_255_1_388
10
4.7607242
20
37.8859929
40
1.2589638
50
320.7372878
51
323.9739031
0
ARC
8
DEFAULT_255_1_388
10
5.2016174
20
37.5665554
40
0.7145141
50
323.8962701
51
328.64194
0
ARC
8
DEFAULT_255_1_388
10
5.4318431
20
37.4245545
40
0.4440242
50
328.8294576
51
331.7891185
0
ARC
8
DEFAULT_255_1_388
10
5.5440751
20
37.3666374
40
0.3177517
50
331.4254512
51
352.9365785
0
ARC
8
DEFAULT_255_1_388
10
5.5593751
20
37.363205
40
0.3021496
50
353.2257659
51
0.0166158
0
ARC
8
DEFAULT_255_1_388
10
5.5830512
20
37.3657894
40
0.2784847
50
359.486299
51
15.9343185
0
ARC
8
DEFAULT_255_1_388
10
5.6400779
20
37.3811269
40
0.2194403
50
16.1712913
51
43.5286088
0
ARC
8
DEFAULT_255_1_388
10
5.6487723
20
37.3898191
40
0.2071504
50
43.4417391
51
83.1661095
0
ARC
8
DEFAULT_255_1_388
10
5.6336884
20
37.3069316
40
0.2912888
50
82.160179
51
90.1505708
0
ARC
8
DEFAULT_255_1_388
10
5.6301366
20
37.2465279
40
0.3517025
50
89.5460741
51
102.5418361
0
ARC
8
DEFAULT_255_1_388
10
5.6028086
20
37.3624933
40
0.2325748
50
102.1738499
51
129.206123
0
ARC
8
DEFAULT_255_1_388
10
5.5939539
20
37.3764664
40
0.2161591
50
129.72865
51
135.753947
0
ARC
8
DEFAULT_255_1_388
10
5.6076022
20
37.3655728
40
0.2335433
50
136.1757367
51
166.3673339
0
ARC
8
DEFAULT_255_1_388
10
5.720871
20
37.3352148
40
0.3507873
50
165.9090694
51
178.8684636
0
ARC
8
DEFAULT_255_1_388
10
5.8184481
20
37.3299263
40
0.4484624
50
178.4391136
51
180.0083808
0
ARC
8
DEFAULT_255_1_388
10
5.6605183
20
37.3343197
40
0.4577138
50
163.2878482
51
180.5581842
0
ARC
8
DEFAULT_255_1_388
10
5.5703224
20
37.3591393
40
0.3641968
50
133.4540601
51
162.947111
0
ARC
8
DEFAULT_255_1_388
10
5.5904106
20
37.3377789
40
0.3935189
50
100.7869829
51
133.4382499
0
ARC
8
DEFAULT_255_1_388
10
5.6295351
20
37.1635399
40
0.5720313
50
89.660664
51
101.3702276
0
ARC
8
DEFAULT_255_1_388
10
5.636996
20
37.1704263
40
0.5651495
50
78.2172678
51
90.412935
0
ARC
8
DEFAULT_255_1_388
10
5.6769426
20
37.3531511
40
0.378122
50
55.9269121
51
78.4888449
0
ARC
8
DEFAULT_255_1_388
10
5.6990141
20
37.3912187
40
0.3342379
50
47.929771
51
55.4049217
0
ARC
8
DEFAULT_255_1_388
10
5.7104671
20
37.4028618
40
0.3179217
50
4.334829
51
48.0560205
0
ARC
8
DEFAULT_255_1_388
10
5.5872473
20
37.3837487
40
0.442341
50
359.9251713
51
5.5971671
0
ARC
8
DEFAULT_255_1_388
10
5.6354627
20
37.3900728
40
0.3941854
50
337.8914027
51
358.9967534
0
ARC
8
DEFAULT_255_1_388
10
5.3302198
20
37.5078295
40
0.7213271
50
326.9132501
51
338.3508308
0
ARC
8
DEFAULT_255_1_388
10
4.8818309
20
37.7952105
40
1.2538973
50
319.6471833
51
327.0959558
0
ARC
8
DEFAULT_255_1_388
10
4.4504968
20
38.151005
40
1.8129975
50
317.2588228
51
319.9045804
0
LINE
8
DEFAULT_255_1_388
10
6.6322652
20
37.0289737
11
6.6322652
21
36.8925355
0
LINE
8
DEFAULT_255_1_388
10
6.6322652
20
36.8925355
11
6.1913258
21
36.8925355
0
LINE
8
DEFAULT_255_1_388
10
6.1913258
20
36.8925355
11
6.1913258
21
37.0289737
0
LINE
8
DEFAULT_255_1_388
10
6.1913258
20
37.0289737
11
6.6322652
21
37.0289737
0
LINE
8
DEFAULT_255_1_388
10
4.7637322
20
44.3394
11
4.4782058
21
44.8715995
0
LINE
8
DEFAULT_255_1_388
10
4.4782058
20
44.8715995
11
4.1691868
21
44.8715995
0
LINE
8
DEFAULT_255_1_388
10
4.1691868
20
44.8715995
11
4.1691868
21
44.3394
0
LINE
8
DEFAULT_255_1_388
10
4.1691868
20
44.3394
11
3.9947988
21
44.3394
0
LINE
8
DEFAULT_255_1_388
10
3.9947988
20
44.3394
11
3.9947988
21
45.6549898
0
LINE
8
DEFAULT_255_1_388
10
3.9947988
20
45.6549898
11
4.4303169
21
45.6549898
0
LINE
8
DEFAULT_255_1_388
10
4.6408474
20
44.9086456
11
4.9498665
21
44.3502428
0
LINE
8
DEFAULT_255_1_388
10
4.9498665
20
44.3502428
11
4.9498665
21
44.3394
0
LINE
8
DEFAULT_255_1_388
10
4.9498665
20
44.3394
11
4.7637322
21
44.3394
0
LINE
8
DEFAULT_255_1_388
10
4.1691868
20
45.5122267
11
4.1691868
21
45.0134591
0
LINE
8
DEFAULT_255_1_388
10
4.1691868
20
45.0134591
11
4.4357383
21
45.0134591
0
LINE
8
DEFAULT_255_1_388
10
4.4348347
20
45.5122267
11
4.1691868
21
45.5122267
0
ARC
8
DEFAULT_255_1_388
10
4.4350015
20
44.8718346
40
0.7831693
50
80.6535681
51
90.3427203
0
ARC
8
DEFAULT_255_1_388
10
4.4821925
20
45.1488722
40
0.5021479
50
65.6987674
51
80.8330164
0
ARC
8
DEFAULT_255_1_388
10
4.5359219
20
45.2720479
40
0.3677787
50
50.0019152
51
65.4304412
0
ARC
8
DEFAULT_255_1_388
10
4.5605035
20
45.3052603
40
0.3265454
50
11.6284215
51
49.5603681
0
ARC
8
DEFAULT_255_1_388
10
4.3877521
20
45.2630524
40
0.5043009
50
359.5655533
51
12.3693319
0
ARC
8
DEFAULT_255_1_388
10
4.5088858
20
45.2560038
40
0.3831661
50
341.998418
51
0.4822212
0
ARC
8
DEFAULT_255_1_388
10
4.5533044
20
45.2439479
40
0.3372036
50
323.8610842
51
341.6141514
0
ARC
8
DEFAULT_255_1_388
10
4.519359
20
45.2701615
40
0.3800784
50
296.7019299
51
323.6876213
0
ARC
8
DEFAULT_255_1_388
10
4.4697548
20
45.3588532
40
0.4816219
50
290.808313
51
297.2325929
0
ARC
8
DEFAULT_255_1_388
10
4.4386342
20
45.4177377
40
0.404289
50
269.5895908
51
281.8058892
0
ARC
8
DEFAULT_255_1_388
10
4.4668608
20
45.288636
40
0.2721459
50
281.5499321
51
303.9358954
0
ARC
8
DEFAULT_255_1_388
10
4.4823143
20
45.2618588
40
0.2413121
50
304.4410786
51
311.211123
0
ARC
8
DEFAULT_255_1_388
10
4.4971548
20
45.2462152
40
0.2197678
50
310.9874923
51
356.2715203
0
ARC
8
DEFAULT_255_1_388
10
4.4121294
20
45.2588992
40
0.3055212
50
354.9346315
51
0.0617816
0
ARC
8
DEFAULT_255_1_388
10
4.3910135
20
45.2619427
40
0.3266482
50
359.5239293
51
12.8808621
0
ARC
8
DEFAULT_255_1_388
10
4.5009898
20
45.2888638
40
0.2134449
50
12.417206
51
43.1023141
0
ARC
8
DEFAULT_255_1_388
10
4.5079228
20
45.2930253
40
0.2055463
50
43.575886
51
48.2047245
0
ARC
8
DEFAULT_255_1_388
10
4.4888489
20
45.2681151
40
0.2368418
50
48.7809155
51
72.6968768
0
ARC
8
DEFAULT_255_1_388
10
4.4489853
20
45.1471385
40
0.364206
50
72.3699892
51
84.8793749
0
ARC
8
DEFAULT_255_1_388
10
4.4323859
20
44.9961651
40
0.5160674
50
84.5398226
51
89.7281165
0
LINE
8
DEFAULT_255_1_388
10
5.9537266
20
44.4758382
11
5.9537266
21
44.3394
0
LINE
8
DEFAULT_255_1_388
10
5.9537266
20
44.3394
11
5.0917261
21
44.3394
0
LINE
8
DEFAULT_255_1_388
10
5.0917261
20
44.3394
11
5.0917261
21
44.4595741
0
LINE
8
DEFAULT_255_1_388
10
5.0917261
20
44.4595741
11
5.5471226
21
44.9655702
0
LINE
8
DEFAULT_255_1_388
10
5.2335857
20
45.2673607
11
5.0664263
21
45.2673607
0
LINE
8
DEFAULT_255_1_388
10
5.6456111
20
44.858046
11
5.2932209
21
44.4758382
0
LINE
8
DEFAULT_255_1_388
10
5.2932209
20
44.4758382
11
5.9537266
21
44.4758382
0
ARC
8
DEFAULT_255_1_388
10
4.0295285
20
46.3075983
40
2.0258655
50
318.5132526
51
320.7829045
0
ARC
8
DEFAULT_255_1_388
10
4.6243242
20
45.8234929
40
1.2589638
50
320.7372878
51
323.9739031
0
ARC
8
DEFAULT_255_1_388
10
5.0652174
20
45.5040554
40
0.7145141
50
323.8962701
51
328.64194
0
ARC
8
DEFAULT_255_1_388
10
5.2954431
20
45.3620545
40
0.4440242
50
328.8294576
51
331.7891185
0
ARC
8
DEFAULT_255_1_388
10
5.4076751
20
45.3041374
40
0.3177517
50
331.4254512
51
352.9365785
0
ARC
8
DEFAULT_255_1_388
10
5.4229751
20
45.300705
40
0.3021496
50
353.2257659
51
0.0166158
0
ARC
8
DEFAULT_255_1_388
10
5.4466512
20
45.3032894
40
0.2784847
50
359.486299
51
15.9343185
0
ARC
8
DEFAULT_255_1_388
10
5.5036779
20
45.3186269
40
0.2194403
50
16.1712913
51
43.5286088
0
ARC
8
DEFAULT_255_1_388
10
5.5123723
20
45.3273191
40
0.2071504
50
43.4417391
51
83.1661095
0
ARC
8
DEFAULT_255_1_388
10
5.4972884
20
45.2444316
40
0.2912888
50
82.160179
51
90.1505708
0
ARC
8
DEFAULT_255_1_388
10
5.4937366
20
45.1840279
40
0.3517025
50
89.5460741
51
102.5418361
0
ARC
8
DEFAULT_255_1_388
10
5.4664086
20
45.2999933
40
0.2325748
50
102.1738499
51
129.206123
0
ARC
8
DEFAULT_255_1_388
10
5.4575539
20
45.3139664
40
0.2161591
50
129.72865
51
135.753947
0
ARC
8
DEFAULT_255_1_388
10
5.4712022
20
45.3030728
40
0.2335433
50
136.1757367
51
166.3673339
0
ARC
8
DEFAULT_255_1_388
10
5.584471
20
45.2727148
40
0.3507873
50
165.9090694
51
178.8684636
0
ARC
8
DEFAULT_255_1_388
10
5.6820481
20
45.2674263
40
0.4484624
50
178.4391136
51
180.0083808
0
ARC
8
DEFAULT_255_1_388
10
5.5241183
20
45.2718197
40
0.4577138
50
163.2878482
51
180.5581842
0
ARC
8
DEFAULT_255_1_388
10
5.4339224
20
45.2966393
40
0.3641968
50
133.4540601
51
162.947111
0
ARC
8
DEFAULT_255_1_388
10
5.4540106
20
45.2752789
40
0.3935189
50
100.7869829
51
133.4382499
0
ARC
8
DEFAULT_255_1_388
10
5.4931351
20
45.1010399
40
0.5720313
50
89.660664
51
101.3702276
0
ARC
8
DEFAULT_255_1_388
10
5.500596
20
45.1079263
40
0.5651495
50
78.2172678
51
90.412935
0
ARC
8
DEFAULT_255_1_388
10
5.5405426
20
45.2906511
40
0.378122
50
55.9269121
51
78.4888449
0
ARC
8
DEFAULT_255_1_388
10
5.5626141
20
45.3287187
40
0.3342379
50
47.929771
51
55.4049217
0
ARC
8
DEFAULT_255_1_388
10
5.5740671
20
45.3403618
40
0.3179217
50
4.334829
51
48.0560205
0
ARC
8
DEFAULT_255_1_388
10
5.4508473
20
45.3212487
40
0.442341
50
359.9251713
51
5.5971671
0
ARC
8
DEFAULT_255_1_388
10
5.4990627
20
45.3275728
40
0.3941854
50
337.8914027
51
358.9967534
0
ARC
8
DEFAULT_255_1_388
10
5.1938198
20
45.4453295
40
0.7213271
50
326.9132501
51
338.3508308
0
ARC
8
DEFAULT_255_1_388
10
4.7454309
20
45.7327105
40
1.2538973
50
319.6471833
51
327.0959558
0
ARC
8
DEFAULT_255_1_388
10
4.3140968
20
46.088505
40
1.8129975
50
317.2588228
51
319.9045804
0
LINE
8
DEFAULT_255_1_388
10
6.6268821
20
45.4290987
11
6.6268821
21
45.0450838
0
LINE
8
DEFAULT_255_1_388
10
6.6268821
20
45.0450838
11
6.9937292
21
45.0450838
0
LINE
8
DEFAULT_255_1_388
10
6.9937292
20
45.0450838
11
6.9937292
21
44.8869601
0
LINE
8
DEFAULT_255_1_388
10
6.9937292
20
44.8869601
11
6.6268821
21
44.8869601
0
LINE
8
DEFAULT_255_1_388
10
6.6268821
20
44.8869601
11
6.6268821
21
44.4713204
0
LINE
8
DEFAULT_255_1_388
10
6.6268821
20
44.4713204
11
6.4588191
21
44.4713204
0
LINE
8
DEFAULT_255_1_388
10
6.4588191
20
44.4713204
11
6.4588191
21
44.8869601
0
LINE
8
DEFAULT_255_1_388
10
6.4588191
20
44.8869601
11
6.0919719
21
44.8869601
0
LINE
8
DEFAULT_255_1_388
10
6.0919719
20
44.8869601
11
6.0919719
21
45.0450838
0
LINE
8
DEFAULT_255_1_388
10
6.0919719
20
45.0450838
11
6.4588191
21
45.0450838
0
LINE
8
DEFAULT_255_1_388
10
6.4588191
20
45.0450838
11
6.4588191
21
45.4290987
0
LINE
8
DEFAULT_255_1_388
10
6.4588191
20
45.4290987
11
6.6268821
21
45.4290987
0
LINE
8
DEFAULT_255_1_388
10
4.5546985
20
53.5988148
11
4.5546985
21
52.2769
0
LINE
8
DEFAULT_255_1_388
10
4.5546985
20
52.2769
11
4.3866355
21
52.2769
0
LINE
8
DEFAULT_255_1_388
10
4.3866355
20
52.2769
11
4.3866355
21
53.390995
0
LINE
8
DEFAULT_255_1_388
10
4.3866355
20
53.390995
11
4.049606
21
53.2672066
0
LINE
8
DEFAULT_255_1_388
10
4.049606
20
53.2672066
11
4.049606
21
53.4190055
0
LINE
8
DEFAULT_255_1_388
10
4.049606
20
53.4190055
11
4.5284951
21
53.5988148
0
LINE
8
DEFAULT_255_1_388
10
4.5284951
20
53.5988148
11
4.5546985
21
53.5988148
0
LINE
8
DEFAULT_255_1_388
10
5.8811311
20
52.6943468
11
6.055519
21
52.6943468
0
LINE
8
DEFAULT_255_1_388
10
5.0426233
20
52.8732525
11
5.0426233
21
52.9997516
0
LINE
8
DEFAULT_255_1_388
10
6.055519
20
53.1696217
11
5.8811311
21
53.1696217
0
LINE
8
DEFAULT_255_1_388
10
5.2170112
20
52.9952337
11
5.2170112
21
52.8678312
0
ARC
8
DEFAULT_255_1_388
10
5.4389424
20
52.7615329
40
0.6202263
50
340.1774904
51
353.7812217
0
ARC
8
DEFAULT_255_1_388
10
5.6157277
20
52.6956893
40
0.4315926
50
311.4560052
51
340.4420756
0
ARC
8
DEFAULT_255_1_388
10
5.6119817
20
52.7081665
40
0.4434573
50
282.4332229
51
310.7514507
0
ARC
8
DEFAULT_255_1_388
10
5.5625635
20
52.9123703
40
0.6535262
50
269.9358869
51
282.8096729
0
ARC
8
DEFAULT_255_1_388
10
5.5567574
20
53.0636329
40
0.8048043
50
269.9995752
51
270.3612856
0
ARC
8
DEFAULT_255_1_388
10
5.5508064
20
52.7837781
40
0.5249831
50
250.7885263
51
270.6488451
0
ARC
8
DEFAULT_255_1_388
10
5.5318889
20
52.7120853
40
0.4510942
50
219.3628377
51
250.0611024
0
ARC
8
DEFAULT_255_1_388
10
5.6251763
20
52.7913653
40
0.5735046
50
193.5480293
51
219.5755675
0
ARC
8
DEFAULT_255_1_388
10
5.8919972
20
52.860652
40
0.849146
50
181.1220183
51
193.8754971
0
ARC
8
DEFAULT_255_1_388
10
6.1243206
20
52.8730914
40
1.0816971
50
179.9914644
51
181.5398227
0
ARC
8
DEFAULT_255_1_388
10
5.9166516
20
53.0039586
40
0.8740384
50
169.5837606
51
180.275782
0
ARC
8
DEFAULT_255_1_388
10
5.7099864
20
53.0421439
40
0.6638751
50
155.0367033
51
169.6002779
0
ARC
8
DEFAULT_255_1_388
10
5.5822322
20
53.1037336
40
0.5220662
50
136.7831557
51
155.2472983
0
ARC
8
DEFAULT_255_1_388
10
5.5384113
20
53.1409577
40
0.4646502
50
121.7633063
51
136.4281161
0
ARC
8
DEFAULT_255_1_388
10
5.5535953
20
53.1129049
40
0.4964979
50
95.6460018
51
121.5489589
0
ARC
8
DEFAULT_255_1_388
10
5.5712927
20
52.9881704
40
0.6223912
50
89.9245727
51
96.1375919
0
ARC
8
DEFAULT_255_1_388
10
5.5769632
20
53.0015721
40
0.6090084
50
76.6779212
51
90.456405
0
ARC
8
DEFAULT_255_1_388
10
5.6212445
20
53.180506
40
0.42469
50
47.4858803
51
76.9287069
0
ARC
8
DEFAULT_255_1_388
10
5.6047059
20
53.1692623
40
0.4441778
50
16.5424081
51
46.8934505
0
ARC
8
DEFAULT_255_1_388
10
5.4238109
20
53.1098265
40
0.6345318
50
5.4072971
51
17.0363711
0
ARC
8
DEFAULT_255_1_388
10
5.2619834
20
53.0838304
40
0.6250632
50
7.8888693
51
15.9242022
0
ARC
8
DEFAULT_255_1_388
10
5.4854819
20
53.1487309
40
0.3923364
50
15.7650676
51
27.9410069
0
ARC
8
DEFAULT_255_1_388
10
5.6096989
20
53.2152317
40
0.2514401
50
27.8167196
51
46.4007942
0
ARC
8
DEFAULT_255_1_388
10
5.615283
20
53.2145882
40
0.2480958
50
47.4372362
51
75.0695672
0
ARC
8
DEFAULT_255_1_388
10
5.5805666
20
53.0937277
40
0.3738281
50
74.7009379
51
87.8124314
0
ARC
8
DEFAULT_255_1_388
10
5.5723283
20
52.9753659
40
0.4924321
50
87.3802571
51
90.0251599
0
ARC
8
DEFAULT_255_1_388
10
5.567993
20
53.1073997
40
0.3604218
50
89.3451886
51
108.5744412
0
ARC
8
DEFAULT_255_1_388
10
5.5525922
20
53.1651836
40
0.3007661
50
109.2998307
51
143.3037387
0
ARC
8
DEFAULT_255_1_388
10
5.6383212
20
53.0992584
40
0.4089031
50
143.075267
51
163.1918576
0
ARC
8
DEFAULT_255_1_388
10
5.8579047
20
53.0299652
40
0.6391492
50
162.9375929
51
174.6208776
0
ARC
8
DEFAULT_255_1_388
10
6.1533428
20
52.9975711
40
0.9363344
50
174.342123
51
180.1430283
0
ARC
8
DEFAULT_255_1_388
10
6.048597
20
52.8632117
40
0.8315986
50
179.6817261
51
189.150555
0
ARC
8
DEFAULT_255_1_388
10
5.7672719
20
52.8163559
40
0.5464044
50
188.9911061
51
203.5772363
0
ARC
8
DEFAULT_255_1_388
10
5.645801
20
52.7659539
40
0.4149206
50
203.9075402
51
215.1312435
0
ARC
8
DEFAULT_255_1_388
10
5.5419808
20
52.6854907
40
0.2837747
50
213.9071511
51
263.8848919
0
ARC
8
DEFAULT_255_1_388
10
5.5560801
20
52.7737519
40
0.3730641
50
263.1757928
51
270.1031044
0
ARC
8
DEFAULT_255_1_388
10
5.5596881
20
52.9140511
40
0.5133712
50
269.6722503
51
279.0606936
0
ARC
8
DEFAULT_255_1_388
10
5.5897036
20
52.732615
40
0.3294739
50
278.8749101
51
293.6349581
0
ARC
8
DEFAULT_255_1_388
10
5.625724
20
52.6480251
40
0.2375405
50
293.8553806
51
310.0518171
0
ARC
8
DEFAULT_255_1_388
10
5.6262749
20
52.6410021
40
0.2318463
50
311.0644687
51
332.0111037
0
ARC
8
DEFAULT_255_1_388
10
5.4921422
20
52.7149702
40
0.3850112
50
331.6586806
51
343.2877423
0
ARC
8
DEFAULT_255_1_388
10
5.2600888
20
52.7862806
40
0.6277712
50
343.1446576
51
351.0103568
0
ARC
8
DEFAULT_255_1_388
10
5.0968211
20
52.8162873
40
0.7937327
50
350.71248
51
351.1626997
0
LINE
8
DEFAULT_255_1_388
10
4.9001322
20
60.2144
11
4.6146058
21
60.7465995
0
LINE
8
DEFAULT_255_1_388
10
4.6146058
20
60.7465995
11
4.3055868
21
60.7465995
0
LINE
8
DEFAULT_255_1_388
10
4.3055868
20
60.7465995
11
4.3055868
21
60.2144
0
LINE
8
DEFAULT_255_1_388
10
4.3055868
20
60.2144
11
4.1311988
21
60.2144
0
LINE
8
DEFAULT_255_1_388
10
4.1311988
20
60.2144
11
4.1311988
21
61.5299898
0
LINE
8
DEFAULT_255_1_388
10
4.1311988
20
61.5299898
11
4.5667169
21
61.5299898
0
LINE
8
DEFAULT_255_1_388
10
4.7772474
20
60.7836456
11
5.0862665
21
60.2252428
0
LINE
8
DEFAULT_255_1_388
10
5.0862665
20
60.2252428
11
5.0862665
21
60.2144
0
LINE
8
DEFAULT_255_1_388
10
5.0862665
20
60.2144
11
4.9001322
21
60.2144
0
LINE
8
DEFAULT_255_1_388
10
4.3055868
20
61.3872267
11
4.3055868
21
60.8884591
0
LINE
8
DEFAULT_255_1_388
10
4.3055868
20
60.8884591
11
4.5721383
21
60.8884591
0
LINE
8
DEFAULT_255_1_388
10
4.5712347
20
61.3872267
11
4.3055868
21
61.3872267
0
ARC
8
DEFAULT_255_1_388
10
4.5714015
20
60.7468346
40
0.7831693
50
80.6535681
51
90.3427203
0
ARC
8
DEFAULT_255_1_388
10
4.6185925
20
61.0238722
40
0.5021479
50
65.6987674
51
80.8330164
0
ARC
8
DEFAULT_255_1_388
10
4.6723219
20
61.1470479
40
0.3677787
50
50.0019152
51
65.4304412
0
ARC
8
DEFAULT_255_1_388
10
4.6969035
20
61.1802603
40
0.3265454
50
11.6284215
51
49.5603681
0
ARC
8
DEFAULT_255_1_388
10
4.5241521
20
61.1380524
40
0.5043009
50
359.5655533
51
12.3693319
0
ARC
8
DEFAULT_255_1_388
10
4.6452858
20
61.1310038
40
0.3831661
50
341.998418
51
0.4822212
0
ARC
8
DEFAULT_255_1_388
10
4.6897044
20
61.1189479
40
0.3372036
50
323.8610842
51
341.6141514
0
ARC
8
DEFAULT_255_1_388
10
4.655759
20
61.1451615
40
0.3800784
50
296.7019299
51
323.6876213
0
ARC
8
DEFAULT_255_1_388
10
4.6061548
20
61.2338532
40
0.4816219
50
290.808313
51
297.2325929
0
ARC
8
DEFAULT_255_1_388
10
4.5750342
20
61.2927377
40
0.404289
50
269.5895908
51
281.8058892
0
ARC
8
DEFAULT_255_1_388
10
4.6032608
20
61.163636
40
0.2721459
50
281.5499321
51
303.9358954
0
ARC
8
DEFAULT_255_1_388
10
4.6187143
20
61.1368588
40
0.2413121
50
304.4410786
51
311.211123
0
ARC
8
DEFAULT_255_1_388
10
4.6335548
20
61.1212152
40
0.2197678
50
310.9874923
51
356.2715203
0
ARC
8
DEFAULT_255_1_388
10
4.5485294
20
61.1338992
40
0.3055212
50
354.9346315
51
0.0617816
0
ARC
8
DEFAULT_255_1_388
10
4.5274135
20
61.1369427
40
0.3266482
50
359.5239293
51
12.8808621
0
ARC
8
DEFAULT_255_1_388
10
4.6373898
20
61.1638638
40
0.2134449
50
12.417206
51
43.1023141
0
ARC
8
DEFAULT_255_1_388
10
4.6443228
20
61.1680253
40
0.2055463
50
43.575886
51
48.2047245
0
ARC
8
DEFAULT_255_1_388
10
4.6252489
20
61.1431151
40
0.2368418
50
48.7809155
51
72.6968768
0
ARC
8
DEFAULT_255_1_388
10
4.5853853
20
61.0221385
40
0.364206
50
72.3699892
51
84.8793749
0
ARC
8
DEFAULT_255_1_388
10
4.5687859
20
60.8711651
40
0.5160674
50
84.5398226
51
89.7281165
0
LINE
8
DEFAULT_255_1_388
10
5.7774933
20
61.5363148
11
5.7774933
21
60.2144
0
LINE
8
DEFAULT_255_1_388
10
5.7774933
20
60.2144
11
5.6094303
21
60.2144
0
LINE
8
DEFAULT_255_1_388
10
5.6094303
20
60.2144
11
5.6094303
21
61.328495
0
LINE
8
DEFAULT_255_1_388
10
5.6094303
20
61.328495
11
5.2724007
21
61.2047066
0
LINE
8
DEFAULT_255_1_388
10
5.2724007
20
61.2047066
11
5.2724007
21
61.3565055
0
LINE
8
DEFAULT_255_1_388
10
5.2724007
20
61.3565055
11
5.7512899
21
61.5363148
0
LINE
8
DEFAULT_255_1_388
10
5.7512899
20
61.5363148
11
5.7774933
21
61.5363148
0
LINE
8
DEFAULT_255_1_388
10
6.6322652
20
60.8414737
11
6.6322652
21
60.7050355
0
LINE
8
DEFAULT_255_1_388
10
6.6322652
20
60.7050355
11
6.1913258
21
60.7050355
0
LINE
8
DEFAULT_255_1_388
10
6.1913258
20
60.7050355
11
6.1913258
21
60.8414737
0
LINE
8
DEFAULT_255_1_388
10
6.1913258
20
60.8414737
11
6.6322652
21
60.8414737
0
LINE
8
DEFAULT_255_1_388
10
4.7637322
20
68.1519
11
4.4782058
21
68.6840995
0
LINE
8
DEFAULT_255_1_388
10
4.4782058
20
68.6840995
11
4.1691868
21
68.6840995
0
LINE
8
DEFAULT_255_1_388
10
4.1691868
20
68.6840995
11
4.1691868
21
68.1519
0
LINE
8
DEFAULT_255_1_388
10
4.1691868
20
68.1519
11
3.9947988
21
68.1519
0
LINE
8
DEFAULT_255_1_388
10
3.9947988
20
68.1519
11
3.9947988
21
69.4674898
0
LINE
8
DEFAULT_255_1_388
10
3.9947988
20
69.4674898
11
4.4303169
21
69.4674898
0
LINE
8
DEFAULT_255_1_388
10
4.6408474
20
68.7211456
11
4.9498665
21
68.1627428
0
LINE
8
DEFAULT_255_1_388
10
4.9498665
20
68.1627428
11
4.9498665
21
68.1519
0
LINE
8
DEFAULT_255_1_388
10
4.9498665
20
68.1519
11
4.7637322
21
68.1519
0
LINE
8
DEFAULT_255_1_388
10
4.1691868
20
69.3247267
11
4.1691868
21
68.8259591
0
LINE
8
DEFAULT_255_1_388
10
4.1691868
20
68.8259591
11
4.4357383
21
68.8259591
0
LINE
8
DEFAULT_255_1_388
10
4.4348347
20
69.3247267
11
4.1691868
21
69.3247267
0
ARC
8
DEFAULT_255_1_388
10
4.4350015
20
68.6843346
40
0.7831693
50
80.6535681
51
90.3427203
0
ARC
8
DEFAULT_255_1_388
10
4.4821925
20
68.9613722
40
0.5021479
50
65.6987674
51
80.8330164
0
ARC
8
DEFAULT_255_1_388
10
4.5359219
20
69.0845479
40
0.3677787
50
50.0019152
51
65.4304412
0
ARC
8
DEFAULT_255_1_388
10
4.5605035
20
69.1177603
40
0.3265454
50
11.6284215
51
49.5603681
0
ARC
8
DEFAULT_255_1_388
10
4.3877521
20
69.0755524
40
0.5043009
50
359.5655533
51
12.3693319
0
ARC
8
DEFAULT_255_1_388
10
4.5088858
20
69.0685038
40
0.3831661
50
341.998418
51
0.4822212
0
ARC
8
DEFAULT_255_1_388
10
4.5533044
20
69.0564479
40
0.3372036
50
323.8610842
51
341.6141514
0
ARC
8
DEFAULT_255_1_388
10
4.519359
20
69.0826615
40
0.3800784
50
296.7019299
51
323.6876213
0
ARC
8
DEFAULT_255_1_388
10
4.4697548
20
69.1713532
40
0.4816219
50
290.808313
51
297.2325929
0
ARC
8
DEFAULT_255_1_388
10
4.4386342
20
69.2302377
40
0.404289
50
269.5895908
51
281.8058892
0
ARC
8
DEFAULT_255_1_388
10
4.4668608
20
69.101136
40
0.2721459
50
281.5499321
51
303.9358954
0
ARC
8
DEFAULT_255_1_388
10
4.4823143
20
69.0743588
40
0.2413121
50
304.4410786
51
311.211123
0
ARC
8
DEFAULT_255_1_388
10
4.4971548
20
69.0587152
40
0.2197678
50
310.9874923
51
356.2715203
0
ARC
8
DEFAULT_255_1_388
10
4.4121294
20
69.0713992
40
0.3055212
50
354.9346315
51
0.0617816
0
ARC
8
DEFAULT_255_1_388
10
4.3910135
20
69.0744427
40
0.3266482
50
359.5239293
51
12.8808621
0
ARC
8
DEFAULT_255_1_388
10
4.5009898
20
69.1013638
40
0.2134449
50
12.417206
51
43.1023141
0
ARC
8
DEFAULT_255_1_388
10
4.5079228
20
69.1055253
40
0.2055463
50
43.575886
51
48.2047245
0
ARC
8
DEFAULT_255_1_388
10
4.4888489
20
69.0806151
40
0.2368418
50
48.7809155
51
72.6968768
0
ARC
8
DEFAULT_255_1_388
10
4.4489853
20
68.9596385
40
0.364206
50
72.3699892
51
84.8793749
0
ARC
8
DEFAULT_255_1_388
10
4.4323859
20
68.8086651
40
0.5160674
50
84.5398226
51
89.7281165
0
LINE
8
DEFAULT_255_1_388
10
5.6410933
20
69.4738148
11
5.6410933
21
68.1519
0
LINE
8
DEFAULT_255_1_388
10
5.6410933
20
68.1519
11
5.4730303
21
68.1519
0
LINE
8
DEFAULT_255_1_388
10
5.4730303
20
68.1519
11
5.4730303
21
69.265995
0
LINE
8
DEFAULT_255_1_388
10
5.4730303
20
69.265995
11
5.1360007
21
69.1422066
0
LINE
8
DEFAULT_255_1_388
10
5.1360007
20
69.1422066
11
5.1360007
21
69.2940055
0
LINE
8
DEFAULT_255_1_388
10
5.1360007
20
69.2940055
11
5.6148899
21
69.4738148
0
LINE
8
DEFAULT_255_1_388
10
5.6148899
20
69.4738148
11
5.6410933
21
69.4738148
0
LINE
8
DEFAULT_255_1_388
10
6.6268821
20
69.2415987
11
6.6268821
21
68.8575838
0
LINE
8
DEFAULT_255_1_388
10
6.6268821
20
68.8575838
11
6.9937292
21
68.8575838
0
LINE
8
DEFAULT_255_1_388
10
6.9937292
20
68.8575838
11
6.9937292
21
68.6994601
0
LINE
8
DEFAULT_255_1_388
10
6.9937292
20
68.6994601
11
6.6268821
21
68.6994601
0
LINE
8
DEFAULT_255_1_388
10
6.6268821
20
68.6994601
11
6.6268821
21
68.2838204
0
LINE
8
DEFAULT_255_1_388
10
6.6268821
20
68.2838204
11
6.4588191
21
68.2838204
0
LINE
8
DEFAULT_255_1_388
10
6.4588191
20
68.2838204
11
6.4588191
21
68.6994601
0
LINE
8
DEFAULT_255_1_388
10
6.4588191
20
68.6994601
11
6.0919719
21
68.6994601
0
LINE
8
DEFAULT_255_1_388
10
6.0919719
20
68.6994601
11
6.0919719
21
68.8575838
0
LINE
8
DEFAULT_255_1_388
10
6.0919719
20
68.8575838
11
6.4588191
21
68.8575838
0
LINE
8
DEFAULT_255_1_388
10
6.4588191
20
68.8575838
11
6.4588191
21
69.2415987
0
LINE
8
DEFAULT_255_1_388
10
6.4588191
20
69.2415987
11
6.6268821
21
69.2415987
0
LINE
8
DEFAULT_255_1_388
10
4.5546985
20
77.4113148
11
4.5546985
21
76.0894
0
LINE
8
DEFAULT_255_1_388
10
4.5546985
20
76.0894
11
4.3866355
21
76.0894
0
LINE
8
DEFAULT_255_1_388
10
4.3866355
20
76.0894
11
4.3866355
21
77.203495
0
LINE
8
DEFAULT_255_1_388
10
4.3866355
20
77.203495
11
4.049606
21
77.0797066
0
LINE
8
DEFAULT_255_1_388
10
4.049606
20
77.0797066
11
4.049606
21
77.2315055
0
LINE
8
DEFAULT_255_1_388
10
4.049606
20
77.2315055
11
4.5284951
21
77.4113148
0
LINE
8
DEFAULT_255_1_388
10
4.5284951
20
77.4113148
11
4.5546985
21
77.4113148
0
LINE
8
DEFAULT_255_1_388
10
5.8811311
20
76.5068468
11
6.055519
21
76.5068468
0
LINE
8
DEFAULT_255_1_388
10
5.0426233
20
76.6857525
11
5.0426233
21
76.8122516
0
LINE
8
DEFAULT_255_1_388
10
6.055519
20
76.9821217
11
5.8811311
21
76.9821217
0
LINE
8
DEFAULT_255_1_388
10
5.2170112
20
76.8077337
11
5.2170112
21
76.6803312
0
ARC
8
DEFAULT_255_1_388
10
5.4389424
20
76.5740329
40
0.6202263
50
340.1774904
51
353.7812217
0
ARC
8
DEFAULT_255_1_388
10
5.6157277
20
76.5081893
40
0.4315926
50
311.4560052
51
340.4420756
0
ARC
8
DEFAULT_255_1_388
10
5.6119817
20
76.5206665
40
0.4434573
50
282.4332229
51
310.7514507
0
ARC
8
DEFAULT_255_1_388
10
5.5625635
20
76.7248703
40
0.6535262
50
269.9358869
51
282.8096729
0
ARC
8
DEFAULT_255_1_388
10
5.5567574
20
76.8761329
40
0.8048043
50
269.9995752
51
270.3612856
0
ARC
8
DEFAULT_255_1_388
10
5.5508064
20
76.5962781
40
0.5249831
50
250.7885263
51
270.6488451
0
ARC
8
DEFAULT_255_1_388
10
5.5318889
20
76.5245853
40
0.4510942
50
219.3628377
51
250.0611024
0
ARC
8
DEFAULT_255_1_388
10
5.6251763
20
76.6038653
40
0.5735046
50
193.5480293
51
219.5755675
0
ARC
8
DEFAULT_255_1_388
10
5.8919972
20
76.673152
40
0.849146
50
181.1220183
51
193.8754971
0
ARC
8
DEFAULT_255_1_388
10
6.1243206
20
76.6855914
40
1.0816971
50
179.9914644
51
181.5398227
0
ARC
8
DEFAULT_255_1_388
10
5.9166516
20
76.8164586
40
0.8740384
50
169.5837606
51
180.275782
0
ARC
8
DEFAULT_255_1_388
10
5.7099864
20
76.8546439
40
0.6638751
50
155.0367033
51
169.6002779
0
ARC
8
DEFAULT_255_1_388
10
5.5822322
20
76.9162336
40
0.5220662
50
136.7831557
51
155.2472983
0
ARC
8
DEFAULT_255_1_388
10
5.5384113
20
76.9534577
40
0.4646502
50
121.7633063
51
136.4281161
0
ARC
8
DEFAULT_255_1_388
10
5.5535953
20
76.9254049
40
0.4964979
50
95.6460018
51
121.5489589
0
ARC
8
DEFAULT_255_1_388
10
5.5712927
20
76.8006704
40
0.6223912
50
89.9245727
51
96.1375919
0
ARC
8
DEFAULT_255_1_388
10
5.5769632
20
76.8140721
40
0.6090084
50
76.6779212
51
90.456405
0
ARC
8
DEFAULT_255_1_388
10
5.6212445
20
76.993006
40
0.42469
50
47.4858803
51
76.9287069
0
ARC
8
DEFAULT_255_1_388
10
5.6047059
20
76.9817623
40
0.4441778
50
16.5424081
51
46.8934505
0
ARC
8
DEFAULT_255_1_388
10
5.4238109
20
76.9223265
40
0.6345318
50
5.4072971
51
17.0363711
0
ARC
8
DEFAULT_255_1_388
10
5.2619834
20
76.8963304
40
0.6250632
50
7.8888693
51
15.9242022
0
ARC
8
DEFAULT_255_1_388
10
5.4854819
20
76.9612309
40
0.3923364
50
15.7650676
51
27.9410069
0
ARC
8
DEFAULT_255_1_388
10
5.6096989
20
77.0277317
40
0.2514401
50
27.8167196
51
46.4007942
0
ARC
8
DEFAULT_255_1_388
10
5.615283
20
77.0270882
40
0.2480958
50
47.4372362
51
75.0695672
0
ARC
8
DEFAULT_255_1_388
10
5.5805666
20
76.9062277
40
0.3738281
50
74.7009379
51
87.8124314
0
ARC
8
DEFAULT_255_1_388
10
5.5723283
20
76.7878659
40
0.4924321
50
87.3802571
51
90.0251599
0
ARC
8
DEFAULT_255_1_388
10
5.567993
20
76.9198997
40
0.3604218
50
89.3451886
51
108.5744412
0
ARC
8
DEFAULT_255_1_388
10
5.5525922
20
76.9776836
40
0.3007661
50
109.2998307
51
143.3037387
0
ARC
8
DEFAULT_255_1_388
10
5.6383212
20
76.9117584
40
0.4089031
50
143.075267
51
163.1918576
0
ARC
8
DEFAULT_255_1_388
10
5.8579047
20
76.8424652
40
0.6391492
50
162.9375929
51
174.6208776
0
ARC
8
DEFAULT_255_1_388
10
6.1533428
20
76.8100711
40
0.9363344
50
174.342123
51
180.1430283
0
ARC
8
DEFAULT_255_1_388
10
6.048597
20
76.6757117
40
0.8315986
50
179.6817261
51
189.150555
0
ARC
8
DEFAULT_255_1_388
10
5.7672719
20
76.6288559
40
0.5464044
50
188.9911061
51
203.5772363
0
ARC
8
DEFAULT_255_1_388
10
5.645801
20
76.5784539
40
0.4149206
50
203.9075402
51
215.1312435
0
ARC
8
DEFAULT_255_1_388
10
5.5419808
20
76.4979907
40
0.2837747
50
213.9071511
51
263.8848919
0
ARC
8
DEFAULT_255_1_388
10
5.5560801
20
76.5862519
40
0.3730641
50
263.1757928
51
270.1031044
0
ARC
8
DEFAULT_255_1_388
10
5.5596881
20
76.7265511
40
0.5133712
50
269.6722503
51
279.0606936
0
ARC
8
DEFAULT_255_1_388
10
5.5897036
20
76.545115
40
0.3294739
50
278.8749101
51
293.6349581
0
ARC
8
DEFAULT_255_1_388
10
5.625724
20
76.4605251
40
0.2375405
50
293.8553806
51
310.0518171
0
ARC
8
DEFAULT_255_1_388
10
5.6262749
20
76.4535021
40
0.2318463
50
311.0644687
51
332.0111037
0
ARC
8
DEFAULT_255_1_388
10
5.4921422
20
76.5274702
40
0.3850112
50
331.6586806
51
343.2877423
0
ARC
8
DEFAULT_255_1_388
10
5.2600888
20
76.5987806
40
0.6277712
50
343.1446576
51
351.0103568
0
ARC
8
DEFAULT_255_1_388
10
5.0968211
20
76.6287873
40
0.7937327
50
350.71248
51
351.1626997
0
LINE
8
DEFAULT_255_1_388
10
4.9001322
20
84.0269
11
4.6146058
21
84.5590995
0
LINE
8
DEFAULT_255_1_388
10
4.6146058
20
84.5590995
11
4.3055868
21
84.5590995
0
LINE
8
DEFAULT_255_1_388
10
4.3055868
20
84.5590995
11
4.3055868
21
84.0269
0
LINE
8
DEFAULT_255_1_388
10
4.3055868
20
84.0269
11
4.1311988
21
84.0269
0
LINE
8
DEFAULT_255_1_388
10
4.1311988
20
84.0269
11
4.1311988
21
85.3424898
0
LINE
8
DEFAULT_255_1_388
10
4.1311988
20
85.3424898
11
4.5667169
21
85.3424898
0
LINE
8
DEFAULT_255_1_388
10
4.7772474
20
84.5961456
11
5.0862665
21
84.0377428
0
LINE
8
DEFAULT_255_1_388
10
5.0862665
20
84.0377428
11
5.0862665
21
84.0269
0
LINE
8
DEFAULT_255_1_388
10
5.0862665
20
84.0269
11
4.9001322
21
84.0269
0
LINE
8
DEFAULT_255_1_388
10
4.3055868
20
85.1997267
11
4.3055868
21
84.7009591
0
LINE
8
DEFAULT_255_1_388
10
4.3055868
20
84.7009591
11
4.5721383
21
84.7009591
0
LINE
8
DEFAULT_255_1_388
10
4.5712347
20
85.1997267
11
4.3055868
21
85.1997267
0
ARC
8
DEFAULT_255_1_388
10
4.5714015
20
84.5593346
40
0.7831693
50
80.6535681
51
90.3427203
0
ARC
8
DEFAULT_255_1_388
10
4.6185925
20
84.8363722
40
0.5021479
50
65.6987674
51
80.8330164
0
ARC
8
DEFAULT_255_1_388
10
4.6723219
20
84.9595479
40
0.3677787
50
50.0019152
51
65.4304412
0
ARC
8
DEFAULT_255_1_388
10
4.6969035
20
84.9927603
40
0.3265454
50
11.6284215
51
49.5603681
0
ARC
8
DEFAULT_255_1_388
10
4.5241521
20
84.9505524
40
0.5043009
50
359.5655533
51
12.3693319
0
ARC
8
DEFAULT_255_1_388
10
4.6452858
20
84.9435038
40
0.3831661
50
341.998418
51
0.4822212
0
ARC
8
DEFAULT_255_1_388
10
4.6897044
20
84.9314479
40
0.3372036
50
323.8610842
51
341.6141514
0
ARC
8
DEFAULT_255_1_388
10
4.655759
20
84.9576615
40
0.3800784
50
296.7019299
51
323.6876213
0
ARC
8
DEFAULT_255_1_388
10
4.6061548
20
85.0463532
40
0.4816219
50
290.808313
51
297.2325929
0
ARC
8
DEFAULT_255_1_388
10
4.5750342
20
85.1052377
40
0.404289
50
269.5895908
51
281.8058892
0
ARC
8
DEFAULT_255_1_388
10
4.6032608
20
84.976136
40
0.2721459
50
281.5499321
51
303.9358954
0
ARC
8
DEFAULT_255_1_388
10
4.6187143
20
84.9493588
40
0.2413121
50
304.4410786
51
311.211123
0
ARC
8
DEFAULT_255_1_388
10
4.6335548
20
84.9337152
40
0.2197678
50
310.9874923
51
356.2715203
0
ARC
8
DEFAULT_255_1_388
10
4.5485294
20
84.9463992
40
0.3055212
50
354.9346315
51
0.0617816
0
ARC
8
DEFAULT_255_1_388
10
4.5274135
20
84.9494427
40
0.3266482
50
359.5239293
51
12.8808621
0
ARC
8
DEFAULT_255_1_388
10
4.6373898
20
84.9763638
40
0.2134449
50
12.417206
51
43.1023141
0
ARC
8
DEFAULT_255_1_388
10
4.6443228
20
84.9805253
40
0.2055463
50
43.575886
51
48.2047245
0
ARC
8
DEFAULT_255_1_388
10
4.6252489
20
84.9556151
40
0.2368418
50
48.7809155
51
72.6968768
0
ARC
8
DEFAULT_255_1_388
10
4.5853853
20
84.8346385
40
0.364206
50
72.3699892
51
84.8793749
0
ARC
8
DEFAULT_255_1_388
10
4.5687859
20
84.6836651
40
0.5160674
50
84.5398226
51
89.7281165
0
LINE
8
DEFAULT_255_1_388
10
6.0530804
20
84.804869
11
6.0530804
21
84.5880135
0
LINE
8
DEFAULT_255_1_388
10
5.2227047
20
84.5654244
11
5.2227047
21
84.7886048
0
LINE
8
DEFAULT_255_1_388
10
5.885921
20
84.5428353
11
5.885921
21
84.8166153
0
LINE
8
DEFAULT_255_1_388
10
5.3898641
20
84.8292652
11
5.3898641
21
84.5618102
0
ARC
8
DEFAULT_255_1_388
10
4.6753138
20
84.5825118
40
1.3777776
50
353.8440855
51
0.2287917
0
ARC
8
DEFAULT_255_1_388
10
5.1972156
20
84.5242414
40
0.852639
50
344.4934746
51
353.9763743
0
ARC
8
DEFAULT_255_1_388
10
5.5338963
20
84.4285191
40
0.5026273
50
329.2803599
51
344.7473406
0
ARC
8
DEFAULT_255_1_388
10
5.6454458
20
84.3673038
40
0.3754848
50
324.9361395
51
328.6153007
0
ARC
8
DEFAULT_255_1_388
10
5.6880108
20
84.3375586
40
0.3235566
50
280.5801797
51
324.9173226
0
ARC
8
DEFAULT_255_1_388
10
5.6428737
20
84.5255236
40
0.5167077
50
269.5979457
51
281.6732777
0
ARC
8
DEFAULT_255_1_388
10
5.634764
20
84.5120113
40
0.5032026
50
256.6228565
51
270.5105488
0
ARC
8
DEFAULT_255_1_388
10
5.5895383
20
84.3378345
40
0.3233092
50
215.8618351
51
257.2787793
0
ARC
8
DEFAULT_255_1_388
10
5.704409
20
84.4149106
40
0.4615831
50
197.9695203
51
215.2622745
0
ARC
8
DEFAULT_255_1_388
10
5.9839766
20
84.5092641
40
0.7566307
50
187.8816486
51
198.2346584
0
ARC
8
DEFAULT_255_1_388
10
6.4293004
20
84.5735453
40
1.2065653
50
180.8977266
51
188.0054894
0
ARC
8
DEFAULT_255_1_388
10
6.7343218
20
84.58504
40
1.5117443
50
180.7434591
51
181.152202
0
ARC
8
DEFAULT_255_1_388
10
6.5668214
20
84.7940371
40
1.3441277
50
173.7674302
51
180.2315596
0
ARC
8
DEFAULT_255_1_388
10
6.0586083
20
84.8514779
40
0.8326847
50
164.3058537
51
173.9000553
0
ARC
8
DEFAULT_255_1_388
10
5.7310083
20
84.9458652
40
0.4917711
50
148.7922028
51
164.5682288
0
ARC
8
DEFAULT_255_1_388
10
5.624082
20
85.0055457
40
0.3694204
50
144.5883979
51
148.1161588
0
ARC
8
DEFAULT_255_1_388
10
5.5853565
20
85.0325667
40
0.322202
50
101.6440149
51
144.5142619
0
ARC
8
DEFAULT_255_1_388
10
5.6331758
20
84.8425337
40
0.5180451
50
89.528284
51
102.5820197
0
ARC
8
DEFAULT_255_1_388
10
5.6420749
20
84.8381376
40
0.5224441
50
77.0437914
51
90.508231
0
ARC
8
DEFAULT_255_1_388
10
5.6873003
20
85.0229272
40
0.3322297
50
48.2777708
51
77.4996087
0
ARC
8
DEFAULT_255_1_388
10
5.6954743
20
85.0374557
40
0.315966
50
36.3141586
51
47.6307332
0
ARC
8
DEFAULT_255_1_388
10
5.5977465
20
84.9716159
40
0.4337313
50
18.2931065
51
35.6770203
0
ARC
8
DEFAULT_255_1_388
10
5.3116306
20
84.8734107
40
0.7362203
50
8.0246996
51
18.5605636
0
ARC
8
DEFAULT_255_1_388
10
4.8432662
20
84.8042432
40
1.2096583
50
1.127539
51
8.1718423
0
ARC
8
DEFAULT_255_1_388
10
4.4783795
20
84.7899374
40
1.5747719
50
0.5432713
51
1.38669
0
ARC
8
DEFAULT_255_1_388
10
4.6841174
20
84.8206163
40
1.2018103
50
359.8092569
51
4.9408001
0
ARC
8
DEFAULT_255_1_388
10
5.1577755
20
84.86289
40
0.7262727
50
4.8364937
51
12.2906017
0
ARC
8
DEFAULT_255_1_388
10
5.467722
20
84.9319485
40
0.4087324
50
12.0806994
51
23.8171225
0
ARC
8
DEFAULT_255_1_388
10
5.5997616
20
84.9878508
40
0.2653719
50
24.2874621
51
31.3934353
0
ARC
8
DEFAULT_255_1_388
10
5.6588052
20
85.0264822
40
0.1948607
50
30.7407708
51
82.4658033
0
ARC
8
DEFAULT_255_1_388
10
5.6385713
20
84.9271017
40
0.2961198
50
81.1057101
51
90.2187368
0
ARC
8
DEFAULT_255_1_388
10
5.6345524
20
84.9561421
40
0.2670929
50
89.380395
51
105.6763916
0
ARC
8
DEFAULT_255_1_388
10
5.6139246
20
85.031132
40
0.1893189
50
105.7980655
51
149.7387869
0
ARC
8
DEFAULT_255_1_388
10
5.7336386
20
84.9591719
40
0.3289892
50
149.4208441
51
163.628295
0
ARC
8
DEFAULT_255_1_388
10
5.9688616
20
84.8874345
40
0.5749004
50
163.3764549
51
172.141138
0
ARC
8
DEFAULT_255_1_388
10
6.3401338
20
84.8342582
40
0.9499585
50
172.0258462
51
178.0705453
0
ARC
8
DEFAULT_255_1_388
10
6.682289
20
84.8180682
40
1.2924734
50
177.8639301
51
179.5036263
0
ARC
8
DEFAULT_255_1_388
10
6.5603909
20
84.5577151
40
1.170534
50
179.7995545
51
185.246089
0
ARC
8
DEFAULT_255_1_388
10
6.1055502
20
84.5146404
40
0.7136613
50
185.1411911
51
193.0082205
0
ARC
8
DEFAULT_255_1_388
10
5.8081763
20
84.4443441
40
0.4080987
50
192.7897338
51
205.2507384
0
ARC
8
DEFAULT_255_1_388
10
5.6903973
20
84.3917538
40
0.2791522
50
205.8001921
51
211.2545876
0
ARC
8
DEFAULT_255_1_388
10
5.6315512
20
84.3523132
40
0.2084074
50
210.3789935
51
238.4007996
0
ARC
8
DEFAULT_255_1_388
10
5.6293598
20
84.3575786
40
0.2117943
50
239.6521916
51
265.9793852
0
ARC
8
DEFAULT_255_1_388
10
5.6389447
20
84.4332358
40
0.2879689
50
265.1324455
51
270.0603288
0
ARC
8
DEFAULT_255_1_388
10
5.6421824
20
84.3967418
40
0.2514919
50
269.3314378
51
287.2180039
0
ARC
8
DEFAULT_255_1_388
10
5.6576906
20
84.3401291
40
0.1928357
50
287.7957942
51
329.0808983
0
ARC
8
DEFAULT_255_1_388
10
5.5499663
20
84.4073651
40
0.319808
50
328.6635261
51
343.3325043
0
ARC
8
DEFAULT_255_1_388
10
5.3055122
20
84.4835195
40
0.5758408
50
343.0498092
51
351.9392499
0
ARC
8
DEFAULT_255_1_388
10
4.9154443
20
84.5410205
40
0.9701202
50
351.8071632
51
357.7957897
0
ARC
8
DEFAULT_255_1_388
10
4.551992
20
84.5598724
40
1.3340376
50
357.5870923
51
359.2682493
0
LINE
8
DEFAULT_255_1_388
10
6.6322652
20
84.6539737
11
6.6322652
21
84.5175355
0
LINE
8
DEFAULT_255_1_388
10
6.6322652
20
84.5175355
11
6.1913258
21
84.5175355
0
LINE
8
DEFAULT_255_1_388
10
6.1913258
20
84.5175355
11
6.1913258
21
84.6539737
0
LINE
8
DEFAULT_255_1_388
10
6.1913258
20
84.6539737
11
6.6322652
21
84.6539737
0
LINE
8
DEFAULT_255_1_388
10
4.7637322
20
91.9644
11
4.4782058
21
92.4965995
0
LINE
8
DEFAULT_255_1_388
10
4.4782058
20
92.4965995
11
4.1691868
21
92.4965995
0
LINE
8
DEFAULT_255_1_388
10
4.1691868
20
92.4965995
11
4.1691868
21
91.9644
0
LINE
8
DEFAULT_255_1_388
10
4.1691868
20
91.9644
11
3.9947988
21
91.9644
0
LINE
8
DEFAULT_255_1_388
10
3.9947988
20
91.9644
11
3.9947988
21
93.2799898
0
LINE
8
DEFAULT_255_1_388
10
3.9947988
20
93.2799898
11
4.4303169
21
93.2799898
0
LINE
8
DEFAULT_255_1_388
10
4.6408474
20
92.5336456
11
4.9498665
21
91.9752428
0
LINE
8
DEFAULT_255_1_388
10
4.9498665
20
91.9752428
11
4.9498665
21
91.9644
0
LINE
8
DEFAULT_255_1_388
10
4.9498665
20
91.9644
11
4.7637322
21
91.9644
0
LINE
8
DEFAULT_255_1_388
10
4.1691868
20
93.1372267
11
4.1691868
21
92.6384591
0
LINE
8
DEFAULT_255_1_388
10
4.1691868
20
92.6384591
11
4.4357383
21
92.6384591
0
LINE
8
DEFAULT_255_1_388
10
4.4348347
20
93.1372267
11
4.1691868
21
93.1372267
0
ARC
8
DEFAULT_255_1_388
10
4.4350015
20
92.4968346
40
0.7831693
50
80.6535681
51
90.3427203
0
ARC
8
DEFAULT_255_1_388
10
4.4821925
20
92.7738722
40
0.5021479
50
65.6987674
51
80.8330164
0
ARC
8
DEFAULT_255_1_388
10
4.5359219
20
92.8970479
40
0.3677787
50
50.0019152
51
65.4304412
0
ARC
8
DEFAULT_255_1_388
10
4.5605035
20
92.9302603
40
0.3265454
50
11.6284215
51
49.5603681
0
ARC
8
DEFAULT_255_1_388
10
4.3877521
20
92.8880524
40
0.5043009
50
359.5655533
51
12.3693319
0
ARC
8
DEFAULT_255_1_388
10
4.5088858
20
92.8810038
40
0.3831661
50
341.998418
51
0.4822212
0
ARC
8
DEFAULT_255_1_388
10
4.5533044
20
92.8689479
40
0.3372036
50
323.8610842
51
341.6141514
0
ARC
8
DEFAULT_255_1_388
10
4.519359
20
92.8951615
40
0.3800784
50
296.7019299
51
323.6876213
0
ARC
8
DEFAULT_255_1_388
10
4.4697548
20
92.9838532
40
0.4816219
50
290.808313
51
297.2325929
0
ARC
8
DEFAULT_255_1_388
10
4.4386342
20
93.0427377
40
0.404289
50
269.5895908
51
281.8058892
0
ARC
8
DEFAULT_255_1_388
10
4.4668608
20
92.913636
40
0.2721459
50
281.5499321
51
303.9358954
0
ARC
8
DEFAULT_255_1_388
10
4.4823143
20
92.8868588
40
0.2413121
50
304.4410786
51
311.211123
0
ARC
8
DEFAULT_255_1_388
10
4.4971548
20
92.8712152
40
0.2197678
50
310.9874923
51
356.2715203
0
ARC
8
DEFAULT_255_1_388
10
4.4121294
20
92.8838992
40
0.3055212
50
354.9346315
51
0.0617816
0
ARC
8
DEFAULT_255_1_388
10
4.3910135
20
92.8869427
40
0.3266482
50
359.5239293
51
12.8808621
0
ARC
8
DEFAULT_255_1_388
10
4.5009898
20
92.9138638
40
0.2134449
50
12.417206
51
43.1023141
0
ARC
8
DEFAULT_255_1_388
10
4.5079228
20
92.9180253
40
0.2055463
50
43.575886
51
48.2047245
0
ARC
8
DEFAULT_255_1_388
10
4.4888489
20
92.8931151
40
0.2368418
50
48.7809155
51
72.6968768
0
ARC
8
DEFAULT_255_1_388
10
4.4489853
20
92.7721385
40
0.364206
50
72.3699892
51
84.8793749
0
ARC
8
DEFAULT_255_1_388
10
4.4323859
20
92.6211651
40
0.5160674
50
84.5398226
51
89.7281165
0
LINE
8
DEFAULT_255_1_388
10
5.9166804
20
92.742369
11
5.9166804
21
92.5255135
0
LINE
8
DEFAULT_255_1_388
10
5.0863047
20
92.5029244
11
5.0863047
21
92.7261048
0
LINE
8
DEFAULT_255_1_388
10
5.749521
20
92.4803353
11
5.749521
21
92.7541153
0
LINE
8
DEFAULT_255_1_388
10
5.2534641
20
92.7667652
11
5.2534641
21
92.4993102
0
ARC
8
DEFAULT_255_1_388
10
4.5389138
20
92.5200118
40
1.3777776
50
353.8440855
51
0.2287917
0
ARC
8
DEFAULT_255_1_388
10
5.0608156
20
92.4617414
40
0.852639
50
344.4934746
51
353.9763743
0
ARC
8
DEFAULT_255_1_388
10
5.3974963
20
92.3660191
40
0.5026273
50
329.2803599
51
344.7473406
0
ARC
8
DEFAULT_255_1_388
10
5.5090458
20
92.3048038
40
0.3754848
50
324.9361395
51
328.6153007
0
ARC
8
DEFAULT_255_1_388
10
5.5516108
20
92.2750586
40
0.3235566
50
280.5801797
51
324.9173226
0
ARC
8
DEFAULT_255_1_388
10
5.5064737
20
92.4630236
40
0.5167077
50
269.5979457
51
281.6732777
0
ARC
8
DEFAULT_255_1_388
10
5.498364
20
92.4495113
40
0.5032026
50
256.6228565
51
270.5105488
0
ARC
8
DEFAULT_255_1_388
10
5.4531383
20
92.2753345
40
0.3233092
50
215.8618351
51
257.2787793
0
ARC
8
DEFAULT_255_1_388
10
5.568009
20
92.3524106
40
0.4615831
50
197.9695203
51
215.2622745
0
ARC
8
DEFAULT_255_1_388
10
5.8475766
20
92.4467641
40
0.7566307
50
187.8816486
51
198.2346584
0
ARC
8
DEFAULT_255_1_388
10
6.2929004
20
92.5110453
40
1.2065653
50
180.8977266
51
188.0054894
0
ARC
8
DEFAULT_255_1_388
10
6.5979218
20
92.52254
40
1.5117443
50
180.7434591
51
181.152202
0
ARC
8
DEFAULT_255_1_388
10
6.4304214
20
92.7315371
40
1.3441277
50
173.7674302
51
180.2315596
0
ARC
8
DEFAULT_255_1_388
10
5.9222083
20
92.7889779
40
0.8326847
50
164.3058537
51
173.9000553
0
ARC
8
DEFAULT_255_1_388
10
5.5946083
20
92.8833652
40
0.4917711
50
148.7922028
51
164.5682288
0
ARC
8
DEFAULT_255_1_388
10
5.487682
20
92.9430457
40
0.3694204
50
144.5883979
51
148.1161588
0
ARC
8
DEFAULT_255_1_388
10
5.4489565
20
92.9700667
40
0.322202
50
101.6440149
51
144.5142619
0
ARC
8
DEFAULT_255_1_388
10
5.4967758
20
92.7800337
40
0.5180451
50
89.528284
51
102.5820197
0
ARC
8
DEFAULT_255_1_388
10
5.5056749
20
92.7756376
40
0.5224441
50
77.0437914
51
90.508231
0
ARC
8
DEFAULT_255_1_388
10
5.5509003
20
92.9604272
40
0.3322297
50
48.2777708
51
77.4996087
0
ARC
8
DEFAULT_255_1_388
10
5.5590743
20
92.9749557
40
0.315966
50
36.3141586
51
47.6307332
0
ARC
8
DEFAULT_255_1_388
10
5.4613465
20
92.9091159
40
0.4337313
50
18.2931065
51
35.6770203
0
ARC
8
DEFAULT_255_1_388
10
5.1752306
20
92.8109107
40
0.7362203
50
8.0246996
51
18.5605636
0
ARC
8
DEFAULT_255_1_388
10
4.7068662
20
92.7417432
40
1.2096583
50
1.127539
51
8.1718423
0
ARC
8
DEFAULT_255_1_388
10
4.3419795
20
92.7274374
40
1.5747719
50
0.5432713
51
1.38669
0
ARC
8
DEFAULT_255_1_388
10
4.5477174
20
92.7581163
40
1.2018103
50
359.8092569
51
4.9408001
0
ARC
8
DEFAULT_255_1_388
10
5.0213755
20
92.80039
40
0.7262727
50
4.8364937
51
12.2906017
0
ARC
8
DEFAULT_255_1_388
10
5.331322
20
92.8694485
40
0.4087324
50
12.0806994
51
23.8171225
0
ARC
8
DEFAULT_255_1_388
10
5.4633616
20
92.9253508
40
0.2653719
50
24.2874621
51
31.3934353
0
ARC
8
DEFAULT_255_1_388
10
5.5224052
20
92.9639822
40
0.1948607
50
30.7407708
51
82.4658033
0
ARC
8
DEFAULT_255_1_388
10
5.5021713
20
92.8646017
40
0.2961198
50
81.1057101
51
90.2187368
0
ARC
8
DEFAULT_255_1_388
10
5.4981524
20
92.8936421
40
0.2670929
50
89.380395
51
105.6763916
0
ARC
8
DEFAULT_255_1_388
10
5.4775246
20
92.968632
40
0.1893189
50
105.7980655
51
149.7387869
0
ARC
8
DEFAULT_255_1_388
10
5.5972386
20
92.8966719
40
0.3289892
50
149.4208441
51
163.628295
0
ARC
8
DEFAULT_255_1_388
10
5.8324616
20
92.8249345
40
0.5749004
50
163.3764549
51
172.141138
0
ARC
8
DEFAULT_255_1_388
10
6.2037338
20
92.7717582
40
0.9499585
50
172.0258462
51
178.0705453
0
ARC
8
DEFAULT_255_1_388
10
6.545889
20
92.7555682
40
1.2924734
50
177.8639301
51
179.5036263
0
ARC
8
DEFAULT_255_1_388
10
6.4239909
20
92.4952151
40
1.170534
50
179.7995545
51
185.246089
0
ARC
8
DEFAULT_255_1_388
10
5.9691502
20
92.4521404
40
0.7136613
50
185.1411911
51
193.0082205
0
ARC
8
DEFAULT_255_1_388
10
5.6717763
20
92.3818441
40
0.4080987
50
192.7897338
51
205.2507384
0
ARC
8
DEFAULT_255_1_388
10
5.5539973
20
92.3292538
40
0.2791522
50
205.8001921
51
211.2545876
0
ARC
8
DEFAULT_255_1_388
10
5.4951512
20
92.2898132
40
0.2084074
50
210.3789935
51
238.4007996
0
ARC
8
DEFAULT_255_1_388
10
5.4929598
20
92.2950786
40
0.2117943
50
239.6521916
51
265.9793852
0
ARC
8
DEFAULT_255_1_388
10
5.5025447
20
92.3707358
40
0.2879689
50
265.1324455
51
270.0603288
0
ARC
8
DEFAULT_255_1_388
10
5.5057824
20
92.3342418
40
0.2514919
50
269.3314378
51
287.2180039
0
ARC
8
DEFAULT_255_1_388
10
5.5212906
20
92.2776291
40
0.1928357
50
287.7957942
51
329.0808983
0
ARC
8
DEFAULT_255_1_388
10
5.4135663
20
92.3448651
40
0.319808
50
328.6635261
51
343.3325043
0
ARC
8
DEFAULT_255_1_388
10
5.1691122
20
92.4210195
40
0.5758408
50
343.0498092
51
351.9392499
0
ARC
8
DEFAULT_255_1_388
10
4.7790443
20
92.4785205
40
0.9701202
50
351.8071632
51
357.7957897
0
ARC
8
DEFAULT_255_1_388
10
4.415592
20
92.4973724
40
1.3340376
50
357.5870923
51
359.2682493
0
LINE
8
DEFAULT_255_1_388
10
6.6268821
20
93.0540987
11
6.6268821
21
92.6700838
0
LINE
8
DEFAULT_255_1_388
10
6.6268821
20
92.6700838
11
6.9937292
21
92.6700838
0
LINE
8
DEFAULT_255_1_388
10
6.9937292
20
92.6700838
11
6.9937292
21
92.5119601
0
LINE
8
DEFAULT_255_1_388
10
6.9937292
20
92.5119601
11
6.6268821
21
92.5119601
0
LINE
8
DEFAULT_255_1_388
10
6.6268821
20
92.5119601
11
6.6268821
21
92.0963204
0
LINE
8
DEFAULT_255_1_388
10
6.6268821
20
92.0963204
11
6.4588191
21
92.0963204
0
LINE
8
DEFAULT_255_1_388
10
6.4588191
20
92.0963204
11
6.4588191
21
92.5119601
0
LINE
8
DEFAULT_255_1_388
10
6.4588191
20
92.5119601
11
6.0919719
21
92.5119601
0
LINE
8
DEFAULT_255_1_388
10
6.0919719
20
92.5119601
11
6.0919719
21
92.6700838
0
LINE
8
DEFAULT_255_1_388
10
6.0919719
20
92.6700838
11
6.4588191
21
92.6700838
0
LINE
8
DEFAULT_255_1_388
10
6.4588191
20
92.6700838
11
6.4588191
21
93.0540987
0
LINE
8
DEFAULT_255_1_388
10
6.4588191
20
93.0540987
11
6.6268821
21
93.0540987
0
LINE
8
DEFAULT_255_1_388
10
23.1198856
20
100.679869
11
23.1198856
21
100.4630135
0
LINE
8
DEFAULT_255_1_388
10
22.2895099
20
100.4404244
11
22.2895099
21
100.6636048
0
LINE
8
DEFAULT_255_1_388
10
22.9527262
20
100.4178353
11
22.9527262
21
100.6916153
0
LINE
8
DEFAULT_255_1_388
10
22.4566693
20
100.7042652
11
22.4566693
21
100.4368102
0
ARC
8
DEFAULT_255_1_388
10
21.742119
20
100.4575118
40
1.3777776
50
353.8440855
51
0.2287917
0
ARC
8
DEFAULT_255_1_388
10
22.2640208
20
100.3992414
40
0.852639
50
344.4934746
51
353.9763743
0
ARC
8
DEFAULT_255_1_388
10
22.6007015
20
100.3035191
40
0.5026273
50
329.2803599
51
344.7473406
0
ARC
8
DEFAULT_255_1_388
10
22.7122511
20
100.2423038
40
0.3754848
50
324.9361395
51
328.6153007
0
ARC
8
DEFAULT_255_1_388
10
22.7548161
20
100.2125586
40
0.3235566
50
280.5801797
51
324.9173226
0
ARC
8
DEFAULT_255_1_388
10
22.7096789
20
100.4005236
40
0.5167077
50
269.5979457
51
281.6732777
0
ARC
8
DEFAULT_255_1_388
10
22.7015693
20
100.3870113
40
0.5032026
50
256.6228565
51
270.5105488
0
ARC
8
DEFAULT_255_1_388
10
22.6563435
20
100.2128345
40
0.3233092
50
215.8618351
51
257.2787793
0
ARC
8
DEFAULT_255_1_388
10
22.7712142
20
100.2899106
40
0.4615831
50
197.9695203
51
215.2622745
0
ARC
8
DEFAULT_255_1_388
10
23.0507818
20
100.3842641
40
0.7566307
50
187.8816486
51
198.2346584
0
ARC
8
DEFAULT_255_1_388
10
23.4961056
20
100.4485453
40
1.2065653
50
180.8977266
51
188.0054894
0
ARC
8
DEFAULT_255_1_388
10
23.801127
20
100.46004
40
1.5117443
50
180.7434591
51
181.152202
0
ARC
8
DEFAULT_255_1_388
10
23.6336266
20
100.6690371
40
1.3441277
50
173.7674302
51
180.2315596
0
ARC
8
DEFAULT_255_1_388
10
23.1254135
20
100.7264779
40
0.8326847
50
164.3058537
51
173.9000553
0
ARC
8
DEFAULT_255_1_388
10
22.7978135
20
100.8208652
40
0.4917711
50
148.7922028
51
164.5682288
0
ARC
8
DEFAULT_255_1_388
10
22.6908872
20
100.8805457
40
0.3694204
50
144.5883979
51
148.1161588
0
ARC
8
DEFAULT_255_1_388
10
22.6521618
20
100.9075667
40
0.322202
50
101.6440149
51
144.5142619
0
ARC
8
DEFAULT_255_1_388
10
22.699981
20
100.7175337
40
0.5180451
50
89.528284
51
102.5820197
0
ARC
8
DEFAULT_255_1_388
10
22.7088802
20
100.7131376
40
0.5224441
50
77.0437914
51
90.508231
0
ARC
8
DEFAULT_255_1_388
10
22.7541055
20
100.8979272
40
0.3322297
50
48.2777708
51
77.4996087
0
ARC
8
DEFAULT_255_1_388
10
22.7622795
20
100.9124557
40
0.315966
50
36.3141586
51
47.6307332
0
ARC
8
DEFAULT_255_1_388
10
22.6645518
20
100.8466159
40
0.4337313
50
18.2931065
51
35.6770203
0
ARC
8
DEFAULT_255_1_388
10
22.3784358
20
100.7484107
40
0.7362203
50
8.0246996
51
18.5605636
0
ARC
8
DEFAULT_255_1_388
10
21.9100714
20
100.6792432
40
1.2096583
50
1.127539
51
8.1718423
0
ARC
8
DEFAULT_255_1_388
10
21.5451847
20
100.6649374
40
1.5747719
50
0.5432713
51
1.38669
0
ARC
8
DEFAULT_255_1_388
10
21.7509226
20
100.6956163
40
1.2018103
50
359.8092569
51
4.9408001
0
ARC
8
DEFAULT_255_1_388
10
22.2245807
20
100.73789
40
0.7262727
50
4.8364937
51
12.2906017
0
ARC
8
DEFAULT_255_1_388
10
22.5345272
20
100.8069485
40
0.4087324
50
12.0806994
51
23.8171225
0
ARC
8
DEFAULT_255_1_388
10
22.6665668
20
100.8628508
40
0.2653719
50
24.2874621
51
31.3934353
0
ARC
8
DEFAULT_255_1_388
10
22.7256104
20
100.9014822
40
0.1948607
50
30.7407708
51
82.4658033
0
ARC
8
DEFAULT_255_1_388
10
22.7053765
20
100.8021017
40
0.2961198
50
81.1057101
51
90.2187368
0
ARC
8
DEFAULT_255_1_388
10
22.7013577
20
100.8311421
40
0.2670929
50
89.380395
51
105.6763916
0
ARC
8
DEFAULT_255_1_388
10
22.6807299
20
100.906132
40
0.1893189
50
105.7980655
51
149.7387869
0
ARC
8
DEFAULT_255_1_388
10
22.8004439
20
100.8341719
40
0.3289892
50
149.4208441
51
163.628295
0
ARC
8
DEFAULT_255_1_388
10
23.0356668
20
100.7624345
40
0.5749004
50
163.3764549
51
172.141138
0
ARC
8
DEFAULT_255_1_388
10
23.406939
20
100.7092582
40
0.9499585
50
172.0258462
51
178.0705453
0
ARC
8
DEFAULT_255_1_388
10
23.7490943
20
100.6930682
40
1.2924734
50
177.8639301
51
179.5036263
0
ARC
8
DEFAULT_255_1_388
10
23.6271961
20
100.4327151
40
1.170534
50
179.7995545
51
185.246089
0
ARC
8
DEFAULT_255_1_388
10
23.1723554
20
100.3896404
40
0.7136613
50
185.1411911
51
193.0082205
0
ARC
8
DEFAULT_255_1_388
10
22.8749815
20
100.3193441
40
0.4080987
50
192.7897338
51
205.2507384
0
ARC
8
DEFAULT_255_1_388
10
22.7572025
20
100.2667538
40
0.2791522
50
205.8001921
51
211.2545876
0
ARC
8
DEFAULT_255_1_388
10
22.6983564
20
100.2273132
40
0.2084074
50
210.3789935
51
238.4007996
0
ARC
8
DEFAULT_255_1_388
10
22.696165
20
100.2325786
40
0.2117943
50
239.6521916
51
265.9793852
0
ARC
8
DEFAULT_255_1_388
10
22.7057499
20
100.3082358
40
0.2879689
50
265.1324455
51
270.0603288
0
ARC
8
DEFAULT_255_1_388
10
22.7089876
20
100.2717418
40
0.2514919
50
269.3314378
51
287.2180039
0
ARC
8
DEFAULT_255_1_388
10
22.7244958
20
100.2151291
40
0.1928357
50
287.7957942
51
329.0808983
0
ARC
8
DEFAULT_255_1_388
10
22.6167715
20
100.2823651
40
0.319808
50
328.6635261
51
343.3325043
0
ARC
8
DEFAULT_255_1_388
10
22.3723174
20
100.3585195
40
0.5758408
50
343.0498092
51
351.9392499
0
ARC
8
DEFAULT_255_1_388
10
21.9822496
20
100.4160205
40
0.9701202
50
351.8071632
51
357.7957897
0
ARC
8
DEFAULT_255_1_388
10
21.6187973
20
100.4348724
40
1.3340376
50
357.5870923
51
359.2682493
0
LINE
8
DEFAULT_255_1_388
10
23.4388439
20
101.2174898
11
23.8129196
21
100.1323089
0
LINE
8
DEFAULT_255_1_388
10
23.8129196
20
100.1323089
11
24.1888024
21
101.2174898
0
LINE
8
DEFAULT_255_1_388
10
24.1888024
20
101.2174898
11
24.3785509
21
101.2174898
0
LINE
8
DEFAULT_255_1_388
10
24.3785509
20
101.2174898
11
23.8906261
21
99.9019
0
LINE
8
DEFAULT_255_1_388
10
23.8906261
20
99.9019
11
23.7370202
21
99.9019
0
LINE
8
DEFAULT_255_1_388
10
23.7370202
20
99.9019
11
23.2499989
21
101.2174898
0
LINE
8
DEFAULT_255_1_388
10
23.2499989
20
101.2174898
11
23.4388439
21
101.2174898
0
LINE
8
DEFAULT_255_1_388
10
22.4925618
20
52.9021666
11
22.3588343
21
52.9365021
0
LINE
8
DEFAULT_255_1_388
10
22.3588343
20
52.9365021
11
22.425698
21
53.5924898
0
LINE
8
DEFAULT_255_1_388
10
22.425698
20
53.5924898
11
23.0997571
21
53.5924898
0
LINE
8
DEFAULT_255_1_388
10
23.0997571
20
53.5924898
11
23.0997571
21
53.4379803
0
LINE
8
DEFAULT_255_1_388
10
23.0997571
20
53.4379803
11
22.5675577
21
53.4379803
0
LINE
8
DEFAULT_255_1_388
10
22.5675577
20
53.4379803
11
22.5278008
21
53.0792652
0
LINE
8
DEFAULT_255_1_388
10
22.3118489
20
52.6229652
11
22.4699727
21
52.6229652
0
LINE
8
DEFAULT_255_1_388
10
22.5368365
20
52.9383092
11
22.4925618
21
52.9021666
0
ARC
8
DEFAULT_255_1_388
10
22.7364622
20
52.7215241
40
0.4141476
50
93.7181681
51
120.253934
0
ARC
8
DEFAULT_255_1_388
10
22.7470674
20
52.6306284
40
0.5055616
50
89.9660471
51
94.2495185
0
ARC
8
DEFAULT_255_1_388
10
22.7516496
20
52.6969154
40
0.4392953
50
73.8045384
51
90.5585736
0
ARC
8
DEFAULT_255_1_388
10
22.7780754
20
52.793452
40
0.3392225
50
41.3071072
51
73.543002
0
ARC
8
DEFAULT_255_1_388
10
22.7312574
20
52.7531461
40
0.4009977
50
13.5075837
51
41.2174839
0
ARC
8
DEFAULT_255_1_388
10
22.5465671
20
52.7047907
40
0.5918864
50
1.1330171
51
13.8830737
0
ARC
8
DEFAULT_255_1_388
10
22.3869317
20
52.6962522
40
0.7516787
50
359.9925091
51
1.5431298
0
ARC
8
DEFAULT_255_1_388
10
22.5313932
20
52.6916027
40
0.6072343
50
347.8572712
51
0.4294349
0
ARC
8
DEFAULT_255_1_388
10
22.7283066
20
52.6469898
40
0.4053482
50
323.6727442
51
348.1674594
0
ARC
8
DEFAULT_255_1_388
10
22.7614031
20
52.6268175
40
0.3667495
50
316.8171818
51
323.1486802
0
ARC
8
DEFAULT_255_1_388
10
22.7683155
20
52.6226612
40
0.358869
50
281.839603
51
316.5458142
0
ARC
8
DEFAULT_255_1_388
10
22.7260442
20
52.7976363
40
0.5388223
50
269.5770964
51
282.4214641
0
ARC
8
DEFAULT_255_1_388
10
22.7180363
20
52.773593
40
0.5147801
50
256.2425863
51
270.4486481
0
ARC
8
DEFAULT_255_1_388
10
22.6843891
20
52.6386124
40
0.3756708
50
228.9024379
51
256.33135
0
ARC
8
DEFAULT_255_1_388
10
22.6760871
20
52.6255054
40
0.360344
50
193.7536029
51
228.5272638
0
ARC
8
DEFAULT_255_1_388
10
22.8153436
20
52.6663463
40
0.5053599
50
184.9244437
51
194.4976052
0
ARC
8
DEFAULT_255_1_388
10
22.8370077
20
52.6703722
40
0.3700839
50
187.3596909
51
198.6733728
0
ARC
8
DEFAULT_255_1_388
10
22.7189321
20
52.6294373
40
0.2451195
50
198.4453795
51
217.7945479
0
ARC
8
DEFAULT_255_1_388
10
22.6856493
20
52.6058563
40
0.2043754
50
218.2887146
51
228.5613203
0
ARC
8
DEFAULT_255_1_388
10
22.69665
20
52.6206902
40
0.2227819
50
228.9652423
51
258.1237049
0
ARC
8
DEFAULT_255_1_388
10
22.7197937
20
52.7197964
40
0.3245374
50
257.7260585
51
270.4013717
0
ARC
8
DEFAULT_255_1_388
10
22.7248435
20
52.6697255
40
0.2744726
50
269.4204315
51
286.420998
0
ARC
8
DEFAULT_255_1_388
10
22.7415491
20
52.6090705
40
0.2115721
50
286.7250065
51
320.6004665
0
ARC
8
DEFAULT_255_1_388
10
22.6984407
20
52.6440527
40
0.2670878
50
320.6712228
51
344.5440474
0
ARC
8
DEFAULT_255_1_388
10
22.568312
20
52.6822394
40
0.4026927
50
344.241448
51
356.735803
0
ARC
8
DEFAULT_255_1_388
10
22.4279428
20
52.6938656
40
0.5435085
50
356.3547471
51
0.0507222
0
ARC
8
DEFAULT_255_1_388
10
22.5781693
20
52.6973812
40
0.3932934
50
359.5579289
51
12.9534322
0
ARC
8
DEFAULT_255_1_388
10
22.6968533
20
52.7261586
40
0.2711827
50
12.6489751
51
41.608121
0
ARC
8
DEFAULT_255_1_388
10
22.7227693
20
52.7481946
40
0.2371737
50
41.7851122
51
85.9892156
0
ARC
8
DEFAULT_255_1_388
10
22.7089003
20
52.6566738
40
0.3295244
50
84.6965848
51
90.0672125
0
ARC
8
DEFAULT_255_1_388
10
22.706257
20
52.5815118
40
0.4046926
50
89.6804991
51
99.161352
0
ARC
8
DEFAULT_255_1_388
10
22.6831579
20
52.7195848
40
0.2647044
50
98.9836248
51
113.8905702
0
ARC
8
DEFAULT_255_1_388
10
22.6573254
20
52.7805118
40
0.1985386
50
114.195234
51
127.3641866
0
LINE
8
DEFAULT_255_1_388
10
24.1578311
20
52.6943468
11
24.332219
21
52.6943468
0
LINE
8
DEFAULT_255_1_388
10
23.3193233
20
52.8732525
11
23.3193233
21
52.9997516
0
LINE
8
DEFAULT_255_1_388
10
24.332219
20
53.1696217
11
24.1578311
21
53.1696217
0
LINE
8
DEFAULT_255_1_388
10
23.4937112
20
52.9952337
11
23.4937112
21
52.8678312
0
ARC
8
DEFAULT_255_1_388
10
23.7156424
20
52.7615329
40
0.6202263
50
340.1774904
51
353.7812217
0
ARC
8
DEFAULT_255_1_388
10
23.8924277
20
52.6956893
40
0.4315926
50
311.4560052
51
340.4420756
0
ARC
8
DEFAULT_255_1_388
10
23.8886817
20
52.7081665
40
0.4434573
50
282.4332229
51
310.7514507
0
ARC
8
DEFAULT_255_1_388
10
23.8392635
20
52.9123703
40
0.6535262
50
269.9358869
51
282.8096729
0
ARC
8
DEFAULT_255_1_388
10
23.8334574
20
53.0636329
40
0.8048043
50
269.9995752
51
270.3612856
0
ARC
8
DEFAULT_255_1_388
10
23.8275064
20
52.7837781
40
0.5249831
50
250.7885263
51
270.6488451
0
ARC
8
DEFAULT_255_1_388
10
23.8085889
20
52.7120853
40
0.4510942
50
219.3628377
51
250.0611024
0
ARC
8
DEFAULT_255_1_388
10
23.9018763
20
52.7913653
40
0.5735046
50
193.5480293
51
219.5755675
0
ARC
8
DEFAULT_255_1_388
10
24.1686972
20
52.860652
40
0.849146
50
181.1220183
51
193.8754971
0
ARC
8
DEFAULT_255_1_388
10
24.4010206
20
52.8730914
40
1.0816971
50
179.9914644
51
181.5398227
0
ARC
8
DEFAULT_255_1_388
10
24.1933516
20
53.0039586
40
0.8740384
50
169.5837606
51
180.275782
0
ARC
8
DEFAULT_255_1_388
10
23.9866864
20
53.0421439
40
0.6638751
50
155.0367033
51
169.6002779
0
ARC
8
DEFAULT_255_1_388
10
23.8589322
20
53.1037336
40
0.5220662
50
136.7831557
51
155.2472983
0
ARC
8
DEFAULT_255_1_388
10
23.8151113
20
53.1409577
40
0.4646502
50
121.7633063
51
136.4281161
0
ARC
8
DEFAULT_255_1_388
10
23.8302953
20
53.1129049
40
0.4964979
50
95.6460018
51
121.5489589
0
ARC
8
DEFAULT_255_1_388
10
23.8479927
20
52.9881704
40
0.6223912
50
89.9245727
51
96.1375919
0
ARC
8
DEFAULT_255_1_388
10
23.8536632
20
53.0015721
40
0.6090084
50
76.6779212
51
90.456405
0
ARC
8
DEFAULT_255_1_388
10
23.8979445
20
53.180506
40
0.42469
50
47.4858803
51
76.9287069
0
ARC
8
DEFAULT_255_1_388
10
23.8814059
20
53.1692623
40
0.4441778
50
16.5424081
51
46.8934505
0
ARC
8
DEFAULT_255_1_388
10
23.7005109
20
53.1098265
40
0.6345318
50
5.4072971
51
17.0363711
0
ARC
8
DEFAULT_255_1_388
10
23.5386834
20
53.0838304
40
0.6250632
50
7.8888693
51
15.9242022
0
ARC
8
DEFAULT_255_1_388
10
23.7621819
20
53.1487309
40
0.3923364
50
15.7650676
51
27.9410069
0
ARC
8
DEFAULT_255_1_388
10
23.8863989
20
53.2152317
40
0.2514401
50
27.8167196
51
46.4007942
0
ARC
8
DEFAULT_255_1_388
10
23.891983
20
53.2145882
40
0.2480958
50
47.4372362
51
75.0695672
0
ARC
8
DEFAULT_255_1_388
10
23.8572666
20
53.0937277
40
0.3738281
50
74.7009379
51
87.8124314
0
ARC
8
DEFAULT_255_1_388
10
23.8490283
20
52.9753659
40
0.4924321
50
87.3802571
51
90.0251599
0
ARC
8
DEFAULT_255_1_388
10
23.844693
20
53.1073997
40
0.3604218
50
89.3451886
51
108.5744412
0
ARC
8
DEFAULT_255_1_388
10
23.8292922
20
53.1651836
40
0.3007661
50
109.2998307
51
143.3037387
0
ARC
8
DEFAULT_255_1_388
10
23.9150212
20
53.0992584
40
0.4089031
50
143.075267
51
163.1918576
0
ARC
8
DEFAULT_255_1_388
10
24.1346047
20
53.0299652
40
0.6391492
50
162.9375929
51
174.6208776
0
ARC
8
DEFAULT_255_1_388
10
24.4300428
20
52.9975711
40
0.9363344
50
174.342123
51
180.1430283
0
ARC
8
DEFAULT_255_1_388
10
24.325297
20
52.8632117
40
0.8315986
50
179.6817261
51
189.150555
0
ARC
8
DEFAULT_255_1_388
10
24.0439719
20
52.8163559
40
0.5464044
50
188.9911061
51
203.5772363
0
ARC
8
DEFAULT_255_1_388
10
23.922501
20
52.7659539
40
0.4149206
50
203.9075402
51
215.1312435
0
ARC
8
DEFAULT_255_1_388
10
23.8186808
20
52.6854907
40
0.2837747
50
213.9071511
51
263.8848919
0
ARC
8
DEFAULT_255_1_388
10
23.8327801
20
52.7737519
40
0.3730641
50
263.1757928
51
270.1031044
0
ARC
8
DEFAULT_255_1_388
10
23.8363881
20
52.9140511
40
0.5133712
50
269.6722503
51
279.0606936
0
ARC
8
DEFAULT_255_1_388
10
23.8664036
20
52.732615
40
0.3294739
50
278.8749101
51
293.6349581
0
ARC
8
DEFAULT_255_1_388
10
23.902424
20
52.6480251
40
0.2375405
50
293.8553806
51
310.0518171
0
ARC
8
DEFAULT_255_1_388
10
23.9029749
20
52.6410021
40
0.2318463
50
311.0644687
51
332.0111037
0
ARC
8
DEFAULT_255_1_388
10
23.7688422
20
52.7149702
40
0.3850112
50
331.6586806
51
343.2877423
0
ARC
8
DEFAULT_255_1_388
10
23.5367888
20
52.7862806
40
0.6277712
50
343.1446576
51
351.0103568
0
ARC
8
DEFAULT_255_1_388
10
23.3735211
20
52.8162873
40
0.7937327
50
350.71248
51
351.1626997
0
LINE
8
DEFAULT_255_1_388
10
22.2162367
20
61.5299898
11
22.2162367
21
60.2144
0
LINE
8
DEFAULT_255_1_388
10
22.2162367
20
60.2144
11
22.0427523
21
60.2144
0
LINE
8
DEFAULT_255_1_388
10
22.0427523
20
60.2144
11
22.0427523
21
61.5299898
0
LINE
8
DEFAULT_255_1_388
10
22.0427523
20
61.5299898
11
22.2162367
21
61.5299898
0
LINE
8
DEFAULT_255_1_388
10
22.7330755
20
60.8170775
11
22.7330755
21
60.9535157
0
LINE
8
DEFAULT_255_1_388
10
22.7330755
20
60.9535157
11
22.858671
21
60.9535157
0
LINE
8
DEFAULT_255_1_388
10
22.6445262
20
61.1848282
11
22.4773668
21
61.1848282
0
LINE
8
DEFAULT_255_1_388
10
22.4656205
20
60.5613688
11
22.6336834
21
60.5613688
0
LINE
8
DEFAULT_255_1_388
10
22.858671
20
60.8170775
11
22.7330755
21
60.8170775
0
ARC
8
DEFAULT_255_1_388
10
22.8553936
20
61.3351922
40
0.3816905
50
270.491971
51
281.8953028
0
ARC
8
DEFAULT_255_1_388
10
22.8825363
20
61.2112199
40
0.2547877
50
281.6690378
51
301.2943765
0
ARC
8
DEFAULT_255_1_388
10
22.9016815
20
61.1761926
40
0.2149197
50
301.7834992
51
311.754567
0
ARC
8
DEFAULT_255_1_388
10
22.9119856
20
61.164765
40
0.1995326
50
311.7325027
51
354.2803031
0
ARC
8
DEFAULT_255_1_388
10
22.8302272
20
61.178828
40
0.2823461
50
353.0941646
51
0.1174696
0
ARC
8
DEFAULT_255_1_388
10
22.778383
20
61.1841874
40
0.3342238
50
359.1804452
51
15.0452323
0
ARC
8
DEFAULT_255_1_388
10
22.9297888
20
61.2283546
40
0.1765747
50
13.957816
51
77.6713812
0
ARC
8
DEFAULT_255_1_388
10
22.8863124
20
61.0725464
40
0.3381982
50
76.111571
51
90.7028736
0
ARC
8
DEFAULT_255_1_388
10
22.8796536
20
61.103325
40
0.3074046
50
89.5321574
51
103.5319393
0
ARC
8
DEFAULT_255_1_388
10
22.857092
20
61.1932443
40
0.2147041
50
103.2930114
51
133.5619756
0
ARC
8
DEFAULT_255_1_388
10
22.8520861
20
61.1999351
40
0.2064084
50
133.8349761
51
173.5343225
0
ARC
8
DEFAULT_255_1_388
10
22.9334519
20
61.1855144
40
0.2889266
50
172.5097183
51
180.1360699
0
ARC
8
DEFAULT_255_1_388
10
22.8264283
20
61.189388
40
0.3490913
50
155.3483706
51
180.7484035
0
ARC
8
DEFAULT_255_1_388
10
22.8209258
20
61.1861519
40
0.3454798
50
131.5745177
51
154.4799474
0
ARC
8
DEFAULT_255_1_388
10
22.8561541
20
61.1505422
40
0.3955058
50
96.9874487
51
131.9690874
0
ARC
8
DEFAULT_255_1_388
10
22.8808434
20
61.0104407
40
0.537622
50
89.8592909
51
97.7827481
0
ARC
8
DEFAULT_255_1_388
10
22.8862543
20
60.980936
40
0.5671399
50
78.3654493
51
90.4132586
0
ARC
8
DEFAULT_255_1_388
10
22.9265184
20
61.1675918
40
0.3762034
50
56.6229818
51
78.6387103
0
ARC
8
DEFAULT_255_1_388
10
22.9507013
20
61.2098846
40
0.3275964
50
47.0254604
51
56.085558
0
ARC
8
DEFAULT_255_1_388
10
22.9529264
20
61.2143189
40
0.3228382
50
10.9207523
51
46.777927
0
ARC
8
DEFAULT_255_1_388
10
22.7994858
20
61.1788401
40
0.4802559
50
359.6364235
51
11.6087615
0
ARC
8
DEFAULT_255_1_388
10
23.0059024
20
61.1771404
40
0.273833
50
332.3549969
51
359.7179765
0
ARC
8
DEFAULT_255_1_388
10
22.9327424
20
61.2118285
40
0.3547505
50
325.2332381
51
332.8746682
0
ARC
8
DEFAULT_255_1_388
10
22.9499007
20
61.1998763
40
0.3338396
50
292.9803892
51
325.2391113
0
ARC
8
DEFAULT_255_1_388
10
22.9188203
20
61.2603679
40
0.4016959
50
292.542178
51
293.6931461
0
ARC
8
DEFAULT_255_1_388
10
22.9631775
20
60.5338036
40
0.372079
50
57.643292
51
72.8626085
0
ARC
8
DEFAULT_255_1_388
10
23.0030609
20
60.5984273
40
0.2961455
50
36.7246661
51
57.4701329
0
ARC
8
DEFAULT_255_1_388
10
23.0017766
20
60.599847
40
0.2963321
50
8.054535
51
36.3561529
0
ARC
8
DEFAULT_255_1_388
10
22.9047439
20
60.5824073
40
0.3948682
50
359.8316595
51
8.5873361
0
ARC
8
DEFAULT_255_1_388
10
22.8624913
20
60.576997
40
0.4371398
50
343.9831631
51
0.557075
0
ARC
8
DEFAULT_255_1_388
10
22.9621962
20
60.5496963
40
0.3337749
50
311.6358204
51
343.7652116
0
ARC
8
DEFAULT_255_1_388
10
22.9196216
20
60.5976955
40
0.3979351
50
279.7829743
51
311.625622
0
ARC
8
DEFAULT_255_1_388
10
22.8857351
20
60.7593642
40
0.5630417
50
269.7285092
51
280.3857694
0
ARC
8
DEFAULT_255_1_388
10
22.8787664
20
60.7547241
40
0.5584119
50
256.6827433
51
270.4412869
0
ARC
8
DEFAULT_255_1_388
10
22.8406651
20
60.5989698
40
0.3980715
50
229.4223821
51
256.8554507
0
ARC
8
DEFAULT_255_1_388
10
22.7940204
20
60.5464683
40
0.3278564
50
181.8183354
51
229.6455015
0
ARC
8
DEFAULT_255_1_388
10
22.9109814
20
60.5611825
40
0.4453611
50
179.9760419
51
183.2330638
0
ARC
8
DEFAULT_255_1_388
10
22.8916366
20
60.5588781
40
0.2579652
50
179.4467996
51
196.2871626
0
ARC
8
DEFAULT_255_1_388
10
22.836782
20
60.5438709
40
0.2011057
50
196.5661293
51
227.7059371
0
ARC
8
DEFAULT_255_1_388
10
22.8552427
20
60.5645155
40
0.2287994
50
227.7653015
51
257.8763321
0
ARC
8
DEFAULT_255_1_388
10
22.880551
20
60.6705961
40
0.3378385
50
257.4583525
51
270.4267406
0
ARC
8
DEFAULT_255_1_388
10
22.885676
20
60.703223
40
0.3704652
50
269.5965319
51
280.8788143
0
ARC
8
DEFAULT_255_1_388
10
22.9114988
20
60.5742529
40
0.2389415
50
280.6347277
51
299.8594068
0
ARC
8
DEFAULT_255_1_388
10
22.9329757
20
60.5334736
40
0.19289
50
300.3575552
51
314.5515667
0
ARC
8
DEFAULT_255_1_388
10
22.9236433
20
60.5403025
40
0.204312
50
315.0730962
51
345.0429362
0
ARC
8
DEFAULT_255_1_388
10
22.8197941
20
60.5705539
40
0.31246
50
344.598526
51
357.9270698
0
ARC
8
DEFAULT_255_1_388
10
22.7188245
20
60.5774705
40
0.4136265
50
357.4755098
51
0.0224936
0
ARC
8
DEFAULT_255_1_388
10
22.8341123
20
60.5802099
40
0.2983498
50
359.5051035
51
13.4236939
0
ARC
8
DEFAULT_255_1_388
10
22.9316213
20
60.6051637
40
0.1977186
50
12.9497905
51
48.7550905
0
ARC
8
DEFAULT_255_1_388
10
22.9111135
20
60.5771373
40
0.2323321
50
49.509109
51
72.1832965
0
ARC
8
DEFAULT_255_1_388
10
22.8708603
20
60.4576632
40
0.358397
50
71.9008458
51
84.3555134
0
ARC
8
DEFAULT_255_1_388
10
22.8526998
20
60.3044712
40
0.512641
50
84.019632
51
89.3326067
0
LINE
8
DEFAULT_255_1_388
10
24.0251727
20
61.3040987
11
24.0251727
21
60.9200838
0
LINE
8
DEFAULT_255_1_388
10
24.0251727
20
60.9200838
11
24.3920199
21
60.9200838
0
LINE
8
DEFAULT_255_1_388
10
24.3920199
20
60.9200838
11
24.3920199
21
60.7619601
0
LINE
8
DEFAULT_255_1_388
10
24.3920199
20
60.7619601
11
24.0251727
21
60.7619601
0
LINE
8
DEFAULT_255_1_388
10
24.0251727
20
60.7619601
11
24.0251727
21
60.3463204
0
LINE
8
DEFAULT_255_1_388
10
24.0251727
20
60.3463204
11
23.8571097
21
60.3463204
0
LINE
8
DEFAULT_255_1_388
10
23.8571097
20
60.3463204
11
23.8571097
21
60.7619601
0
LINE
8
DEFAULT_255_1_388
10
23.8571097
20
60.7619601
11
23.4902625
21
60.7619601
0
LINE
8
DEFAULT_255_1_388
10
23.4902625
20
60.7619601
11
23.4902625
21
60.9200838
0
LINE
8
DEFAULT_255_1_388
10
23.4902625
20
60.9200838
11
23.8571097
21
60.9200838
0
LINE
8
DEFAULT_255_1_388
10
23.8571097
20
60.9200838
11
23.8571097
21
61.3040987
0
LINE
8
DEFAULT_255_1_388
10
23.8571097
20
61.3040987
11
24.0251727
21
61.3040987
0
LINE
8
DEFAULT_255_1_388
10
22.2162367
20
69.4674898
11
22.2162367
21
68.1519
0
LINE
8
DEFAULT_255_1_388
10
22.2162367
20
68.1519
11
22.0427523
21
68.1519
0
LINE
8
DEFAULT_255_1_388
10
22.0427523
20
68.1519
11
22.0427523
21
69.4674898
0
LINE
8
DEFAULT_255_1_388
10
22.0427523
20
69.4674898
11
22.2162367
21
69.4674898
0
LINE
8
DEFAULT_255_1_388
10
23.3520172
20
68.2883382
11
23.3520172
21
68.1519
0
LINE
8
DEFAULT_255_1_388
10
23.3520172
20
68.1519
11
22.4900167
21
68.1519
0
LINE
8
DEFAULT_255_1_388
10
22.4900167
20
68.1519
11
22.4900167
21
68.2720741
0
LINE
8
DEFAULT_255_1_388
10
22.4900167
20
68.2720741
11
22.9454132
21
68.7780702
0
LINE
8
DEFAULT_255_1_388
10
22.6318763
20
69.0798607
11
22.4647169
21
69.0798607
0
LINE
8
DEFAULT_255_1_388
10
23.0439017
20
68.670546
11
22.6915116
21
68.2883382
0
LINE
8
DEFAULT_255_1_388
10
22.6915116
20
68.2883382
11
23.3520172
21
68.2883382
0
ARC
8
DEFAULT_255_1_388
10
21.4278191
20
70.1200983
40
2.0258655
50
318.5132526
51
320.7829045
0
ARC
8
DEFAULT_255_1_388
10
22.0226148
20
69.6359929
40
1.2589638
50
320.7372878
51
323.9739031
0
ARC
8
DEFAULT_255_1_388
10
22.463508
20
69.3165554
40
0.7145141
50
323.8962701
51
328.64194
0
ARC
8
DEFAULT_255_1_388
10
22.6937338
20
69.1745545
40
0.4440242
50
328.8294576
51
331.7891185
0
ARC
8
DEFAULT_255_1_388
10
22.8059658
20
69.1166374
40
0.3177517
50
331.4254512
51
352.9365785
0
ARC
8
DEFAULT_255_1_388
10
22.8212658
20
69.113205
40
0.3021496
50
353.2257659
51
0.0166158
0
ARC
8
DEFAULT_255_1_388
10
22.8449418
20
69.1157894
40
0.2784847
50
359.486299
51
15.9343185
0
ARC
8
DEFAULT_255_1_388
10
22.9019685
20
69.1311269
40
0.2194403
50
16.1712913
51
43.5286088
0
ARC
8
DEFAULT_255_1_388
10
22.910663
20
69.1398191
40
0.2071504
50
43.4417391
51
83.1661095
0
ARC
8
DEFAULT_255_1_388
10
22.8955791
20
69.0569316
40
0.2912888
50
82.160179
51
90.1505708
0
ARC
8
DEFAULT_255_1_388
10
22.8920272
20
68.9965279
40
0.3517025
50
89.5460741
51
102.5418361
0
ARC
8
DEFAULT_255_1_388
10
22.8646992
20
69.1124933
40
0.2325748
50
102.1738499
51
129.206123
0
ARC
8
DEFAULT_255_1_388
10
22.8558446
20
69.1264664
40
0.2161591
50
129.72865
51
135.753947
0
ARC
8
DEFAULT_255_1_388
10
22.8694928
20
69.1155728
40
0.2335433
50
136.1757367
51
166.3673339
0
ARC
8
DEFAULT_255_1_388
10
22.9827616
20
69.0852148
40
0.3507873
50
165.9090694
51
178.8684636
0
ARC
8
DEFAULT_255_1_388
10
23.0803388
20
69.0799263
40
0.4484624
50
178.4391136
51
180.0083808
0
ARC
8
DEFAULT_255_1_388
10
22.9224089
20
69.0843197
40
0.4577138
50
163.2878482
51
180.5581842
0
ARC
8
DEFAULT_255_1_388
10
22.832213
20
69.1091393
40
0.3641968
50
133.4540601
51
162.947111
0
ARC
8
DEFAULT_255_1_388
10
22.8523012
20
69.0877789
40
0.3935189
50
100.7869829
51
133.4382499
0
ARC
8
DEFAULT_255_1_388
10
22.8914257
20
68.9135399
40
0.5720313
50
89.660664
51
101.3702276
0
ARC
8
DEFAULT_255_1_388
10
22.8988866
20
68.9204263
40
0.5651495
50
78.2172678
51
90.412935
0
ARC
8
DEFAULT_255_1_388
10
22.9388332
20
69.1031511
40
0.378122
50
55.9269121
51
78.4888449
0
ARC
8
DEFAULT_255_1_388
10
22.9609047
20
69.1412187
40
0.3342379
50
47.929771
51
55.4049217
0
ARC
8
DEFAULT_255_1_388
10
22.9723577
20
69.1528618
40
0.3179217
50
4.334829
51
48.0560205
0
ARC
8
DEFAULT_255_1_388
10
22.8491379
20
69.1337487
40
0.442341
50
359.9251713
51
5.5971671
0
ARC
8
DEFAULT_255_1_388
10
22.8973534
20
69.1400728
40
0.3941854
50
337.8914027
51
358.9967534
0
ARC
8
DEFAULT_255_1_388
10
22.5921104
20
69.2578295
40
0.7213271
50
326.9132501
51
338.3508308
0
ARC
8
DEFAULT_255_1_388
10
22.1437216
20
69.5452105
40
1.2538973
50
319.6471833
51
327.0959558
0
ARC
8
DEFAULT_255_1_388
10
21.7123874
20
69.901005
40
1.8129975
50
317.2588228
51
319.9045804
0
LINE
8
DEFAULT_255_1_388
10
24.0251727
20
69.2415987
11
24.0251727
21
68.8575838
0
LINE
8
DEFAULT_255_1_388
10
24.0251727
20
68.8575838
11
24.3920199
21
68.8575838
0
LINE
8
DEFAULT_255_1_388
10
24.3920199
20
68.8575838
11
24.3920199
21
68.6994601
0
LINE
8
DEFAULT_255_1_388
10
24.3920199
20
68.6994601
11
24.0251727
21
68.6994601
0
LINE
8
DEFAULT_255_1_388
10
24.0251727
20
68.6994601
11
24.0251727
21
68.2838204
0
LINE
8
DEFAULT_255_1_388
10
24.0251727
20
68.2838204
11
23.8571097
21
68.2838204
0
LINE
8
DEFAULT_255_1_388
10
23.8571097
20
68.2838204
11
23.8571097
21
68.6994601
0
LINE
8
DEFAULT_255_1_388
10
23.8571097
20
68.6994601
11
23.4902625
21
68.6994601
0
LINE
8
DEFAULT_255_1_388
10
23.4902625
20
68.6994601
11
23.4902625
21
68.8575838
0
LINE
8
DEFAULT_255_1_388
10
23.4902625
20
68.8575838
11
23.8571097
21
68.8575838
0
LINE
8
DEFAULT_255_1_388
10
23.8571097
20
68.8575838
11
23.8571097
21
69.2415987
0
LINE
8
DEFAULT_255_1_388
10
23.8571097
20
69.2415987
11
24.0251727
21
69.2415987
0
LINE
8
DEFAULT_255_1_388
10
22.2162367
20
77.4049898
11
22.2162367
21
76.0894
0
LINE
8
DEFAULT_255_1_388
10
22.2162367
20
76.0894
11
22.0427523
21
76.0894
0
LINE
8
DEFAULT_255_1_388
10
22.0427523
20
76.0894
11
22.0427523
21
77.4049898
0
LINE
8
DEFAULT_255_1_388
10
22.0427523
20
77.4049898
11
22.2162367
21
77.4049898
0
LINE
8
DEFAULT_255_1_388
10
23.0393839
20
77.4113148
11
23.0393839
21
76.0894
0
LINE
8
DEFAULT_255_1_388
10
23.0393839
20
76.0894
11
22.8713209
21
76.0894
0
LINE
8
DEFAULT_255_1_388
10
22.8713209
20
76.0894
11
22.8713209
21
77.203495
0
LINE
8
DEFAULT_255_1_388
10
22.8713209
20
77.203495
11
22.5342914
21
77.0797066
0
LINE
8
DEFAULT_255_1_388
10
22.5342914
20
77.0797066
11
22.5342914
21
77.2315055
0
LINE
8
DEFAULT_255_1_388
10
22.5342914
20
77.2315055
11
23.0131805
21
77.4113148
0
LINE
8
DEFAULT_255_1_388
10
23.0131805
20
77.4113148
11
23.0393839
21
77.4113148
0
LINE
8
DEFAULT_255_1_388
10
24.0251727
20
77.1790987
11
24.0251727
21
76.7950838
0
LINE
8
DEFAULT_255_1_388
10
24.0251727
20
76.7950838
11
24.3920199
21
76.7950838
0
LINE
8
DEFAULT_255_1_388
10
24.3920199
20
76.7950838
11
24.3920199
21
76.6369601
0
LINE
8
DEFAULT_255_1_388
10
24.3920199
20
76.6369601
11
24.0251727
21
76.6369601
0
LINE
8
DEFAULT_255_1_388
10
24.0251727
20
76.6369601
11
24.0251727
21
76.2213204
0
LINE
8
DEFAULT_255_1_388
10
24.0251727
20
76.2213204
11
23.8571097
21
76.2213204
0
LINE
8
DEFAULT_255_1_388
10
23.8571097
20
76.2213204
11
23.8571097
21
76.6369601
0
LINE
8
DEFAULT_255_1_388
10
23.8571097
20
76.6369601
11
23.4902625
21
76.6369601
0
LINE
8
DEFAULT_255_1_388
10
23.4902625
20
76.6369601
11
23.4902625
21
76.7950838
0
LINE
8
DEFAULT_255_1_388
10
23.4902625
20
76.7950838
11
23.8571097
21
76.7950838
0
LINE
8
DEFAULT_255_1_388
10
23.8571097
20
76.7950838
11
23.8571097
21
77.1790987
0
LINE
8
DEFAULT_255_1_388
10
23.8571097
20
77.1790987
11
24.0251727
21
77.1790987
0
LINE
8
DEFAULT_255_1_388
10
22.2162367
20
85.3424898
11
22.2162367
21
84.0269
0
LINE
8
DEFAULT_255_1_388
10
22.2162367
20
84.0269
11
22.0427523
21
84.0269
0
LINE
8
DEFAULT_255_1_388
10
22.0427523
20
84.0269
11
22.0427523
21
85.3424898
0
LINE
8
DEFAULT_255_1_388
10
22.0427523
20
85.3424898
11
22.2162367
21
85.3424898
0
LINE
8
DEFAULT_255_1_388
10
23.314971
20
84.804869
11
23.314971
21
84.5880135
0
LINE
8
DEFAULT_255_1_388
10
22.4845953
20
84.5654244
11
22.4845953
21
84.7886048
0
LINE
8
DEFAULT_255_1_388
10
23.1478116
20
84.5428353
11
23.1478116
21
84.8166153
0
LINE
8
DEFAULT_255_1_388
10
22.6517547
20
84.8292652
11
22.6517547
21
84.5618102
0
ARC
8
DEFAULT_255_1_388
10
21.9372044
20
84.5825118
40
1.3777776
50
353.8440855
51
0.2287917
0
ARC
8
DEFAULT_255_1_388
10
22.4591062
20
84.5242414
40
0.852639
50
344.4934746
51
353.9763743
0
ARC
8
DEFAULT_255_1_388
10
22.7957869
20
84.4285191
40
0.5026273
50
329.2803599
51
344.7473406
0
ARC
8
DEFAULT_255_1_388
10
22.9073365
20
84.3673038
40
0.3754848
50
324.9361395
51
328.6153007
0
ARC
8
DEFAULT_255_1_388
10
22.9499015
20
84.3375586
40
0.3235566
50
280.5801797
51
324.9173226
0
ARC
8
DEFAULT_255_1_388
10
22.9047643
20
84.5255236
40
0.5167077
50
269.5979457
51
281.6732777
0
ARC
8
DEFAULT_255_1_388
10
22.8966547
20
84.5120113
40
0.5032026
50
256.6228565
51
270.5105488
0
ARC
8
DEFAULT_255_1_388
10
22.8514289
20
84.3378345
40
0.3233092
50
215.8618351
51
257.2787793
0
ARC
8
DEFAULT_255_1_388
10
22.9662996
20
84.4149106
40
0.4615831
50
197.9695203
51
215.2622745
0
ARC
8
DEFAULT_255_1_388
10
23.2458672
20
84.5092641
40
0.7566307
50
187.8816486
51
198.2346584
0
ARC
8
DEFAULT_255_1_388
10
23.691191
20
84.5735453
40
1.2065653
50
180.8977266
51
188.0054894
0
ARC
8
DEFAULT_255_1_388
10
23.9962124
20
84.58504
40
1.5117443
50
180.7434591
51
181.152202
0
ARC
8
DEFAULT_255_1_388
10
23.828712
20
84.7940371
40
1.3441277
50
173.7674302
51
180.2315596
0
ARC
8
DEFAULT_255_1_388
10
23.3204989
20
84.8514779
40
0.8326847
50
164.3058537
51
173.9000553
0
ARC
8
DEFAULT_255_1_388
10
22.9928989
20
84.9458652
40
0.4917711
50
148.7922028
51
164.5682288
0
ARC
8
DEFAULT_255_1_388
10
22.8859726
20
85.0055457
40
0.3694204
50
144.5883979
51
148.1161588
0
ARC
8
DEFAULT_255_1_388
10
22.8472472
20
85.0325667
40
0.322202
50
101.6440149
51
144.5142619
0
ARC
8
DEFAULT_255_1_388
10
22.8950664
20
84.8425337
40
0.5180451
50
89.528284
51
102.5820197
0
ARC
8
DEFAULT_255_1_388
10
22.9039656
20
84.8381376
40
0.5224441
50
77.0437914
51
90.508231
0
ARC
8
DEFAULT_255_1_388
10
22.9491909
20
85.0229272
40
0.3322297
50
48.2777708
51
77.4996087
0
ARC
8
DEFAULT_255_1_388
10
22.9573649
20
85.0374557
40
0.315966
50
36.3141586
51
47.6307332
0
ARC
8
DEFAULT_255_1_388
10
22.8596372
20
84.9716159
40
0.4337313
50
18.2931065
51
35.6770203
0
ARC
8
DEFAULT_255_1_388
10
22.5735212
20
84.8734107
40
0.7362203
50
8.0246996
51
18.5605636
0
ARC
8
DEFAULT_255_1_388
10
22.1051568
20
84.8042432
40
1.2096583
50
1.127539
51
8.1718423
0
ARC
8
DEFAULT_255_1_388
10
21.7402701
20
84.7899374
40
1.5747719
50
0.5432713
51
1.38669
0
ARC
8
DEFAULT_255_1_388
10
21.946008
20
84.8206163
40
1.2018103
50
359.8092569
51
4.9408001
0
ARC
8
DEFAULT_255_1_388
10
22.4196661
20
84.86289
40
0.7262727
50
4.8364937
51
12.2906017
0
ARC
8
DEFAULT_255_1_388
10
22.7296126
20
84.9319485
40
0.4087324
50
12.0806994
51
23.8171225
0
ARC
8
DEFAULT_255_1_388
10
22.8616522
20
84.9878508
40
0.2653719
50
24.2874621
51
31.3934353
0
ARC
8
DEFAULT_255_1_388
10
22.9206958
20
85.0264822
40
0.1948607
50
30.7407708
51
82.4658033
0
ARC
8
DEFAULT_255_1_388
10
22.9004619
20
84.9271017
40
0.2961198
50
81.1057101
51
90.2187368
0
ARC
8
DEFAULT_255_1_388
10
22.8964431
20
84.9561421
40
0.2670929
50
89.380395
51
105.6763916
0
ARC
8
DEFAULT_255_1_388
10
22.8758153
20
85.031132
40
0.1893189
50
105.7980655
51
149.7387869
0
ARC
8
DEFAULT_255_1_388
10
22.9955293
20
84.9591719
40
0.3289892
50
149.4208441
51
163.628295
0
ARC
8
DEFAULT_255_1_388
10
23.2307522
20
84.8874345
40
0.5749004
50
163.3764549
51
172.141138
0
ARC
8
DEFAULT_255_1_388
10
23.6020244
20
84.8342582
40
0.9499585
50
172.0258462
51
178.0705453
0
ARC
8
DEFAULT_255_1_388
10
23.9441797
20
84.8180682
40
1.2924734
50
177.8639301
51
179.5036263
0
ARC
8
DEFAULT_255_1_388
10
23.8222815
20
84.5577151
40
1.170534
50
179.7995545
51
185.246089
0
ARC
8
DEFAULT_255_1_388
10
23.3674408
20
84.5146404
40
0.7136613
50
185.1411911
51
193.0082205
0
ARC
8
DEFAULT_255_1_388
10
23.0700669
20
84.4443441
40
0.4080987
50
192.7897338
51
205.2507384
0
ARC
8
DEFAULT_255_1_388
10
22.9522879
20
84.3917538
40
0.2791522
50
205.8001921
51
211.2545876
0
ARC
8
DEFAULT_255_1_388
10
22.8934418
20
84.3523132
40
0.2084074
50
210.3789935
51
238.4007996
0
ARC
8
DEFAULT_255_1_388
10
22.8912504
20
84.3575786
40
0.2117943
50
239.6521916
51
265.9793852
0
ARC
8
DEFAULT_255_1_388
10
22.9008353
20
84.4332358
40
0.2879689
50
265.1324455
51
270.0603288
0
ARC
8
DEFAULT_255_1_388
10
22.904073
20
84.3967418
40
0.2514919
50
269.3314378
51
287.2180039
0
ARC
8
DEFAULT_255_1_388
10
22.9195812
20
84.3401291
40
0.1928357
50
287.7957942
51
329.0808983
0
ARC
8
DEFAULT_255_1_388
10
22.8118569
20
84.4073651
40
0.319808
50
328.6635261
51
343.3325043
0
ARC
8
DEFAULT_255_1_388
10
22.5674028
20
84.4835195
40
0.5758408
50
343.0498092
51
351.9392499
0
ARC
8
DEFAULT_255_1_388
10
22.177335
20
84.5410205
40
0.9701202
50
351.8071632
51
357.7957897
0
ARC
8
DEFAULT_255_1_388
10
21.8138827
20
84.5598724
40
1.3340376
50
357.5870923
51
359.2682493
0
LINE
8
DEFAULT_255_1_388
10
24.0251727
20
85.1165987
11
24.0251727
21
84.7325838
0
LINE
8
DEFAULT_255_1_388
10
24.0251727
20
84.7325838
11
24.3920199
21
84.7325838
0
LINE
8
DEFAULT_255_1_388
10
24.3920199
20
84.7325838
11
24.3920199
21
84.5744601
0
LINE
8
DEFAULT_255_1_388
10
24.3920199
20
84.5744601
11
24.0251727
21
84.5744601
0
LINE
8
DEFAULT_255_1_388
10
24.0251727
20
84.5744601
11
24.0251727
21
84.1588204
0
LINE
8
DEFAULT_255_1_388
10
24.0251727
20
84.1588204
11
23.8571097
21
84.1588204
0
LINE
8
DEFAULT_255_1_388
10
23.8571097
20
84.1588204
11
23.8571097
21
84.5744601
0
LINE
8
DEFAULT_255_1_388
10
23.8571097
20
84.5744601
11
23.4902625
21
84.5744601
0
LINE
8
DEFAULT_255_1_388
10
23.4902625
20
84.5744601
11
23.4902625
21
84.7325838
0
LINE
8
DEFAULT_255_1_388
10
23.4902625
20
84.7325838
11
23.8571097
21
84.7325838
0
LINE
8
DEFAULT_255_1_388
10
23.8571097
20
84.7325838
11
23.8571097
21
85.1165987
0
LINE
8
DEFAULT_255_1_388
10
23.8571097
20
85.1165987
11
24.0251727
21
85.1165987
0
LINE
8
DEFAULT_255_1_388
10
22.4925618
20
92.5896666
11
22.3588343
21
92.6240021
0
LINE
8
DEFAULT_255_1_388
10
22.3588343
20
92.6240021
11
22.425698
21
93.2799898
0
LINE
8
DEFAULT_255_1_388
10
22.425698
20
93.2799898
11
23.0997571
21
93.2799898
0
LINE
8
DEFAULT_255_1_388
10
23.0997571
20
93.2799898
11
23.0997571
21
93.1254803
0
LINE
8
DEFAULT_255_1_388
10
23.0997571
20
93.1254803
11
22.5675577
21
93.1254803
0
LINE
8
DEFAULT_255_1_388
10
22.5675577
20
93.1254803
11
22.5278008
21
92.7667652
0
LINE
8
DEFAULT_255_1_388
10
22.3118489
20
92.3104652
11
22.4699727
21
92.3104652
0
LINE
8
DEFAULT_255_1_388
10
22.5368365
20
92.6258092
11
22.4925618
21
92.5896666
0
ARC
8
DEFAULT_255_1_388
10
22.7364622
20
92.4090241
40
0.4141476
50
93.7181681
51
120.253934
0
ARC
8
DEFAULT_255_1_388
10
22.7470674
20
92.3181284
40
0.5055616
50
89.9660471
51
94.2495185
0
ARC
8
DEFAULT_255_1_388
10
22.7516496
20
92.3844154
40
0.4392953
50
73.8045384
51
90.5585736
0
ARC
8
DEFAULT_255_1_388
10
22.7780754
20
92.480952
40
0.3392225
50
41.3071072
51
73.543002
0
ARC
8
DEFAULT_255_1_388
10
22.7312574
20
92.4406461
40
0.4009977
50
13.5075837
51
41.2174839
0
ARC
8
DEFAULT_255_1_388
10
22.5465671
20
92.3922907
40
0.5918864
50
1.1330171
51
13.8830737
0
ARC
8
DEFAULT_255_1_388
10
22.3869317
20
92.3837522
40
0.7516787
50
359.9925091
51
1.5431298
0
ARC
8
DEFAULT_255_1_388
10
22.5313932
20
92.3791027
40
0.6072343
50
347.8572712
51
0.4294349
0
ARC
8
DEFAULT_255_1_388
10
22.7283066
20
92.3344898
40
0.4053482
50
323.6727442
51
348.1674594
0
ARC
8
DEFAULT_255_1_388
10
22.7614031
20
92.3143175
40
0.3667495
50
316.8171818
51
323.1486802
0
ARC
8
DEFAULT_255_1_388
10
22.7683155
20
92.3101612
40
0.358869
50
281.839603
51
316.5458142
0
ARC
8
DEFAULT_255_1_388
10
22.7260442
20
92.4851363
40
0.5388223
50
269.5770964
51
282.4214641
0
ARC
8
DEFAULT_255_1_388
10
22.7180363
20
92.461093
40
0.5147801
50
256.2425863
51
270.4486481
0
ARC
8
DEFAULT_255_1_388
10
22.6843891
20
92.3261124
40
0.3756708
50
228.9024379
51
256.33135
0
ARC
8
DEFAULT_255_1_388
10
22.6760871
20
92.3130054
40
0.360344
50
193.7536029
51
228.5272638
0
ARC
8
DEFAULT_255_1_388
10
22.8153436
20
92.3538463
40
0.5053599
50
184.9244437
51
194.4976052
0
ARC
8
DEFAULT_255_1_388
10
22.8370077
20
92.3578722
40
0.3700839
50
187.3596909
51
198.6733728
0
ARC
8
DEFAULT_255_1_388
10
22.7189321
20
92.3169373
40
0.2451195
50
198.4453795
51
217.7945479
0
ARC
8
DEFAULT_255_1_388
10
22.6856493
20
92.2933563
40
0.2043754
50
218.2887146
51
228.5613203
0
ARC
8
DEFAULT_255_1_388
10
22.69665
20
92.3081902
40
0.2227819
50
228.9652423
51
258.1237049
0
ARC
8
DEFAULT_255_1_388
10
22.7197937
20
92.4072964
40
0.3245374
50
257.7260585
51
270.4013717
0
ARC
8
DEFAULT_255_1_388
10
22.7248435
20
92.3572255
40
0.2744726
50
269.4204315
51
286.420998
0
ARC
8
DEFAULT_255_1_388
10
22.7415491
20
92.2965705
40
0.2115721
50
286.7250065
51
320.6004665
0
ARC
8
DEFAULT_255_1_388
10
22.6984407
20
92.3315527
40
0.2670878
50
320.6712228
51
344.5440474
0
ARC
8
DEFAULT_255_1_388
10
22.568312
20
92.3697394
40
0.4026927
50
344.241448
51
356.735803
0
ARC
8
DEFAULT_255_1_388
10
22.4279428
20
92.3813656
40
0.5435085
50
356.3547471
51
0.0507222
0
ARC
8
DEFAULT_255_1_388
10
22.5781693
20
92.3848812
40
0.3932934
50
359.5579289
51
12.9534322
0
ARC
8
DEFAULT_255_1_388
10
22.6968533
20
92.4136586
40
0.2711827
50
12.6489751
51
41.608121
0
ARC
8
DEFAULT_255_1_388
10
22.7227693
20
92.4356946
40
0.2371737
50
41.7851122
51
85.9892156
0
ARC
8
DEFAULT_255_1_388
10
22.7089003
20
92.3441738
40
0.3295244
50
84.6965848
51
90.0672125
0
ARC
8
DEFAULT_255_1_388
10
22.706257
20
92.2690118
40
0.4046926
50
89.6804991
51
99.161352
0
ARC
8
DEFAULT_255_1_388
10
22.6831579
20
92.4070848
40
0.2647044
50
98.9836248
51
113.8905702
0
ARC
8
DEFAULT_255_1_388
10
22.6573254
20
92.4680118
40
0.1985386
50
114.195234
51
127.3641866
0
LINE
8
DEFAULT_255_1_388
10
24.1578311
20
92.3818468
11
24.332219
21
92.3818468
0
LINE
8
DEFAULT_255_1_388
10
23.3193233
20
92.5607525
11
23.3193233
21
92.6872516
0
LINE
8
DEFAULT_255_1_388
10
24.332219
20
92.8571217
11
24.1578311
21
92.8571217
0
LINE
8
DEFAULT_255_1_388
10
23.4937112
20
92.6827337
11
23.4937112
21
92.5553312
0
ARC
8
DEFAULT_255_1_388
10
23.7156424
20
92.4490329
40
0.6202263
50
340.1774904
51
353.7812217
0
ARC
8
DEFAULT_255_1_388
10
23.8924277
20
92.3831893
40
0.4315926
50
311.4560052
51
340.4420756
0
ARC
8
DEFAULT_255_1_388
10
23.8886817
20
92.3956665
40
0.4434573
50
282.4332229
51
310.7514507
0
ARC
8
DEFAULT_255_1_388
10
23.8392635
20
92.5998703
40
0.6535262
50
269.9358869
51
282.8096729
0
ARC
8
DEFAULT_255_1_388
10
23.8334574
20
92.7511329
40
0.8048043
50
269.9995752
51
270.3612856
0
ARC
8
DEFAULT_255_1_388
10
23.8275064
20
92.4712781
40
0.5249831
50
250.7885263
51
270.6488451
0
ARC
8
DEFAULT_255_1_388
10
23.8085889
20
92.3995853
40
0.4510942
50
219.3628377
51
250.0611024
0
ARC
8
DEFAULT_255_1_388
10
23.9018763
20
92.4788653
40
0.5735046
50
193.5480293
51
219.5755675
0
ARC
8
DEFAULT_255_1_388
10
24.1686972
20
92.548152
40
0.849146
50
181.1220183
51
193.8754971
0
ARC
8
DEFAULT_255_1_388
10
24.4010206
20
92.5605914
40
1.0816971
50
179.9914644
51
181.5398227
0
ARC
8
DEFAULT_255_1_388
10
24.1933516
20
92.6914586
40
0.8740384
50
169.5837606
51
180.275782
0
ARC
8
DEFAULT_255_1_388
10
23.9866864
20
92.7296439
40
0.6638751
50
155.0367033
51
169.6002779
0
ARC
8
DEFAULT_255_1_388
10
23.8589322
20
92.7912336
40
0.5220662
50
136.7831557
51
155.2472983
0
ARC
8
DEFAULT_255_1_388
10
23.8151113
20
92.8284577
40
0.4646502
50
121.7633063
51
136.4281161
0
ARC
8
DEFAULT_255_1_388
10
23.8302953
20
92.8004049
40
0.4964979
50
95.6460018
51
121.5489589
0
ARC
8
DEFAULT_255_1_388
10
23.8479927
20
92.6756704
40
0.6223912
50
89.9245727
51
96.1375919
0
ARC
8
DEFAULT_255_1_388
10
23.8536632
20
92.6890721
40
0.6090084
50
76.6779212
51
90.456405
0
ARC
8
DEFAULT_255_1_388
10
23.8979445
20
92.868006
40
0.42469
50
47.4858803
51
76.9287069
0
ARC
8
DEFAULT_255_1_388
10
23.8814059
20
92.8567623
40
0.4441778
50
16.5424081
51
46.8934505
0
ARC
8
DEFAULT_255_1_388
10
23.7005109
20
92.7973265
40
0.6345318
50
5.4072971
51
17.0363711
0
ARC
8
DEFAULT_255_1_388
10
23.5386834
20
92.7713304
40
0.6250632
50
7.8888693
51
15.9242022
0
ARC
8
DEFAULT_255_1_388
10
23.7621819
20
92.8362309
40
0.3923364
50
15.7650676
51
27.9410069
0
ARC
8
DEFAULT_255_1_388
10
23.8863989
20
92.9027317
40
0.2514401
50
27.8167196
51
46.4007942
0
ARC
8
DEFAULT_255_1_388
10
23.891983
20
92.9020882
40
0.2480958
50
47.4372362
51
75.0695672
0
ARC
8
DEFAULT_255_1_388
10
23.8572666
20
92.7812277
40
0.3738281
50
74.7009379
51
87.8124314
0
ARC
8
DEFAULT_255_1_388
10
23.8490283
20
92.6628659
40
0.4924321
50
87.3802571
51
90.0251599
0
ARC
8
DEFAULT_255_1_388
10
23.844693
20
92.7948997
40
0.3604218
50
89.3451886
51
108.5744412
0
ARC
8
DEFAULT_255_1_388
10
23.8292922
20
92.8526836
40
0.3007661
50
109.2998307
51
143.3037387
0
ARC
8
DEFAULT_255_1_388
10
23.9150212
20
92.7867584
40
0.4089031
50
143.075267
51
163.1918576
0
ARC
8
DEFAULT_255_1_388
10
24.1346047
20
92.7174652
40
0.6391492
50
162.9375929
51
174.6208776
0
ARC
8
DEFAULT_255_1_388
10
24.4300428
20
92.6850711
40
0.9363344
50
174.342123
51
180.1430283
0
ARC
8
DEFAULT_255_1_388
10
24.325297
20
92.5507117
40
0.8315986
50
179.6817261
51
189.150555
0
ARC
8
DEFAULT_255_1_388
10
24.0439719
20
92.5038559
40
0.5464044
50
188.9911061
51
203.5772363
0
ARC
8
DEFAULT_255_1_388
10
23.922501
20
92.4534539
40
0.4149206
50
203.9075402
51
215.1312435
0
ARC
8
DEFAULT_255_1_388
10
23.8186808
20
92.3729907
40
0.2837747
50
213.9071511
51
263.8848919
0
ARC
8
DEFAULT_255_1_388
10
23.8327801
20
92.4612519
40
0.3730641
50
263.1757928
51
270.1031044
0
ARC
8
DEFAULT_255_1_388
10
23.8363881
20
92.6015511
40
0.5133712
50
269.6722503
51
279.0606936
0
ARC
8
DEFAULT_255_1_388
10
23.8664036
20
92.420115
40
0.3294739
50
278.8749101
51
293.6349581
0
ARC
8
DEFAULT_255_1_388
10
23.902424
20
92.3355251
40
0.2375405
50
293.8553806
51
310.0518171
0
ARC
8
DEFAULT_255_1_388
10
23.9029749
20
92.3285021
40
0.2318463
50
311.0644687
51
332.0111037
0
ARC
8
DEFAULT_255_1_388
10
23.7688422
20
92.4024702
40
0.3850112
50
331.6586806
51
343.2877423
0
ARC
8
DEFAULT_255_1_388
10
23.5367888
20
92.4737806
40
0.6277712
50
343.1446576
51
351.0103568
0
ARC
8
DEFAULT_255_1_388
10
23.3735211
20
92.5037873
40
0.7937327
50
350.71248
51
351.1626997
0
ENDSEC
0
EOF