0
SECTION
2
HEADER
9
$MEASUREMENT
70
1
0
ENDSEC
0
SECTION
2
TABLES
0
TABLE
2
LTYPE
0
LTYPE
72
65
70
64
2
CONTINUOUS
3
______
73
0
40
0
0
ENDTAB
0
TABLE
2
LAYER
0
LAYER
2
DEFAULT_255_2_778
70
0
62
255
6
CONTINUOUS
0
LAYER
2
DEFAULT_255_1_388
70
0
62
255
6
CONTINUOUS
0
LAYER
2
DEFAULT_255_2_778_1
70
0
62
255
6
CONTINUOUS
0
ENDTAB
0
ENDSEC
0
SECTION
2
ENTITIES
0
ARC
8
DEFAULT_255_2_778
10
3.5700693
20
59.9302032
40
0.7914215
50
129.1312896
51
180.1450914
0
ARC
8
DEFAULT_255_2_778
10
3.5703345
20
59.9306904
40
0.7912112
50
89.854026
51
129.1684493
0
ARC
8
DEFAULT_255_2_778
10
25.7993937
20
59.9303769
40
0.7915249
50
39.4792447
51
90.147911
0
ARC
8
DEFAULT_255_2_778
10
25.7999935
20
59.9302236
40
0.7911595
50
359.8533901
51
39.5154338
0
ARC
8
DEFAULT_255_2_778
10
25.7996693
20
-1.986349
40
0.7914836
50
309.4761667
51
0.1482649
0
ARC
8
DEFAULT_255_2_778
10
25.799398
20
-1.9867801
40
0.7913235
50
269.8517415
51
309.511178
0
ARC
8
DEFAULT_255_2_778
10
3.570342
20
-1.9867219
40
0.7913815
50
219.1282118
51
270.1454017
0
ARC
8
DEFAULT_255_2_778
10
3.5700247
20
-1.9863394
40
0.7913769
50
179.8524075
51
219.1641908
0
LINE
8
DEFAULT_255_2_778
10
3.5723503
20
60.7218991
11
25.7973503
21
60.7218991
0
LINE
8
DEFAULT_255_2_778
10
26.5911503
20
59.9281991
11
26.5911503
21
-1.9843009
0
LINE
8
DEFAULT_255_2_778
10
25.7973503
20
-2.7781009
11
3.5723503
21
-2.7781009
0
LINE
8
DEFAULT_255_2_778
10
2.7786503
20
-1.9843009
11
2.7786503
21
59.9281991
0
LINE
8
DEFAULT_255_1_388
10
9.5415024
20
-0.6398
11
9.0852024
21
-0.6398
0
LINE
8
DEFAULT_255_1_388
10
9.0852024
20
-0.6398
11
9.0852024
21
0.6757898
0
LINE
8
DEFAULT_255_1_388
10
9.0852024
20
0.6757898
11
9.5152991
21
0.6757898
0
LINE
8
DEFAULT_255_1_388
10
9.5478274
20
-0.0244726
11
9.2586868
21
-0.0244726
0
LINE
8
DEFAULT_255_1_388
10
9.2586868
20
-0.0244726
11
9.2586868
21
-0.4979404
0
LINE
8
DEFAULT_255_1_388
10
9.2586868
20
-0.4979404
11
9.5451167
21
-0.4979404
0
LINE
8
DEFAULT_255_1_388
10
9.2586868
20
0.5330267
11
9.2586868
21
0.1146763
0
LINE
8
DEFAULT_255_1_388
10
9.2586868
20
0.1146763
11
9.5207205
21
0.1146763
0
LINE
8
DEFAULT_255_1_388
10
9.5152991
20
0.5330267
11
9.2586868
21
0.5330267
0
ARC
8
DEFAULT_255_1_388
10
9.5195411
20
-0.1530176
40
0.8288183
50
82.1256322
51
90.2932506
0
ARC
8
DEFAULT_255_1_388
10
9.5632986
20
0.152759
40
0.5199321
50
69.9044202
51
82.2857574
0
ARC
8
DEFAULT_255_1_388
10
9.6274979
20
0.3262993
40
0.3348993
50
51.1840204
51
70.018125
0
ARC
8
DEFAULT_255_1_388
10
9.6561811
20
0.3679945
40
0.2844579
50
12.1018086
51
50.421322
0
ARC
8
DEFAULT_255_1_388
10
9.5004682
20
0.3288937
40
0.4449429
50
359.5252354
51
12.8212369
0
ARC
8
DEFAULT_255_1_388
10
9.6782112
20
0.3210943
40
0.2672162
50
323.4907456
51
0.8818258
0
ARC
8
DEFAULT_255_1_388
10
9.6311525
20
0.3574523
40
0.3266736
50
298.6824053
51
323.2758285
0
ARC
8
DEFAULT_255_1_388
10
9.5904816
20
0.4250509
40
0.4055105
50
293.1994739
51
299.139634
0
ARC
8
DEFAULT_255_1_388
10
9.6661766
20
-0.2595349
40
0.3229926
50
54.0009997
51
74.9168635
0
ARC
8
DEFAULT_255_1_388
10
9.6792693
20
-0.2373489
40
0.2973581
50
36.3578854
51
53.5293172
0
ARC
8
DEFAULT_255_1_388
10
9.6650061
20
-0.247515
40
0.3148715
50
4.8189348
51
36.3090187
0
ARC
8
DEFAULT_255_1_388
10
9.5773085
20
-0.2598617
40
0.4033265
50
359.9373213
51
5.5201284
0
ARC
8
DEFAULT_255_1_388
10
9.5408415
20
-0.2644267
40
0.4398126
50
344.7479357
51
0.5372278
0
ARC
8
DEFAULT_255_1_388
10
9.6523314
20
-0.2944795
40
0.3243441
50
311.1785587
51
344.6887681
0
ARC
8
DEFAULT_255_1_388
10
9.6194857
20
-0.2535916
40
0.3767511
50
286.0417804
51
310.8440924
0
ARC
8
DEFAULT_255_1_388
10
9.5624266
20
-0.0683115
40
0.5705957
50
274.1044074
51
286.4070149
0
ARC
8
DEFAULT_255_1_388
10
9.5425482
20
0.1434901
40
0.7832907
50
269.9235077
51
274.4458593
0
ARC
8
DEFAULT_255_1_388
10
9.54772
20
-0.1196538
40
0.3782955
50
269.6057074
51
281.3740795
0
ARC
8
DEFAULT_255_1_388
10
9.5736698
20
-0.2426431
40
0.2526069
50
281.105298
51
302.5134029
0
ARC
8
DEFAULT_255_1_388
10
9.5902086
20
-0.2723056
40
0.2187131
50
303.0365425
51
311.8818034
0
ARC
8
DEFAULT_255_1_388
10
9.5982263
20
-0.2818398
40
0.2062624
50
311.9916937
51
351.7143773
0
ARC
8
DEFAULT_255_1_388
10
9.5063288
20
-0.2632729
40
0.2999202
50
350.7343295
51
0.2221526
0
ARC
8
DEFAULT_255_1_388
10
9.4942376
20
-0.256913
40
0.3120525
50
359.045729
51
17.2295312
0
ARC
8
DEFAULT_255_1_388
10
9.6111406
20
-0.2221845
40
0.1901144
50
17.6685208
51
78.9940245
0
ARC
8
DEFAULT_255_1_388
10
9.5529767
20
-0.4309989
40
0.4065575
50
76.565218
51
90.7103392
0
LINE
8
DEFAULT_255_1_388
10
9.5479364
20
-0.0244726
11
9.5478274
21
-0.0244726
0
ARC
8
DEFAULT_255_1_388
10
9.5232593
20
0.4842949
40
0.3696273
50
269.6064514
51
281.4533785
0
ARC
8
DEFAULT_255_1_388
10
9.5483234
20
0.3660283
40
0.2487412
50
281.2044438
51
302.5143998
0
ARC
8
DEFAULT_255_1_388
10
9.5637488
20
0.3382576
40
0.2170405
50
303.0211308
51
309.8378766
0
ARC
8
DEFAULT_255_1_388
10
9.5843605
20
0.3151486
40
0.1860946
50
309.5229446
51
356.9509628
0
ARC
8
DEFAULT_255_1_388
10
9.5097731
20
0.3258831
40
0.2612347
50
355.4699226
51
0.0498632
0
ARC
8
DEFAULT_255_1_388
10
9.4783404
20
0.3283789
40
0.2926762
50
359.5558955
51
11.2092924
0
ARC
8
DEFAULT_255_1_388
10
9.5860372
20
0.3506667
40
0.1827036
50
10.9185717
51
31.322519
0
ARC
8
DEFAULT_255_1_388
10
9.618192
20
0.3685571
40
0.1459418
50
31.8850633
51
52.1415586
0
ARC
8
DEFAULT_255_1_388
10
9.5873349
20
0.3249674
40
0.1993088
50
52.8283418
51
71.9850132
0
ARC
8
DEFAULT_255_1_388
10
9.545051
20
0.2005158
40
0.3307407
50
71.686634
51
82.8453416
0
ARC
8
DEFAULT_255_1_388
10
9.5181157
20
-0.0030108
40
0.536039
50
82.6981895
51
90.1730083
0
ARC
8
DEFAULT_255_1_388
10
9.5155989
20
0.0848836
40
0.4481429
50
89.8851568
51
90.0383283
0
LINE
8
DEFAULT_255_1_388
10
10.3492891
20
0.6757898
11
10.6664402
21
0.1716009
0
LINE
8
DEFAULT_255_1_388
10
10.6664402
20
0.1716009
11
10.9817842
21
0.6757898
0
LINE
8
DEFAULT_255_1_388
10
10.9817842
20
0.6757898
11
11.1859897
21
0.6757898
0
LINE
8
DEFAULT_255_1_388
10
11.1859897
20
0.6757898
11
10.7703501
21
0.0234163
0
LINE
8
DEFAULT_255_1_388
10
10.7703501
20
0.0234163
11
11.195929
21
-0.6398
0
LINE
8
DEFAULT_255_1_388
10
11.195929
20
-0.6398
11
10.9899163
21
-0.6398
0
LINE
8
DEFAULT_255_1_388
10
10.9899163
20
-0.6398
11
10.6664402
21
-0.1265754
0
LINE
8
DEFAULT_255_1_388
10
10.6664402
20
-0.1265754
11
10.341157
21
-0.6398
0
LINE
8
DEFAULT_255_1_388
10
10.341157
20
-0.6398
11
10.1360479
21
-0.6398
0
LINE
8
DEFAULT_255_1_388
10
10.1360479
20
-0.6398
11
10.5625303
21
0.0234163
0
LINE
8
DEFAULT_255_1_388
10
10.5625303
20
0.0234163
11
10.1459871
21
0.6757898
0
LINE
8
DEFAULT_255_1_388
10
10.1459871
20
0.6757898
11
10.3492891
21
0.6757898
0
LINE
8
DEFAULT_255_1_388
10
11.6775288
20
-0.0127263
11
11.6775288
21
-0.1491645
0
LINE
8
DEFAULT_255_1_388
10
11.6775288
20
-0.1491645
11
11.2365894
21
-0.1491645
0
LINE
8
DEFAULT_255_1_388
10
11.2365894
20
-0.1491645
11
11.2365894
21
-0.0127263
0
LINE
8
DEFAULT_255_1_388
10
11.2365894
20
-0.0127263
11
11.6775288
21
-0.0127263
0
LINE
8
DEFAULT_255_1_388
10
12.647957
20
0.138169
11
12.647957
21
-0.0786865
0
LINE
8
DEFAULT_255_1_388
10
11.8175813
20
-0.1012756
11
11.8175813
21
0.1219048
0
LINE
8
DEFAULT_255_1_388
10
12.4807976
20
-0.1238647
11
12.4807976
21
0.1499153
0
LINE
8
DEFAULT_255_1_388
10
11.9847407
20
0.1625652
11
11.9847407
21
-0.1048898
0
ARC
8
DEFAULT_255_1_388
10
11.2701904
20
-0.0841882
40
1.3777776
50
353.8440855
51
0.2287917
0
ARC
8
DEFAULT_255_1_388
10
11.7920922
20
-0.1424586
40
0.852639
50
344.4934746
51
353.9763743
0
ARC
8
DEFAULT_255_1_388
10
12.1287729
20
-0.2381809
40
0.5026273
50
329.2803599
51
344.7473406
0
ARC
8
DEFAULT_255_1_388
10
12.2403225
20
-0.2993962
40
0.3754848
50
324.9361395
51
328.6153007
0
ARC
8
DEFAULT_255_1_388
10
12.2828874
20
-0.3291414
40
0.3235566
50
280.5801797
51
324.9173226
0
ARC
8
DEFAULT_255_1_388
10
12.2377503
20
-0.1411764
40
0.5167077
50
269.5979457
51
281.6732777
0
ARC
8
DEFAULT_255_1_388
10
12.2296407
20
-0.1546887
40
0.5032026
50
256.6228565
51
270.5105488
0
ARC
8
DEFAULT_255_1_388
10
12.1844149
20
-0.3288655
40
0.3233092
50
215.8618351
51
257.2787793
0
ARC
8
DEFAULT_255_1_388
10
12.2992856
20
-0.2517894
40
0.4615831
50
197.9695203
51
215.2622745
0
ARC
8
DEFAULT_255_1_388
10
12.5788532
20
-0.1574359
40
0.7566307
50
187.8816486
51
198.2346584
0
ARC
8
DEFAULT_255_1_388
10
13.024177
20
-0.0931547
40
1.2065653
50
180.8977266
51
188.0054894
0
ARC
8
DEFAULT_255_1_388
10
13.3291984
20
-0.08166
40
1.5117443
50
180.7434591
51
181.152202
0
ARC
8
DEFAULT_255_1_388
10
13.161698
20
0.1273371
40
1.3441277
50
173.7674302
51
180.2315596
0
ARC
8
DEFAULT_255_1_388
10
12.6534849
20
0.1847779
40
0.8326847
50
164.3058537
51
173.9000553
0
ARC
8
DEFAULT_255_1_388
10
12.3258849
20
0.2791652
40
0.4917711
50
148.7922028
51
164.5682288
0
ARC
8
DEFAULT_255_1_388
10
12.2189586
20
0.3388457
40
0.3694204
50
144.5883979
51
148.1161588
0
ARC
8
DEFAULT_255_1_388
10
12.1802331
20
0.3658667
40
0.322202
50
101.6440149
51
144.5142619
0
ARC
8
DEFAULT_255_1_388
10
12.2280524
20
0.1758337
40
0.5180451
50
89.528284
51
102.5820197
0
ARC
8
DEFAULT_255_1_388
10
12.2369516
20
0.1714376
40
0.5224441
50
77.0437914
51
90.508231
0
ARC
8
DEFAULT_255_1_388
10
12.2821769
20
0.3562272
40
0.3322297
50
48.2777708
51
77.4996087
0
ARC
8
DEFAULT_255_1_388
10
12.2903509
20
0.3707557
40
0.315966
50
36.3141586
51
47.6307332
0
ARC
8
DEFAULT_255_1_388
10
12.1926231
20
0.3049159
40
0.4337313
50
18.2931065
51
35.6770203
0
ARC
8
DEFAULT_255_1_388
10
11.9065072
20
0.2067107
40
0.7362203
50
8.0246996
51
18.5605636
0
ARC
8
DEFAULT_255_1_388
10
11.4381428
20
0.1375432
40
1.2096583
50
1.127539
51
8.1718423
0
ARC
8
DEFAULT_255_1_388
10
11.0732561
20
0.1232374
40
1.5747719
50
0.5432713
51
1.38669
0
ARC
8
DEFAULT_255_1_388
10
11.278994
20
0.1539163
40
1.2018103
50
359.8092569
51
4.9408001
0
ARC
8
DEFAULT_255_1_388
10
11.7526521
20
0.19619
40
0.7262727
50
4.8364937
51
12.2906017
0
ARC
8
DEFAULT_255_1_388
10
12.0625986
20
0.2652485
40
0.4087324
50
12.0806994
51
23.8171225
0
ARC
8
DEFAULT_255_1_388
10
12.1946382
20
0.3211508
40
0.2653719
50
24.2874621
51
31.3934353
0
ARC
8
DEFAULT_255_1_388
10
12.2536818
20
0.3597822
40
0.1948607
50
30.7407708
51
82.4658033
0
ARC
8
DEFAULT_255_1_388
10
12.2334479
20
0.2604017
40
0.2961198
50
81.1057101
51
90.2187368
0
ARC
8
DEFAULT_255_1_388
10
12.2294291
20
0.2894421
40
0.2670929
50
89.380395
51
105.6763916
0
ARC
8
DEFAULT_255_1_388
10
12.2088013
20
0.364432
40
0.1893189
50
105.7980655
51
149.7387869
0
ARC
8
DEFAULT_255_1_388
10
12.3285153
20
0.2924719
40
0.3289892
50
149.4208441
51
163.628295
0
ARC
8
DEFAULT_255_1_388
10
12.5637382
20
0.2207345
40
0.5749004
50
163.3764549
51
172.141138
0
ARC
8
DEFAULT_255_1_388
10
12.9350104
20
0.1675582
40
0.9499585
50
172.0258462
51
178.0705453
0
ARC
8
DEFAULT_255_1_388
10
13.2771656
20
0.1513682
40
1.2924734
50
177.8639301
51
179.5036263
0
ARC
8
DEFAULT_255_1_388
10
13.1552675
20
-0.1089849
40
1.170534
50
179.7995545
51
185.246089
0
ARC
8
DEFAULT_255_1_388
10
12.7004268
20
-0.1520596
40
0.7136613
50
185.1411911
51
193.0082205
0
ARC
8
DEFAULT_255_1_388
10
12.4030529
20
-0.2223559
40
0.4080987
50
192.7897338
51
205.2507384
0
ARC
8
DEFAULT_255_1_388
10
12.2852739
20
-0.2749462
40
0.2791522
50
205.8001921
51
211.2545876
0
ARC
8
DEFAULT_255_1_388
10
12.2264278
20
-0.3143868
40
0.2084074
50
210.3789935
51
238.4007996
0
ARC
8
DEFAULT_255_1_388
10
12.2242364
20
-0.3091214
40
0.2117943
50
239.6521916
51
265.9793852
0
ARC
8
DEFAULT_255_1_388
10
12.2338213
20
-0.2334642
40
0.2879689
50
265.1324455
51
270.0603288
0
ARC
8
DEFAULT_255_1_388
10
12.237059
20
-0.2699582
40
0.2514919
50
269.3314378
51
287.2180039
0
ARC
8
DEFAULT_255_1_388
10
12.2525672
20
-0.3265709
40
0.1928357
50
287.7957942
51
329.0808983
0
ARC
8
DEFAULT_255_1_388
10
12.1448429
20
-0.2593349
40
0.319808
50
328.6635261
51
343.3325043
0
ARC
8
DEFAULT_255_1_388
10
11.9003888
20
-0.1831805
40
0.5758408
50
343.0498092
51
351.9392499
0
ARC
8
DEFAULT_255_1_388
10
11.5103209
20
-0.1256795
40
0.9701202
50
351.8071632
51
357.7957897
0
ARC
8
DEFAULT_255_1_388
10
11.1468687
20
-0.1068276
40
1.3340376
50
357.5870923
51
359.2682493
0
LINE
8
DEFAULT_255_1_388
10
13.5677856
20
0.6757898
11
13.5677856
21
-0.197957
0
LINE
8
DEFAULT_255_1_388
10
13.5677856
20
-0.197957
11
13.7503057
21
-0.197957
0
LINE
8
DEFAULT_255_1_388
10
13.7503057
20
-0.197957
11
13.7503057
21
-0.3343952
0
LINE
8
DEFAULT_255_1_388
10
13.7503057
20
-0.3343952
11
13.5677856
21
-0.3343952
0
LINE
8
DEFAULT_255_1_388
10
13.5677856
20
-0.3343952
11
13.5677856
21
-0.6398
0
LINE
8
DEFAULT_255_1_388
10
13.5677856
20
-0.6398
11
13.3997227
21
-0.6398
0
LINE
8
DEFAULT_255_1_388
10
13.3997227
20
-0.6398
11
13.3997227
21
-0.3343952
0
LINE
8
DEFAULT_255_1_388
10
13.3997227
20
-0.3343952
11
12.8006594
21
-0.3343952
0
LINE
8
DEFAULT_255_1_388
10
12.8006594
20
-0.3343952
11
12.8006594
21
-0.2359067
0
LINE
8
DEFAULT_255_1_388
10
12.8006594
20
-0.2359067
11
13.3897834
21
0.6757898
0
LINE
8
DEFAULT_255_1_388
10
13.3897834
20
0.6757898
11
13.5677856
21
0.6757898
0
LINE
8
DEFAULT_255_1_388
10
13.3798442
20
0.4110455
11
12.990408
21
-0.197957
0
LINE
8
DEFAULT_255_1_388
10
12.990408
20
-0.197957
11
13.3997227
21
-0.197957
0
LINE
8
DEFAULT_255_1_388
10
13.3997227
20
-0.197957
11
13.3997227
21
0.447188
0
LINE
8
DEFAULT_255_1_388
10
13.3997227
20
0.447188
11
13.3798442
21
0.4110455
0
LINE
8
DEFAULT_255_1_388
10
14.7966333
20
-0.6398
11
14.6710378
21
-0.2964455
0
LINE
8
DEFAULT_255_1_388
10
14.6710378
20
-0.2964455
11
14.1198635
21
-0.2964455
0
LINE
8
DEFAULT_255_1_388
10
14.1198635
20
-0.2964455
11
13.9960752
21
-0.6398
0
LINE
8
DEFAULT_255_1_388
10
13.9960752
20
-0.6398
11
13.8171694
21
-0.6398
0
LINE
8
DEFAULT_255_1_388
10
13.8171694
20
-0.6398
11
14.3195513
21
0.6757898
0
LINE
8
DEFAULT_255_1_388
10
14.3195513
20
0.6757898
11
14.4713501
21
0.6757898
0
LINE
8
DEFAULT_255_1_388
10
14.4713501
20
0.6757898
11
14.9746355
21
-0.6398
0
LINE
8
DEFAULT_255_1_388
10
14.9746355
20
-0.6398
11
14.7966333
21
-0.6398
0
LINE
8
DEFAULT_255_1_388
10
14.3954507
20
0.4616451
11
14.1722703
21
-0.1536823
0
LINE
8
DEFAULT_255_1_388
10
14.1722703
20
-0.1536823
11
14.6195347
21
-0.1536823
0
LINE
8
DEFAULT_255_1_388
10
14.6195347
20
-0.1536823
11
14.3954507
21
0.4616451
0
LINE
8
DEFAULT_255_1_388
10
15.5158706
20
-0.6398
11
15.1517341
21
-0.6398
0
LINE
8
DEFAULT_255_1_388
10
15.1517341
20
-0.6398
11
15.1517341
21
0.6757898
0
LINE
8
DEFAULT_255_1_388
10
15.1517341
20
0.6757898
11
15.5230991
21
0.6757898
0
LINE
8
DEFAULT_255_1_388
10
16.1031875
20
0.0622696
11
16.1031875
21
-0.0217619
0
LINE
8
DEFAULT_255_1_388
10
15.5276169
20
0.5330267
11
15.3252185
21
0.5330267
0
LINE
8
DEFAULT_255_1_388
10
15.3252185
20
0.5330267
11
15.3252185
21
-0.4979404
0
LINE
8
DEFAULT_255_1_388
10
15.3252185
20
-0.4979404
11
15.5077385
21
-0.4979404
0
LINE
8
DEFAULT_255_1_388
10
15.9315103
20
-0.0181477
11
15.9315103
21
0.0586553
0
ARC
8
DEFAULT_255_1_388
10
15.5274786
20
0.0159436
40
0.6598608
50
75.4100343
51
90.3802731
0
ARC
8
DEFAULT_255_1_388
10
15.5533031
20
0.1235691
40
0.5492049
50
60.1455157
51
75.1889627
0
ARC
8
DEFAULT_255_1_388
10
15.5711623
20
0.1546914
40
0.5133226
50
26.525419
51
60.1451222
0
ARC
8
DEFAULT_255_1_388
10
15.4451409
20
0.0878642
40
0.6559324
50
7.4029944
51
26.832209
0
ARC
8
DEFAULT_255_1_388
10
15.2657807
20
0.0599229
40
0.8374103
50
0.1605597
51
7.7176135
0
ARC
8
DEFAULT_255_1_388
10
15.2842207
20
-0.0260679
40
0.8189782
50
348.7289744
51
0.30125
0
ARC
8
DEFAULT_255_1_388
10
15.470567
20
-0.0630844
40
0.628991
50
333.0706936
51
348.7181455
0
ARC
8
DEFAULT_255_1_388
10
15.5793299
20
-0.1221551
40
0.5052808
50
299.2531435
51
333.4571133
0
ARC
8
DEFAULT_255_1_388
10
15.5387329
20
-0.0450371
40
0.5924066
50
278.1072193
51
299.0340218
0
ARC
8
DEFAULT_255_1_388
10
15.5099378
20
0.1245979
40
0.7644209
50
270.4446841
51
278.4508355
0
ARC
8
DEFAULT_255_1_388
10
15.5122862
20
0.02003
40
0.5179903
50
269.4969684
51
284.0204874
0
ARC
8
DEFAULT_255_1_388
10
15.552258
20
-0.1335585
40
0.3592968
50
283.7699076
51
318.1557121
0
ARC
8
DEFAULT_255_1_388
10
15.5143126
20
-0.1051601
40
0.4065308
50
318.7417595
51
343.687252
0
ARC
8
DEFAULT_255_1_388
10
15.3113704
20
-0.0417725
40
0.6191194
50
343.3324891
51
355.8548594
0
ARC
8
DEFAULT_255_1_388
10
15.0752742
20
-0.0193281
40
0.856237
50
355.4988754
51
0.0789913
0
ARC
8
DEFAULT_255_1_388
10
15.1633541
20
0.063408
40
0.7681709
50
359.6455047
51
9.8607559
0
ARC
8
DEFAULT_255_1_388
10
15.4289264
20
0.1113664
40
0.498312
50
9.6573037
51
26.1931522
0
ARC
8
DEFAULT_255_1_388
10
15.5333339
20
0.1598587
40
0.3832303
50
26.5777895
51
40.1533752
0
ARC
8
DEFAULT_255_1_388
10
15.5621004
20
0.182302
40
0.3467742
50
40.3839958
51
80.1430923
0
ARC
8
DEFAULT_255_1_388
10
15.525326
20
0.0192486
40
0.5137832
50
79.2153636
51
89.7445174
0
LINE
8
DEFAULT_255_1_388
10
16.3652212
20
0.6757898
11
16.5893052
21
0.6757898
0
LINE
8
DEFAULT_255_1_388
10
16.5893052
20
0.6757898
11
17.0194019
21
-0.3976447
0
LINE
8
DEFAULT_255_1_388
10
17.0194019
20
-0.3976447
11
17.4494985
21
0.6757898
0
LINE
8
DEFAULT_255_1_388
10
17.4494985
20
0.6757898
11
17.6744861
21
0.6757898
0
LINE
8
DEFAULT_255_1_388
10
17.6744861
20
0.6757898
11
17.6744861
21
-0.6398
0
LINE
8
DEFAULT_255_1_388
10
17.6744861
20
-0.6398
11
17.5010017
21
-0.6398
0
LINE
8
DEFAULT_255_1_388
10
17.5010017
20
-0.6398
11
17.5010017
21
-0.127479
0
LINE
8
DEFAULT_255_1_388
10
17.5010017
20
-0.127479
11
17.5172659
21
0.4255025
0
LINE
8
DEFAULT_255_1_388
10
17.5172659
20
0.4255025
11
17.0853621
21
-0.6398
0
LINE
8
DEFAULT_255_1_388
10
17.0853621
20
-0.6398
11
16.9525381
21
-0.6398
0
LINE
8
DEFAULT_255_1_388
10
16.9525381
20
-0.6398
11
16.5215378
21
0.4227918
0
LINE
8
DEFAULT_255_1_388
10
16.5215378
20
0.4227918
11
16.5387056
21
-0.127479
0
LINE
8
DEFAULT_255_1_388
10
16.5387056
20
-0.127479
11
16.5387056
21
-0.6398
0
LINE
8
DEFAULT_255_1_388
10
16.5387056
20
-0.6398
11
16.3652212
21
-0.6398
0
LINE
8
DEFAULT_255_1_388
10
16.3652212
20
-0.6398
11
16.3652212
21
0.6757898
0
LINE
8
DEFAULT_255_1_388
10
18.3024634
20
-0.0127263
11
18.3024634
21
-0.1491645
0
LINE
8
DEFAULT_255_1_388
10
18.3024634
20
-0.1491645
11
17.8615239
21
-0.1491645
0
LINE
8
DEFAULT_255_1_388
10
17.8615239
20
-0.1491645
11
17.8615239
21
-0.0127263
0
LINE
8
DEFAULT_255_1_388
10
17.8615239
20
-0.0127263
11
18.3024634
21
-0.0127263
0
LINE
8
DEFAULT_255_1_388
10
18.9973044
20
0.6821148
11
18.9973044
21
-0.6398
0
LINE
8
DEFAULT_255_1_388
10
18.9973044
20
-0.6398
11
18.8292415
21
-0.6398
0
LINE
8
DEFAULT_255_1_388
10
18.8292415
20
-0.6398
11
18.8292415
21
0.474295
0
LINE
8
DEFAULT_255_1_388
10
18.8292415
20
0.474295
11
18.4922119
21
0.3505066
0
LINE
8
DEFAULT_255_1_388
10
18.4922119
20
0.3505066
11
18.4922119
21
0.5023055
0
LINE
8
DEFAULT_255_1_388
10
18.4922119
20
0.5023055
11
18.9711011
21
0.6821148
0
LINE
8
DEFAULT_255_1_388
10
18.9711011
20
0.6821148
11
18.9973044
21
0.6821148
0
ARC
8
DEFAULT_255_2_778
10
20.2534188
20
57.1116525
40
0.3580657
50
89.9945037
51
180.0054963
0
ARC
8
DEFAULT_255_2_778
10
20.2534875
20
57.1116525
40
0.3580657
50
359.9945037
51
90.0054963
0
ARC
8
DEFAULT_255_2_778
10
20.2534875
20
57.1115838
40
0.3580657
50
269.9945037
51
0.0054963
0
ARC
8
DEFAULT_255_2_778
10
20.2534188
20
57.1115838
40
0.3580657
50
179.9945037
51
270.0054963
0
ARC
8
DEFAULT_255_2_778
10
22.9622406
20
56.843282
40
2.3282817
50
111.9150345
51
128.7655504
0
ARC
8
DEFAULT_255_2_778
10
22.8791007
20
56.975352
40
2.1733214
50
129.2366206
51
154.7721516
0
ARC
8
DEFAULT_255_2_778
10
23.480657
20
56.6795583
40
2.8435961
50
154.5467617
51
165.9285636
0
ARC
8
DEFAULT_255_2_778
10
23.9646902
20
56.5421212
40
3.3465569
50
165.6609748
51
166.525375
0
ARC
8
DEFAULT_255_2_778
10
21.5282291
20
57.7603171
40
1.414623
50
156.0627036
51
175.7189082
0
ARC
8
DEFAULT_255_2_778
10
22.1164502
20
57.506783
40
2.0551309
50
144.7505594
51
156.2560535
0
ARC
8
DEFAULT_255_2_778
10
22.8861799
20
56.9714863
40
2.9926766
50
137.345293
51
144.8863205
0
ARC
8
DEFAULT_255_2_778
10
23.8131446
20
56.1223407
40
4.2497776
50
131.6389266
51
137.393651
0
ARC
8
DEFAULT_255_2_778
10
24.5393492
20
55.3256248
40
5.3277326
50
130.1334351
51
131.7826198
0
LINE
8
DEFAULT_255_2_778
10
19.8953532
20
57.1116182
11
19.8953532
21
57.1116182
0
LINE
8
DEFAULT_255_2_778
10
21.1052532
20
59.3989182
11
22.0932532
21
59.0033182
0
LINE
8
DEFAULT_255_2_778
10
20.7102532
20
57.3219182
11
20.1175532
21
57.8659182
0
LINE
8
DEFAULT_255_2_778
10
21.1052532
20
59.3989182
11
21.1052532
21
59.3989182
0
ARC
8
DEFAULT_255_2_778
10
13.7594907
20
57.9351437
40
0.8717226
50
88.9281645
51
133.9885749
0
ARC
8
DEFAULT_255_2_778
10
13.7757454
20
57.7100604
40
1.0966534
50
88.9487005
51
89.9972984
0
ARC
8
DEFAULT_255_2_778
10
13.7953
20
58.0055011
40
0.8010283
50
72.1310318
51
89.9594908
0
ARC
8
DEFAULT_255_2_778
10
13.8705373
20
58.2625083
40
0.5333823
50
60.6505783
51
71.3519493
0
ARC
8
DEFAULT_255_2_778
10
13.9543387
20
58.3896349
40
0.3816498
50
20.3938858
51
62.2625554
0
ARC
8
DEFAULT_255_2_778
10
14.9704645
20
57.9016628
40
0.9050345
50
89.7568633
51
136.6758865
0
ARC
8
DEFAULT_255_2_778
10
14.9742773
20
57.7840709
40
1.0226182
50
88.9864436
51
89.9984426
0
ARC
8
DEFAULT_255_2_778
10
14.992248
20
58.023192
40
0.7833372
50
71.373585
51
89.9913488
0
ARC
8
DEFAULT_255_2_778
10
15.0841803
20
58.302042
40
0.489734
50
42.2193789
51
71.1458349
0
ARC
8
DEFAULT_255_2_778
10
15.0590908
20
58.2945658
40
0.5134635
50
8.5226311
51
40.9558105
0
ARC
8
DEFAULT_255_2_778
10
14.7367896
20
58.2293045
40
0.8420446
50
359.6942069
51
9.6641803
0
ARC
8
DEFAULT_255_2_778
10
14.4472507
20
58.2263277
40
1.1315727
50
355.5855084
51
359.923173
0
ARC
8
DEFAULT_255_2_778
10
14.2502845
20
58.1986289
40
0.7547163
50
352.4548626
51
359.7652122
0
ARC
8
DEFAULT_255_2_778
10
14.4078893
20
58.1957192
40
0.5971052
50
359.9824407
51
2.1700815
0
ARC
8
DEFAULT_255_2_778
10
14.8167551
20
58.2115752
40
0.1879327
50
2.0595693
51
88.944897
0
ARC
8
DEFAULT_255_2_778
10
14.7529878
20
57.9242725
40
0.4799353
50
81.9476992
51
88.9638763
0
ARC
8
DEFAULT_255_2_778
10
14.7641352
20
57.9181844
40
0.4859511
50
90.2910974
51
140.7094043
0
ARC
8
DEFAULT_255_2_778
10
14.950423
20
57.7253111
40
0.7529164
50
138.3264016
51
141.8088804
0
ARC
8
DEFAULT_255_2_778
10
13.0111845
20
58.1952289
40
0.7547163
50
352.4548626
51
359.7652122
0
ARC
8
DEFAULT_255_2_778
10
13.1687893
20
58.1923192
40
0.5971052
50
359.9824407
51
2.1700815
0
ARC
8
DEFAULT_255_2_778
10
13.5767327
20
58.2091775
40
0.1888212
50
1.7455696
51
88.6065628
0
ARC
8
DEFAULT_255_2_778
10
13.5151974
20
57.9328897
40
0.469731
50
81.9072271
51
88.8693446
0
ARC
8
DEFAULT_255_2_778
10
13.5126914
20
57.8928568
40
0.5098084
50
88.6765396
51
89.9981553
0
ARC
8
DEFAULT_255_2_778
10
13.5179114
20
57.8964569
40
0.5062351
50
90.5889431
51
134.9317856
0
ARC
8
DEFAULT_255_2_778
10
13.6708307
20
57.7060835
40
0.749469
50
132.9288129
51
135.7848647
0
LINE
8
DEFAULT_255_2_778
10
12.6682663
20
58.7724292
11
13.2005663
21
58.7740292
0
LINE
8
DEFAULT_255_2_778
10
13.2005663
20
58.7740292
11
13.1540663
21
58.5623292
0
LINE
8
DEFAULT_255_2_778
10
15.5754663
20
58.1392292
11
15.5715663
21
58.0964292
0
LINE
8
DEFAULT_255_2_778
10
15.5715663
20
58.0964292
11
15.3386663
21
56.9110292
0
LINE
8
DEFAULT_255_2_778
10
15.3386663
20
56.9110292
11
14.7655663
21
56.9110292
0
LINE
8
DEFAULT_255_2_778
10
14.7655663
20
56.9110292
11
14.9984663
21
58.0995292
0
LINE
8
DEFAULT_255_2_778
10
14.3586663
20
58.1908292
11
14.3525663
21
58.1514292
0
LINE
8
DEFAULT_255_2_778
10
14.3525663
20
58.1514292
11
14.0975663
21
56.9110292
0
LINE
8
DEFAULT_255_2_778
10
14.0975663
20
56.9110292
11
13.5265663
21
56.9110292
0
LINE
8
DEFAULT_255_2_778
10
13.5265663
20
56.9110292
11
13.7593663
21
58.0961292
0
LINE
8
DEFAULT_255_2_778
10
13.1336663
20
58.2287292
11
12.8603663
21
56.9110292
0
LINE
8
DEFAULT_255_2_778
10
12.8603663
20
56.9110292
11
12.2893663
21
56.9110292
0
LINE
8
DEFAULT_255_2_778
10
12.2893663
20
56.9110292
11
12.6679663
21
58.7721292
0
LINE
8
DEFAULT_255_2_778
10
12.6679663
20
58.7721292
11
12.6682663
21
58.7724292
0
ARC
8
DEFAULT_255_2_778
10
16.6200314
20
57.6218402
40
1.1831221
50
72.5008211
51
90.0103536
0
ARC
8
DEFAULT_255_2_778
10
16.6947546
20
57.8848399
40
0.9098586
50
60.3242318
51
72.0085714
0
ARC
8
DEFAULT_255_2_778
10
16.7751051
20
58.0053126
40
0.7654736
50
24.9543019
51
61.0852427
0
ARC
8
DEFAULT_255_2_778
10
16.6805787
20
57.9634465
40
0.8688408
50
359.4872778
51
24.8275177
0
ARC
8
DEFAULT_255_2_778
10
16.4736992
20
57.9570476
40
1.0756863
50
353.6171666
51
359.9267064
0
ARC
8
DEFAULT_255_2_778
10
16.4716416
20
57.9270267
40
1.0748142
50
309.833105
51
355.2199932
0
ARC
8
DEFAULT_255_2_778
10
16.4131023
20
57.9936469
40
1.1634726
50
274.0073872
51
309.9453537
0
ARC
8
DEFAULT_255_2_778
10
16.3618881
20
58.3621028
40
1.5348158
50
269.9462811
51
274.9533663
0
ARC
8
DEFAULT_255_2_778
10
16.3604833
20
58.4858871
40
1.6585995
50
269.1686307
51
269.9988202
0
ARC
8
DEFAULT_255_2_778
10
16.3366284
20
57.9983137
40
1.1708514
50
252.109196
51
269.9896888
0
ARC
8
DEFAULT_255_2_778
10
16.2647024
20
57.7489636
40
0.9114995
50
240.54759
51
251.5966758
0
ARC
8
DEFAULT_255_2_778
10
16.185195
20
57.6262089
40
0.7655666
50
205.2400495
51
241.211713
0
ARC
8
DEFAULT_255_2_778
10
16.2656131
20
57.6635634
40
0.8542357
50
179.5359208
51
205.2063167
0
ARC
8
DEFAULT_255_2_778
10
16.4526722
20
57.6691956
40
1.0412677
50
173.5392122
51
179.9291923
0
ARC
8
DEFAULT_255_2_778
10
16.6391822
20
57.6576758
40
1.2279263
50
153.4099026
51
173.9843619
0
ARC
8
DEFAULT_255_2_778
10
16.4795759
20
57.7254448
40
1.0549233
50
129.6863931
51
152.8211827
0
ARC
8
DEFAULT_255_2_778
10
16.5417015
20
57.6548495
40
1.1489256
50
92.7623759
51
129.8224215
0
ARC
8
DEFAULT_255_2_778
10
16.5842324
20
57.3114549
40
1.494196
50
89.9700369
51
93.7568045
0
ARC
8
DEFAULT_255_2_778
10
16.5849025
20
57.2098597
40
1.5957911
50
88.7355209
51
89.9960014
0
ARC
8
DEFAULT_255_2_778
10
16.440941
20
57.6018885
40
0.4286317
50
179.6425826
51
209.446387
0
ARC
8
DEFAULT_255_2_778
10
16.3397227
20
57.5547221
40
0.3174207
50
211.0145463
51
223.1431724
0
ARC
8
DEFAULT_255_2_778
10
16.3473644
20
57.5726914
40
0.3353769
50
224.4904912
51
268.822899
0
ARC
8
DEFAULT_255_2_778
10
16.3773318
20
57.7846578
40
0.5485121
50
266.1471365
51
268.8180779
0
ARC
8
DEFAULT_255_2_778
10
16.3834553
20
57.9142665
40
0.6782284
50
268.5267288
51
269.9955114
0
ARC
8
DEFAULT_255_2_778
10
16.3990244
20
57.7237446
40
0.4879566
50
268.1653241
51
325.4286401
0
ARC
8
DEFAULT_255_2_778
10
16.1704714
20
57.8903589
40
0.7707306
50
324.8706977
51
351.0886768
0
ARC
8
DEFAULT_255_2_778
10
15.7623203
20
57.969259
40
1.1862684
50
350.3775551
51
0.2885744
0
ARC
8
DEFAULT_255_2_778
10
15.4717207
20
57.9749545
40
1.4768528
50
0.0108339
51
1.7075744
0
ARC
8
DEFAULT_255_2_778
10
16.4937051
20
58.0098496
40
0.454304
50
1.1493477
51
31.2464652
0
ARC
8
DEFAULT_255_2_778
10
16.5878645
20
58.0565769
40
0.3496776
50
32.703807
51
41.7810929
0
ARC
8
DEFAULT_255_2_778
10
16.6096538
20
58.0659534
40
0.3272685
50
43.0987922
51
88.7571407
0
ARC
8
DEFAULT_255_2_778
10
16.5789566
20
57.8536359
40
0.5408314
50
85.992647
51
88.8704975
0
ARC
8
DEFAULT_255_2_778
10
16.5725658
20
57.7517668
40
0.6428217
50
88.4799611
51
89.9943311
0
ARC
8
DEFAULT_255_2_778
10
16.5615546
20
57.9050787
40
0.4896349
50
88.7039519
51
145.0513377
0
ARC
8
DEFAULT_255_2_778
10
16.7596375
20
57.7517936
40
0.7399051
50
144.1087108
51
170.2824956
0
ARC
8
DEFAULT_255_2_778
10
17.1861971
20
57.6646764
40
1.1751307
50
169.6063184
51
180.3528002
0
ARC
8
DEFAULT_255_2_778
10
17.5222698
20
57.6578441
40
1.5111813
50
180.0153016
51
182.009194
0
LINE
8
DEFAULT_255_2_778
10
16.6201176
20
58.8052623
11
16.6198176
21
58.8049623
0
LINE
8
DEFAULT_255_2_778
10
16.0120176
20
57.6048623
11
16.0123176
21
57.6045623
0
ARC
8
DEFAULT_255_2_778
10
18.587937
20
56.6830854
40
1.642039
50
81.2830361
51
86.628458
0
ARC
8
DEFAULT_255_2_778
10
18.6429757
20
57.5215313
40
0.8018272
50
87.0310432
51
89.8986713
0
ARC
8
DEFAULT_255_2_778
10
18.6242064
20
57.4328997
40
0.8906863
50
88.7012797
51
89.9954117
0
ARC
8
DEFAULT_255_2_778
10
18.6103452
20
57.6771623
40
0.6465738
50
88.765285
51
116.6201427
0
ARC
8
DEFAULT_255_2_778
10
18.5802548
20
57.7611694
40
0.5580924
50
117.7228833
51
138.7756782
0
ARC
8
DEFAULT_255_2_778
10
18.7590475
20
58.1273707
40
0.6980151
50
116.489914
51
143.0810972
0
ARC
8
DEFAULT_255_2_778
10
18.7053938
20
58.2074223
40
0.6025621
50
89.4580016
51
115.3188873
0
ARC
8
DEFAULT_255_2_778
10
18.6965205
20
57.8726885
40
0.9373821
50
77.9674605
51
89.1092017
0
ARC
8
DEFAULT_255_2_778
10
18.6028478
20
57.3421466
40
1.4759175
50
78.008513
51
78.7045202
0
LINE
8
DEFAULT_255_2_778
10
18.9094938
20
58.7861573
11
18.8367938
21
58.3061573
0
LINE
8
DEFAULT_255_2_778
10
18.1604938
20
58.1289573
11
17.9072938
21
56.9110573
0
LINE
8
DEFAULT_255_2_778
10
17.9072938
20
56.9110573
11
17.3362938
21
56.9110573
0
LINE
8
DEFAULT_255_2_778
10
17.3362938
20
56.9110573
11
17.7169938
21
58.7721573
0
LINE
8
DEFAULT_255_2_778
10
17.7169938
20
58.7721573
11
18.2535938
21
58.7737573
0
LINE
8
DEFAULT_255_2_778
10
18.2535938
20
58.7737573
11
18.2009938
21
58.5466573
0
LINE
8
DEFAULT_255_2_778
10
18.9094938
20
58.7858573
11
18.9094938
21
58.7861573
0
ARC
8
DEFAULT_255_2_778
10
19.1571667
20
57.997675
40
1.1701724
50
250.1393411
51
270.3226852
0
ARC
8
DEFAULT_255_2_778
10
19.1022051
20
57.8178343
40
0.9824012
50
242.0502734
51
249.5907868
0
ARC
8
DEFAULT_255_2_778
10
19.001531
20
57.6583015
40
0.794417
50
208.3292132
51
243.0715083
0
ARC
8
DEFAULT_255_2_778
10
18.9933547
20
57.6492013
40
0.7829125
50
179.569171
51
208.0269435
0
ARC
8
DEFAULT_255_2_778
10
19.1411392
20
57.6542824
40
0.9306752
50
174.3677827
51
179.9503835
0
ARC
8
DEFAULT_255_2_778
10
19.3222378
20
57.69618
40
1.1074063
50
145.2485417
51
173.7769976
0
ARC
8
DEFAULT_255_2_778
10
19.3043239
20
57.7206177
40
1.0788028
50
116.4826416
51
145.7726174
0
ARC
8
DEFAULT_255_2_778
10
19.3348976
20
57.6509316
40
1.1548163
50
89.3335424
51
116.2986099
0
ARC
8
DEFAULT_255_2_778
10
19.3482483
20
57.4085133
40
1.3971563
50
88.7200635
51
89.9966493
0
ARC
8
DEFAULT_255_2_778
10
19.3739264
20
57.6929187
40
1.1124162
50
73.6937809
51
89.7151452
0
ARC
8
DEFAULT_255_2_778
10
19.4851962
20
58.0648827
40
0.7241771
50
40.439997
51
73.880282
0
ARC
8
DEFAULT_255_2_778
10
19.4514712
20
58.0429387
40
0.7640962
50
0.3370816
51
40.0519836
0
ARC
8
DEFAULT_255_2_778
10
19.2137457
20
58.019313
40
1.0022031
50
359.994028
51
1.6078833
0
ARC
8
DEFAULT_255_2_778
10
19.0846833
20
58.0214808
40
1.1312679
50
353.167063
51
359.8849147
0
ARC
8
DEFAULT_255_2_778
10
18.9406155
20
58.0362227
40
1.2760687
50
352.3939633
51
353.279462
0
ARC
8
DEFAULT_255_2_778
10
19.1535012
20
57.5976798
40
0.3608489
50
171.5634883
51
179.9015639
0
ARC
8
DEFAULT_255_2_778
10
19.1262943
20
57.6018702
40
0.3336607
50
180.6131262
51
227.843893
0
ARC
8
DEFAULT_255_2_778
10
19.2043051
20
57.8635151
40
0.5918171
50
239.3225098
51
268.8255118
0
ARC
8
DEFAULT_255_2_778
10
19.2271512
20
58.0969017
40
0.8258202
50
267.5725716
51
270.0162941
0
ARC
8
DEFAULT_255_2_778
10
19.2268973
20
58.1806346
40
0.9095533
50
270.0307885
51
273.2244191
0
ARC
8
DEFAULT_255_2_778
10
19.2542379
20
57.5202649
40
0.2488861
50
275.4917641
51
302.3582203
0
ARC
8
DEFAULT_255_2_778
10
19.3200418
20
57.4043064
40
0.115896
50
305.561706
51
314.7657745
0
ARC
8
DEFAULT_255_2_778
10
19.3095773
20
57.4371064
40
0.1473882
50
308.6632861
51
359.3837416
0
ARC
8
DEFAULT_255_2_778
10
17.807225
20
59.1597828
40
2.962762
50
318.8021847
51
324.4102292
0
ARC
8
DEFAULT_255_2_778
10
18.7925821
20
58.2914506
40
1.6494092
50
310.4033061
51
318.953359
0
ARC
8
DEFAULT_255_2_778
10
19.3188808
20
57.6648187
40
0.831118
50
295.9312381
51
310.7744109
0
ARC
8
DEFAULT_255_2_778
10
19.4407027
20
57.4359772
40
0.5721233
50
294.3678437
51
294.9811966
0
ARC
8
DEFAULT_255_2_778
10
19.1940828
20
58.2029614
40
1.3756016
50
269.5724547
51
290.5412856
0
ARC
8
DEFAULT_255_2_778
10
19.1838577
20
58.4212488
40
1.5938505
50
269.2881822
51
269.9985732
0
ARC
8
DEFAULT_255_2_778
10
19.3390649
20
57.8346819
40
0.5598634
50
88.7931239
51
89.9984438
0
ARC
8
DEFAULT_255_2_778
10
19.3326983
20
57.9315553
40
0.463034
50
89.2102909
51
125.5845733
0
ARC
8
DEFAULT_255_2_778
10
19.4008068
20
57.8598825
40
0.5611219
50
126.9818839
51
147.669232
0
ARC
8
DEFAULT_255_2_778
10
19.876359
20
57.5401894
40
1.1340353
50
146.870707
51
156.2884785
0
ARC
8
DEFAULT_255_2_778
10
19.2333366
20
58.1183392
40
0.4293753
50
349.7481736
51
359.8266598
0
ARC
8
DEFAULT_255_2_778
10
19.2961469
20
58.1175983
40
0.3665636
50
359.9127606
51
9.1392387
0
ARC
8
DEFAULT_255_2_778
10
19.4131569
20
58.1320587
40
0.2487794
50
10.1315408
51
54.8294252
0
ARC
8
DEFAULT_255_2_778
10
19.3593417
20
58.0362414
40
0.3582778
50
56.6210187
51
91.3472693
0
LINE
8
DEFAULT_255_2_778
10
18.2149569
20
57.7456211
11
18.2213569
21
57.8162211
0
LINE
8
DEFAULT_255_2_778
10
20.2054569
20
57.8673211
11
20.1723569
21
57.6506211
0
LINE
8
DEFAULT_255_2_778
10
20.1723569
20
57.6506211
11
18.7965569
21
57.6506211
0
LINE
8
DEFAULT_255_2_778
10
19.4569569
20
57.4355211
11
20.2165569
21
57.4355211
0
LINE
8
DEFAULT_255_2_778
10
18.8380569
20
57.9962211
11
19.6434569
21
57.9962211
0
LINE
8
DEFAULT_255_2_778
10
19.6434569
20
57.9962211
11
19.6558569
21
58.0419211
0
LINE
8
DEFAULT_255_2_778
10
11.4252281
20
58.5830177
11
12.8081281
21
57.7670177
0
LINE
8
DEFAULT_255_2_778
10
12.8081281
20
57.7670177
11
11.2770281
21
57.1736177
0
LINE
8
DEFAULT_255_2_778
10
11.2770281
20
57.1736177
11
11.5979281
21
57.8906177
0
LINE
8
DEFAULT_255_2_778
10
11.5979281
20
57.8906177
11
11.4252281
21
58.5830177
0
ARC
8
DEFAULT_255_2_778
10
7.8633492
20
58.3026349
40
1.734445
50
345.0500681
51
0.450213
0
ARC
8
DEFAULT_255_2_778
10
8.1424128
20
58.2384315
40
1.4482985
50
339.8011311
51
344.6559926
0
ARC
8
DEFAULT_255_2_778
10
8.2241959
20
58.1929595
40
1.3559213
50
318.9869254
51
340.4112117
0
ARC
8
DEFAULT_255_2_778
10
8.3403786
20
58.1050223
40
1.2105876
50
317.7755753
51
318.5188915
0
ARC
8
DEFAULT_255_2_778
10
8.3677776
20
58.0791224
40
1.1728926
50
293.4453171
51
317.8130059
0
ARC
8
DEFAULT_255_2_778
10
8.3381728
20
58.1573502
40
1.2564472
50
269.4376299
51
293.2645473
0
ARC
8
DEFAULT_255_2_778
10
8.6390116
20
58.3654305
40
1.0182316
50
68.112945
51
90.7974227
0
ARC
8
DEFAULT_255_2_778
10
8.6827218
20
58.5007759
40
0.8764035
50
66.6600337
51
67.4660887
0
ARC
8
DEFAULT_255_2_778
10
8.6950616
20
58.5125129
40
0.860764
50
41.8199578
51
67.1046866
0
ARC
8
DEFAULT_255_2_778
10
8.5939144
20
58.4362866
40
0.9870277
50
18.4442061
51
41.2024761
0
ARC
8
DEFAULT_255_2_778
10
8.2913394
20
58.3326986
40
1.3068358
50
359.9236227
51
18.5554774
0
ARC
8
DEFAULT_255_2_778
10
7.9767371
20
58.3162824
40
1.6215036
50
359.9993331
51
0.5185192
0
ARC
8
DEFAULT_255_2_778
10
8.1161265
20
58.3224191
40
1.1556879
50
359.3527282
51
15.3461488
0
ARC
8
DEFAULT_255_2_778
10
8.3555709
20
58.3775091
40
0.9102591
50
15.9909101
51
17.2384514
0
ARC
8
DEFAULT_255_2_778
10
8.5215656
20
58.4409942
40
0.7329962
50
16.3441173
51
39.0583428
0
ARC
8
DEFAULT_255_2_778
10
8.6385861
20
58.5265513
40
0.5882641
50
39.7694118
51
66.0014919
0
ARC
8
DEFAULT_255_2_778
10
8.6052911
20
58.4335083
40
0.6868457
50
66.6208799
51
90.9301944
0
ARC
8
DEFAULT_255_2_778
10
8.3674619
20
58.0285777
40
0.865983
50
269.2774049
51
294.6427005
0
ARC
8
DEFAULT_255_2_778
10
8.3809787
20
57.9805801
40
0.8167574
50
295.184769
51
321.1699914
0
ARC
8
DEFAULT_255_2_778
10
8.188821
20
58.1270326
40
1.0582969
50
321.5163412
51
341.7776814
0
ARC
8
DEFAULT_255_2_778
10
7.8940618
20
58.2425931
40
1.374523
50
341.044332
51
342.4824039
0
ARC
8
DEFAULT_255_2_778
10
7.7898077
20
58.2642334
40
1.4804949
50
342.8981919
51
356.6952858
0
ARC
8
DEFAULT_255_2_778
10
7.2862441
20
58.3079849
40
1.9857973
50
356.2725814
51
0.0484329
0
LINE
8
DEFAULT_255_2_778
10
8.3258407
20
56.9009635
11
7.2765407
21
56.8766635
0
LINE
8
DEFAULT_255_2_778
10
7.2765407
20
56.8766635
11
7.7858407
21
59.3835635
0
LINE
8
DEFAULT_255_2_778
10
7.7858407
20
59.3835635
11
8.6248407
21
59.3835635
0
LINE
8
DEFAULT_255_2_778
10
9.5982407
20
58.3162635
11
9.5977407
21
58.3162635
0
LINE
8
DEFAULT_255_2_778
10
8.5941407
20
59.1202635
11
7.9962407
21
59.1022635
0
LINE
8
DEFAULT_255_2_778
10
7.9962407
20
59.1022635
11
7.6363407
21
57.1240635
0
LINE
8
DEFAULT_255_2_778
10
7.6363407
20
57.1240635
11
8.3565407
21
57.1626635
0
LINE
8
DEFAULT_255_2_778
10
9.2720407
20
58.3096635
11
9.2717407
21
58.3093635
0
ARC
8
DEFAULT_255_2_778
10
10.302374
20
57.704919
40
0.5777251
50
269.3131992
51
298.9193317
0
ARC
8
DEFAULT_255_2_778
10
10.2422898
20
57.8095114
40
0.6983333
50
299.0845099
51
323.1838183
0
ARC
8
DEFAULT_255_2_778
10
10.0730419
20
57.9334915
40
0.9081244
50
323.3206017
51
342.9705556
0
ARC
8
DEFAULT_255_2_778
10
9.9076255
20
57.9909416
40
1.0831324
50
342.6274164
51
0.2324268
0
ARC
8
DEFAULT_255_2_778
10
10.2433391
20
58.0080185
40
0.7475175
50
359.0278167
51
16.1300251
0
ARC
8
DEFAULT_255_2_778
10
10.5672449
20
58.1011392
40
0.4104922
50
16.2042834
51
41.9480466
0
ARC
8
DEFAULT_255_2_778
10
10.5796118
20
58.0929262
40
0.4070383
50
43.9719544
51
85.3997935
0
ARC
8
DEFAULT_255_2_778
10
10.5322186
20
57.8172297
40
0.686108
50
83.300847
51
90.1477804
0
ARC
8
DEFAULT_255_2_778
10
10.5219616
20
57.9219474
40
0.58145
50
89.163628
51
118.6648078
0
ARC
8
DEFAULT_255_2_778
10
10.581079
20
57.8249564
40
0.6949321
50
119.1056578
51
143.2104754
0
ARC
8
DEFAULT_255_2_778
10
10.7542438
20
57.6979766
40
0.9096571
50
143.3373192
51
162.9538381
0
ARC
8
DEFAULT_255_2_778
10
10.9180519
20
57.6409321
40
1.0830106
50
162.6089297
51
180.2167337
0
ARC
8
DEFAULT_255_2_778
10
10.590132
20
57.6241465
40
0.7551896
50
179.037255
51
196.0102976
0
ARC
8
DEFAULT_255_2_778
10
10.2623689
20
57.5306213
40
0.4143448
50
196.0798237
51
221.5429745
0
ARC
8
DEFAULT_255_2_778
10
10.2435386
20
57.5322741
40
0.4015819
50
223.501568
51
264.945498
0
ARC
8
DEFAULT_255_2_778
10
10.2934062
20
57.812423
40
0.6854906
50
262.8561454
51
270.170743
0
ARC
8
DEFAULT_255_2_778
10
10.2496801
20
57.8701733
40
0.993603
50
251.4783364
51
270.6555979
0
ARC
8
DEFAULT_255_2_778
10
10.1671823
20
57.6244369
40
0.7343883
50
228.2272369
51
251.4910714
0
ARC
8
DEFAULT_255_2_778
10
10.1298392
20
57.5737077
40
0.671704
50
202.6960886
51
227.720176
0
ARC
8
DEFAULT_255_2_778
10
10.2495562
20
57.6190656
40
0.7996635
50
179.6456167
51
202.3846702
0
ARC
8
DEFAULT_255_2_778
10
10.5173927
20
57.6352351
40
1.0675438
50
179.9999853
51
180.6023814
0
ARC
8
DEFAULT_255_2_778
10
10.5536721
20
57.642223
40
1.1038452
50
157.230675
51
180.3627006
0
ARC
8
DEFAULT_255_2_778
10
10.5843324
20
57.6326196
40
1.135837
50
135.6908415
51
157.3825693
0
ARC
8
DEFAULT_255_2_778
10
10.5546282
20
57.659315
40
1.0959349
50
113.1058727
51
135.604761
0
ARC
8
DEFAULT_255_2_778
10
10.5551078
20
57.6635049
40
1.0922713
50
89.5047522
51
113.2152626
0
ARC
8
DEFAULT_255_2_778
10
10.5759287
20
57.7604295
40
0.9953709
50
71.5130801
51
90.6550541
0
ARC
8
DEFAULT_255_2_778
10
10.6573575
20
58.0062115
40
0.7364524
50
48.2602918
51
71.4580165
0
ARC
8
DEFAULT_255_2_778
10
10.6956984
20
58.0596961
40
0.6710546
50
22.5497085
51
47.6627683
0
ARC
8
DEFAULT_255_2_778
10
10.5670556
20
58.0103328
40
0.8088011
50
359.0650515
51
22.2845409
0
ARC
8
DEFAULT_255_2_778
10
10.2767028
20
57.9910709
40
1.0990629
50
337.1812514
51
0.316152
0
ARC
8
DEFAULT_255_2_778
10
10.2412655
20
58.0016512
40
1.135837
50
315.6908415
51
337.3825693
0
ARC
8
DEFAULT_255_2_778
10
10.2631229
20
57.9836107
40
1.1075969
50
293.2336194
51
315.5688359
0
ARC
8
DEFAULT_255_2_778
10
10.268874
20
57.9629991
40
1.0863919
50
269.5873092
51
293.383724
0
LINE
8
DEFAULT_255_2_778
10
10.295449
20
57.1269354
11
10.295449
21
57.1272354
0
LINE
8
DEFAULT_255_2_778
10
10.261049
20
56.8766354
11
10.261049
21
56.8766354
0
LINE
8
DEFAULT_255_1_388
10
10.2650024
20
54.2613
11
9.8087024
21
54.2613
0
LINE
8
DEFAULT_255_1_388
10
9.8087024
20
54.2613
11
9.8087024
21
55.5768898
0
LINE
8
DEFAULT_255_1_388
10
9.8087024
20
55.5768898
11
10.2387991
21
55.5768898
0
LINE
8
DEFAULT_255_1_388
10
10.2713274
20
54.8766274
11
9.9821868
21
54.8766274
0
LINE
8
DEFAULT_255_1_388
10
9.9821868
20
54.8766274
11
9.9821868
21
54.4031596
0
LINE
8
DEFAULT_255_1_388
10
9.9821868
20
54.4031596
11
10.2686167
21
54.4031596
0
LINE
8
DEFAULT_255_1_388
10
9.9821868
20
55.4341267
11
9.9821868
21
55.0157763
0
LINE
8
DEFAULT_255_1_388
10
9.9821868
20
55.0157763
11
10.2442205
21
55.0157763
0
LINE
8
DEFAULT_255_1_388
10
10.2387991
20
55.4341267
11
9.9821868
21
55.4341267
0
ARC
8
DEFAULT_255_1_388
10
10.2430411
20
54.7480824
40
0.8288183
50
82.1256322
51
90.2932506
0
ARC
8
DEFAULT_255_1_388
10
10.2867986
20
55.053859
40
0.5199321
50
69.9044202
51
82.2857574
0
ARC
8
DEFAULT_255_1_388
10
10.3509979
20
55.2273993
40
0.3348993
50
51.1840204
51
70.018125
0
ARC
8
DEFAULT_255_1_388
10
10.3796811
20
55.2690945
40
0.2844579
50
12.1018086
51
50.421322
0
ARC
8
DEFAULT_255_1_388
10
10.2239682
20
55.2299937
40
0.4449429
50
359.5252354
51
12.8212369
0
ARC
8
DEFAULT_255_1_388
10
10.4017112
20
55.2221943
40
0.2672162
50
323.4907456
51
0.8818258
0
ARC
8
DEFAULT_255_1_388
10
10.3546525
20
55.2585523
40
0.3266736
50
298.6824053
51
323.2758285
0
ARC
8
DEFAULT_255_1_388
10
10.3139816
20
55.3261509
40
0.4055105
50
293.1994739
51
299.139634
0
ARC
8
DEFAULT_255_1_388
10
10.3896766
20
54.6415651
40
0.3229926
50
54.0009997
51
74.9168635
0
ARC
8
DEFAULT_255_1_388
10
10.4027693
20
54.6637511
40
0.2973581
50
36.3578854
51
53.5293172
0
ARC
8
DEFAULT_255_1_388
10
10.3885061
20
54.653585
40
0.3148715
50
4.8189348
51
36.3090187
0
ARC
8
DEFAULT_255_1_388
10
10.3008085
20
54.6412383
40
0.4033265
50
359.9373213
51
5.5201284
0
ARC
8
DEFAULT_255_1_388
10
10.2643415
20
54.6366733
40
0.4398126
50
344.7479357
51
0.5372278
0
ARC
8
DEFAULT_255_1_388
10
10.3758314
20
54.6066205
40
0.3243441
50
311.1785587
51
344.6887681
0
ARC
8
DEFAULT_255_1_388
10
10.3429857
20
54.6475084
40
0.3767511
50
286.0417804
51
310.8440924
0
ARC
8
DEFAULT_255_1_388
10
10.2859266
20
54.8327885
40
0.5705957
50
274.1044074
51
286.4070149
0
ARC
8
DEFAULT_255_1_388
10
10.2660482
20
55.0445901
40
0.7832907
50
269.9235077
51
274.4458593
0
ARC
8
DEFAULT_255_1_388
10
10.27122
20
54.7814462
40
0.3782955
50
269.6057074
51
281.3740795
0
ARC
8
DEFAULT_255_1_388
10
10.2971698
20
54.6584569
40
0.2526069
50
281.105298
51
302.5134029
0
ARC
8
DEFAULT_255_1_388
10
10.3137086
20
54.6287944
40
0.2187131
50
303.0365425
51
311.8818034
0
ARC
8
DEFAULT_255_1_388
10
10.3217263
20
54.6192602
40
0.2062624
50
311.9916937
51
351.7143773
0
ARC
8
DEFAULT_255_1_388
10
10.2298288
20
54.6378271
40
0.2999202
50
350.7343295
51
0.2221526
0
ARC
8
DEFAULT_255_1_388
10
10.2177376
20
54.644187
40
0.3120525
50
359.045729
51
17.2295312
0
ARC
8
DEFAULT_255_1_388
10
10.3346406
20
54.6789155
40
0.1901144
50
17.6685208
51
78.9940245
0
ARC
8
DEFAULT_255_1_388
10
10.2764767
20
54.4701011
40
0.4065575
50
76.565218
51
90.7103392
0
LINE
8
DEFAULT_255_1_388
10
10.2714364
20
54.8766274
11
10.2713274
21
54.8766274
0
ARC
8
DEFAULT_255_1_388
10
10.2467593
20
55.3853949
40
0.3696273
50
269.6064514
51
281.4533785
0
ARC
8
DEFAULT_255_1_388
10
10.2718234
20
55.2671283
40
0.2487412
50
281.2044438
51
302.5143998
0
ARC
8
DEFAULT_255_1_388
10
10.2872488
20
55.2393576
40
0.2170405
50
303.0211308
51
309.8378766
0
ARC
8
DEFAULT_255_1_388
10
10.3078605
20
55.2162486
40
0.1860946
50
309.5229446
51
356.9509628
0
ARC
8
DEFAULT_255_1_388
10
10.2332731
20
55.2269831
40
0.2612347
50
355.4699226
51
0.0498632
0
ARC
8
DEFAULT_255_1_388
10
10.2018404
20
55.2294789
40
0.2926762
50
359.5558955
51
11.2092924
0
ARC
8
DEFAULT_255_1_388
10
10.3095372
20
55.2517667
40
0.1827036
50
10.9185717
51
31.322519
0
ARC
8
DEFAULT_255_1_388
10
10.341692
20
55.2696571
40
0.1459418
50
31.8850633
51
52.1415586
0
ARC
8
DEFAULT_255_1_388
10
10.3108349
20
55.2260674
40
0.1993088
50
52.8283418
51
71.9850132
0
ARC
8
DEFAULT_255_1_388
10
10.268551
20
55.1016158
40
0.3307407
50
71.686634
51
82.8453416
0
ARC
8
DEFAULT_255_1_388
10
10.2416157
20
54.8980892
40
0.536039
50
82.6981895
51
90.1730083
0
ARC
8
DEFAULT_255_1_388
10
10.2390989
20
54.9859836
40
0.4481429
50
89.8851568
51
90.0383283
0
LINE
8
DEFAULT_255_1_388
10
11.7287769
20
54.2613
11
11.4432505
21
54.7934995
0
LINE
8
DEFAULT_255_1_388
10
11.4432505
20
54.7934995
11
11.1342314
21
54.7934995
0
LINE
8
DEFAULT_255_1_388
10
11.1342314
20
54.7934995
11
11.1342314
21
54.2613
0
LINE
8
DEFAULT_255_1_388
10
11.1342314
20
54.2613
11
10.9598435
21
54.2613
0
LINE
8
DEFAULT_255_1_388
10
10.9598435
20
54.2613
11
10.9598435
21
55.5768898
0
LINE
8
DEFAULT_255_1_388
10
10.9598435
20
55.5768898
11
11.3953616
21
55.5768898
0
LINE
8
DEFAULT_255_1_388
10
11.6058921
20
54.8305456
11
11.9149111
21
54.2721428
0
LINE
8
DEFAULT_255_1_388
10
11.9149111
20
54.2721428
11
11.9149111
21
54.2613
0
LINE
8
DEFAULT_255_1_388
10
11.9149111
20
54.2613
11
11.7287769
21
54.2613
0
LINE
8
DEFAULT_255_1_388
10
11.1342314
20
55.4341267
11
11.1342314
21
54.9353591
0
LINE
8
DEFAULT_255_1_388
10
11.1342314
20
54.9353591
11
11.400783
21
54.9353591
0
LINE
8
DEFAULT_255_1_388
10
11.3998794
20
55.4341267
11
11.1342314
21
55.4341267
0
ARC
8
DEFAULT_255_1_388
10
11.4000461
20
54.7937346
40
0.7831693
50
80.6535681
51
90.3427203
0
ARC
8
DEFAULT_255_1_388
10
11.4472372
20
55.0707722
40
0.5021479
50
65.6987674
51
80.8330164
0
ARC
8
DEFAULT_255_1_388
10
11.5009666
20
55.1939479
40
0.3677787
50
50.0019152
51
65.4304412
0
ARC
8
DEFAULT_255_1_388
10
11.5255482
20
55.2271603
40
0.3265454
50
11.6284215
51
49.5603681
0
ARC
8
DEFAULT_255_1_388
10
11.3527968
20
55.1849524
40
0.5043009
50
359.5655533
51
12.3693319
0
ARC
8
DEFAULT_255_1_388
10
11.4739304
20
55.1779038
40
0.3831661
50
341.998418
51
0.4822212
0
ARC
8
DEFAULT_255_1_388
10
11.5183491
20
55.1658479
40
0.3372036
50
323.8610842
51
341.6141514
0
ARC
8
DEFAULT_255_1_388
10
11.4844037
20
55.1920615
40
0.3800784
50
296.7019299
51
323.6876213
0
ARC
8
DEFAULT_255_1_388
10
11.4347995
20
55.2807532
40
0.4816219
50
290.808313
51
297.2325929
0
ARC
8
DEFAULT_255_1_388
10
11.4036789
20
55.3396377
40
0.404289
50
269.5895908
51
281.8058892
0
ARC
8
DEFAULT_255_1_388
10
11.4319055
20
55.210536
40
0.2721459
50
281.5499321
51
303.9358954
0
ARC
8
DEFAULT_255_1_388
10
11.4473589
20
55.1837588
40
0.2413121
50
304.4410786
51
311.211123
0
ARC
8
DEFAULT_255_1_388
10
11.4621995
20
55.1681152
40
0.2197678
50
310.9874923
51
356.2715203
0
ARC
8
DEFAULT_255_1_388
10
11.3771741
20
55.1807992
40
0.3055212
50
354.9346315
51
0.0617816
0
ARC
8
DEFAULT_255_1_388
10
11.3560582
20
55.1838427
40
0.3266482
50
359.5239293
51
12.8808621
0
ARC
8
DEFAULT_255_1_388
10
11.4660344
20
55.2107638
40
0.2134449
50
12.417206
51
43.1023141
0
ARC
8
DEFAULT_255_1_388
10
11.4729675
20
55.2149253
40
0.2055463
50
43.575886
51
48.2047245
0
ARC
8
DEFAULT_255_1_388
10
11.4538936
20
55.1900151
40
0.2368418
50
48.7809155
51
72.6968768
0
ARC
8
DEFAULT_255_1_388
10
11.4140299
20
55.0690385
40
0.364206
50
72.3699892
51
84.8793749
0
ARC
8
DEFAULT_255_1_388
10
11.3974305
20
54.9180651
40
0.5160674
50
84.5398226
51
89.7281165
0
LINE
8
DEFAULT_255_1_388
10
12.2121838
20
55.5768898
11
12.529335
21
55.0727009
0
LINE
8
DEFAULT_255_1_388
10
12.529335
20
55.0727009
11
12.844679
21
55.5768898
0
LINE
8
DEFAULT_255_1_388
10
12.844679
20
55.5768898
11
13.0488845
21
55.5768898
0
LINE
8
DEFAULT_255_1_388
10
13.0488845
20
55.5768898
11
12.6332449
21
54.9245163
0
LINE
8
DEFAULT_255_1_388
10
12.6332449
20
54.9245163
11
13.0588237
21
54.2613
0
LINE
8
DEFAULT_255_1_388
10
13.0588237
20
54.2613
11
12.852811
21
54.2613
0
LINE
8
DEFAULT_255_1_388
10
12.852811
20
54.2613
11
12.529335
21
54.7745246
0
LINE
8
DEFAULT_255_1_388
10
12.529335
20
54.7745246
11
12.2040518
21
54.2613
0
LINE
8
DEFAULT_255_1_388
10
12.2040518
20
54.2613
11
11.9989426
21
54.2613
0
LINE
8
DEFAULT_255_1_388
10
11.9989426
20
54.2613
11
12.425425
21
54.9245163
0
LINE
8
DEFAULT_255_1_388
10
12.425425
20
54.9245163
11
12.0088818
21
55.5768898
0
LINE
8
DEFAULT_255_1_388
10
12.0088818
20
55.5768898
11
12.2121838
21
55.5768898
0
LINE
8
DEFAULT_255_1_388
10
14.591269
20
55.1964892
11
14.4168811
21
55.1964892
0
LINE
8
DEFAULT_255_1_388
10
13.6380085
20
54.6426042
11
13.8123965
21
54.6426042
0
ARC
8
DEFAULT_255_1_388
10
14.4909538
20
56.2028821
40
1.4087688
50
248.9196578
51
254.1442424
0
ARC
8
DEFAULT_255_1_388
10
14.3019418
20
55.7162805
40
0.8867498
50
241.6337352
51
249.0064643
0
ARC
8
DEFAULT_255_1_388
10
14.1299731
20
55.4011764
40
0.5277799
50
230.4982261
51
241.8087583
0
ARC
8
DEFAULT_255_1_388
10
14.0417503
20
55.2887686
40
0.3849419
50
227.4062979
51
229.9877433
0
ARC
8
DEFAULT_255_1_388
10
13.9868849
20
55.2352155
40
0.3084129
50
200.6782127
51
228.1765252
0
ARC
8
DEFAULT_255_1_388
10
13.9950218
20
55.2335277
40
0.315461
50
179.506278
51
199.8695278
0
ARC
8
DEFAULT_255_1_388
10
13.9939807
20
55.2418671
40
0.3144584
50
132.4834401
51
181.0242352
0
ARC
8
DEFAULT_255_1_388
10
14.0609011
20
55.1786788
40
0.4063094
50
129.2526113
51
133.4249077
0
ARC
8
DEFAULT_255_1_388
10
14.0774604
20
55.1538619
40
0.436014
50
101.9878945
51
128.8741833
0
ARC
8
DEFAULT_255_1_388
10
14.1223019
20
54.960236
40
0.6347415
50
89.5906376
51
102.3170567
0
ARC
8
DEFAULT_255_1_388
10
14.130233
20
54.9960586
40
0.5989122
50
77.2359491
51
90.3248968
0
ARC
8
DEFAULT_255_1_388
10
14.1535261
20
55.1048554
40
0.4876594
50
63.8379856
51
77.0808925
0
ARC
8
DEFAULT_255_1_388
10
14.1847795
20
55.1630882
40
0.4216191
50
45.9863127
51
64.1608798
0
ARC
8
DEFAULT_255_1_388
10
14.2141189
20
55.196599
40
0.3771394
50
32.2747934
51
45.6544796
0
ARC
8
DEFAULT_255_1_388
10
14.2215995
20
55.1987426
40
0.3696765
50
359.6507495
51
32.6129943
0
ARC
8
DEFAULT_255_1_388
10
14.1155178
20
55.1992788
40
0.3013762
50
359.469654
51
14.983205
0
ARC
8
DEFAULT_255_1_388
10
14.194843
20
55.2205288
40
0.2192542
50
14.9781954
51
48.2004799
0
ARC
8
DEFAULT_255_1_388
10
14.1763541
20
55.1972937
40
0.2489048
50
48.5926661
51
74.1242559
0
ARC
8
DEFAULT_255_1_388
10
14.1388343
20
55.0734607
40
0.3782845
50
73.7889321
51
86.6653996
0
ARC
8
DEFAULT_255_1_388
10
14.1273158
20
54.9376955
40
0.5145025
50
86.2642725
51
90.0533288
0
ARC
8
DEFAULT_255_1_388
10
14.1241251
20
54.9821376
40
0.4700681
50
89.669455
51
99.2313411
0
ARC
8
DEFAULT_255_1_388
10
14.096841
20
55.1446401
40
0.3052945
50
99.0695987
51
113.7659242
0
ARC
8
DEFAULT_255_1_388
10
14.0660405
20
55.2172772
40
0.226407
50
114.0402885
51
127.9848946
0
ARC
8
DEFAULT_255_1_388
10
14.0389881
20
55.2505884
40
0.1835045
50
127.7287217
51
176.7106493
0
ARC
8
DEFAULT_255_1_388
10
14.1153546
20
55.239221
40
0.2604907
50
175.1780759
51
180.0581213
0
ARC
8
DEFAULT_255_1_388
10
14.020489
20
55.2378411
40
0.1656287
50
179.6140658
51
228.124674
0
ARC
8
DEFAULT_255_1_388
10
14.0702247
20
55.283894
40
0.2332038
50
226.5785315
51
230.8792476
0
ARC
8
DEFAULT_255_1_388
10
14.1231734
20
55.3541908
40
0.3211664
50
231.4636401
51
241.9261664
0
ARC
8
DEFAULT_255_1_388
10
14.2578517
20
55.6020349
40
0.6032345
50
241.7177136
51
248.3259138
0
ARC
8
DEFAULT_255_1_388
10
14.4137112
20
55.9881771
40
1.0196417
50
248.2007377
51
252.4527713
0
ARC
8
DEFAULT_255_1_388
10
14.5490638
20
56.4066092
40
1.4594143
50
252.3388938
51
254.347037
0
ARC
8
DEFAULT_255_1_388
10
13.7005939
20
53.3718095
40
1.6917621
50
71.0197462
51
74.4085467
0
ARC
8
DEFAULT_255_1_388
10
13.8913027
20
53.9223144
40
1.1091618
50
66.1845203
51
71.086519
0
ARC
8
DEFAULT_255_1_388
10
14.0663576
20
54.3164439
40
0.6779073
50
59.3537334
51
66.269255
0
ARC
8
DEFAULT_255_1_388
10
14.1663302
20
54.4855777
40
0.4814366
50
49.1021732
51
59.3294421
0
ARC
8
DEFAULT_255_1_388
10
14.258429
20
54.5905575
40
0.3417875
50
32.7924183
51
49.2503526
0
ARC
8
DEFAULT_255_1_388
10
14.2933904
20
54.6155311
40
0.2988789
50
31.121225
51
32.3977355
0
ARC
8
DEFAULT_255_1_388
10
14.2846082
20
54.6122728
40
0.3080861
50
8.1116803
51
30.7958224
0
ARC
8
DEFAULT_255_1_388
10
14.1934428
20
54.5967437
40
0.4005385
50
359.8390945
51
8.4707348
0
ARC
8
DEFAULT_255_1_388
10
14.2638475
20
54.5912751
40
0.3301608
50
337.4732479
51
0.7538283
0
ARC
8
DEFAULT_255_1_388
10
14.2839501
20
54.5890554
40
0.3107929
50
307.5917028
51
336.4313755
0
ARC
8
DEFAULT_255_1_388
10
14.2328558
20
54.6458509
40
0.3870096
50
307.6560665
51
308.4561779
0
ARC
8
DEFAULT_255_1_388
10
14.2062775
20
54.6866832
40
0.435591
50
284.3733666
51
307.1426212
0
ARC
8
DEFAULT_255_1_388
10
14.1505669
20
54.8916391
40
0.6479685
50
272.4384566
51
284.6464689
0
ARC
8
DEFAULT_255_1_388
10
14.1363054
20
55.0940434
40
0.8508149
50
269.9708517
51
272.8180721
0
ARC
8
DEFAULT_255_1_388
10
14.1314737
20
54.8648283
40
0.6216151
50
248.2707343
51
270.4054609
0
ARC
8
DEFAULT_255_1_388
10
14.1253608
20
54.8433673
40
0.5994203
50
246.1380358
51
248.054058
0
ARC
8
DEFAULT_255_1_388
10
14.0782751
20
54.7444705
40
0.4899388
50
233.1671897
51
246.4951656
0
ARC
8
DEFAULT_255_1_388
10
14.0159386
20
54.6603137
40
0.3852115
50
215.3403381
51
233.084328
0
ARC
8
DEFAULT_255_1_388
10
13.985275
20
54.6380093
40
0.3472969
50
179.2419235
51
215.2648426
0
ARC
8
DEFAULT_255_1_388
10
14.0716301
20
54.6395979
40
0.259251
50
179.3355796
51
199.1045873
0
ARC
8
DEFAULT_255_1_388
10
14.0342443
20
54.6298223
40
0.2207454
50
199.8830064
51
232.7061328
0
ARC
8
DEFAULT_255_1_388
10
14.0873717
20
54.6966456
40
0.306101
50
232.3736206
51
255.5136621
0
ARC
8
DEFAULT_255_1_388
10
14.1257223
20
54.8366177
40
0.4512213
50
255.2447928
51
267.5318292
0
ARC
8
DEFAULT_255_1_388
10
14.135569
20
54.9752709
40
0.5901825
50
267.1564563
51
270.0294721
0
ARC
8
DEFAULT_255_1_388
10
14.1387015
20
54.9253623
40
0.5402814
50
269.6999944
51
278.1662446
0
ARC
8
DEFAULT_255_1_388
10
14.1675043
20
54.7306974
40
0.3435003
50
278.0229022
51
290.6255326
0
ARC
8
DEFAULT_255_1_388
10
14.2066209
20
54.6263547
40
0.2320666
50
290.6616368
51
307.0374127
0
ARC
8
DEFAULT_255_1_388
10
14.2404109
20
54.584904
40
0.1786372
50
306.3942078
51
355.303191
0
ARC
8
DEFAULT_255_1_388
10
14.1828402
20
54.5935186
40
0.2367516
50
354.3662092
51
0.0709489
0
ARC
8
DEFAULT_255_1_388
10
14.1988271
20
54.5960561
40
0.2207761
50
359.4175379
51
16.1975911
0
ARC
8
DEFAULT_255_1_388
10
14.2500389
20
54.6100954
40
0.1676828
50
16.4721294
51
52.6261798
0
ARC
8
DEFAULT_255_1_388
10
14.1576896
20
54.4881606
40
0.3206412
50
52.7381828
51
62.4979144
0
ARC
8
DEFAULT_255_1_388
10
14.0018649
20
54.1949236
40
0.6527035
50
62.2517425
51
68.1219454
0
ARC
8
DEFAULT_255_1_388
10
13.8084137
20
53.7194951
40
1.1659797
50
68.006043
51
71.8055127
0
ARC
8
DEFAULT_255_1_388
10
13.6064045
20
53.1136723
40
1.8045908
50
71.718361
51
73.9260743
0
LINE
8
DEFAULT_255_1_388
10
14.7475857
20
54.7230214
11
14.7475857
21
54.7537426
0
LINE
8
DEFAULT_255_1_388
10
15.5770579
20
54.7718139
11
15.5770579
21
54.7022395
0
LINE
8
DEFAULT_255_1_388
10
15.5770579
20
54.7022395
11
14.9147451
21
54.7022395
0
LINE
8
DEFAULT_255_1_388
10
15.4623052
20
54.5115874
11
15.564408
21
54.4320737
0
LINE
8
DEFAULT_255_1_388
10
14.9201665
20
54.8395813
11
15.4098984
21
54.8395813
0
LINE
8
DEFAULT_255_1_388
10
15.4098984
20
54.8395813
11
15.4098984
21
54.8522312
0
ARC
8
DEFAULT_255_1_388
10
15.1907618
20
54.735521
40
0.4923176
50
252.326534
51
270.5809615
0
ARC
8
DEFAULT_255_1_388
10
15.1677082
20
54.652194
40
0.4059384
50
223.3000488
51
251.8562489
0
ARC
8
DEFAULT_255_1_388
10
15.1914862
20
54.6752898
40
0.4390832
50
190.9374369
51
223.3654369
0
ARC
8
DEFAULT_255_1_388
10
15.385554
20
54.7191598
40
0.63798
50
179.6531919
51
191.4988561
0
ARC
8
DEFAULT_255_1_388
10
15.3992567
20
54.7573571
40
0.6516811
50
167.4005523
51
180.3177836
0
ARC
8
DEFAULT_255_1_388
10
15.2809239
20
54.7823853
40
0.5307402
50
154.1835149
51
167.2508278
0
ARC
8
DEFAULT_255_1_388
10
15.209883
20
54.8197925
40
0.4505076
50
134.3150225
51
154.5315008
0
ARC
8
DEFAULT_255_1_388
10
15.1854165
20
54.841255
40
0.4180662
50
122.8617482
51
133.9707159
0
ARC
8
DEFAULT_255_1_388
10
15.1737772
20
54.8662882
40
0.3907416
50
89.8248474
51
123.4199325
0
ARC
8
DEFAULT_255_1_388
10
15.179407
20
54.7935352
40
0.4635141
50
74.7874349
51
90.5482648
0
ARC
8
DEFAULT_255_1_388
10
15.2124534
20
54.9155987
40
0.3370565
50
39.8178888
51
74.7634383
0
ARC
8
DEFAULT_255_1_388
10
15.1547776
20
54.8706356
40
0.4101553
50
16.8990848
51
39.4830125
0
ARC
8
DEFAULT_255_1_388
10
14.941639
20
54.8023711
40
0.6339427
50
4.9634768
51
17.2027767
0
ARC
8
DEFAULT_255_1_388
10
14.6695795
20
54.77366
40
0.9074803
50
359.8834402
51
5.2832409
0
ARC
8
DEFAULT_255_1_388
10
15.3488153
20
54.7096981
40
0.4341343
50
180.9844233
51
194.9402766
0
ARC
8
DEFAULT_255_1_388
10
15.2307319
20
54.677417
40
0.3117211
50
194.8030557
51
222.0412897
0
ARC
8
DEFAULT_255_1_388
10
15.1965191
20
54.6434715
40
0.2635903
50
221.541578
51
268.8616004
0
ARC
8
DEFAULT_255_1_388
10
15.2047311
20
54.719528
40
0.3398611
50
267.7321071
51
270.009808
0
ARC
8
DEFAULT_255_1_388
10
15.2067375
20
54.7422178
40
0.3625561
50
269.6921218
51
280.4122297
0
ARC
8
DEFAULT_255_1_388
10
15.2265786
20
54.6388767
40
0.2573323
50
280.2257165
51
298.633539
0
ARC
8
DEFAULT_255_1_388
10
15.23912
20
54.6124578
40
0.2281403
50
299.0485543
51
300.4624141
0
ARC
8
DEFAULT_255_1_388
10
15.163218
20
54.7389796
40
0.3756797
50
300.6578578
51
322.037749
0
ARC
8
DEFAULT_255_1_388
10
15.1261702
20
54.7713266
40
0.4247956
50
321.671786
51
322.3059078
0
ARC
8
DEFAULT_255_1_388
10
15.2285265
20
54.6419267
40
0.3960488
50
276.9729088
51
328.0035579
0
ARC
8
DEFAULT_255_1_388
10
15.1973735
20
54.8084609
40
0.5652345
50
269.8358003
51
278.0581296
0
ARC
8
DEFAULT_255_1_388
10
15.1718034
20
54.892282
40
0.2274263
50
89.2017936
51
117.2852353
0
ARC
8
DEFAULT_255_1_388
10
15.1777785
20
54.8875637
40
0.2343798
50
118.0546404
51
137.4544511
0
ARC
8
DEFAULT_255_1_388
10
15.2199429
20
54.8492556
40
0.2913471
50
137.5109688
51
158.8516701
0
ARC
8
DEFAULT_255_1_388
10
15.3479529
20
54.7975902
40
0.4293804
50
158.5845496
51
170.1719753
0
ARC
8
DEFAULT_255_1_388
10
15.4795865
20
54.7714519
40
0.5635533
50
169.8378964
51
173.0563877
0
ARC
8
DEFAULT_255_1_388
10
14.9511149
20
54.8289187
40
0.4593755
50
2.9089079
51
12.88469
0
ARC
8
DEFAULT_255_1_388
10
15.1053068
20
54.8652082
40
0.3009753
50
12.6957404
51
28.6405841
0
ARC
8
DEFAULT_255_1_388
10
15.1662565
20
54.8967577
40
0.232366
50
29.016559
51
41.1492981
0
ARC
8
DEFAULT_255_1_388
10
15.1890544
20
54.916608
40
0.2021373
50
41.1646967
51
85.001362
0
ARC
8
DEFAULT_255_1_388
10
15.1754548
20
54.8339775
40
0.2857091
50
83.728216
51
90.0968824
0
LINE
8
DEFAULT_255_1_388
10
16.2429849
20
55.2443781
11
16.2429849
21
55.088965
0
LINE
8
DEFAULT_255_1_388
10
15.9375801
20
54.9552375
11
15.9375801
21
54.2613
0
LINE
8
DEFAULT_255_1_388
10
15.9375801
20
54.2613
11
15.7704207
21
54.2613
0
LINE
8
DEFAULT_255_1_388
10
15.7704207
20
54.2613
11
15.7704207
21
55.2389567
0
LINE
8
DEFAULT_255_1_388
10
15.7704207
20
55.2389567
11
15.9330623
21
55.2389567
0
LINE
8
DEFAULT_255_1_388
10
15.9330623
20
55.2389567
11
15.9357729
21
55.1260112
0
ARC
8
DEFAULT_255_1_388
10
16.1680008
20
54.6323068
40
0.4627735
50
80.6751522
51
86.893806
0
ARC
8
DEFAULT_255_1_388
10
16.1611838
20
54.5231103
40
0.5721798
50
86.8046851
51
90.0423898
0
ARC
8
DEFAULT_255_1_388
10
16.1570258
20
54.7998197
40
0.2954939
50
89.2758283
51
106.6212906
0
ARC
8
DEFAULT_255_1_388
10
16.1340282
20
54.8834009
40
0.2088351
50
107.1347109
51
157.6456887
0
ARC
8
DEFAULT_255_1_388
10
16.2108345
20
54.8406908
40
0.296292
50
155.6557383
51
157.256838
0
ARC
8
DEFAULT_255_1_388
10
16.1887959
20
54.9717472
40
0.296341
50
127.8167201
51
148.6300223
0
ARC
8
DEFAULT_255_1_388
10
16.1602706
20
55.0010066
40
0.2557782
50
91.3329934
51
126.7875218
0
ARC
8
DEFAULT_255_1_388
10
16.1688094
20
54.9206718
40
0.3363561
50
89.9858247
51
92.4688453
0
ARC
8
DEFAULT_255_1_388
10
16.1697587
20
54.9515114
40
0.3055179
50
85.3587643
51
90.1624243
0
ARC
8
DEFAULT_255_1_388
10
16.1792652
20
55.0644458
40
0.1921848
50
78.4019195
51
85.4592653
0
ARC
8
DEFAULT_255_1_388
10
16.1955712
20
55.1422142
40
0.1127267
50
67.7849217
51
78.573798
0
ARC
8
DEFAULT_255_1_388
10
16.2077347
20
55.1737374
40
0.0789473
50
63.4805074
51
67.3074739
0
LINE
8
DEFAULT_255_1_388
10
16.5782073
20
55.2389567
11
16.5782073
21
54.2613
0
LINE
8
DEFAULT_255_1_388
10
16.5782073
20
54.2613
11
16.4110479
21
54.2613
0
LINE
8
DEFAULT_255_1_388
10
16.4110479
20
54.2613
11
16.4110479
21
55.2389567
0
LINE
8
DEFAULT_255_1_388
10
16.4110479
20
55.2389567
11
16.5782073
21
55.2389567
0
ARC
8
DEFAULT_255_1_388
10
16.5075841
20
55.4993428
40
0.1100948
50
161.4148232
51
180.5532607
0
ARC
8
DEFAULT_255_1_388
10
16.4936151
20
55.5031875
40
0.0956324
50
138.1830164
51
160.9307633
0
ARC
8
DEFAULT_255_1_388
10
16.4812338
20
55.5139313
40
0.0792417
50
104.6371663
51
138.0036136
0
ARC
8
DEFAULT_255_1_388
10
16.4932877
20
55.4726963
40
0.1221906
50
92.0601206
51
105.2198859
0
ARC
8
DEFAULT_255_1_388
10
16.4959241
20
55.4338583
40
0.161103
50
89.9790681
51
92.5006086
0
ARC
8
DEFAULT_255_1_388
10
16.4970417
20
55.4594998
40
0.1354654
50
78.0234649
51
90.4478111
0
ARC
8
DEFAULT_255_1_388
10
16.5074001
20
55.5060203
40
0.0878096
50
55.0521508
51
78.336297
0
ARC
8
DEFAULT_255_1_388
10
16.5130535
20
55.5155168
40
0.0767913
50
42.0506198
51
54.4508489
0
ARC
8
DEFAULT_255_1_388
10
16.4978568
20
55.5015821
40
0.0974091
50
1.7493657
51
42.1498724
0
ARC
8
DEFAULT_255_1_388
10
16.4692474
20
55.4983166
40
0.1261276
50
359.9832635
51
2.8353994
0
ARC
8
DEFAULT_255_1_388
10
16.4878884
20
55.4972412
40
0.1074916
50
342.1062453
51
0.5535864
0
ARC
8
DEFAULT_255_1_388
10
16.5039308
20
55.4928197
40
0.0908695
50
316.7110111
51
341.6513114
0
ARC
8
DEFAULT_255_1_388
10
16.511474
20
55.4860607
40
0.0807447
50
285.4398289
51
316.5320129
0
ARC
8
DEFAULT_255_1_388
10
16.4990911
20
55.5272023
40
0.1237022
50
272.3543902
51
285.8951677
0
ARC
8
DEFAULT_255_1_388
10
16.4960621
20
55.5687742
40
0.1653687
50
269.9725761
51
272.8112722
0
ARC
8
DEFAULT_255_1_388
10
16.4949673
20
55.5436727
40
0.1402709
50
258.8433431
51
270.4148607
0
ARC
8
DEFAULT_255_1_388
10
16.4848453
20
55.4946739
40
0.0902407
50
238.54281
51
259.1289544
0
ARC
8
DEFAULT_255_1_388
10
16.4771774
20
55.4807694
40
0.0743817
50
222.5056676
51
237.9918132
0
ARC
8
DEFAULT_255_1_388
10
16.4915368
20
55.4938295
40
0.0937918
50
184.1070774
51
222.4604165
0
ARC
8
DEFAULT_255_1_388
10
16.5217781
20
55.4981538
40
0.1242838
50
179.9419581
51
185.0970785
0
LINE
8
DEFAULT_255_1_388
10
16.8031948
20
54.7230214
11
16.8031948
21
54.7537426
0
LINE
8
DEFAULT_255_1_388
10
17.632667
20
54.7718139
11
17.632667
21
54.7022395
0
LINE
8
DEFAULT_255_1_388
10
17.632667
20
54.7022395
11
16.9703542
21
54.7022395
0
LINE
8
DEFAULT_255_1_388
10
17.5179143
20
54.5115874
11
17.6200171
21
54.4320737
0
LINE
8
DEFAULT_255_1_388
10
16.9757756
20
54.8395813
11
17.4655076
21
54.8395813
0
LINE
8
DEFAULT_255_1_388
10
17.4655076
20
54.8395813
11
17.4655076
21
54.8522312
0
ARC
8
DEFAULT_255_1_388
10
17.2463709
20
54.735521
40
0.4923176
50
252.326534
51
270.5809615
0
ARC
8
DEFAULT_255_1_388
10
17.2233174
20
54.652194
40
0.4059384
50
223.3000488
51
251.8562489
0
ARC
8
DEFAULT_255_1_388
10
17.2470954
20
54.6752898
40
0.4390832
50
190.9374369
51
223.3654369
0
ARC
8
DEFAULT_255_1_388
10
17.4411632
20
54.7191598
40
0.63798
50
179.6531919
51
191.4988561
0
ARC
8
DEFAULT_255_1_388
10
17.4548659
20
54.7573571
40
0.6516811
50
167.4005523
51
180.3177836
0
ARC
8
DEFAULT_255_1_388
10
17.336533
20
54.7823853
40
0.5307402
50
154.1835149
51
167.2508278
0
ARC
8
DEFAULT_255_1_388
10
17.2654921
20
54.8197925
40
0.4505076
50
134.3150225
51
154.5315008
0
ARC
8
DEFAULT_255_1_388
10
17.2410256
20
54.841255
40
0.4180662
50
122.8617482
51
133.9707159
0
ARC
8
DEFAULT_255_1_388
10
17.2293863
20
54.8662882
40
0.3907416
50
89.8248474
51
123.4199325
0
ARC
8
DEFAULT_255_1_388
10
17.2350161
20
54.7935352
40
0.4635141
50
74.7874349
51
90.5482648
0
ARC
8
DEFAULT_255_1_388
10
17.2680625
20
54.9155987
40
0.3370565
50
39.8178888
51
74.7634383
0
ARC
8
DEFAULT_255_1_388
10
17.2103867
20
54.8706356
40
0.4101553
50
16.8990848
51
39.4830125
0
ARC
8
DEFAULT_255_1_388
10
16.9972481
20
54.8023711
40
0.6339427
50
4.9634768
51
17.2027767
0
ARC
8
DEFAULT_255_1_388
10
16.7251886
20
54.77366
40
0.9074803
50
359.8834402
51
5.2832409
0
ARC
8
DEFAULT_255_1_388
10
17.4044244
20
54.7096981
40
0.4341343
50
180.9844233
51
194.9402766
0
ARC
8
DEFAULT_255_1_388
10
17.286341
20
54.677417
40
0.3117211
50
194.8030557
51
222.0412897
0
ARC
8
DEFAULT_255_1_388
10
17.2521282
20
54.6434715
40
0.2635903
50
221.541578
51
268.8616004
0
ARC
8
DEFAULT_255_1_388
10
17.2603403
20
54.719528
40
0.3398611
50
267.7321071
51
270.009808
0
ARC
8
DEFAULT_255_1_388
10
17.2623466
20
54.7422178
40
0.3625561
50
269.6921218
51
280.4122297
0
ARC
8
DEFAULT_255_1_388
10
17.2821878
20
54.6388767
40
0.2573323
50
280.2257165
51
298.633539
0
ARC
8
DEFAULT_255_1_388
10
17.2947291
20
54.6124578
40
0.2281403
50
299.0485543
51
300.4624141
0
ARC
8
DEFAULT_255_1_388
10
17.2188272
20
54.7389796
40
0.3756797
50
300.6578578
51
322.037749
0
ARC
8
DEFAULT_255_1_388
10
17.1817793
20
54.7713266
40
0.4247956
50
321.671786
51
322.3059078
0
ARC
8
DEFAULT_255_1_388
10
17.2841356
20
54.6419267
40
0.3960488
50
276.9729088
51
328.0035579
0
ARC
8
DEFAULT_255_1_388
10
17.2529827
20
54.8084609
40
0.5652345
50
269.8358003
51
278.0581296
0
ARC
8
DEFAULT_255_1_388
10
17.2274126
20
54.892282
40
0.2274263
50
89.2017936
51
117.2852353
0
ARC
8
DEFAULT_255_1_388
10
17.2333876
20
54.8875637
40
0.2343798
50
118.0546404
51
137.4544511
0
ARC
8
DEFAULT_255_1_388
10
17.275552
20
54.8492556
40
0.2913471
50
137.5109688
51
158.8516701
0
ARC
8
DEFAULT_255_1_388
10
17.403562
20
54.7975902
40
0.4293804
50
158.5845496
51
170.1719753
0
ARC
8
DEFAULT_255_1_388
10
17.5351956
20
54.7714519
40
0.5635533
50
169.8378964
51
173.0563877
0
ARC
8
DEFAULT_255_1_388
10
17.006724
20
54.8289187
40
0.4593755
50
2.9089079
51
12.88469
0
ARC
8
DEFAULT_255_1_388
10
17.1609159
20
54.8652082
40
0.3009753
50
12.6957404
51
28.6405841
0
ARC
8
DEFAULT_255_1_388
10
17.2218656
20
54.8967577
40
0.232366
50
29.016559
51
41.1492981
0
ARC
8
DEFAULT_255_1_388
10
17.2446635
20
54.916608
40
0.2021373
50
41.1646967
51
85.001362
0
ARC
8
DEFAULT_255_1_388
10
17.2310639
20
54.8339775
40
0.2857091
50
83.728216
51
90.0968824
0
LINE
8
DEFAULT_255_1_388
10
18.5533992
20
54.9516232
11
18.3853362
21
54.9516232
0
LINE
8
DEFAULT_255_1_388
10
17.7853694
20
54.562187
11
17.9525288
21
54.562187
0
ARC
8
DEFAULT_255_1_388
10
18.2516653
20
54.5222935
40
0.1436198
50
359.3335374
51
18.5869869
0
ARC
8
DEFAULT_255_1_388
10
18.2751392
20
54.5285015
40
0.1194022
50
19.3538149
51
54.6486387
0
ARC
8
DEFAULT_255_1_388
10
18.2184379
20
54.4503077
40
0.2159877
50
54.3821575
51
65.0627557
0
ARC
8
DEFAULT_255_1_388
10
18.1319727
20
54.2684032
40
0.4173927
50
64.8282172
51
71.4204388
0
ARC
8
DEFAULT_255_1_388
10
18.0304622
20
53.9705782
40
0.7320403
50
71.3166092
51
75.8005927
0
ARC
8
DEFAULT_255_1_388
10
17.9358508
20
53.6060881
40
1.108605
50
75.6810806
51
78.0063886
0
ARC
8
DEFAULT_255_1_388
10
18.4363097
20
55.966253
40
1.3040363
50
254.69024
51
258.0465557
0
ARC
8
DEFAULT_255_1_388
10
18.3194965
20
55.5432742
40
0.8652254
50
249.9010634
51
254.7555005
0
ARC
8
DEFAULT_255_1_388
10
18.2066018
20
55.236668
40
0.5384962
50
243.3097375
51
249.970939
0
ARC
8
DEFAULT_255_1_388
10
18.1358432
20
55.0955721
40
0.380652
50
234.4047808
51
243.2861752
0
ARC
8
DEFAULT_255_1_388
10
18.0658068
20
54.9988645
40
0.2612502
50
220.8665526
51
234.5497192
0
ARC
8
DEFAULT_255_1_388
10
18.0273066
20
54.9638203
40
0.2092097
50
214.3063391
51
220.5075055
0
ARC
8
DEFAULT_255_1_388
10
18.024418
20
54.9603577
40
0.2048755
50
186.9131438
51
213.9617385
0
ARC
8
DEFAULT_255_1_388
10
18.084257
20
54.9700431
40
0.2654563
50
179.8802037
51
187.4338578
0
ARC
8
DEFAULT_255_1_388
10
18.0668535
20
54.9723049
40
0.2480581
50
132.0053393
51
180.3942351
0
ARC
8
DEFAULT_255_1_388
10
18.1407448
20
54.9040997
40
0.3483116
50
129.2317021
51
133.5294826
0
ARC
8
DEFAULT_255_1_388
10
18.1467416
20
54.8935383
40
0.360291
50
100.440976
51
128.9081567
0
ARC
8
DEFAULT_255_1_388
10
18.1775534
20
54.7489357
40
0.5080996
50
89.6985063
51
100.9029043
0
ARC
8
DEFAULT_255_1_388
10
18.1839689
20
54.7308739
40
0.5261675
50
77.6967144
51
90.4074623
0
ARC
8
DEFAULT_255_1_388
10
18.2212041
20
54.8914503
40
0.3613511
50
50.7278431
51
78.0397473
0
ARC
8
DEFAULT_255_1_388
10
18.2712084
20
54.9497173
40
0.2845966
50
25.754382
51
51.0957456
0
ARC
8
DEFAULT_255_1_388
10
18.2713451
20
54.9553311
40
0.2820785
50
359.2468358
51
24.7393861
0
ARC
8
DEFAULT_255_1_388
10
18.2393338
20
54.9521204
40
0.1460032
50
359.8048924
51
45.1543866
0
ARC
8
DEFAULT_255_1_388
10
18.1935072
20
54.9129291
40
0.2061641
50
43.8053172
51
49.625485
0
ARC
8
DEFAULT_255_1_388
10
18.1944515
20
54.9130849
40
0.2054344
50
49.7979696
51
82.121802
0
ARC
8
DEFAULT_255_1_388
10
18.1810597
20
54.8403473
40
0.2793404
50
81.4458692
51
90.1707936
0
ARC
8
DEFAULT_255_1_388
10
18.1783174
20
54.7811478
40
0.3385438
50
89.6768097
51
99.1267111
0
ARC
8
DEFAULT_255_1_388
10
18.1590156
20
54.8974405
40
0.2206627
50
98.9679878
51
113.4573418
0
ARC
8
DEFAULT_255_1_388
10
18.1369836
20
54.9501193
40
0.1635691
50
113.7230234
51
127.4758155
0
ARC
8
DEFAULT_255_1_388
10
18.1180419
20
54.9726433
40
0.1341757
50
126.9086647
51
150.3160891
0
ARC
8
DEFAULT_255_1_388
10
18.112675
20
54.978368
40
0.1266992
50
151.363328
51
180.0701537
0
ARC
8
DEFAULT_255_1_388
10
18.1436971
20
54.976023
40
0.1577364
50
179.2045432
51
180.0012892
0
ARC
8
DEFAULT_255_1_388
10
18.1068082
20
54.9745515
40
0.1208564
50
179.3040542
51
198.4225767
0
ARC
8
DEFAULT_255_1_388
10
18.0852223
20
54.9689337
40
0.0986126
50
199.2893055
51
238.6036855
0
ARC
8
DEFAULT_255_1_388
10
18.1530317
20
55.0753752
40
0.2248082
50
237.9844191
51
246.8751643
0
ARC
8
DEFAULT_255_1_388
10
18.2495176
20
55.2960861
40
0.4656832
50
246.6226408
51
251.8174794
0
ARC
8
DEFAULT_255_1_388
10
18.3655644
20
55.6445909
40
0.8329993
50
251.7140983
51
255.0775146
0
ARC
8
DEFAULT_255_1_388
10
18.5005168
20
56.1472708
40
1.3534786
50
255.0370864
51
257.4701577
0
ARC
8
DEFAULT_255_1_388
10
17.9257713
20
53.5578535
40
1.298957
50
73.6835762
51
77.5015749
0
ARC
8
DEFAULT_255_1_388
10
18.0482627
20
53.9740699
40
0.8650912
50
68.7042835
51
73.7249997
0
ARC
8
DEFAULT_255_1_388
10
18.1498191
20
54.2357853
40
0.584363
50
63.5907059
51
68.6622978
0
ARC
8
DEFAULT_255_1_388
10
18.2365932
20
54.4088157
40
0.3907955
50
54.7106507
51
63.7018033
0
ARC
8
DEFAULT_255_1_388
10
18.306832
20
54.5069287
40
0.2701345
50
41.0624597
51
54.8488532
0
ARC
8
DEFAULT_255_1_388
10
18.3452098
20
54.5421439
40
0.2180695
50
34.4952722
51
40.7097584
0
ARC
8
DEFAULT_255_1_388
10
18.3505064
20
54.5476204
40
0.2106083
50
9.3761233
51
34.0834046
0
ARC
8
DEFAULT_255_1_388
10
18.2770192
20
54.5335174
40
0.2854177
50
359.7695264
51
9.7660556
0
ARC
8
DEFAULT_255_1_388
10
18.2992485
20
54.5286841
40
0.2632121
50
335.8653103
51
0.8022272
0
ARC
8
DEFAULT_255_1_388
10
18.3076891
20
54.5301951
40
0.2561728
50
307.7357819
51
334.7849324
0
ARC
8
DEFAULT_255_1_388
10
18.2631532
20
54.5801553
40
0.3229737
50
307.0217048
51
308.5596894
0
ARC
8
DEFAULT_255_1_388
10
18.2336116
20
54.6243063
40
0.3760237
50
282.9361285
51
306.5649033
0
ARC
8
DEFAULT_255_1_388
10
18.1929178
20
54.7893871
40
0.5460314
50
271.1026197
51
283.2199962
0
ARC
8
DEFAULT_255_1_388
10
18.1857367
20
54.9294744
40
0.6862456
50
269.9926344
51
271.4770056
0
ARC
8
DEFAULT_255_1_388
10
18.1827937
20
54.8077633
40
0.5645418
50
259.0723633
51
270.2897324
0
ARC
8
DEFAULT_255_1_388
10
18.1589161
20
54.6820887
40
0.4366198
50
245.4965026
51
259.0225745
0
ARC
8
DEFAULT_255_1_388
10
18.1276378
20
54.6166491
40
0.3641037
50
228.9686619
51
245.7042678
0
ARC
8
DEFAULT_255_1_388
10
18.0977653
20
54.5798573
40
0.3167435
50
214.4015391
51
228.6759028
0
ARC
8
DEFAULT_255_1_388
10
18.065215
20
54.5620429
40
0.2798456
50
179.9704983
51
215.1574389
0
ARC
8
DEFAULT_255_1_388
10
18.1440362
20
54.5703148
40
0.1916798
50
182.430239
51
203.0329751
0
ARC
8
DEFAULT_255_1_388
10
18.1232958
20
54.5639675
40
0.1701248
50
203.7987464
51
232.5483345
0
ARC
8
DEFAULT_255_1_388
10
18.1544043
20
54.6035049
40
0.2204299
50
232.3784541
51
256.3934343
0
ARC
8
DEFAULT_255_1_388
10
18.180319
20
54.7036359
40
0.3238512
50
256.1048329
51
268.4627478
0
ARC
8
DEFAULT_255_1_388
10
18.1855609
20
54.7940297
40
0.4143627
50
268.0734924
51
270.0121004
0
ARC
8
DEFAULT_255_1_388
10
18.1876327
20
54.7626191
40
0.3829573
50
269.7031202
51
278.8338867
0
ARC
8
DEFAULT_255_1_388
10
18.2081192
20
54.6354553
40
0.2541568
50
278.6727378
51
292.82331
0
ARC
8
DEFAULT_255_1_388
10
18.2306738
20
54.5790546
40
0.1934264
50
293.1457581
51
303.6656964
0
ARC
8
DEFAULT_255_1_388
10
18.2604811
20
54.5367159
40
0.1416713
50
303.1245849
51
321.7434683
0
ARC
8
DEFAULT_255_1_388
10
18.2813893
20
54.518378
40
0.1139081
50
322.4747616
51
1.1293039
0
LINE
8
DEFAULT_255_2_778
10
9.3932417
20
44.8468581
11
10.7161417
21
44.8468581
0
LINE
8
DEFAULT_255_2_778
10
10.7161417
20
44.8468581
11
10.7161417
21
27.6489581
0
LINE
8
DEFAULT_255_2_778
10
9.3932834
20
27.6489333
11
12.0390834
21
27.6489333
0
LINE
8
DEFAULT_255_2_778
10
12.0390834
20
27.6489333
11
12.0390834
21
22.3572333
0
LINE
8
DEFAULT_255_2_778
10
12.0390834
20
22.3572333
11
9.3932834
21
22.3572333
0
LINE
8
DEFAULT_255_2_778
10
9.3932834
20
22.3572333
11
9.3932834
21
27.6489333
0
ARC
8
DEFAULT_255_2_778_1
10
13.1928591
20
22.459677
40
4.816461
50
120.9442904
51
122.351755
0
ARC
8
DEFAULT_255_2_778_1
10
12.7462523
20
23.1633039
40
3.9830657
50
122.3407904
51
124.1946752
0
ARC
8
DEFAULT_255_2_778_1
10
12.3063464
20
23.8098306
40
3.2010724
50
124.1855758
51
126.4338849
0
ARC
8
DEFAULT_255_2_778_1
10
11.9204129
20
24.3325611
40
2.5513094
50
126.4326926
51
128.8877368
0
ARC
8
DEFAULT_255_2_778_1
10
11.5855968
20
24.7469658
40
2.0185498
50
128.8749205
51
131.8726567
0
ARC
8
DEFAULT_255_2_778_1
10
11.2884677
20
25.0779854
40
1.5737356
50
131.8616166
51
135.4168838
0
ARC
8
DEFAULT_255_2_778_1
10
11.025668
20
25.3361765
40
1.2053256
50
135.3893975
51
139.9687014
0
ARC
8
DEFAULT_255_2_778_1
10
10.7927889
20
25.5310102
40
0.9016937
50
139.9301659
51
145.9260426
0
ARC
8
DEFAULT_255_2_778_1
10
10.596654
20
25.6630104
40
0.6652776
50
145.8787362
51
153.8146208
0
ARC
8
DEFAULT_255_2_778_1
10
10.4445553
20
25.7373797
40
0.4959714
50
153.770634
51
164.3484794
0
ARC
8
DEFAULT_255_2_778_1
10
10.3432387
20
25.7655786
40
0.3908039
50
164.3220276
51
179.8083066
0
ARC
8
DEFAULT_255_2_778_1
10
10.3642789
20
25.773715
40
0.4118985
50
180.9499449
51
213.8111542
0
ARC
8
DEFAULT_255_2_778_1
10
10.6401828
20
25.9432896
40
0.73561
50
212.8271214
51
224.258472
0
ARC
8
DEFAULT_255_2_778_1
10
11.0230335
20
26.3126236
40
1.267567
50
224.1376218
51
231.4508261
0
ARC
8
DEFAULT_255_2_778_1
10
11.6657195
20
27.1156168
40
2.2960809
50
231.3955893
51
236.1256478
0
ARC
8
DEFAULT_255_2_778_1
10
13.4980223
20
29.8621293
40
5.5976905
50
236.2233172
51
239.1314682
0
ARC
8
DEFAULT_255_2_778_1
10
25.447927
20
49.5898568
40
28.6623793
50
238.8606853
51
239.0711101
0
ARC
8
DEFAULT_255_2_778_1
10
6.2757281
20
17.4927653
40
8.7248518
50
57.2420924
51
59.4062964
0
ARC
8
DEFAULT_255_2_778_1
10
9.5034241
20
22.5237102
40
2.747542
50
52.8289294
51
57.079028
0
ARC
8
DEFAULT_255_2_778_1
10
10.2780783
20
23.5440488
40
1.466457
50
46.3041868
51
52.8596521
0
ARC
8
DEFAULT_255_2_778_1
10
10.7103073
20
23.9941842
40
0.8424061
50
36.2174211
51
46.4090895
0
ARC
8
DEFAULT_255_2_778_1
10
10.9948088
20
24.1990128
40
0.4918609
50
17.400375
51
36.5489745
0
ARC
8
DEFAULT_255_2_778_1
10
11.1088994
20
24.2388754
40
0.3710912
50
0.0676858
51
16.7951297
0
ARC
8
DEFAULT_255_2_778_1
10
11.0878613
20
24.2407428
40
0.3921317
50
343.8035191
51
359.7912046
0
ARC
8
DEFAULT_255_2_778_1
10
10.9815912
20
24.2712167
40
0.5026844
50
333.2506233
51
343.8465691
0
ARC
8
DEFAULT_255_2_778_1
10
10.8277757
20
24.3479313
40
0.6745679
50
325.6600948
51
333.3122657
0
ARC
8
DEFAULT_255_2_778_1
10
10.6323344
20
24.4807296
40
0.9108568
50
319.7560915
51
325.6976089
0
ARC
8
DEFAULT_255_2_778_1
10
10.404199
20
24.6725002
40
1.2088854
50
315.4577584
51
319.8037947
0
ARC
8
DEFAULT_255_2_778_1
10
10.1408127
20
24.9313507
40
1.5781764
50
311.7298824
51
315.4670864
0
ARC
8
DEFAULT_255_2_778_1
10
9.8317879
20
25.2769074
40
2.0417554
50
308.723055
51
311.7470879
0
ARC
8
DEFAULT_255_2_778_1
10
9.477589
20
25.7181492
40
2.6075745
50
306.1165163
51
308.7300151
0
ARC
8
DEFAULT_255_2_778_1
10
9.0746091
20
26.2694523
40
3.2904564
50
303.9559446
51
306.1266333
0
ARC
8
DEFAULT_255_2_778_1
10
8.6630432
20
26.878715
40
4.0257023
50
302.3733397
51
303.9712246
0
ARC
8
DEFAULT_255_2_778_1
10
8.2434347
20
27.5402058
40
4.8090549
50
300.9434827
51
302.3758078
0
LINE
8
DEFAULT_255_2_778
10
10.7161417
20
22.3572581
11
10.7161417
21
5.1593581
0
LINE
8
DEFAULT_255_2_778
10
10.7161417
20
5.1593581
11
9.3932417
21
5.1593581
0
LINE
8
DEFAULT_255_1_388
10
4.8809318
20
52.4133382
11
4.8809318
21
52.2769
0
LINE
8
DEFAULT_255_1_388
10
4.8809318
20
52.2769
11
4.0189313
21
52.2769
0
LINE
8
DEFAULT_255_1_388
10
4.0189313
20
52.2769
11
4.0189313
21
52.3970741
0
LINE
8
DEFAULT_255_1_388
10
4.0189313
20
52.3970741
11
4.4743278
21
52.9030702
0
LINE
8
DEFAULT_255_1_388
10
4.1607909
20
53.2048607
11
3.9936315
21
53.2048607
0
LINE
8
DEFAULT_255_1_388
10
4.5728163
20
52.795546
11
4.2204262
21
52.4133382
0
LINE
8
DEFAULT_255_1_388
10
4.2204262
20
52.4133382
11
4.8809318
21
52.4133382
0
ARC
8
DEFAULT_255_1_388
10
2.9567337
20
54.2450983
40
2.0258655
50
318.5132526
51
320.7829045
0
ARC
8
DEFAULT_255_1_388
10
3.5515294
20
53.7609929
40
1.2589638
50
320.7372878
51
323.9739031
0
ARC
8
DEFAULT_255_1_388
10
3.9924226
20
53.4415554
40
0.7145141
50
323.8962701
51
328.64194
0
ARC
8
DEFAULT_255_1_388
10
4.2226484
20
53.2995545
40
0.4440242
50
328.8294576
51
331.7891185
0
ARC
8
DEFAULT_255_1_388
10
4.3348804
20
53.2416374
40
0.3177517
50
331.4254512
51
352.9365785
0
ARC
8
DEFAULT_255_1_388
10
4.3501804
20
53.238205
40
0.3021496
50
353.2257659
51
0.0166158
0
ARC
8
DEFAULT_255_1_388
10
4.3738564
20
53.2407894
40
0.2784847
50
359.486299
51
15.9343185
0
ARC
8
DEFAULT_255_1_388
10
4.4308831
20
53.2561269
40
0.2194403
50
16.1712913
51
43.5286088
0
ARC
8
DEFAULT_255_1_388
10
4.4395776
20
53.2648191
40
0.2071504
50
43.4417391
51
83.1661095
0
ARC
8
DEFAULT_255_1_388
10
4.4244937
20
53.1819316
40
0.2912888
50
82.160179
51
90.1505708
0
ARC
8
DEFAULT_255_1_388
10
4.4209418
20
53.1215279
40
0.3517025
50
89.5460741
51
102.5418361
0
ARC
8
DEFAULT_255_1_388
10
4.3936138
20
53.2374933
40
0.2325748
50
102.1738499
51
129.206123
0
ARC
8
DEFAULT_255_1_388
10
4.3847592
20
53.2514664
40
0.2161591
50
129.72865
51
135.753947
0
ARC
8
DEFAULT_255_1_388
10
4.3984074
20
53.2405728
40
0.2335433
50
136.1757367
51
166.3673339
0
ARC
8
DEFAULT_255_1_388
10
4.5116762
20
53.2102148
40
0.3507873
50
165.9090694
51
178.8684636
0
ARC
8
DEFAULT_255_1_388
10
4.6092534
20
53.2049263
40
0.4484624
50
178.4391136
51
180.0083808
0
ARC
8
DEFAULT_255_1_388
10
4.4513235
20
53.2093197
40
0.4577138
50
163.2878482
51
180.5581842
0
ARC
8
DEFAULT_255_1_388
10
4.3611276
20
53.2341393
40
0.3641968
50
133.4540601
51
162.947111
0
ARC
8
DEFAULT_255_1_388
10
4.3812158
20
53.2127789
40
0.3935189
50
100.7869829
51
133.4382499
0
ARC
8
DEFAULT_255_1_388
10
4.4203403
20
53.0385399
40
0.5720313
50
89.660664
51
101.3702276
0
ARC
8
DEFAULT_255_1_388
10
4.4278012
20
53.0454263
40
0.5651495
50
78.2172678
51
90.412935
0
ARC
8
DEFAULT_255_1_388
10
4.4677478
20
53.2281511
40
0.378122
50
55.9269121
51
78.4888449
0
ARC
8
DEFAULT_255_1_388
10
4.4898193
20
53.2662187
40
0.3342379
50
47.929771
51
55.4049217
0
ARC
8
DEFAULT_255_1_388
10
4.5012723
20
53.2778618
40
0.3179217
50
4.334829
51
48.0560205
0
ARC
8
DEFAULT_255_1_388
10
4.3780525
20
53.2587487
40
0.442341
50
359.9251713
51
5.5971671
0
ARC
8
DEFAULT_255_1_388
10
4.426268
20
53.2650728
40
0.3941854
50
337.8914027
51
358.9967534
0
ARC
8
DEFAULT_255_1_388
10
4.121025
20
53.3828295
40
0.7213271
50
326.9132501
51
338.3508308
0
ARC
8
DEFAULT_255_1_388
10
3.6726362
20
53.6702105
40
1.2538973
50
319.6471833
51
327.0959558
0
ARC
8
DEFAULT_255_1_388
10
3.241302
20
54.026005
40
1.8129975
50
317.2588228
51
319.9045804
0
LINE
8
DEFAULT_255_1_388
10
5.7637143
20
53.5924898
11
5.7637143
21
52.718743
0
LINE
8
DEFAULT_255_1_388
10
5.7637143
20
52.718743
11
5.9462343
21
52.718743
0
LINE
8
DEFAULT_255_1_388
10
5.9462343
20
52.718743
11
5.9462343
21
52.5823048
0
LINE
8
DEFAULT_255_1_388
10
5.9462343
20
52.5823048
11
5.7637143
21
52.5823048
0
LINE
8
DEFAULT_255_1_388
10
5.7637143
20
52.5823048
11
5.7637143
21
52.2769
0
LINE
8
DEFAULT_255_1_388
10
5.7637143
20
52.2769
11
5.5956513
21
52.2769
0
LINE
8
DEFAULT_255_1_388
10
5.5956513
20
52.2769
11
5.5956513
21
52.5823048
0
LINE
8
DEFAULT_255_1_388
10
5.5956513
20
52.5823048
11
4.996588
21
52.5823048
0
LINE
8
DEFAULT_255_1_388
10
4.996588
20
52.5823048
11
4.996588
21
52.6807933
0
LINE
8
DEFAULT_255_1_388
10
4.996588
20
52.6807933
11
5.5857121
21
53.5924898
0
LINE
8
DEFAULT_255_1_388
10
5.5857121
20
53.5924898
11
5.7637143
21
53.5924898
0
LINE
8
DEFAULT_255_1_388
10
5.5757729
20
53.3277455
11
5.1863366
21
52.718743
0
LINE
8
DEFAULT_255_1_388
10
5.1863366
20
52.718743
11
5.5956513
21
52.718743
0
LINE
8
DEFAULT_255_1_388
10
5.5956513
20
52.718743
11
5.5956513
21
53.363888
0
LINE
8
DEFAULT_255_1_388
10
5.5956513
20
53.363888
11
5.5757729
21
53.3277455
0
LINE
8
DEFAULT_255_1_388
10
6.201943
20
53.5924898
11
6.5760187
21
52.5073089
0
LINE
8
DEFAULT_255_1_388
10
6.5760187
20
52.5073089
11
6.9519015
21
53.5924898
0
LINE
8
DEFAULT_255_1_388
10
6.9519015
20
53.5924898
11
7.14165
21
53.5924898
0
LINE
8
DEFAULT_255_1_388
10
7.14165
20
53.5924898
11
6.6537252
21
52.2769
0
LINE
8
DEFAULT_255_1_388
10
6.6537252
20
52.2769
11
6.5001193
21
52.2769
0
LINE
8
DEFAULT_255_1_388
10
6.5001193
20
52.2769
11
6.013098
21
53.5924898
0
LINE
8
DEFAULT_255_1_388
10
6.013098
20
53.5924898
11
6.201943
21
53.5924898
0
LINE
8
DEFAULT_255_1_388
10
4.5533985
20
5.9738148
11
4.5533985
21
4.6519
0
LINE
8
DEFAULT_255_1_388
10
4.5533985
20
4.6519
11
4.3853355
21
4.6519
0
LINE
8
DEFAULT_255_1_388
10
4.3853355
20
4.6519
11
4.3853355
21
5.765995
0
LINE
8
DEFAULT_255_1_388
10
4.3853355
20
5.765995
11
4.048306
21
5.6422066
0
LINE
8
DEFAULT_255_1_388
10
4.048306
20
5.6422066
11
4.048306
21
5.7940055
0
LINE
8
DEFAULT_255_1_388
10
4.048306
20
5.7940055
11
4.5271951
21
5.9738148
0
LINE
8
DEFAULT_255_1_388
10
4.5271951
20
5.9738148
11
4.5533985
21
5.9738148
0
LINE
8
DEFAULT_255_1_388
10
5.8798311
20
5.0693468
11
6.054219
21
5.0693468
0
LINE
8
DEFAULT_255_1_388
10
5.0413233
20
5.2482525
11
5.0413233
21
5.3747516
0
LINE
8
DEFAULT_255_1_388
10
6.054219
20
5.5446217
11
5.8798311
21
5.5446217
0
LINE
8
DEFAULT_255_1_388
10
5.2157112
20
5.3702337
11
5.2157112
21
5.2428312
0
ARC
8
DEFAULT_255_1_388
10
5.4376424
20
5.1365329
40
0.6202263
50
340.1774904
51
353.7812217
0
ARC
8
DEFAULT_255_1_388
10
5.6144277
20
5.0706893
40
0.4315926
50
311.4560052
51
340.4420756
0
ARC
8
DEFAULT_255_1_388
10
5.6106817
20
5.0831665
40
0.4434573
50
282.4332229
51
310.7514507
0
ARC
8
DEFAULT_255_1_388
10
5.5612635
20
5.2873703
40
0.6535262
50
269.9358869
51
282.8096729
0
ARC
8
DEFAULT_255_1_388
10
5.5554574
20
5.4386329
40
0.8048043
50
269.9995752
51
270.3612856
0
ARC
8
DEFAULT_255_1_388
10
5.5495064
20
5.1587781
40
0.5249831
50
250.7885263
51
270.6488451
0
ARC
8
DEFAULT_255_1_388
10
5.5305889
20
5.0870853
40
0.4510942
50
219.3628377
51
250.0611024
0
ARC
8
DEFAULT_255_1_388
10
5.6238763
20
5.1663653
40
0.5735046
50
193.5480293
51
219.5755675
0
ARC
8
DEFAULT_255_1_388
10
5.8906972
20
5.235652
40
0.849146
50
181.1220183
51
193.8754971
0
ARC
8
DEFAULT_255_1_388
10
6.1230206
20
5.2480914
40
1.0816971
50
179.9914644
51
181.5398227
0
ARC
8
DEFAULT_255_1_388
10
5.9153516
20
5.3789586
40
0.8740384
50
169.5837606
51
180.275782
0
ARC
8
DEFAULT_255_1_388
10
5.7086864
20
5.4171439
40
0.6638751
50
155.0367033
51
169.6002779
0
ARC
8
DEFAULT_255_1_388
10
5.5809322
20
5.4787336
40
0.5220662
50
136.7831557
51
155.2472983
0
ARC
8
DEFAULT_255_1_388
10
5.5371113
20
5.5159577
40
0.4646502
50
121.7633063
51
136.4281161
0
ARC
8
DEFAULT_255_1_388
10
5.5522953
20
5.4879049
40
0.4964979
50
95.6460018
51
121.5489589
0
ARC
8
DEFAULT_255_1_388
10
5.5699927
20
5.3631704
40
0.6223912
50
89.9245727
51
96.1375919
0
ARC
8
DEFAULT_255_1_388
10
5.5756632
20
5.3765721
40
0.6090084
50
76.6779212
51
90.456405
0
ARC
8
DEFAULT_255_1_388
10
5.6199445
20
5.555506
40
0.42469
50
47.4858803
51
76.9287069
0
ARC
8
DEFAULT_255_1_388
10
5.6034059
20
5.5442623
40
0.4441778
50
16.5424081
51
46.8934505
0
ARC
8
DEFAULT_255_1_388
10
5.4225109
20
5.4848265
40
0.6345318
50
5.4072971
51
17.0363711
0
ARC
8
DEFAULT_255_1_388
10
5.2606834
20
5.4588304
40
0.6250632
50
7.8888693
51
15.9242022
0
ARC
8
DEFAULT_255_1_388
10
5.4841819
20
5.5237309
40
0.3923364
50
15.7650676
51
27.9410069
0
ARC
8
DEFAULT_255_1_388
10
5.6083989
20
5.5902317
40
0.2514401
50
27.8167196
51
46.4007942
0
ARC
8
DEFAULT_255_1_388
10
5.613983
20
5.5895882
40
0.2480958
50
47.4372362
51
75.0695672
0
ARC
8
DEFAULT_255_1_388
10
5.5792666
20
5.4687277
40
0.3738281
50
74.7009379
51
87.8124314
0
ARC
8
DEFAULT_255_1_388
10
5.5710283
20
5.3503659
40
0.4924321
50
87.3802571
51
90.0251599
0
ARC
8
DEFAULT_255_1_388
10
5.566693
20
5.4823997
40
0.3604218
50
89.3451886
51
108.5744412
0
ARC
8
DEFAULT_255_1_388
10
5.5512922
20
5.5401836
40
0.3007661
50
109.2998307
51
143.3037387
0
ARC
8
DEFAULT_255_1_388
10
5.6370212
20
5.4742584
40
0.4089031
50
143.075267
51
163.1918576
0
ARC
8
DEFAULT_255_1_388
10
5.8566047
20
5.4049652
40
0.6391492
50
162.9375929
51
174.6208776
0
ARC
8
DEFAULT_255_1_388
10
6.1520428
20
5.3725711
40
0.9363344
50
174.342123
51
180.1430283
0
ARC
8
DEFAULT_255_1_388
10
6.047297
20
5.2382117
40
0.8315986
50
179.6817261
51
189.150555
0
ARC
8
DEFAULT_255_1_388
10
5.7659719
20
5.1913559
40
0.5464044
50
188.9911061
51
203.5772363
0
ARC
8
DEFAULT_255_1_388
10
5.644501
20
5.1409539
40
0.4149206
50
203.9075402
51
215.1312435
0
ARC
8
DEFAULT_255_1_388
10
5.5406808
20
5.0604907
40
0.2837747
50
213.9071511
51
263.8848919
0
ARC
8
DEFAULT_255_1_388
10
5.5547801
20
5.1487519
40
0.3730641
50
263.1757928
51
270.1031044
0
ARC
8
DEFAULT_255_1_388
10
5.5583881
20
5.2890511
40
0.5133712
50
269.6722503
51
279.0606936
0
ARC
8
DEFAULT_255_1_388
10
5.5884036
20
5.107615
40
0.3294739
50
278.8749101
51
293.6349581
0
ARC
8
DEFAULT_255_1_388
10
5.624424
20
5.0230251
40
0.2375405
50
293.8553806
51
310.0518171
0
ARC
8
DEFAULT_255_1_388
10
5.6249749
20
5.0160021
40
0.2318463
50
311.0644687
51
332.0111037
0
ARC
8
DEFAULT_255_1_388
10
5.4908422
20
5.0899702
40
0.3850112
50
331.6586806
51
343.2877423
0
ARC
8
DEFAULT_255_1_388
10
5.2587888
20
5.1612806
40
0.6277712
50
343.1446576
51
351.0103568
0
ARC
8
DEFAULT_255_1_388
10
5.0955211
20
5.1912873
40
0.7937327
50
350.71248
51
351.1626997
0
LINE
8
DEFAULT_255_1_388
10
4.1800367
20
13.9049898
11
4.1800367
21
12.5894
0
LINE
8
DEFAULT_255_1_388
10
4.1800367
20
12.5894
11
4.0065523
21
12.5894
0
LINE
8
DEFAULT_255_1_388
10
4.0065523
20
12.5894
11
4.0065523
21
13.9049898
0
LINE
8
DEFAULT_255_1_388
10
4.0065523
20
13.9049898
11
4.1800367
21
13.9049898
0
LINE
8
DEFAULT_255_1_388
10
4.6968755
20
13.1920775
11
4.6968755
21
13.3285157
0
LINE
8
DEFAULT_255_1_388
10
4.6968755
20
13.3285157
11
4.822471
21
13.3285157
0
LINE
8
DEFAULT_255_1_388
10
4.6083262
20
13.5598282
11
4.4411668
21
13.5598282
0
LINE
8
DEFAULT_255_1_388
10
4.4294205
20
12.9363687
11
4.5974834
21
12.9363687
0
LINE
8
DEFAULT_255_1_388
10
4.822471
20
13.1920775
11
4.6968755
21
13.1920775
0
ARC
8
DEFAULT_255_1_388
10
4.8191936
20
13.7101922
40
0.3816905
50
270.491971
51
281.8953028
0
ARC
8
DEFAULT_255_1_388
10
4.8463363
20
13.5862199
40
0.2547877
50
281.6690378
51
301.2943765
0
ARC
8
DEFAULT_255_1_388
10
4.8654815
20
13.5511926
40
0.2149197
50
301.7834992
51
311.754567
0
ARC
8
DEFAULT_255_1_388
10
4.8757856
20
13.539765
40
0.1995326
50
311.7325027
51
354.2803031
0
ARC
8
DEFAULT_255_1_388
10
4.7940272
20
13.553828
40
0.2823461
50
353.0941646
51
0.1174696
0
ARC
8
DEFAULT_255_1_388
10
4.742183
20
13.5591874
40
0.3342238
50
359.1804452
51
15.0452323
0
ARC
8
DEFAULT_255_1_388
10
4.8935888
20
13.6033546
40
0.1765747
50
13.957816
51
77.6713812
0
ARC
8
DEFAULT_255_1_388
10
4.8501124
20
13.4475464
40
0.3381982
50
76.111571
51
90.7028736
0
ARC
8
DEFAULT_255_1_388
10
4.8434536
20
13.478325
40
0.3074046
50
89.5321574
51
103.5319393
0
ARC
8
DEFAULT_255_1_388
10
4.820892
20
13.5682443
40
0.2147041
50
103.2930114
51
133.5619756
0
ARC
8
DEFAULT_255_1_388
10
4.8158861
20
13.5749351
40
0.2064084
50
133.8349761
51
173.5343225
0
ARC
8
DEFAULT_255_1_388
10
4.8972519
20
13.5605144
40
0.2889266
50
172.5097183
51
180.1360699
0
ARC
8
DEFAULT_255_1_388
10
4.7902283
20
13.564388
40
0.3490913
50
155.3483706
51
180.7484035
0
ARC
8
DEFAULT_255_1_388
10
4.7847258
20
13.5611519
40
0.3454798
50
131.5745177
51
154.4799474
0
ARC
8
DEFAULT_255_1_388
10
4.8199541
20
13.5255422
40
0.3955058
50
96.9874487
51
131.9690874
0
ARC
8
DEFAULT_255_1_388
10
4.8446434
20
13.3854407
40
0.537622
50
89.8592909
51
97.7827481
0
ARC
8
DEFAULT_255_1_388
10
4.8500543
20
13.355936
40
0.5671399
50
78.3654493
51
90.4132586
0
ARC
8
DEFAULT_255_1_388
10
4.8903184
20
13.5425918
40
0.3762034
50
56.6229818
51
78.6387103
0
ARC
8
DEFAULT_255_1_388
10
4.9145013
20
13.5848846
40
0.3275964
50
47.0254604
51
56.085558
0
ARC
8
DEFAULT_255_1_388
10
4.9167264
20
13.5893189
40
0.3228382
50
10.9207523
51
46.777927
0
ARC
8
DEFAULT_255_1_388
10
4.7632858
20
13.5538401
40
0.4802559
50
359.6364235
51
11.6087615
0
ARC
8
DEFAULT_255_1_388
10
4.9697024
20
13.5521404
40
0.273833
50
332.3549969
51
359.7179765
0
ARC
8
DEFAULT_255_1_388
10
4.8965424
20
13.5868285
40
0.3547505
50
325.2332381
51
332.8746682
0
ARC
8
DEFAULT_255_1_388
10
4.9137007
20
13.5748763
40
0.3338396
50
292.9803892
51
325.2391113
0
ARC
8
DEFAULT_255_1_388
10
4.8826203
20
13.6353679
40
0.4016959
50
292.542178
51
293.6931461
0
ARC
8
DEFAULT_255_1_388
10
4.9269775
20
12.9088036
40
0.372079
50
57.643292
51
72.8626085
0
ARC
8
DEFAULT_255_1_388
10
4.9668609
20
12.9734273
40
0.2961455
50
36.7246661
51
57.4701329
0
ARC
8
DEFAULT_255_1_388
10
4.9655766
20
12.974847
40
0.2963321
50
8.054535
51
36.3561529
0
ARC
8
DEFAULT_255_1_388
10
4.8685439
20
12.9574073
40
0.3948682
50
359.8316595
51
8.5873361
0
ARC
8
DEFAULT_255_1_388
10
4.8262913
20
12.951997
40
0.4371398
50
343.9831631
51
0.557075
0
ARC
8
DEFAULT_255_1_388
10
4.9259962
20
12.9246963
40
0.3337749
50
311.6358204
51
343.7652116
0
ARC
8
DEFAULT_255_1_388
10
4.8834216
20
12.9726955
40
0.3979351
50
279.7829743
51
311.625622
0
ARC
8
DEFAULT_255_1_388
10
4.8495351
20
13.1343642
40
0.5630417
50
269.7285092
51
280.3857694
0
ARC
8
DEFAULT_255_1_388
10
4.8425664
20
13.1297241
40
0.5584119
50
256.6827433
51
270.4412869
0
ARC
8
DEFAULT_255_1_388
10
4.8044651
20
12.9739698
40
0.3980715
50
229.4223821
51
256.8554507
0
ARC
8
DEFAULT_255_1_388
10
4.7578204
20
12.9214683
40
0.3278564
50
181.8183354
51
229.6455015
0
ARC
8
DEFAULT_255_1_388
10
4.8747814
20
12.9361825
40
0.4453611
50
179.9760419
51
183.2330638
0
ARC
8
DEFAULT_255_1_388
10
4.8554366
20
12.9338781
40
0.2579652
50
179.4467996
51
196.2871626
0
ARC
8
DEFAULT_255_1_388
10
4.800582
20
12.9188709
40
0.2011057
50
196.5661293
51
227.7059371
0
ARC
8
DEFAULT_255_1_388
10
4.8190427
20
12.9395155
40
0.2287994
50
227.7653015
51
257.8763321
0
ARC
8
DEFAULT_255_1_388
10
4.844351
20
13.0455961
40
0.3378385
50
257.4583525
51
270.4267406
0
ARC
8
DEFAULT_255_1_388
10
4.849476
20
13.078223
40
0.3704652
50
269.5965319
51
280.8788143
0
ARC
8
DEFAULT_255_1_388
10
4.8752988
20
12.9492529
40
0.2389415
50
280.6347277
51
299.8594068
0
ARC
8
DEFAULT_255_1_388
10
4.8967757
20
12.9084736
40
0.19289
50
300.3575552
51
314.5515667
0
ARC
8
DEFAULT_255_1_388
10
4.8874433
20
12.9153025
40
0.204312
50
315.0730962
51
345.0429362
0
ARC
8
DEFAULT_255_1_388
10
4.7835941
20
12.9455539
40
0.31246
50
344.598526
51
357.9270698
0
ARC
8
DEFAULT_255_1_388
10
4.6826245
20
12.9524705
40
0.4136265
50
357.4755098
51
0.0224936
0
ARC
8
DEFAULT_255_1_388
10
4.7979123
20
12.9552099
40
0.2983498
50
359.5051035
51
13.4236939
0
ARC
8
DEFAULT_255_1_388
10
4.8954213
20
12.9801637
40
0.1977186
50
12.9497905
51
48.7550905
0
ARC
8
DEFAULT_255_1_388
10
4.8749135
20
12.9521373
40
0.2323321
50
49.509109
51
72.1832965
0
ARC
8
DEFAULT_255_1_388
10
4.8346603
20
12.8326632
40
0.358397
50
71.9008458
51
84.3555134
0
ARC
8
DEFAULT_255_1_388
10
4.8164998
20
12.6794712
40
0.512641
50
84.019632
51
89.3326067
0
LINE
8
DEFAULT_255_1_388
10
5.9889727
20
13.6790987
11
5.9889727
21
13.2950838
0
LINE
8
DEFAULT_255_1_388
10
5.9889727
20
13.2950838
11
6.3558199
21
13.2950838
0
LINE
8
DEFAULT_255_1_388
10
6.3558199
20
13.2950838
11
6.3558199
21
13.1369601
0
LINE
8
DEFAULT_255_1_388
10
6.3558199
20
13.1369601
11
5.9889727
21
13.1369601
0
LINE
8
DEFAULT_255_1_388
10
5.9889727
20
13.1369601
11
5.9889727
21
12.7213204
0
LINE
8
DEFAULT_255_1_388
10
5.9889727
20
12.7213204
11
5.8209097
21
12.7213204
0
LINE
8
DEFAULT_255_1_388
10
5.8209097
20
12.7213204
11
5.8209097
21
13.1369601
0
LINE
8
DEFAULT_255_1_388
10
5.8209097
20
13.1369601
11
5.4540625
21
13.1369601
0
LINE
8
DEFAULT_255_1_388
10
5.4540625
20
13.1369601
11
5.4540625
21
13.2950838
0
LINE
8
DEFAULT_255_1_388
10
5.4540625
20
13.2950838
11
5.8209097
21
13.2950838
0
LINE
8
DEFAULT_255_1_388
10
5.8209097
20
13.2950838
11
5.8209097
21
13.6790987
0
LINE
8
DEFAULT_255_1_388
10
5.8209097
20
13.6790987
11
5.9889727
21
13.6790987
0
LINE
8
DEFAULT_255_1_388
10
4.1800367
20
21.8424898
11
4.1800367
21
20.5269
0
LINE
8
DEFAULT_255_1_388
10
4.1800367
20
20.5269
11
4.0065523
21
20.5269
0
LINE
8
DEFAULT_255_1_388
10
4.0065523
20
20.5269
11
4.0065523
21
21.8424898
0
LINE
8
DEFAULT_255_1_388
10
4.0065523
20
21.8424898
11
4.1800367
21
21.8424898
0
LINE
8
DEFAULT_255_1_388
10
5.3158172
20
20.6633382
11
5.3158172
21
20.5269
0
LINE
8
DEFAULT_255_1_388
10
5.3158172
20
20.5269
11
4.4538167
21
20.5269
0
LINE
8
DEFAULT_255_1_388
10
4.4538167
20
20.5269
11
4.4538167
21
20.6470741
0
LINE
8
DEFAULT_255_1_388
10
4.4538167
20
20.6470741
11
4.9092132
21
21.1530702
0
LINE
8
DEFAULT_255_1_388
10
4.5956763
20
21.4548607
11
4.4285169
21
21.4548607
0
LINE
8
DEFAULT_255_1_388
10
5.0077017
20
21.045546
11
4.6553116
21
20.6633382
0
LINE
8
DEFAULT_255_1_388
10
4.6553116
20
20.6633382
11
5.3158172
21
20.6633382
0
ARC
8
DEFAULT_255_1_388
10
3.3916191
20
22.4950983
40
2.0258655
50
318.5132526
51
320.7829045
0
ARC
8
DEFAULT_255_1_388
10
3.9864148
20
22.0109929
40
1.2589638
50
320.7372878
51
323.9739031
0
ARC
8
DEFAULT_255_1_388
10
4.427308
20
21.6915554
40
0.7145141
50
323.8962701
51
328.64194
0
ARC
8
DEFAULT_255_1_388
10
4.6575338
20
21.5495545
40
0.4440242
50
328.8294576
51
331.7891185
0
ARC
8
DEFAULT_255_1_388
10
4.7697658
20
21.4916374
40
0.3177517
50
331.4254512
51
352.9365785
0
ARC
8
DEFAULT_255_1_388
10
4.7850658
20
21.488205
40
0.3021496
50
353.2257659
51
0.0166158
0
ARC
8
DEFAULT_255_1_388
10
4.8087418
20
21.4907894
40
0.2784847
50
359.486299
51
15.9343185
0
ARC
8
DEFAULT_255_1_388
10
4.8657685
20
21.5061269
40
0.2194403
50
16.1712913
51
43.5286088
0
ARC
8
DEFAULT_255_1_388
10
4.874463
20
21.5148191
40
0.2071504
50
43.4417391
51
83.1661095
0
ARC
8
DEFAULT_255_1_388
10
4.8593791
20
21.4319316
40
0.2912888
50
82.160179
51
90.1505708
0
ARC
8
DEFAULT_255_1_388
10
4.8558272
20
21.3715279
40
0.3517025
50
89.5460741
51
102.5418361
0
ARC
8
DEFAULT_255_1_388
10
4.8284992
20
21.4874933
40
0.2325748
50
102.1738499
51
129.206123
0
ARC
8
DEFAULT_255_1_388
10
4.8196446
20
21.5014664
40
0.2161591
50
129.72865
51
135.753947
0
ARC
8
DEFAULT_255_1_388
10
4.8332928
20
21.4905728
40
0.2335433
50
136.1757367
51
166.3673339
0
ARC
8
DEFAULT_255_1_388
10
4.9465616
20
21.4602148
40
0.3507873
50
165.9090694
51
178.8684636
0
ARC
8
DEFAULT_255_1_388
10
5.0441388
20
21.4549263
40
0.4484624
50
178.4391136
51
180.0083808
0
ARC
8
DEFAULT_255_1_388
10
4.8862089
20
21.4593197
40
0.4577138
50
163.2878482
51
180.5581842
0
ARC
8
DEFAULT_255_1_388
10
4.796013
20
21.4841393
40
0.3641968
50
133.4540601
51
162.947111
0
ARC
8
DEFAULT_255_1_388
10
4.8161012
20
21.4627789
40
0.3935189
50
100.7869829
51
133.4382499
0
ARC
8
DEFAULT_255_1_388
10
4.8552257
20
21.2885399
40
0.5720313
50
89.660664
51
101.3702276
0
ARC
8
DEFAULT_255_1_388
10
4.8626866
20
21.2954263
40
0.5651495
50
78.2172678
51
90.412935
0
ARC
8
DEFAULT_255_1_388
10
4.9026332
20
21.4781511
40
0.378122
50
55.9269121
51
78.4888449
0
ARC
8
DEFAULT_255_1_388
10
4.9247047
20
21.5162187
40
0.3342379
50
47.929771
51
55.4049217
0
ARC
8
DEFAULT_255_1_388
10
4.9361577
20
21.5278618
40
0.3179217
50
4.334829
51
48.0560205
0
ARC
8
DEFAULT_255_1_388
10
4.8129379
20
21.5087487
40
0.442341
50
359.9251713
51
5.5971671
0
ARC
8
DEFAULT_255_1_388
10
4.8611534
20
21.5150728
40
0.3941854
50
337.8914027
51
358.9967534
0
ARC
8
DEFAULT_255_1_388
10
4.5559104
20
21.6328295
40
0.7213271
50
326.9132501
51
338.3508308
0
ARC
8
DEFAULT_255_1_388
10
4.1075216
20
21.9202105
40
1.2538973
50
319.6471833
51
327.0959558
0
ARC
8
DEFAULT_255_1_388
10
3.6761874
20
22.276005
40
1.8129975
50
317.2588228
51
319.9045804
0
LINE
8
DEFAULT_255_1_388
10
5.9889727
20
21.6165987
11
5.9889727
21
21.2325838
0
LINE
8
DEFAULT_255_1_388
10
5.9889727
20
21.2325838
11
6.3558199
21
21.2325838
0
LINE
8
DEFAULT_255_1_388
10
6.3558199
20
21.2325838
11
6.3558199
21
21.0744601
0
LINE
8
DEFAULT_255_1_388
10
6.3558199
20
21.0744601
11
5.9889727
21
21.0744601
0
LINE
8
DEFAULT_255_1_388
10
5.9889727
20
21.0744601
11
5.9889727
21
20.6588204
0
LINE
8
DEFAULT_255_1_388
10
5.9889727
20
20.6588204
11
5.8209097
21
20.6588204
0
LINE
8
DEFAULT_255_1_388
10
5.8209097
20
20.6588204
11
5.8209097
21
21.0744601
0
LINE
8
DEFAULT_255_1_388
10
5.8209097
20
21.0744601
11
5.4540625
21
21.0744601
0
LINE
8
DEFAULT_255_1_388
10
5.4540625
20
21.0744601
11
5.4540625
21
21.2325838
0
LINE
8
DEFAULT_255_1_388
10
5.4540625
20
21.2325838
11
5.8209097
21
21.2325838
0
LINE
8
DEFAULT_255_1_388
10
5.8209097
20
21.2325838
11
5.8209097
21
21.6165987
0
LINE
8
DEFAULT_255_1_388
10
5.8209097
20
21.6165987
11
5.9889727
21
21.6165987
0
LINE
8
DEFAULT_255_1_388
10
4.1800367
20
29.7799898
11
4.1800367
21
28.4644
0
LINE
8
DEFAULT_255_1_388
10
4.1800367
20
28.4644
11
4.0065523
21
28.4644
0
LINE
8
DEFAULT_255_1_388
10
4.0065523
20
28.4644
11
4.0065523
21
29.7799898
0
LINE
8
DEFAULT_255_1_388
10
4.0065523
20
29.7799898
11
4.1800367
21
29.7799898
0
LINE
8
DEFAULT_255_1_388
10
5.0031839
20
29.7863148
11
5.0031839
21
28.4644
0
LINE
8
DEFAULT_255_1_388
10
5.0031839
20
28.4644
11
4.8351209
21
28.4644
0
LINE
8
DEFAULT_255_1_388
10
4.8351209
20
28.4644
11
4.8351209
21
29.578495
0
LINE
8
DEFAULT_255_1_388
10
4.8351209
20
29.578495
11
4.4980914
21
29.4547066
0
LINE
8
DEFAULT_255_1_388
10
4.4980914
20
29.4547066
11
4.4980914
21
29.6065055
0
LINE
8
DEFAULT_255_1_388
10
4.4980914
20
29.6065055
11
4.9769805
21
29.7863148
0
LINE
8
DEFAULT_255_1_388
10
4.9769805
20
29.7863148
11
5.0031839
21
29.7863148
0
LINE
8
DEFAULT_255_1_388
10
5.9889727
20
29.5540987
11
5.9889727
21
29.1700838
0
LINE
8
DEFAULT_255_1_388
10
5.9889727
20
29.1700838
11
6.3558199
21
29.1700838
0
LINE
8
DEFAULT_255_1_388
10
6.3558199
20
29.1700838
11
6.3558199
21
29.0119601
0
LINE
8
DEFAULT_255_1_388
10
6.3558199
20
29.0119601
11
5.9889727
21
29.0119601
0
LINE
8
DEFAULT_255_1_388
10
5.9889727
20
29.0119601
11
5.9889727
21
28.5963204
0
LINE
8
DEFAULT_255_1_388
10
5.9889727
20
28.5963204
11
5.8209097
21
28.5963204
0
LINE
8
DEFAULT_255_1_388
10
5.8209097
20
28.5963204
11
5.8209097
21
29.0119601
0
LINE
8
DEFAULT_255_1_388
10
5.8209097
20
29.0119601
11
5.4540625
21
29.0119601
0
LINE
8
DEFAULT_255_1_388
10
5.4540625
20
29.0119601
11
5.4540625
21
29.1700838
0
LINE
8
DEFAULT_255_1_388
10
5.4540625
20
29.1700838
11
5.8209097
21
29.1700838
0
LINE
8
DEFAULT_255_1_388
10
5.8209097
20
29.1700838
11
5.8209097
21
29.5540987
0
LINE
8
DEFAULT_255_1_388
10
5.8209097
20
29.5540987
11
5.9889727
21
29.5540987
0
LINE
8
DEFAULT_255_1_388
10
4.1800367
20
37.7174898
11
4.1800367
21
36.4019
0
LINE
8
DEFAULT_255_1_388
10
4.1800367
20
36.4019
11
4.0065523
21
36.4019
0
LINE
8
DEFAULT_255_1_388
10
4.0065523
20
36.4019
11
4.0065523
21
37.7174898
0
LINE
8
DEFAULT_255_1_388
10
4.0065523
20
37.7174898
11
4.1800367
21
37.7174898
0
LINE
8
DEFAULT_255_1_388
10
5.278771
20
37.179869
11
5.278771
21
36.9630135
0
LINE
8
DEFAULT_255_1_388
10
4.4483953
20
36.9404244
11
4.4483953
21
37.1636048
0
LINE
8
DEFAULT_255_1_388
10
5.1116116
20
36.9178353
11
5.1116116
21
37.1916153
0
LINE
8
DEFAULT_255_1_388
10
4.6155547
20
37.2042652
11
4.6155547
21
36.9368102
0
ARC
8
DEFAULT_255_1_388
10
3.9010044
20
36.9575118
40
1.3777776
50
353.8440855
51
0.2287917
0
ARC
8
DEFAULT_255_1_388
10
4.4229062
20
36.8992414
40
0.852639
50
344.4934746
51
353.9763743
0
ARC
8
DEFAULT_255_1_388
10
4.7595869
20
36.8035191
40
0.5026273
50
329.2803599
51
344.7473406
0
ARC
8
DEFAULT_255_1_388
10
4.8711365
20
36.7423038
40
0.3754848
50
324.9361395
51
328.6153007
0
ARC
8
DEFAULT_255_1_388
10
4.9137015
20
36.7125586
40
0.3235566
50
280.5801797
51
324.9173226
0
ARC
8
DEFAULT_255_1_388
10
4.8685643
20
36.9005236
40
0.5167077
50
269.5979457
51
281.6732777
0
ARC
8
DEFAULT_255_1_388
10
4.8604547
20
36.8870113
40
0.5032026
50
256.6228565
51
270.5105488
0
ARC
8
DEFAULT_255_1_388
10
4.8152289
20
36.7128345
40
0.3233092
50
215.8618351
51
257.2787793
0
ARC
8
DEFAULT_255_1_388
10
4.9300996
20
36.7899106
40
0.4615831
50
197.9695203
51
215.2622745
0
ARC
8
DEFAULT_255_1_388
10
5.2096672
20
36.8842641
40
0.7566307
50
187.8816486
51
198.2346584
0
ARC
8
DEFAULT_255_1_388
10
5.654991
20
36.9485453
40
1.2065653
50
180.8977266
51
188.0054894
0
ARC
8
DEFAULT_255_1_388
10
5.9600124
20
36.96004
40
1.5117443
50
180.7434591
51
181.152202
0
ARC
8
DEFAULT_255_1_388
10
5.792512
20
37.1690371
40
1.3441277
50
173.7674302
51
180.2315596
0
ARC
8
DEFAULT_255_1_388
10
5.2842989
20
37.2264779
40
0.8326847
50
164.3058537
51
173.9000553
0
ARC
8
DEFAULT_255_1_388
10
4.9566989
20
37.3208652
40
0.4917711
50
148.7922028
51
164.5682288
0
ARC
8
DEFAULT_255_1_388
10
4.8497726
20
37.3805457
40
0.3694204
50
144.5883979
51
148.1161588
0
ARC
8
DEFAULT_255_1_388
10
4.8110472
20
37.4075667
40
0.322202
50
101.6440149
51
144.5142619
0
ARC
8
DEFAULT_255_1_388
10
4.8588664
20
37.2175337
40
0.5180451
50
89.528284
51
102.5820197
0
ARC
8
DEFAULT_255_1_388
10
4.8677656
20
37.2131376
40
0.5224441
50
77.0437914
51
90.508231
0
ARC
8
DEFAULT_255_1_388
10
4.9129909
20
37.3979272
40
0.3322297
50
48.2777708
51
77.4996087
0
ARC
8
DEFAULT_255_1_388
10
4.9211649
20
37.4124557
40
0.315966
50
36.3141586
51
47.6307332
0
ARC
8
DEFAULT_255_1_388
10
4.8234372
20
37.3466159
40
0.4337313
50
18.2931065
51
35.6770203
0
ARC
8
DEFAULT_255_1_388
10
4.5373212
20
37.2484107
40
0.7362203
50
8.0246996
51
18.5605636
0
ARC
8
DEFAULT_255_1_388
10
4.0689568
20
37.1792432
40
1.2096583
50
1.127539
51
8.1718423
0
ARC
8
DEFAULT_255_1_388
10
3.7040701
20
37.1649374
40
1.5747719
50
0.5432713
51
1.38669
0
ARC
8
DEFAULT_255_1_388
10
3.909808
20
37.1956163
40
1.2018103
50
359.8092569
51
4.9408001
0
ARC
8
DEFAULT_255_1_388
10
4.3834661
20
37.23789
40
0.7262727
50
4.8364937
51
12.2906017
0
ARC
8
DEFAULT_255_1_388
10
4.6934126
20
37.3069485
40
0.4087324
50
12.0806994
51
23.8171225
0
ARC
8
DEFAULT_255_1_388
10
4.8254522
20
37.3628508
40
0.2653719
50
24.2874621
51
31.3934353
0
ARC
8
DEFAULT_255_1_388
10
4.8844958
20
37.4014822
40
0.1948607
50
30.7407708
51
82.4658033
0
ARC
8
DEFAULT_255_1_388
10
4.8642619
20
37.3021017
40
0.2961198
50
81.1057101
51
90.2187368
0
ARC
8
DEFAULT_255_1_388
10
4.8602431
20
37.3311421
40
0.2670929
50
89.380395
51
105.6763916
0
ARC
8
DEFAULT_255_1_388
10
4.8396153
20
37.406132
40
0.1893189
50
105.7980655
51
149.7387869
0
ARC
8
DEFAULT_255_1_388
10
4.9593293
20
37.3341719
40
0.3289892
50
149.4208441
51
163.628295
0
ARC
8
DEFAULT_255_1_388
10
5.1945522
20
37.2624345
40
0.5749004
50
163.3764549
51
172.141138
0
ARC
8
DEFAULT_255_1_388
10
5.5658244
20
37.2092582
40
0.9499585
50
172.0258462
51
178.0705453
0
ARC
8
DEFAULT_255_1_388
10
5.9079797
20
37.1930682
40
1.2924734
50
177.8639301
51
179.5036263
0
ARC
8
DEFAULT_255_1_388
10
5.7860815
20
36.9327151
40
1.170534
50
179.7995545
51
185.246089
0
ARC
8
DEFAULT_255_1_388
10
5.3312408
20
36.8896404
40
0.7136613
50
185.1411911
51
193.0082205
0
ARC
8
DEFAULT_255_1_388
10
5.0338669
20
36.8193441
40
0.4080987
50
192.7897338
51
205.2507384
0
ARC
8
DEFAULT_255_1_388
10
4.9160879
20
36.7667538
40
0.2791522
50
205.8001921
51
211.2545876
0
ARC
8
DEFAULT_255_1_388
10
4.8572418
20
36.7273132
40
0.2084074
50
210.3789935
51
238.4007996
0
ARC
8
DEFAULT_255_1_388
10
4.8550504
20
36.7325786
40
0.2117943
50
239.6521916
51
265.9793852
0
ARC
8
DEFAULT_255_1_388
10
4.8646353
20
36.8082358
40
0.2879689
50
265.1324455
51
270.0603288
0
ARC
8
DEFAULT_255_1_388
10
4.867873
20
36.7717418
40
0.2514919
50
269.3314378
51
287.2180039
0
ARC
8
DEFAULT_255_1_388
10
4.8833812
20
36.7151291
40
0.1928357
50
287.7957942
51
329.0808983
0
ARC
8
DEFAULT_255_1_388
10
4.7756569
20
36.7823651
40
0.319808
50
328.6635261
51
343.3325043
0
ARC
8
DEFAULT_255_1_388
10
4.5312028
20
36.8585195
40
0.5758408
50
343.0498092
51
351.9392499
0
ARC
8
DEFAULT_255_1_388
10
4.141135
20
36.9160205
40
0.9701202
50
351.8071632
51
357.7957897
0
ARC
8
DEFAULT_255_1_388
10
3.7776827
20
36.9348724
40
1.3340376
50
357.5870923
51
359.2682493
0
LINE
8
DEFAULT_255_1_388
10
5.9889727
20
37.4915987
11
5.9889727
21
37.1075838
0
LINE
8
DEFAULT_255_1_388
10
5.9889727
20
37.1075838
11
6.3558199
21
37.1075838
0
LINE
8
DEFAULT_255_1_388
10
6.3558199
20
37.1075838
11
6.3558199
21
36.9494601
0
LINE
8
DEFAULT_255_1_388
10
6.3558199
20
36.9494601
11
5.9889727
21
36.9494601
0
LINE
8
DEFAULT_255_1_388
10
5.9889727
20
36.9494601
11
5.9889727
21
36.5338204
0
LINE
8
DEFAULT_255_1_388
10
5.9889727
20
36.5338204
11
5.8209097
21
36.5338204
0
LINE
8
DEFAULT_255_1_388
10
5.8209097
20
36.5338204
11
5.8209097
21
36.9494601
0
LINE
8
DEFAULT_255_1_388
10
5.8209097
20
36.9494601
11
5.4540625
21
36.9494601
0
LINE
8
DEFAULT_255_1_388
10
5.4540625
20
36.9494601
11
5.4540625
21
37.1075838
0
LINE
8
DEFAULT_255_1_388
10
5.4540625
20
37.1075838
11
5.8209097
21
37.1075838
0
LINE
8
DEFAULT_255_1_388
10
5.8209097
20
37.1075838
11
5.8209097
21
37.4915987
0
LINE
8
DEFAULT_255_1_388
10
5.8209097
20
37.4915987
11
5.9889727
21
37.4915987
0
LINE
8
DEFAULT_255_1_388
10
4.5533985
20
45.6613148
11
4.5533985
21
44.3394
0
LINE
8
DEFAULT_255_1_388
10
4.5533985
20
44.3394
11
4.3853355
21
44.3394
0
LINE
8
DEFAULT_255_1_388
10
4.3853355
20
44.3394
11
4.3853355
21
45.453495
0
LINE
8
DEFAULT_255_1_388
10
4.3853355
20
45.453495
11
4.048306
21
45.3297066
0
LINE
8
DEFAULT_255_1_388
10
4.048306
20
45.3297066
11
4.048306
21
45.4815055
0
LINE
8
DEFAULT_255_1_388
10
4.048306
20
45.4815055
11
4.5271951
21
45.6613148
0
LINE
8
DEFAULT_255_1_388
10
4.5271951
20
45.6613148
11
4.5533985
21
45.6613148
0
LINE
8
DEFAULT_255_1_388
10
5.8798311
20
44.7568468
11
6.054219
21
44.7568468
0
LINE
8
DEFAULT_255_1_388
10
5.0413233
20
44.9357525
11
5.0413233
21
45.0622516
0
LINE
8
DEFAULT_255_1_388
10
6.054219
20
45.2321217
11
5.8798311
21
45.2321217
0
LINE
8
DEFAULT_255_1_388
10
5.2157112
20
45.0577337
11
5.2157112
21
44.9303312
0
ARC
8
DEFAULT_255_1_388
10
5.4376424
20
44.8240329
40
0.6202263
50
340.1774904
51
353.7812217
0
ARC
8
DEFAULT_255_1_388
10
5.6144277
20
44.7581893
40
0.4315926
50
311.4560052
51
340.4420756
0
ARC
8
DEFAULT_255_1_388
10
5.6106817
20
44.7706665
40
0.4434573
50
282.4332229
51
310.7514507
0
ARC
8
DEFAULT_255_1_388
10
5.5612635
20
44.9748703
40
0.6535262
50
269.9358869
51
282.8096729
0
ARC
8
DEFAULT_255_1_388
10
5.5554574
20
45.1261329
40
0.8048043
50
269.9995752
51
270.3612856
0
ARC
8
DEFAULT_255_1_388
10
5.5495064
20
44.8462781
40
0.5249831
50
250.7885263
51
270.6488451
0
ARC
8
DEFAULT_255_1_388
10
5.5305889
20
44.7745853
40
0.4510942
50
219.3628377
51
250.0611024
0
ARC
8
DEFAULT_255_1_388
10
5.6238763
20
44.8538653
40
0.5735046
50
193.5480293
51
219.5755675
0
ARC
8
DEFAULT_255_1_388
10
5.8906972
20
44.923152
40
0.849146
50
181.1220183
51
193.8754971
0
ARC
8
DEFAULT_255_1_388
10
6.1230206
20
44.9355914
40
1.0816971
50
179.9914644
51
181.5398227
0
ARC
8
DEFAULT_255_1_388
10
5.9153516
20
45.0664586
40
0.8740384
50
169.5837606
51
180.275782
0
ARC
8
DEFAULT_255_1_388
10
5.7086864
20
45.1046439
40
0.6638751
50
155.0367033
51
169.6002779
0
ARC
8
DEFAULT_255_1_388
10
5.5809322
20
45.1662336
40
0.5220662
50
136.7831557
51
155.2472983
0
ARC
8
DEFAULT_255_1_388
10
5.5371113
20
45.2034577
40
0.4646502
50
121.7633063
51
136.4281161
0
ARC
8
DEFAULT_255_1_388
10
5.5522953
20
45.1754049
40
0.4964979
50
95.6460018
51
121.5489589
0
ARC
8
DEFAULT_255_1_388
10
5.5699927
20
45.0506704
40
0.6223912
50
89.9245727
51
96.1375919
0
ARC
8
DEFAULT_255_1_388
10
5.5756632
20
45.0640721
40
0.6090084
50
76.6779212
51
90.456405
0
ARC
8
DEFAULT_255_1_388
10
5.6199445
20
45.243006
40
0.42469
50
47.4858803
51
76.9287069
0
ARC
8
DEFAULT_255_1_388
10
5.6034059
20
45.2317623
40
0.4441778
50
16.5424081
51
46.8934505
0
ARC
8
DEFAULT_255_1_388
10
5.4225109
20
45.1723265
40
0.6345318
50
5.4072971
51
17.0363711
0
ARC
8
DEFAULT_255_1_388
10
5.2606834
20
45.1463304
40
0.6250632
50
7.8888693
51
15.9242022
0
ARC
8
DEFAULT_255_1_388
10
5.4841819
20
45.2112309
40
0.3923364
50
15.7650676
51
27.9410069
0
ARC
8
DEFAULT_255_1_388
10
5.6083989
20
45.2777317
40
0.2514401
50
27.8167196
51
46.4007942
0
ARC
8
DEFAULT_255_1_388
10
5.613983
20
45.2770882
40
0.2480958
50
47.4372362
51
75.0695672
0
ARC
8
DEFAULT_255_1_388
10
5.5792666
20
45.1562277
40
0.3738281
50
74.7009379
51
87.8124314
0
ARC
8
DEFAULT_255_1_388
10
5.5710283
20
45.0378659
40
0.4924321
50
87.3802571
51
90.0251599
0
ARC
8
DEFAULT_255_1_388
10
5.566693
20
45.1698997
40
0.3604218
50
89.3451886
51
108.5744412
0
ARC
8
DEFAULT_255_1_388
10
5.5512922
20
45.2276836
40
0.3007661
50
109.2998307
51
143.3037387
0
ARC
8
DEFAULT_255_1_388
10
5.6370212
20
45.1617584
40
0.4089031
50
143.075267
51
163.1918576
0
ARC
8
DEFAULT_255_1_388
10
5.8566047
20
45.0924652
40
0.6391492
50
162.9375929
51
174.6208776
0
ARC
8
DEFAULT_255_1_388
10
6.1520428
20
45.0600711
40
0.9363344
50
174.342123
51
180.1430283
0
ARC
8
DEFAULT_255_1_388
10
6.047297
20
44.9257117
40
0.8315986
50
179.6817261
51
189.150555
0
ARC
8
DEFAULT_255_1_388
10
5.7659719
20
44.8788559
40
0.5464044
50
188.9911061
51
203.5772363
0
ARC
8
DEFAULT_255_1_388
10
5.644501
20
44.8284539
40
0.4149206
50
203.9075402
51
215.1312435
0
ARC
8
DEFAULT_255_1_388
10
5.5406808
20
44.7479907
40
0.2837747
50
213.9071511
51
263.8848919
0
ARC
8
DEFAULT_255_1_388
10
5.5547801
20
44.8362519
40
0.3730641
50
263.1757928
51
270.1031044
0
ARC
8
DEFAULT_255_1_388
10
5.5583881
20
44.9765511
40
0.5133712
50
269.6722503
51
279.0606936
0
ARC
8
DEFAULT_255_1_388
10
5.5884036
20
44.795115
40
0.3294739
50
278.8749101
51
293.6349581
0
ARC
8
DEFAULT_255_1_388
10
5.624424
20
44.7105251
40
0.2375405
50
293.8553806
51
310.0518171
0
ARC
8
DEFAULT_255_1_388
10
5.6249749
20
44.7035021
40
0.2318463
50
311.0644687
51
332.0111037
0
ARC
8
DEFAULT_255_1_388
10
5.4908422
20
44.7774702
40
0.3850112
50
331.6586806
51
343.2877423
0
ARC
8
DEFAULT_255_1_388
10
5.2587888
20
44.8487806
40
0.6277712
50
343.1446576
51
351.0103568
0
ARC
8
DEFAULT_255_1_388
10
5.0955211
20
44.8787873
40
0.7937327
50
350.71248
51
351.1626997
0
LINE
8
DEFAULT_255_1_388
10
23.1198856
20
53.054869
11
23.1198856
21
52.8380135
0
LINE
8
DEFAULT_255_1_388
10
22.2895099
20
52.8154244
11
22.2895099
21
53.0386048
0
LINE
8
DEFAULT_255_1_388
10
22.9527262
20
52.7928353
11
22.9527262
21
53.0666153
0
LINE
8
DEFAULT_255_1_388
10
22.4566693
20
53.0792652
11
22.4566693
21
52.8118102
0
ARC
8
DEFAULT_255_1_388
10
21.742119
20
52.8325118
40
1.3777776
50
353.8440855
51
0.2287917
0
ARC
8
DEFAULT_255_1_388
10
22.2640208
20
52.7742414
40
0.852639
50
344.4934746
51
353.9763743
0
ARC
8
DEFAULT_255_1_388
10
22.6007015
20
52.6785191
40
0.5026273
50
329.2803599
51
344.7473406
0
ARC
8
DEFAULT_255_1_388
10
22.7122511
20
52.6173038
40
0.3754848
50
324.9361395
51
328.6153007
0
ARC
8
DEFAULT_255_1_388
10
22.7548161
20
52.5875586
40
0.3235566
50
280.5801797
51
324.9173226
0
ARC
8
DEFAULT_255_1_388
10
22.7096789
20
52.7755236
40
0.5167077
50
269.5979457
51
281.6732777
0
ARC
8
DEFAULT_255_1_388
10
22.7015693
20
52.7620113
40
0.5032026
50
256.6228565
51
270.5105488
0
ARC
8
DEFAULT_255_1_388
10
22.6563435
20
52.5878345
40
0.3233092
50
215.8618351
51
257.2787793
0
ARC
8
DEFAULT_255_1_388
10
22.7712142
20
52.6649106
40
0.4615831
50
197.9695203
51
215.2622745
0
ARC
8
DEFAULT_255_1_388
10
23.0507818
20
52.7592641
40
0.7566307
50
187.8816486
51
198.2346584
0
ARC
8
DEFAULT_255_1_388
10
23.4961056
20
52.8235453
40
1.2065653
50
180.8977266
51
188.0054894
0
ARC
8
DEFAULT_255_1_388
10
23.801127
20
52.83504
40
1.5117443
50
180.7434591
51
181.152202
0
ARC
8
DEFAULT_255_1_388
10
23.6336266
20
53.0440371
40
1.3441277
50
173.7674302
51
180.2315596
0
ARC
8
DEFAULT_255_1_388
10
23.1254135
20
53.1014779
40
0.8326847
50
164.3058537
51
173.9000553
0
ARC
8
DEFAULT_255_1_388
10
22.7978135
20
53.1958652
40
0.4917711
50
148.7922028
51
164.5682288
0
ARC
8
DEFAULT_255_1_388
10
22.6908872
20
53.2555457
40
0.3694204
50
144.5883979
51
148.1161588
0
ARC
8
DEFAULT_255_1_388
10
22.6521618
20
53.2825667
40
0.322202
50
101.6440149
51
144.5142619
0
ARC
8
DEFAULT_255_1_388
10
22.699981
20
53.0925337
40
0.5180451
50
89.528284
51
102.5820197
0
ARC
8
DEFAULT_255_1_388
10
22.7088802
20
53.0881376
40
0.5224441
50
77.0437914
51
90.508231
0
ARC
8
DEFAULT_255_1_388
10
22.7541055
20
53.2729272
40
0.3322297
50
48.2777708
51
77.4996087
0
ARC
8
DEFAULT_255_1_388
10
22.7622795
20
53.2874557
40
0.315966
50
36.3141586
51
47.6307332
0
ARC
8
DEFAULT_255_1_388
10
22.6645518
20
53.2216159
40
0.4337313
50
18.2931065
51
35.6770203
0
ARC
8
DEFAULT_255_1_388
10
22.3784358
20
53.1234107
40
0.7362203
50
8.0246996
51
18.5605636
0
ARC
8
DEFAULT_255_1_388
10
21.9100714
20
53.0542432
40
1.2096583
50
1.127539
51
8.1718423
0
ARC
8
DEFAULT_255_1_388
10
21.5451847
20
53.0399374
40
1.5747719
50
0.5432713
51
1.38669
0
ARC
8
DEFAULT_255_1_388
10
21.7509226
20
53.0706163
40
1.2018103
50
359.8092569
51
4.9408001
0
ARC
8
DEFAULT_255_1_388
10
22.2245807
20
53.11289
40
0.7262727
50
4.8364937
51
12.2906017
0
ARC
8
DEFAULT_255_1_388
10
22.5345272
20
53.1819485
40
0.4087324
50
12.0806994
51
23.8171225
0
ARC
8
DEFAULT_255_1_388
10
22.6665668
20
53.2378508
40
0.2653719
50
24.2874621
51
31.3934353
0
ARC
8
DEFAULT_255_1_388
10
22.7256104
20
53.2764822
40
0.1948607
50
30.7407708
51
82.4658033
0
ARC
8
DEFAULT_255_1_388
10
22.7053765
20
53.1771017
40
0.2961198
50
81.1057101
51
90.2187368
0
ARC
8
DEFAULT_255_1_388
10
22.7013577
20
53.2061421
40
0.2670929
50
89.380395
51
105.6763916
0
ARC
8
DEFAULT_255_1_388
10
22.6807299
20
53.281132
40
0.1893189
50
105.7980655
51
149.7387869
0
ARC
8
DEFAULT_255_1_388
10
22.8004439
20
53.2091719
40
0.3289892
50
149.4208441
51
163.628295
0
ARC
8
DEFAULT_255_1_388
10
23.0356668
20
53.1374345
40
0.5749004
50
163.3764549
51
172.141138
0
ARC
8
DEFAULT_255_1_388
10
23.406939
20
53.0842582
40
0.9499585
50
172.0258462
51
178.0705453
0
ARC
8
DEFAULT_255_1_388
10
23.7490943
20
53.0680682
40
1.2924734
50
177.8639301
51
179.5036263
0
ARC
8
DEFAULT_255_1_388
10
23.6271961
20
52.8077151
40
1.170534
50
179.7995545
51
185.246089
0
ARC
8
DEFAULT_255_1_388
10
23.1723554
20
52.7646404
40
0.7136613
50
185.1411911
51
193.0082205
0
ARC
8
DEFAULT_255_1_388
10
22.8749815
20
52.6943441
40
0.4080987
50
192.7897338
51
205.2507384
0
ARC
8
DEFAULT_255_1_388
10
22.7572025
20
52.6417538
40
0.2791522
50
205.8001921
51
211.2545876
0
ARC
8
DEFAULT_255_1_388
10
22.6983564
20
52.6023132
40
0.2084074
50
210.3789935
51
238.4007996
0
ARC
8
DEFAULT_255_1_388
10
22.696165
20
52.6075786
40
0.2117943
50
239.6521916
51
265.9793852
0
ARC
8
DEFAULT_255_1_388
10
22.7057499
20
52.6832358
40
0.2879689
50
265.1324455
51
270.0603288
0
ARC
8
DEFAULT_255_1_388
10
22.7089876
20
52.6467418
40
0.2514919
50
269.3314378
51
287.2180039
0
ARC
8
DEFAULT_255_1_388
10
22.7244958
20
52.5901291
40
0.1928357
50
287.7957942
51
329.0808983
0
ARC
8
DEFAULT_255_1_388
10
22.6167715
20
52.6573651
40
0.319808
50
328.6635261
51
343.3325043
0
ARC
8
DEFAULT_255_1_388
10
22.3723174
20
52.7335195
40
0.5758408
50
343.0498092
51
351.9392499
0
ARC
8
DEFAULT_255_1_388
10
21.9822496
20
52.7910205
40
0.9701202
50
351.8071632
51
357.7957897
0
ARC
8
DEFAULT_255_1_388
10
21.6187973
20
52.8098724
40
1.3340376
50
357.5870923
51
359.2682493
0
LINE
8
DEFAULT_255_1_388
10
23.4388439
20
53.5924898
11
23.8129196
21
52.5073089
0
LINE
8
DEFAULT_255_1_388
10
23.8129196
20
52.5073089
11
24.1888024
21
53.5924898
0
LINE
8
DEFAULT_255_1_388
10
24.1888024
20
53.5924898
11
24.3785509
21
53.5924898
0
LINE
8
DEFAULT_255_1_388
10
24.3785509
20
53.5924898
11
23.8906261
21
52.2769
0
LINE
8
DEFAULT_255_1_388
10
23.8906261
20
52.2769
11
23.7370202
21
52.2769
0
LINE
8
DEFAULT_255_1_388
10
23.7370202
20
52.2769
11
23.2499989
21
53.5924898
0
LINE
8
DEFAULT_255_1_388
10
23.2499989
20
53.5924898
11
23.4388439
21
53.5924898
0
ENDSEC
0
EOF