0
SECTION
2
HEADER
9
$MEASUREMENT
70
1
0
ENDSEC
0
SECTION
2
TABLES
0
TABLE
2
LTYPE
0
LTYPE
72
65
70
64
2
CONTINUOUS
3
______
73
0
40
0
0
ENDTAB
0
TABLE
2
LAYER
0
LAYER
2
DEFAULT_255_2_778
70
0
62
255
6
CONTINUOUS
0
LAYER
2
DEFAULT_255_1_234
70
0
62
255
6
CONTINUOUS
0
LAYER
2
DEFAULT_255_2_778_1
70
0
62
255
6
CONTINUOUS
0
ENDTAB
0
ENDSEC
0
SECTION
2
ENTITIES
0
ARC
8
DEFAULT_255_2_778
10
3.5700693
20
51.9926534
40
0.7914215
50
129.1312896
51
180.1450914
0
ARC
8
DEFAULT_255_2_778
10
3.5703345
20
51.9931405
40
0.7912112
50
89.854026
51
129.1684493
0
ARC
8
DEFAULT_255_2_778
10
25.7993937
20
51.992827
40
0.7915249
50
39.4792447
51
90.147911
0
ARC
8
DEFAULT_255_2_778
10
25.7999935
20
51.9926737
40
0.7911595
50
359.8533901
51
39.5154338
0
ARC
8
DEFAULT_255_2_778
10
25.7996693
20
-1.9863989
40
0.7914836
50
309.4761667
51
0.1482649
0
ARC
8
DEFAULT_255_2_778
10
25.799398
20
-1.98683
40
0.7913235
50
269.8517415
51
309.511178
0
ARC
8
DEFAULT_255_2_778
10
3.570342
20
-1.9867718
40
0.7913815
50
219.1282118
51
270.1454017
0
ARC
8
DEFAULT_255_2_778
10
3.5700247
20
-1.9863893
40
0.7913769
50
179.8524075
51
219.1641908
0
LINE
8
DEFAULT_255_2_778
10
3.5723503
20
52.7843492
11
25.7973503
21
52.7843492
0
LINE
8
DEFAULT_255_2_778
10
26.5911503
20
51.9906492
11
26.5911503
21
-1.9843508
0
LINE
8
DEFAULT_255_2_778
10
25.7973503
20
-2.7781508
11
3.5723503
21
-2.7781508
0
LINE
8
DEFAULT_255_2_778
10
2.7786503
20
-1.9843508
11
2.7786503
21
51.9906492
0
LINE
8
DEFAULT_255_1_234
10
9.7061392
20
-0.6513
11
9.3005364
21
-0.6513
0
LINE
8
DEFAULT_255_1_234
10
9.3005364
20
-0.6513
11
9.3005364
21
0.5181211
0
LINE
8
DEFAULT_255_1_234
10
9.3005364
20
0.5181211
11
9.6828471
21
0.5181211
0
LINE
8
DEFAULT_255_1_234
10
9.7117614
20
-0.1043386
11
9.4547458
21
-0.1043386
0
LINE
8
DEFAULT_255_1_234
10
9.4547458
20
-0.1043386
11
9.4547458
21
-0.5252017
0
LINE
8
DEFAULT_255_1_234
10
9.4547458
20
-0.5252017
11
9.7093519
21
-0.5252017
0
LINE
8
DEFAULT_255_1_234
10
9.4547458
20
0.3912196
11
9.4547458
21
0.0193501
0
LINE
8
DEFAULT_255_1_234
10
9.4547458
20
0.0193501
11
9.6876662
21
0.0193501
0
LINE
8
DEFAULT_255_1_234
10
9.6828471
20
0.3912196
11
9.4547458
21
0.3912196
0
ARC
8
DEFAULT_255_1_234
10
9.686618
20
-0.2186099
40
0.7367406
50
82.1257326
51
90.2932599
0
ARC
8
DEFAULT_255_1_234
10
9.7255135
20
0.0532013
40
0.4621653
50
69.9044149
51
82.2857423
0
ARC
8
DEFAULT_255_1_234
10
9.7825813
20
0.2074637
40
0.2976871
50
51.1838526
51
70.0181538
0
ARC
8
DEFAULT_255_1_234
10
9.8080779
20
0.244524
40
0.2528517
50
12.1017251
51
50.4214761
0
ARC
8
DEFAULT_255_1_234
10
9.6696653
20
0.2097676
40
0.3955061
50
359.5251267
51
12.8211707
0
ARC
8
DEFAULT_255_1_234
10
9.8276579
20
0.2028344
40
0.2375281
50
323.4908128
51
0.8817314
0
ARC
8
DEFAULT_255_1_234
10
9.7858266
20
0.235155
40
0.2903817
50
298.6825083
51
323.2756573
0
ARC
8
DEFAULT_255_1_234
10
9.7496629
20
0.2952649
40
0.3604842
50
293.1999386
51
299.1396394
0
ARC
8
DEFAULT_255_1_234
10
9.8169602
20
-0.3132874
40
0.2871098
50
54.0011765
51
74.9167975
0
ARC
8
DEFAULT_255_1_234
10
9.8285961
20
-0.2935668
40
0.2643248
50
36.3580696
51
53.5291921
0
ARC
8
DEFAULT_255_1_234
10
9.8159203
20
-0.3026002
40
0.2798884
50
4.8189881
51
36.3089977
0
ARC
8
DEFAULT_255_1_234
10
9.7380038
20
-0.313573
40
0.358478
50
359.9370252
51
5.5204067
0
ARC
8
DEFAULT_255_1_234
10
9.705556
20
-0.3176333
40
0.3909429
50
344.7478609
51
0.5373281
0
ARC
8
DEFAULT_255_1_234
10
9.8046531
20
-0.3443456
40
0.2883093
50
311.1786488
51
344.6886812
0
ARC
8
DEFAULT_255_1_234
10
9.7754578
20
-0.3080013
40
0.3348923
50
286.0418249
51
310.8441291
0
ARC
8
DEFAULT_255_1_234
10
9.724741
20
-0.1433193
40
0.5071869
50
274.1042341
51
286.4071509
0
ARC
8
DEFAULT_255_1_234
10
9.7070666
20
0.0450229
40
0.6963234
50
269.9236873
51
274.445647
0
ARC
8
DEFAULT_255_1_234
10
9.7116667
20
-0.1889463
40
0.3362634
50
269.6055768
51
281.3740047
0
ARC
8
DEFAULT_255_1_234
10
9.7347305
20
-0.2982647
40
0.224546
50
281.1055983
51
302.5132223
0
ARC
8
DEFAULT_255_1_234
10
9.7494204
20
-0.3246177
40
0.1944357
50
303.0368945
51
311.8811219
0
ARC
8
DEFAULT_255_1_234
10
9.7565611
20
-0.333111
40
0.1833454
50
311.9916004
51
351.7143462
0
ARC
8
DEFAULT_255_1_234
10
9.6748841
20
-0.316607
40
0.2665871
50
350.7339597
51
0.2221581
0
ARC
8
DEFAULT_255_1_234
10
9.6641287
20
-0.3109533
40
0.2773789
50
359.0456241
51
17.2296242
0
ARC
8
DEFAULT_255_1_234
10
9.7680404
20
-0.2800837
40
0.1689915
50
17.6685481
51
78.9940892
0
ARC
8
DEFAULT_255_1_234
10
9.7163568
20
-0.4655776
40
0.3612658
50
76.5635957
51
90.6980921
0
LINE
8
DEFAULT_255_1_234
10
9.7119552
20
-0.1043387
11
9.7117614
21
-0.1043386
0
ARC
8
DEFAULT_255_1_234
10
9.6899228
20
0.3479036
40
0.3285612
50
269.6064736
51
281.4533503
0
ARC
8
DEFAULT_255_1_234
10
9.7122048
20
0.2427688
40
0.2210975
50
281.2041486
51
302.5148063
0
ARC
8
DEFAULT_255_1_234
10
9.7258898
20
0.2181241
40
0.1929674
50
303.021671
51
309.8369575
0
ARC
8
DEFAULT_255_1_234
10
9.7442359
20
0.1975488
40
0.1654181
50
309.5228395
51
356.9509836
0
ARC
8
DEFAULT_255_1_234
10
9.6778942
20
0.2070932
40
0.2322512
50
355.4701227
51
0.0492546
0
ARC
8
DEFAULT_255_1_234
10
9.6500033
20
0.2093094
40
0.2601498
50
359.5558597
51
11.2096359
0
ARC
8
DEFAULT_255_1_234
10
9.7457323
20
0.229123
40
0.1623975
50
10.9182341
51
31.3230275
0
ARC
8
DEFAULT_255_1_234
10
9.7743056
20
0.2450214
40
0.1297302
50
31.8852677
51
52.1412565
0
ARC
8
DEFAULT_255_1_234
10
9.7468789
20
0.206275
40
0.1771663
50
52.8285564
51
71.9850297
0
ARC
8
DEFAULT_255_1_234
10
9.7092965
20
0.0956664
40
0.2939794
50
71.6863486
51
82.8455995
0
ARC
8
DEFAULT_255_1_234
10
9.6853501
20
-0.0852851
40
0.476506
50
82.6984714
51
90.1729175
0
ARC
8
DEFAULT_255_1_234
10
9.6831136
20
0.0370623
40
0.3541573
50
89.8708275
51
90.0431131
0
LINE
8
DEFAULT_255_1_234
10
10.4241766
20
0.5181211
11
10.7060906
21
0.0699501
0
LINE
8
DEFAULT_255_1_234
10
10.7060906
20
0.0699501
11
10.9863982
21
0.5181211
0
LINE
8
DEFAULT_255_1_234
10
10.9863982
20
0.5181211
11
11.1679155
21
0.5181211
0
LINE
8
DEFAULT_255_1_234
10
11.1679155
20
0.5181211
11
10.7984556
21
-0.0617704
0
LINE
8
DEFAULT_255_1_234
10
10.7984556
20
-0.0617704
11
11.1767504
21
-0.6513
0
LINE
8
DEFAULT_255_1_234
10
11.1767504
20
-0.6513
11
10.9936268
21
-0.6513
0
LINE
8
DEFAULT_255_1_234
10
10.9936268
20
-0.6513
11
10.7060906
21
-0.1950973
0
LINE
8
DEFAULT_255_1_234
10
10.7060906
20
-0.1950973
11
10.416948
21
-0.6513
0
LINE
8
DEFAULT_255_1_234
10
10.416948
20
-0.6513
11
10.2346275
21
-0.6513
0
LINE
8
DEFAULT_255_1_234
10
10.2346275
20
-0.6513
11
10.6137256
21
-0.0617704
0
LINE
8
DEFAULT_255_1_234
10
10.6137256
20
-0.0617704
11
10.2434625
21
0.5181211
0
LINE
8
DEFAULT_255_1_234
10
10.2434625
20
0.5181211
11
10.4241766
21
0.5181211
0
LINE
8
DEFAULT_255_1_234
10
11.6048421
20
-0.0938974
11
11.6048421
21
-0.2151766
0
LINE
8
DEFAULT_255_1_234
10
11.6048421
20
-0.2151766
11
11.2128933
21
-0.2151766
0
LINE
8
DEFAULT_255_1_234
10
11.2128933
20
-0.2151766
11
11.2128933
21
-0.0938974
0
LINE
8
DEFAULT_255_1_234
10
11.2128933
20
-0.0938974
11
11.6048421
21
-0.0938974
0
LINE
8
DEFAULT_255_1_234
10
12.3614318
20
0.5181211
11
12.3614318
21
-0.258548
0
LINE
8
DEFAULT_255_1_234
10
12.3614318
20
-0.258548
11
12.5236729
21
-0.258548
0
LINE
8
DEFAULT_255_1_234
10
12.5236729
20
-0.258548
11
12.5236729
21
-0.3798272
0
LINE
8
DEFAULT_255_1_234
10
12.5236729
20
-0.3798272
11
12.3614318
21
-0.3798272
0
LINE
8
DEFAULT_255_1_234
10
12.3614318
20
-0.3798272
11
12.3614318
21
-0.6513
0
LINE
8
DEFAULT_255_1_234
10
12.3614318
20
-0.6513
11
12.2120415
21
-0.6513
0
LINE
8
DEFAULT_255_1_234
10
12.2120415
20
-0.6513
11
12.2120415
21
-0.3798272
0
LINE
8
DEFAULT_255_1_234
10
12.2120415
20
-0.3798272
11
11.6795373
21
-0.3798272
0
LINE
8
DEFAULT_255_1_234
10
11.6795373
20
-0.3798272
11
11.6795373
21
-0.2922813
0
LINE
8
DEFAULT_255_1_234
10
11.6795373
20
-0.2922813
11
12.2032066
21
0.5181211
0
LINE
8
DEFAULT_255_1_234
10
12.2032066
20
0.5181211
11
12.3614318
21
0.5181211
0
LINE
8
DEFAULT_255_1_234
10
12.1943717
20
0.2827912
11
11.8482038
21
-0.258548
0
LINE
8
DEFAULT_255_1_234
10
11.8482038
20
-0.258548
11
12.2120415
21
-0.258548
0
LINE
8
DEFAULT_255_1_234
10
12.2120415
20
-0.258548
11
12.2120415
21
0.3149181
0
LINE
8
DEFAULT_255_1_234
10
12.2120415
20
0.3149181
11
12.1943717
21
0.2827912
0
LINE
8
DEFAULT_255_1_234
10
13.4537482
20
-0.6513
11
13.3421071
21
-0.3460939
0
LINE
8
DEFAULT_255_1_234
10
13.3421071
20
-0.3460939
11
12.852171
21
-0.3460939
0
LINE
8
DEFAULT_255_1_234
10
12.852171
20
-0.3460939
11
12.7421362
21
-0.6513
0
LINE
8
DEFAULT_255_1_234
10
12.7421362
20
-0.6513
11
12.5831078
21
-0.6513
0
LINE
8
DEFAULT_255_1_234
10
12.5831078
20
-0.6513
11
13.0296725
21
0.5181211
0
LINE
8
DEFAULT_255_1_234
10
13.0296725
20
0.5181211
11
13.1646057
21
0.5181211
0
LINE
8
DEFAULT_255_1_234
10
13.1646057
20
0.5181211
11
13.6119735
21
-0.6513
0
LINE
8
DEFAULT_255_1_234
10
13.6119735
20
-0.6513
11
13.4537482
21
-0.6513
0
LINE
8
DEFAULT_255_1_234
10
13.0971391
20
0.3277689
11
12.8987551
21
-0.2191925
0
LINE
8
DEFAULT_255_1_234
10
12.8987551
20
-0.2191925
11
13.2963262
21
-0.2191925
0
LINE
8
DEFAULT_255_1_234
10
13.2963262
20
-0.2191925
11
13.0971391
21
0.3277689
0
LINE
8
DEFAULT_255_1_234
10
14.0930746
20
-0.6513
11
13.7693956
21
-0.6513
0
LINE
8
DEFAULT_255_1_234
10
13.7693956
20
-0.6513
11
13.7693956
21
0.5181211
0
LINE
8
DEFAULT_255_1_234
10
13.7693956
20
0.5181211
11
14.0995
21
0.5181211
0
LINE
8
DEFAULT_255_1_234
10
14.6151376
20
-0.0272339
11
14.6151376
21
-0.1019291
0
LINE
8
DEFAULT_255_1_234
10
14.1035159
20
0.3912196
11
13.9236049
21
0.3912196
0
LINE
8
DEFAULT_255_1_234
10
13.9236049
20
0.3912196
11
13.9236049
21
-0.5252017
0
LINE
8
DEFAULT_255_1_234
10
13.9236049
20
-0.5252017
11
14.085846
21
-0.5252017
0
LINE
8
DEFAULT_255_1_234
10
14.4625346
20
-0.0987164
11
14.4625346
21
-0.0304466
0
ARC
8
DEFAULT_255_1_234
10
14.1033942
20
-0.0684106
40
0.5865446
50
75.4101064
51
90.3804066
0
ARC
8
DEFAULT_255_1_234
10
14.1263456
20
0.0272492
40
0.4881916
50
60.145586
51
75.1888407
0
ARC
8
DEFAULT_255_1_234
10
14.1422231
20
0.0549199
40
0.4562893
50
26.5253612
51
60.1450928
0
ARC
8
DEFAULT_255_1_234
10
14.0301981
20
-0.0044842
40
0.5830602
50
7.4030428
51
26.8320788
0
ARC
8
DEFAULT_255_1_234
10
13.8707737
20
-0.0293196
40
0.7443669
50
0.1605367
51
7.7176192
0
ARC
8
DEFAULT_255_1_234
10
13.8871642
20
-0.1057566
40
0.7279835
50
348.7289388
51
0.3012466
0
ARC
8
DEFAULT_255_1_234
10
14.0528072
20
-0.1386614
40
0.559104
50
333.0706509
51
348.7181832
0
ARC
8
DEFAULT_255_1_234
10
14.149483
20
-0.1911681
40
0.4491417
50
299.2531685
51
333.4571258
0
ARC
8
DEFAULT_255_1_234
10
14.113397
20
-0.1226172
40
0.5265881
50
278.107187
51
299.0339503
0
ARC
8
DEFAULT_255_1_234
10
14.0878049
20
0.0281216
40
0.679442
50
270.4443897
51
278.4511052
0
ARC
8
DEFAULT_255_1_234
10
14.0898879
20
-0.0647787
40
0.4604407
50
269.4970433
51
284.0205042
0
ARC
8
DEFAULT_255_1_234
10
14.125418
20
-0.2013022
40
0.3193797
50
283.7700273
51
318.1555492
0
ARC
8
DEFAULT_255_1_234
10
14.0916938
20
-0.1760633
40
0.3613588
50
318.7415601
51
343.6873628
0
ARC
8
DEFAULT_255_1_234
10
13.9112961
20
-0.1197168
40
0.5503313
50
343.3325091
51
355.8548958
0
ARC
8
DEFAULT_255_1_234
10
13.7014645
20
-0.0997681
40
0.7610708
50
355.4988528
51
0.0791727
0
ARC
8
DEFAULT_255_1_234
10
13.7797268
20
-0.026222
40
0.6828208
50
359.6455037
51
9.8607896
0
ARC
8
DEFAULT_255_1_234
10
14.0157966
20
0.0164099
40
0.4429406
50
9.6571907
51
26.1932807
0
ARC
8
DEFAULT_255_1_234
10
14.1085955
20
0.0595118
40
0.3406537
50
26.5777228
51
40.1532208
0
ARC
8
DEFAULT_255_1_234
10
14.1341681
20
0.0794619
40
0.308246
50
40.3840491
51
80.1431104
0
ARC
8
DEFAULT_255_1_234
10
14.1014799
20
-0.0654667
40
0.4566909
50
79.2152159
51
89.7445637
0
LINE
8
DEFAULT_255_1_234
10
15.5757335
20
-0.5300208
11
15.5757335
21
-0.6513
0
LINE
8
DEFAULT_255_1_234
10
15.5757335
20
-0.6513
11
14.8095057
21
-0.6513
0
LINE
8
DEFAULT_255_1_234
10
14.8095057
20
-0.6513
11
14.8095057
21
-0.5444779
0
LINE
8
DEFAULT_255_1_234
10
14.8095057
20
-0.5444779
11
15.2143053
21
-0.0947005
0
LINE
8
DEFAULT_255_1_234
10
14.935604
20
0.1735595
11
14.7870168
21
0.1735595
0
LINE
8
DEFAULT_255_1_234
10
15.3018512
20
-0.1902782
11
14.9886134
21
-0.5300208
0
LINE
8
DEFAULT_255_1_234
10
14.9886134
20
-0.5300208
11
15.5757335
21
-0.5300208
0
ARC
8
DEFAULT_255_1_234
10
13.8652886
20
1.0982527
40
1.8008286
50
318.5132453
51
320.7828378
0
ARC
8
DEFAULT_255_1_234
10
14.393986
20
0.6679426
40
1.1191493
50
320.7372736
51
323.9737074
0
ARC
8
DEFAULT_255_1_234
10
14.7859717
20
0.3839361
40
0.6350923
50
323.8961724
51
328.6421089
0
ARC
8
DEFAULT_255_1_234
10
14.9906312
20
0.2577031
40
0.3946393
50
328.8299013
51
331.789948
0
ARC
8
DEFAULT_255_1_234
10
15.0903491
20
0.2062509
40
0.2824501
50
331.4255242
51
352.9364833
0
ARC
8
DEFAULT_255_1_234
10
15.1039991
20
0.2031976
40
0.2685315
50
353.2248685
51
0.0169286
0
ARC
8
DEFAULT_255_1_234
10
15.1249868
20
0.205495
40
0.2475536
50
359.4866256
51
15.9339782
0
ARC
8
DEFAULT_255_1_234
10
15.1756854
20
0.2191286
40
0.1950618
50
16.1714718
51
43.5284424
0
ARC
8
DEFAULT_255_1_234
10
15.1834162
20
0.2268573
40
0.184134
50
43.4415429
51
83.1661404
0
ARC
8
DEFAULT_255_1_234
10
15.170008
20
0.1531771
40
0.258926
50
82.160215
51
90.1505798
0
ARC
8
DEFAULT_255_1_234
10
15.1668508
20
0.0994865
40
0.3126255
50
89.5460705
51
102.5418777
0
ARC
8
DEFAULT_255_1_234
10
15.1425594
20
0.2025665
40
0.2067346
50
102.1739365
51
129.2061916
0
ARC
8
DEFAULT_255_1_234
10
15.1346666
20
0.2150094
40
0.1921118
50
129.7279328
51
135.7542026
0
ARC
8
DEFAULT_255_1_234
10
15.1468193
20
0.2053045
40
0.2075944
50
136.175737
51
166.3674722
0
ARC
8
DEFAULT_255_1_234
10
15.2475112
20
0.1783182
40
0.3118201
50
165.9092917
51
178.8683903
0
ARC
8
DEFAULT_255_1_234
10
15.3339974
20
0.1736179
40
0.3983935
50
178.438168
51
180.0083905
0
ARC
8
DEFAULT_255_1_234
10
15.1938576
20
0.1775231
40
0.4068601
50
163.2878735
51
180.5581814
0
ARC
8
DEFAULT_255_1_234
10
15.1136837
20
0.199584
40
0.3237344
50
133.454115
51
162.9470031
0
ARC
8
DEFAULT_255_1_234
10
15.1315379
20
0.1806
40
0.349795
50
100.7869394
51
133.4384016
0
ARC
8
DEFAULT_255_1_234
10
15.166315
20
0.0257319
40
0.5084616
50
89.6605301
51
101.3704185
0
ARC
8
DEFAULT_255_1_234
10
15.1729489
20
0.0318496
40
0.502348
50
78.2171172
51
90.4130393
0
ARC
8
DEFAULT_255_1_234
10
15.2084567
20
0.1942637
40
0.3361092
50
55.9268222
51
78.4888551
0
ARC
8
DEFAULT_255_1_234
10
15.2281007
20
0.2281324
40
0.2970617
50
47.9292255
51
55.4054003
0
ARC
8
DEFAULT_255_1_234
10
15.2382568
20
0.2384502
40
0.2825983
50
4.3347696
51
48.0560701
0
ARC
8
DEFAULT_255_1_234
10
15.1286962
20
0.2214601
40
0.393225
50
359.925209
51
5.5967654
0
ARC
8
DEFAULT_255_1_234
10
15.1715853
20
0.2270816
40
0.3503892
50
337.8914096
51
358.9967724
0
ARC
8
DEFAULT_255_1_234
10
14.9002265
20
0.3317706
40
0.6412172
50
326.9135351
51
338.3505194
0
ARC
8
DEFAULT_255_1_234
10
14.5016569
20
0.5872284
40
1.1146189
50
319.6472867
51
327.095818
0
ARC
8
DEFAULT_255_1_234
10
14.1183572
20
0.9034
40
1.6114559
50
317.2586784
51
319.9046139
0
LINE
8
DEFAULT_255_1_234
10
16.095387
20
-0.6513
11
15.7717079
21
-0.6513
0
LINE
8
DEFAULT_255_1_234
10
15.7717079
20
-0.6513
11
15.7717079
21
0.5181211
0
LINE
8
DEFAULT_255_1_234
10
15.7717079
20
0.5181211
11
16.1018124
21
0.5181211
0
LINE
8
DEFAULT_255_1_234
10
16.61745
20
-0.0272339
11
16.61745
21
-0.1019291
0
LINE
8
DEFAULT_255_1_234
10
16.1058282
20
0.3912196
11
15.9259173
21
0.3912196
0
LINE
8
DEFAULT_255_1_234
10
15.9259173
20
0.3912196
11
15.9259173
21
-0.5252017
0
LINE
8
DEFAULT_255_1_234
10
15.9259173
20
-0.5252017
11
16.0881584
21
-0.5252017
0
LINE
8
DEFAULT_255_1_234
10
16.4648469
20
-0.0987164
11
16.4648469
21
-0.0304466
0
ARC
8
DEFAULT_255_1_234
10
16.1057066
20
-0.0684106
40
0.5865446
50
75.4101064
51
90.3804066
0
ARC
8
DEFAULT_255_1_234
10
16.128658
20
0.0272492
40
0.4881916
50
60.145586
51
75.1888407
0
ARC
8
DEFAULT_255_1_234
10
16.1445355
20
0.0549199
40
0.4562893
50
26.5253612
51
60.1450928
0
ARC
8
DEFAULT_255_1_234
10
16.0325104
20
-0.0044842
40
0.5830602
50
7.4030428
51
26.8320788
0
ARC
8
DEFAULT_255_1_234
10
15.8730861
20
-0.0293196
40
0.7443669
50
0.1605367
51
7.7176192
0
ARC
8
DEFAULT_255_1_234
10
15.8894765
20
-0.1057566
40
0.7279835
50
348.7289388
51
0.3012466
0
ARC
8
DEFAULT_255_1_234
10
16.0551196
20
-0.1386614
40
0.559104
50
333.0706509
51
348.7181832
0
ARC
8
DEFAULT_255_1_234
10
16.1517954
20
-0.1911681
40
0.4491417
50
299.2531685
51
333.4571258
0
ARC
8
DEFAULT_255_1_234
10
16.1157093
20
-0.1226172
40
0.5265881
50
278.107187
51
299.0339503
0
ARC
8
DEFAULT_255_1_234
10
16.0901172
20
0.0281216
40
0.679442
50
270.4443897
51
278.4511052
0
ARC
8
DEFAULT_255_1_234
10
16.0922002
20
-0.0647787
40
0.4604407
50
269.4970433
51
284.0205042
0
ARC
8
DEFAULT_255_1_234
10
16.1277303
20
-0.2013022
40
0.3193797
50
283.7700273
51
318.1555492
0
ARC
8
DEFAULT_255_1_234
10
16.0940061
20
-0.1760633
40
0.3613588
50
318.7415601
51
343.6873628
0
ARC
8
DEFAULT_255_1_234
10
15.9136085
20
-0.1197168
40
0.5503313
50
343.3325091
51
355.8548958
0
ARC
8
DEFAULT_255_1_234
10
15.7037769
20
-0.0997681
40
0.7610708
50
355.4988528
51
0.0791727
0
ARC
8
DEFAULT_255_1_234
10
15.7820392
20
-0.026222
40
0.6828208
50
359.6455037
51
9.8607896
0
ARC
8
DEFAULT_255_1_234
10
16.0181089
20
0.0164099
40
0.4429406
50
9.6571907
51
26.1932807
0
ARC
8
DEFAULT_255_1_234
10
16.1109078
20
0.0595118
40
0.3406537
50
26.5777228
51
40.1532208
0
ARC
8
DEFAULT_255_1_234
10
16.1364804
20
0.0794619
40
0.308246
50
40.3840491
51
80.1431104
0
ARC
8
DEFAULT_255_1_234
10
16.1037922
20
-0.0654667
40
0.4566909
50
79.2152159
51
89.7445637
0
LINE
8
DEFAULT_255_1_234
10
17.5908966
20
-0.6513
11
17.4792555
21
-0.3460939
0
LINE
8
DEFAULT_255_1_234
10
17.4792555
20
-0.3460939
11
16.9893194
21
-0.3460939
0
LINE
8
DEFAULT_255_1_234
10
16.9893194
20
-0.3460939
11
16.8792846
21
-0.6513
0
LINE
8
DEFAULT_255_1_234
10
16.8792846
20
-0.6513
11
16.7202562
21
-0.6513
0
LINE
8
DEFAULT_255_1_234
10
16.7202562
20
-0.6513
11
17.1668208
21
0.5181211
0
LINE
8
DEFAULT_255_1_234
10
17.1668208
20
0.5181211
11
17.3017541
21
0.5181211
0
LINE
8
DEFAULT_255_1_234
10
17.3017541
20
0.5181211
11
17.7491219
21
-0.6513
0
LINE
8
DEFAULT_255_1_234
10
17.7491219
20
-0.6513
11
17.5908966
21
-0.6513
0
LINE
8
DEFAULT_255_1_234
10
17.2342875
20
0.3277689
11
17.0359035
21
-0.2191925
0
LINE
8
DEFAULT_255_1_234
10
17.0359035
20
-0.2191925
11
17.4334746
21
-0.2191925
0
LINE
8
DEFAULT_255_1_234
10
17.4334746
20
-0.2191925
11
17.2342875
21
0.3277689
0
LINE
8
DEFAULT_255_1_234
10
18.1924738
20
-0.0938974
11
18.1924738
21
-0.2151766
0
LINE
8
DEFAULT_255_1_234
10
18.1924738
20
-0.2151766
11
17.800525
21
-0.2151766
0
LINE
8
DEFAULT_255_1_234
10
17.800525
20
-0.2151766
11
17.800525
21
-0.0938974
0
LINE
8
DEFAULT_255_1_234
10
17.800525
20
-0.0938974
11
18.1924738
21
-0.0938974
0
LINE
8
DEFAULT_255_1_234
10
18.8101145
20
0.5237433
11
18.8101145
21
-0.6513
0
LINE
8
DEFAULT_255_1_234
10
18.8101145
20
-0.6513
11
18.6607242
21
-0.6513
0
LINE
8
DEFAULT_255_1_234
10
18.6607242
20
-0.6513
11
18.6607242
21
0.3390133
0
LINE
8
DEFAULT_255_1_234
10
18.6607242
20
0.3390133
11
18.3611403
21
0.2289785
0
LINE
8
DEFAULT_255_1_234
10
18.3611403
20
0.2289785
11
18.3611403
21
0.3639117
0
LINE
8
DEFAULT_255_1_234
10
18.3611403
20
0.3639117
11
18.7868225
21
0.5237433
0
LINE
8
DEFAULT_255_1_234
10
18.7868225
20
0.5237433
11
18.8101145
21
0.5237433
0
ARC
8
DEFAULT_255_2_778
10
20.2534188
20
49.1741525
40
0.3580657
50
89.9945037
51
180.0054963
0
ARC
8
DEFAULT_255_2_778
10
20.2534875
20
49.1741525
40
0.3580657
50
359.9945037
51
90.0054963
0
ARC
8
DEFAULT_255_2_778
10
20.2534875
20
49.1740838
40
0.3580657
50
269.9945037
51
0.0054963
0
ARC
8
DEFAULT_255_2_778
10
20.2534188
20
49.1740838
40
0.3580657
50
179.9945037
51
270.0054963
0
ARC
8
DEFAULT_255_2_778
10
22.9622406
20
48.905782
40
2.3282817
50
111.9150345
51
128.7655504
0
ARC
8
DEFAULT_255_2_778
10
22.8791007
20
49.037852
40
2.1733214
50
129.2366206
51
154.7721516
0
ARC
8
DEFAULT_255_2_778
10
23.480657
20
48.7420583
40
2.8435961
50
154.5467617
51
165.9285636
0
ARC
8
DEFAULT_255_2_778
10
23.9646902
20
48.6046212
40
3.3465569
50
165.6609748
51
166.525375
0
ARC
8
DEFAULT_255_2_778
10
21.5282291
20
49.8228171
40
1.414623
50
156.0627036
51
175.7189082
0
ARC
8
DEFAULT_255_2_778
10
22.1164502
20
49.569283
40
2.0551309
50
144.7505594
51
156.2560535
0
ARC
8
DEFAULT_255_2_778
10
22.8861799
20
49.0339863
40
2.9926766
50
137.345293
51
144.8863205
0
ARC
8
DEFAULT_255_2_778
10
23.8131446
20
48.1848407
40
4.2497776
50
131.6389266
51
137.393651
0
ARC
8
DEFAULT_255_2_778
10
24.5393492
20
47.3881248
40
5.3277326
50
130.1334351
51
131.7826198
0
LINE
8
DEFAULT_255_2_778
10
19.8953532
20
49.1741182
11
19.8953532
21
49.1741182
0
LINE
8
DEFAULT_255_2_778
10
21.1052532
20
51.4614182
11
22.0932532
21
51.0658182
0
LINE
8
DEFAULT_255_2_778
10
20.7102532
20
49.3844182
11
20.1175532
21
49.9284182
0
LINE
8
DEFAULT_255_2_778
10
21.1052532
20
51.4614182
11
21.1052532
21
51.4614182
0
ARC
8
DEFAULT_255_2_778
10
13.7594907
20
49.9976437
40
0.8717226
50
88.9281645
51
133.9885749
0
ARC
8
DEFAULT_255_2_778
10
13.7757454
20
49.7725604
40
1.0966534
50
88.9487005
51
89.9972984
0
ARC
8
DEFAULT_255_2_778
10
13.7953
20
50.0680011
40
0.8010283
50
72.1310318
51
89.9594908
0
ARC
8
DEFAULT_255_2_778
10
13.8705373
20
50.3250083
40
0.5333823
50
60.6505783
51
71.3519493
0
ARC
8
DEFAULT_255_2_778
10
13.9543387
20
50.4521349
40
0.3816498
50
20.3938858
51
62.2625554
0
ARC
8
DEFAULT_255_2_778
10
14.9704645
20
49.9641628
40
0.9050345
50
89.7568633
51
136.6758865
0
ARC
8
DEFAULT_255_2_778
10
14.9742773
20
49.8465709
40
1.0226182
50
88.9864436
51
89.9984426
0
ARC
8
DEFAULT_255_2_778
10
14.992248
20
50.085692
40
0.7833372
50
71.373585
51
89.9913488
0
ARC
8
DEFAULT_255_2_778
10
15.0841803
20
50.364542
40
0.489734
50
42.2193789
51
71.1458349
0
ARC
8
DEFAULT_255_2_778
10
15.0590908
20
50.3570658
40
0.5134635
50
8.5226311
51
40.9558105
0
ARC
8
DEFAULT_255_2_778
10
14.7367896
20
50.2918045
40
0.8420446
50
359.6942069
51
9.6641803
0
ARC
8
DEFAULT_255_2_778
10
14.4472507
20
50.2888277
40
1.1315727
50
355.5855084
51
359.923173
0
ARC
8
DEFAULT_255_2_778
10
14.2502845
20
50.2611289
40
0.7547163
50
352.4548626
51
359.7652122
0
ARC
8
DEFAULT_255_2_778
10
14.4078893
20
50.2582192
40
0.5971052
50
359.9824407
51
2.1700815
0
ARC
8
DEFAULT_255_2_778
10
14.8167551
20
50.2740752
40
0.1879327
50
2.0595693
51
88.944897
0
ARC
8
DEFAULT_255_2_778
10
14.7529878
20
49.9867725
40
0.4799353
50
81.9476992
51
88.9638763
0
ARC
8
DEFAULT_255_2_778
10
14.7641352
20
49.9806844
40
0.4859511
50
90.2910974
51
140.7094043
0
ARC
8
DEFAULT_255_2_778
10
14.950423
20
49.7878111
40
0.7529164
50
138.3264016
51
141.8088804
0
ARC
8
DEFAULT_255_2_778
10
13.0111845
20
50.2577289
40
0.7547163
50
352.4548626
51
359.7652122
0
ARC
8
DEFAULT_255_2_778
10
13.1687893
20
50.2548192
40
0.5971052
50
359.9824407
51
2.1700815
0
ARC
8
DEFAULT_255_2_778
10
13.5767327
20
50.2716775
40
0.1888212
50
1.7455696
51
88.6065628
0
ARC
8
DEFAULT_255_2_778
10
13.5151974
20
49.9953897
40
0.469731
50
81.9072271
51
88.8693446
0
ARC
8
DEFAULT_255_2_778
10
13.5126914
20
49.9553568
40
0.5098084
50
88.6765396
51
89.9981553
0
ARC
8
DEFAULT_255_2_778
10
13.5179114
20
49.9589569
40
0.5062351
50
90.5889431
51
134.9317856
0
ARC
8
DEFAULT_255_2_778
10
13.6708307
20
49.7685835
40
0.749469
50
132.9288129
51
135.7848647
0
LINE
8
DEFAULT_255_2_778
10
12.6682663
20
50.8349292
11
13.2005663
21
50.8365292
0
LINE
8
DEFAULT_255_2_778
10
13.2005663
20
50.8365292
11
13.1540663
21
50.6248292
0
LINE
8
DEFAULT_255_2_778
10
15.5754663
20
50.2017292
11
15.5715663
21
50.1589292
0
LINE
8
DEFAULT_255_2_778
10
15.5715663
20
50.1589292
11
15.3386663
21
48.9735292
0
LINE
8
DEFAULT_255_2_778
10
15.3386663
20
48.9735292
11
14.7655663
21
48.9735292
0
LINE
8
DEFAULT_255_2_778
10
14.7655663
20
48.9735292
11
14.9984663
21
50.1620292
0
LINE
8
DEFAULT_255_2_778
10
14.3586663
20
50.2533292
11
14.3525663
21
50.2139292
0
LINE
8
DEFAULT_255_2_778
10
14.3525663
20
50.2139292
11
14.0975663
21
48.9735292
0
LINE
8
DEFAULT_255_2_778
10
14.0975663
20
48.9735292
11
13.5265663
21
48.9735292
0
LINE
8
DEFAULT_255_2_778
10
13.5265663
20
48.9735292
11
13.7593663
21
50.1586292
0
LINE
8
DEFAULT_255_2_778
10
13.1336663
20
50.2912292
11
12.8603663
21
48.9735292
0
LINE
8
DEFAULT_255_2_778
10
12.8603663
20
48.9735292
11
12.2893663
21
48.9735292
0
LINE
8
DEFAULT_255_2_778
10
12.2893663
20
48.9735292
11
12.6679663
21
50.8346292
0
LINE
8
DEFAULT_255_2_778
10
12.6679663
20
50.8346292
11
12.6682663
21
50.8349292
0
ARC
8
DEFAULT_255_2_778
10
16.6200073
20
49.6839296
40
1.1835327
50
72.5038745
51
90.0092706
0
ARC
8
DEFAULT_255_2_778
10
16.6946065
20
49.9465618
40
0.9106565
50
60.3350098
51
72.012487
0
ARC
8
DEFAULT_255_2_778
10
16.7749673
20
50.0677924
40
0.7656054
50
24.9513793
51
61.0705157
0
ARC
8
DEFAULT_255_2_778
10
16.6824605
20
50.0264225
40
0.8669314
50
359.4887328
51
24.8512384
0
ARC
8
DEFAULT_255_2_778
10
16.4761349
20
50.0200746
40
1.0732233
50
353.5741487
51
359.9259073
0
ARC
8
DEFAULT_255_2_778
10
16.4718898
20
49.9892512
40
1.0744425
50
309.8322789
51
355.2330791
0
ARC
8
DEFAULT_255_2_778
10
16.4131004
20
50.0561469
40
1.1634726
50
274.0073872
51
309.9453537
0
ARC
8
DEFAULT_255_2_778
10
16.3618863
20
50.4246028
40
1.5348158
50
269.9462811
51
274.9533663
0
ARC
8
DEFAULT_255_2_778
10
16.3604814
20
50.5483871
40
1.6585995
50
269.1686307
51
269.9988202
0
ARC
8
DEFAULT_255_2_778
10
16.3365833
20
50.0608263
40
1.170864
50
252.1092944
51
269.9918014
0
ARC
8
DEFAULT_255_2_778
10
16.2643716
20
49.8105397
40
0.9105332
50
240.5370236
51
251.5952644
0
ARC
8
DEFAULT_255_2_778
10
16.1851932
20
49.6887089
40
0.7655666
50
205.2400495
51
241.211713
0
ARC
8
DEFAULT_255_2_778
10
16.2644058
20
49.7258751
40
0.8530649
50
179.5368594
51
205.2293562
0
ARC
8
DEFAULT_255_2_778
10
16.4511104
20
49.7314748
40
1.0397424
50
173.5174505
51
179.9285896
0
ARC
8
DEFAULT_255_2_778
10
16.6391803
20
49.7201758
40
1.2279263
50
153.4099026
51
173.9843619
0
ARC
8
DEFAULT_255_2_778
10
16.479574
20
49.7879448
40
1.0549233
50
129.6863931
51
152.8211827
0
ARC
8
DEFAULT_255_2_778
10
16.5416695
20
49.717442
40
1.1488354
50
92.7647679
51
129.8242239
0
ARC
8
DEFAULT_255_2_778
10
16.5841385
20
49.3745159
40
1.493635
50
89.9700537
51
93.7575078
0
ARC
8
DEFAULT_255_2_778
10
16.5848078
20
49.2730121
40
1.5951388
50
88.7352629
51
89.9960004
0
ARC
8
DEFAULT_255_2_778
10
16.4400633
20
49.664103
40
0.4277578
50
179.6036168
51
209.4859363
0
ARC
8
DEFAULT_255_2_778
10
16.339418
20
49.6171836
40
0.3171735
50
211.0570865
51
223.1755117
0
ARC
8
DEFAULT_255_2_778
10
16.3473332
20
49.6351793
40
0.3353476
50
224.4925211
51
268.7887171
0
ARC
8
DEFAULT_255_2_778
10
16.3774447
20
49.8478866
40
0.5492412
50
266.1163412
51
268.8180997
0
ARC
8
DEFAULT_255_2_778
10
16.3835472
20
49.9762917
40
0.6777536
50
268.526223
51
269.9955091
0
ARC
8
DEFAULT_255_2_778
10
16.3990701
20
49.7861572
40
0.4878678
50
268.1704265
51
325.4339242
0
ARC
8
DEFAULT_255_2_778
10
16.1704695
20
49.9528589
40
0.7707306
50
324.8706977
51
351.0886768
0
ARC
8
DEFAULT_255_2_778
10
15.7623184
20
50.031759
40
1.1862684
50
350.3775551
51
0.2885744
0
ARC
8
DEFAULT_255_2_778
10
15.4717188
20
50.0374545
40
1.4768528
50
0.0108339
51
1.7075744
0
ARC
8
DEFAULT_255_2_778
10
16.4937032
20
50.0723496
40
0.454304
50
1.1493477
51
31.2464652
0
ARC
8
DEFAULT_255_2_778
10
16.5878626
20
50.1190769
40
0.3496776
50
32.703807
51
41.7810929
0
ARC
8
DEFAULT_255_2_778
10
16.6096519
20
50.1284534
40
0.3272685
50
43.0987922
51
88.7571407
0
ARC
8
DEFAULT_255_2_778
10
16.5789548
20
49.9161359
40
0.5408314
50
85.992647
51
88.8704975
0
ARC
8
DEFAULT_255_2_778
10
16.5725639
20
49.8142668
40
0.6428217
50
88.4799611
51
89.9943311
0
ARC
8
DEFAULT_255_2_778
10
16.5615528
20
49.9675787
40
0.4896349
50
88.7039519
51
145.0513377
0
ARC
8
DEFAULT_255_2_778
10
16.7596356
20
49.8142936
40
0.7399051
50
144.1087108
51
170.2824956
0
ARC
8
DEFAULT_255_2_778
10
17.1861952
20
49.7271764
40
1.1751307
50
169.6063184
51
180.3528002
0
ARC
8
DEFAULT_255_2_778
10
17.522268
20
49.7203441
40
1.5111813
50
180.0153016
51
182.009194
0
LINE
8
DEFAULT_255_2_778
10
16.6200158
20
50.8677623
11
16.6198158
21
50.8674623
0
LINE
8
DEFAULT_255_2_778
10
16.0120158
20
49.6673623
11
16.0123158
21
49.6670623
0
ARC
8
DEFAULT_255_2_778
10
18.587937
20
48.7455854
40
1.642039
50
81.2830361
51
86.628458
0
ARC
8
DEFAULT_255_2_778
10
18.6429757
20
49.5840313
40
0.8018272
50
87.0310432
51
89.8986713
0
ARC
8
DEFAULT_255_2_778
10
18.6242064
20
49.4953997
40
0.8906863
50
88.7012797
51
89.9954117
0
ARC
8
DEFAULT_255_2_778
10
18.6103452
20
49.7396623
40
0.6465738
50
88.765285
51
116.6201427
0
ARC
8
DEFAULT_255_2_778
10
18.5802548
20
49.8236694
40
0.5580924
50
117.7228833
51
138.7756782
0
ARC
8
DEFAULT_255_2_778
10
18.7590475
20
50.1898707
40
0.6980151
50
116.489914
51
143.0810972
0
ARC
8
DEFAULT_255_2_778
10
18.7053938
20
50.2699223
40
0.6025621
50
89.4580016
51
115.3188873
0
ARC
8
DEFAULT_255_2_778
10
18.6965205
20
49.9351885
40
0.9373821
50
77.9674605
51
89.1092017
0
ARC
8
DEFAULT_255_2_778
10
18.6028478
20
49.4046466
40
1.4759175
50
78.008513
51
78.7045202
0
LINE
8
DEFAULT_255_2_778
10
18.9094938
20
50.8486573
11
18.8367938
21
50.3686573
0
LINE
8
DEFAULT_255_2_778
10
18.1604938
20
50.1914573
11
17.9072938
21
48.9735573
0
LINE
8
DEFAULT_255_2_778
10
17.9072938
20
48.9735573
11
17.3362938
21
48.9735573
0
LINE
8
DEFAULT_255_2_778
10
17.3362938
20
48.9735573
11
17.7169938
21
50.8346573
0
LINE
8
DEFAULT_255_2_778
10
17.7169938
20
50.8346573
11
18.2535938
21
50.8362573
0
LINE
8
DEFAULT_255_2_778
10
18.2535938
20
50.8362573
11
18.2009938
21
50.6091573
0
LINE
8
DEFAULT_255_2_778
10
18.9094938
20
50.8483573
11
18.9094938
21
50.8486573
0
ARC
8
DEFAULT_255_2_778
10
19.1571128
20
50.0600894
40
1.1700739
50
250.1384534
51
270.3253519
0
ARC
8
DEFAULT_255_2_778
10
19.1018273
20
49.8792628
40
0.9812659
50
242.0400724
51
249.5873206
0
ARC
8
DEFAULT_255_2_778
10
19.0015727
20
49.7209713
40
0.7945755
50
208.3440719
51
243.0739412
0
ARC
8
DEFAULT_255_2_778
10
18.9938609
20
49.7117404
40
0.7834185
50
179.5715836
51
208.0176768
0
ARC
8
DEFAULT_255_2_778
10
19.141172
20
49.7167939
40
0.930708
50
174.3678809
51
179.9504871
0
ARC
8
DEFAULT_255_2_778
10
19.322969
20
49.7582045
40
1.1082855
50
145.24933
51
173.7565404
0
ARC
8
DEFAULT_255_2_778
10
19.3043239
20
49.7831309
40
1.0788028
50
116.4826416
51
145.7726174
0
ARC
8
DEFAULT_255_2_778
10
19.3348976
20
49.7134448
40
1.1548163
50
89.3335424
51
116.2986099
0
ARC
8
DEFAULT_255_2_778
10
19.3482483
20
49.4710265
40
1.3971563
50
88.7200635
51
89.9966493
0
ARC
8
DEFAULT_255_2_778
10
19.3739264
20
49.7554319
40
1.1124162
50
73.6937809
51
89.7151452
0
ARC
8
DEFAULT_255_2_778
10
19.4851962
20
50.1273959
40
0.7241771
50
40.439997
51
73.880282
0
ARC
8
DEFAULT_255_2_778
10
19.4514712
20
50.1054519
40
0.7640962
50
0.3370816
51
40.0519836
0
ARC
8
DEFAULT_255_2_778
10
19.2137457
20
50.0818262
40
1.0022031
50
359.994028
51
1.6078833
0
ARC
8
DEFAULT_255_2_778
10
19.0846833
20
50.083994
40
1.1312679
50
353.167063
51
359.8849147
0
ARC
8
DEFAULT_255_2_778
10
18.9406155
20
50.0987359
40
1.2760687
50
352.3939633
51
353.279462
0
ARC
8
DEFAULT_255_2_778
10
19.1530478
20
49.660044
40
0.3604224
50
171.5294964
51
179.9003766
0
ARC
8
DEFAULT_255_2_778
10
19.1259641
20
49.6642734
40
0.3333577
50
180.6192204
51
227.8732743
0
ARC
8
DEFAULT_255_2_778
10
19.2039834
20
49.925098
40
0.5908529
50
239.3033103
51
268.7295305
0
ARC
8
DEFAULT_255_2_778
10
19.2271224
20
50.1591019
40
0.8255073
50
267.4839269
51
270.0168707
0
ARC
8
DEFAULT_255_2_778
10
19.2268753
20
50.243929
40
0.9103345
50
270.0308514
51
273.2230324
0
ARC
8
DEFAULT_255_2_778
10
19.2542379
20
49.5827781
40
0.2488861
50
275.4917641
51
302.3582203
0
ARC
8
DEFAULT_255_2_778
10
19.3200418
20
49.4668196
40
0.115896
50
305.561706
51
314.7657745
0
ARC
8
DEFAULT_255_2_778
10
19.3095773
20
49.4996196
40
0.1473882
50
308.6632861
51
359.3837416
0
ARC
8
DEFAULT_255_2_778
10
17.807225
20
51.2222961
40
2.962762
50
318.8021847
51
324.4102292
0
ARC
8
DEFAULT_255_2_778
10
18.7925821
20
50.3539638
40
1.6494092
50
310.4033061
51
318.953359
0
ARC
8
DEFAULT_255_2_778
10
19.3188808
20
49.7273319
40
0.831118
50
295.9312381
51
310.7744109
0
ARC
8
DEFAULT_255_2_778
10
19.4407027
20
49.4984904
40
0.5721233
50
294.3678437
51
294.9811966
0
ARC
8
DEFAULT_255_2_778
10
19.1945821
20
50.2626166
40
1.3727502
50
269.5731295
51
290.563626
0
ARC
8
DEFAULT_255_2_778
10
19.1843639
20
50.4784678
40
1.5885634
50
269.2675557
51
269.9996725
0
ARC
8
DEFAULT_255_2_778
10
19.3387312
20
49.8974127
40
0.5595531
50
88.7582819
51
89.9982675
0
ARC
8
DEFAULT_255_2_778
10
19.3323907
20
49.9945288
40
0.4624807
50
89.2123589
51
125.5867616
0
ARC
8
DEFAULT_255_2_778
10
19.4008068
20
49.9223957
40
0.5611219
50
126.9818839
51
147.669232
0
ARC
8
DEFAULT_255_2_778
10
19.876359
20
49.6027026
40
1.1340353
50
146.870707
51
156.2884785
0
ARC
8
DEFAULT_255_2_778
10
19.2351279
20
50.1805241
40
0.4275542
50
349.7487379
51
359.8271594
0
ARC
8
DEFAULT_255_2_778
10
19.2975857
20
50.1797952
40
0.3650948
50
359.9119884
51
9.2266083
0
ARC
8
DEFAULT_255_2_778
10
19.4133961
20
50.1948775
40
0.2483918
50
10.0759194
51
54.8339385
0
ARC
8
DEFAULT_255_2_778
10
19.3596551
20
50.0992265
40
0.3577113
50
56.6213484
51
91.3898693
0
LINE
8
DEFAULT_255_2_778
10
19.3509786
20
50.4568326
11
19.3508569
21
50.4568344
0
LINE
8
DEFAULT_255_2_778
10
18.2149569
20
49.8081344
11
18.2212569
21
49.8787344
0
LINE
8
DEFAULT_255_2_778
10
20.2054569
20
49.9298344
11
20.1723569
21
49.7131344
0
LINE
8
DEFAULT_255_2_778
10
20.1723569
20
49.7131344
11
18.7965569
21
49.7131344
0
LINE
8
DEFAULT_255_2_778
10
19.4569569
20
49.4980344
11
20.2165569
21
49.4980344
0
LINE
8
DEFAULT_255_2_778
10
18.8380569
20
50.0587344
11
19.6434569
21
50.0587344
0
LINE
8
DEFAULT_255_2_778
10
19.6434569
20
50.0587344
11
19.6558569
21
50.1044344
0
LINE
8
DEFAULT_255_2_778
10
11.4252281
20
50.6455177
11
12.8081281
21
49.8295177
0
LINE
8
DEFAULT_255_2_778
10
12.8081281
20
49.8295177
11
11.2770281
21
49.2361177
0
LINE
8
DEFAULT_255_2_778
10
11.2770281
20
49.2361177
11
11.5979281
21
49.9531177
0
LINE
8
DEFAULT_255_2_778
10
11.5979281
20
49.9531177
11
11.4252281
21
50.6455177
0
ARC
8
DEFAULT_255_2_778
10
7.8633492
20
50.3651349
40
1.734445
50
345.0500681
51
0.450213
0
ARC
8
DEFAULT_255_2_778
10
8.1424128
20
50.3009315
40
1.4482985
50
339.8011311
51
344.6559926
0
ARC
8
DEFAULT_255_2_778
10
8.2241959
20
50.2554595
40
1.3559213
50
318.9869254
51
340.4112117
0
ARC
8
DEFAULT_255_2_778
10
8.3403786
20
50.1675223
40
1.2105876
50
317.7755753
51
318.5188915
0
ARC
8
DEFAULT_255_2_778
10
8.3677776
20
50.1416224
40
1.1728926
50
293.4453171
51
317.8130059
0
ARC
8
DEFAULT_255_2_778
10
8.3381728
20
50.2198502
40
1.2564472
50
269.4376299
51
293.2645473
0
ARC
8
DEFAULT_255_2_778
10
8.6390116
20
50.4279305
40
1.0182316
50
68.112945
51
90.7974227
0
ARC
8
DEFAULT_255_2_778
10
8.6827218
20
50.5632759
40
0.8764035
50
66.6600337
51
67.4660887
0
ARC
8
DEFAULT_255_2_778
10
8.6950616
20
50.5750129
40
0.860764
50
41.8199578
51
67.1046866
0
ARC
8
DEFAULT_255_2_778
10
8.5939144
20
50.4987866
40
0.9870277
50
18.4442061
51
41.2024761
0
ARC
8
DEFAULT_255_2_778
10
8.2913394
20
50.3951986
40
1.3068358
50
359.9236227
51
18.5554774
0
ARC
8
DEFAULT_255_2_778
10
7.9767371
20
50.3787824
40
1.6215036
50
359.9993331
51
0.5185192
0
ARC
8
DEFAULT_255_2_778
10
8.1161265
20
50.3849191
40
1.1556879
50
359.3527282
51
15.3461488
0
ARC
8
DEFAULT_255_2_778
10
8.3555709
20
50.4400091
40
0.9102591
50
15.9909101
51
17.2384514
0
ARC
8
DEFAULT_255_2_778
10
8.5215656
20
50.5034942
40
0.7329962
50
16.3441173
51
39.0583428
0
ARC
8
DEFAULT_255_2_778
10
8.6385861
20
50.5890513
40
0.5882641
50
39.7694118
51
66.0014919
0
ARC
8
DEFAULT_255_2_778
10
8.6052911
20
50.4960083
40
0.6868457
50
66.6208799
51
90.9301944
0
ARC
8
DEFAULT_255_2_778
10
8.3674619
20
50.0910777
40
0.865983
50
269.2774049
51
294.6427005
0
ARC
8
DEFAULT_255_2_778
10
8.3809787
20
50.0430801
40
0.8167574
50
295.184769
51
321.1699914
0
ARC
8
DEFAULT_255_2_778
10
8.188821
20
50.1895326
40
1.0582969
50
321.5163412
51
341.7776814
0
ARC
8
DEFAULT_255_2_778
10
7.8940618
20
50.3050931
40
1.374523
50
341.044332
51
342.4824039
0
ARC
8
DEFAULT_255_2_778
10
7.7898077
20
50.3267334
40
1.4804949
50
342.8981919
51
356.6952858
0
ARC
8
DEFAULT_255_2_778
10
7.2862441
20
50.3704849
40
1.9857973
50
356.2725814
51
0.0484329
0
LINE
8
DEFAULT_255_2_778
10
8.3258407
20
48.9634635
11
7.2765407
21
48.9391635
0
LINE
8
DEFAULT_255_2_778
10
7.2765407
20
48.9391635
11
7.7858407
21
51.4460635
0
LINE
8
DEFAULT_255_2_778
10
7.7858407
20
51.4460635
11
8.6248407
21
51.4460635
0
LINE
8
DEFAULT_255_2_778
10
9.5982407
20
50.3787635
11
9.5977407
21
50.3787635
0
LINE
8
DEFAULT_255_2_778
10
8.5941407
20
51.1827635
11
7.9962407
21
51.1647635
0
LINE
8
DEFAULT_255_2_778
10
7.9962407
20
51.1647635
11
7.6363407
21
49.1865635
0
LINE
8
DEFAULT_255_2_778
10
7.6363407
20
49.1865635
11
8.3565407
21
49.2251635
0
LINE
8
DEFAULT_255_2_778
10
9.2720407
20
50.3721635
11
9.2717407
21
50.3718635
0
ARC
8
DEFAULT_255_2_778
10
10.302374
20
49.767419
40
0.5777251
50
269.3131992
51
298.9193317
0
ARC
8
DEFAULT_255_2_778
10
10.2422898
20
49.8720114
40
0.6983333
50
299.0845099
51
323.1838183
0
ARC
8
DEFAULT_255_2_778
10
10.0730419
20
49.9959915
40
0.9081244
50
323.3206017
51
342.9705556
0
ARC
8
DEFAULT_255_2_778
10
9.9076255
20
50.0534416
40
1.0831324
50
342.6274164
51
0.2324268
0
ARC
8
DEFAULT_255_2_778
10
10.2433391
20
50.0705185
40
0.7475175
50
359.0278167
51
16.1300251
0
ARC
8
DEFAULT_255_2_778
10
10.5672449
20
50.1636392
40
0.4104922
50
16.2042834
51
41.9480466
0
ARC
8
DEFAULT_255_2_778
10
10.5796118
20
50.1554262
40
0.4070383
50
43.9719544
51
85.3997935
0
ARC
8
DEFAULT_255_2_778
10
10.5322186
20
49.8797297
40
0.686108
50
83.300847
51
90.1477804
0
ARC
8
DEFAULT_255_2_778
10
10.5219616
20
49.9844474
40
0.58145
50
89.163628
51
118.6648078
0
ARC
8
DEFAULT_255_2_778
10
10.581079
20
49.8874564
40
0.6949321
50
119.1056578
51
143.2104754
0
ARC
8
DEFAULT_255_2_778
10
10.7542438
20
49.7604766
40
0.9096571
50
143.3373192
51
162.9538381
0
ARC
8
DEFAULT_255_2_778
10
10.9180519
20
49.7034321
40
1.0830106
50
162.6089297
51
180.2167337
0
ARC
8
DEFAULT_255_2_778
10
10.590132
20
49.6866465
40
0.7551896
50
179.037255
51
196.0102976
0
ARC
8
DEFAULT_255_2_778
10
10.2623689
20
49.5931213
40
0.4143448
50
196.0798237
51
221.5429745
0
ARC
8
DEFAULT_255_2_778
10
10.2435386
20
49.5947741
40
0.4015819
50
223.501568
51
264.945498
0
ARC
8
DEFAULT_255_2_778
10
10.2934062
20
49.874923
40
0.6854906
50
262.8561454
51
270.170743
0
ARC
8
DEFAULT_255_2_778
10
10.2496801
20
49.9326733
40
0.993603
50
251.4783364
51
270.6555979
0
ARC
8
DEFAULT_255_2_778
10
10.1671823
20
49.6869369
40
0.7343883
50
228.2272369
51
251.4910714
0
ARC
8
DEFAULT_255_2_778
10
10.1298392
20
49.6362077
40
0.671704
50
202.6960886
51
227.720176
0
ARC
8
DEFAULT_255_2_778
10
10.2495562
20
49.6815656
40
0.7996635
50
179.6456167
51
202.3846702
0
ARC
8
DEFAULT_255_2_778
10
10.5173927
20
49.6977351
40
1.0675438
50
179.9999853
51
180.6023814
0
ARC
8
DEFAULT_255_2_778
10
10.5536721
20
49.704723
40
1.1038452
50
157.230675
51
180.3627006
0
ARC
8
DEFAULT_255_2_778
10
10.5843324
20
49.6951196
40
1.135837
50
135.6908415
51
157.3825693
0
ARC
8
DEFAULT_255_2_778
10
10.5546282
20
49.721815
40
1.0959349
50
113.1058727
51
135.604761
0
ARC
8
DEFAULT_255_2_778
10
10.5551078
20
49.7260049
40
1.0922713
50
89.5047522
51
113.2152626
0
ARC
8
DEFAULT_255_2_778
10
10.5759287
20
49.8229295
40
0.9953709
50
71.5130801
51
90.6550541
0
ARC
8
DEFAULT_255_2_778
10
10.6573575
20
50.0687115
40
0.7364524
50
48.2602918
51
71.4580165
0
ARC
8
DEFAULT_255_2_778
10
10.6956984
20
50.1221961
40
0.6710546
50
22.5497085
51
47.6627683
0
ARC
8
DEFAULT_255_2_778
10
10.5670556
20
50.0728328
40
0.8088011
50
359.0650515
51
22.2845409
0
ARC
8
DEFAULT_255_2_778
10
10.2767028
20
50.0535709
40
1.0990629
50
337.1812514
51
0.316152
0
ARC
8
DEFAULT_255_2_778
10
10.2412655
20
50.0641512
40
1.135837
50
315.6908415
51
337.3825693
0
ARC
8
DEFAULT_255_2_778
10
10.2631229
20
50.0461107
40
1.1075969
50
293.2336194
51
315.5688359
0
ARC
8
DEFAULT_255_2_778
10
10.268874
20
50.0254991
40
1.0863919
50
269.5873092
51
293.383724
0
LINE
8
DEFAULT_255_2_778
10
10.295449
20
49.1894354
11
10.295449
21
49.1897354
0
LINE
8
DEFAULT_255_2_778
10
10.261049
20
48.9391354
11
10.261049
21
48.9391354
0
LINE
8
DEFAULT_255_1_234
10
10.6983392
20
46.3122
11
10.2927364
21
46.3122
0
LINE
8
DEFAULT_255_1_234
10
10.2927364
20
46.3122
11
10.2927364
21
47.4816211
0
LINE
8
DEFAULT_255_1_234
10
10.2927364
20
47.4816211
11
10.6750471
21
47.4816211
0
LINE
8
DEFAULT_255_1_234
10
10.7039614
20
46.8591614
11
10.4469458
21
46.8591614
0
LINE
8
DEFAULT_255_1_234
10
10.4469458
20
46.8591614
11
10.4469458
21
46.4382983
0
LINE
8
DEFAULT_255_1_234
10
10.4469458
20
46.4382983
11
10.7015519
21
46.4382983
0
LINE
8
DEFAULT_255_1_234
10
10.4469458
20
47.3547196
11
10.4469458
21
46.9828501
0
LINE
8
DEFAULT_255_1_234
10
10.4469458
20
46.9828501
11
10.6798662
21
46.9828501
0
LINE
8
DEFAULT_255_1_234
10
10.6750471
20
47.3547196
11
10.4469458
21
47.3547196
0
ARC
8
DEFAULT_255_1_234
10
10.678818
20
46.7448901
40
0.7367406
50
82.1257326
51
90.2932599
0
ARC
8
DEFAULT_255_1_234
10
10.7177135
20
47.0167013
40
0.4621653
50
69.9044149
51
82.2857423
0
ARC
8
DEFAULT_255_1_234
10
10.7747813
20
47.1709637
40
0.2976871
50
51.1838526
51
70.0181538
0
ARC
8
DEFAULT_255_1_234
10
10.8002779
20
47.208024
40
0.2528517
50
12.1017251
51
50.4214761
0
ARC
8
DEFAULT_255_1_234
10
10.6618653
20
47.1732676
40
0.3955061
50
359.5251267
51
12.8211707
0
ARC
8
DEFAULT_255_1_234
10
10.8198579
20
47.1663344
40
0.2375281
50
323.4908128
51
0.8817314
0
ARC
8
DEFAULT_255_1_234
10
10.7780266
20
47.198655
40
0.2903817
50
298.6825083
51
323.2756573
0
ARC
8
DEFAULT_255_1_234
10
10.7418629
20
47.2587649
40
0.3604842
50
293.1999386
51
299.1396394
0
ARC
8
DEFAULT_255_1_234
10
10.8091602
20
46.6502126
40
0.2871098
50
54.0011765
51
74.9167975
0
ARC
8
DEFAULT_255_1_234
10
10.8207961
20
46.6699332
40
0.2643248
50
36.3580696
51
53.5291921
0
ARC
8
DEFAULT_255_1_234
10
10.8081203
20
46.6608998
40
0.2798884
50
4.8189881
51
36.3089977
0
ARC
8
DEFAULT_255_1_234
10
10.7302038
20
46.649927
40
0.358478
50
359.9370252
51
5.5204067
0
ARC
8
DEFAULT_255_1_234
10
10.697756
20
46.6458667
40
0.3909429
50
344.7478609
51
0.5373281
0
ARC
8
DEFAULT_255_1_234
10
10.7968531
20
46.6191544
40
0.2883093
50
311.1786488
51
344.6886812
0
ARC
8
DEFAULT_255_1_234
10
10.7676578
20
46.6554987
40
0.3348923
50
286.0418249
51
310.8441291
0
ARC
8
DEFAULT_255_1_234
10
10.716941
20
46.8201807
40
0.5071869
50
274.1042341
51
286.4071509
0
ARC
8
DEFAULT_255_1_234
10
10.6992666
20
47.0085229
40
0.6963234
50
269.9236873
51
274.445647
0
ARC
8
DEFAULT_255_1_234
10
10.7038667
20
46.7745537
40
0.3362634
50
269.6055768
51
281.3740047
0
ARC
8
DEFAULT_255_1_234
10
10.7269305
20
46.6652353
40
0.224546
50
281.1055983
51
302.5132223
0
ARC
8
DEFAULT_255_1_234
10
10.7416204
20
46.6388823
40
0.1944357
50
303.0368945
51
311.8811219
0
ARC
8
DEFAULT_255_1_234
10
10.7487611
20
46.630389
40
0.1833454
50
311.9916004
51
351.7143462
0
ARC
8
DEFAULT_255_1_234
10
10.6670841
20
46.646893
40
0.2665871
50
350.7339597
51
0.2221581
0
ARC
8
DEFAULT_255_1_234
10
10.6563287
20
46.6525467
40
0.2773789
50
359.0456241
51
17.2296242
0
ARC
8
DEFAULT_255_1_234
10
10.7602404
20
46.6834163
40
0.1689915
50
17.6685481
51
78.9940892
0
ARC
8
DEFAULT_255_1_234
10
10.7085568
20
46.4979224
40
0.3612658
50
76.5635957
51
90.6980921
0
LINE
8
DEFAULT_255_1_234
10
10.7041552
20
46.8591613
11
10.7039614
21
46.8591614
0
ARC
8
DEFAULT_255_1_234
10
10.6821228
20
47.3114036
40
0.3285612
50
269.6064736
51
281.4533503
0
ARC
8
DEFAULT_255_1_234
10
10.7044048
20
47.2062688
40
0.2210975
50
281.2041486
51
302.5148063
0
ARC
8
DEFAULT_255_1_234
10
10.7180898
20
47.1816241
40
0.1929674
50
303.021671
51
309.8369575
0
ARC
8
DEFAULT_255_1_234
10
10.7364359
20
47.1610488
40
0.1654181
50
309.5228395
51
356.9509836
0
ARC
8
DEFAULT_255_1_234
10
10.6700942
20
47.1705932
40
0.2322512
50
355.4701227
51
0.0492546
0
ARC
8
DEFAULT_255_1_234
10
10.6422033
20
47.1728094
40
0.2601498
50
359.5558597
51
11.2096359
0
ARC
8
DEFAULT_255_1_234
10
10.7379323
20
47.192623
40
0.1623975
50
10.9182341
51
31.3230275
0
ARC
8
DEFAULT_255_1_234
10
10.7665056
20
47.2085214
40
0.1297302
50
31.8852677
51
52.1412565
0
ARC
8
DEFAULT_255_1_234
10
10.7390789
20
47.169775
40
0.1771663
50
52.8285564
51
71.9850297
0
ARC
8
DEFAULT_255_1_234
10
10.7014965
20
47.0591664
40
0.2939794
50
71.6863486
51
82.8455995
0
ARC
8
DEFAULT_255_1_234
10
10.6775501
20
46.8782149
40
0.476506
50
82.6984714
51
90.1729175
0
ARC
8
DEFAULT_255_1_234
10
10.6753136
20
47.0005623
40
0.3541573
50
89.8708275
51
90.0431131
0
LINE
8
DEFAULT_255_1_234
10
11.9994808
20
46.3122
11
11.7456778
21
46.7852694
0
LINE
8
DEFAULT_255_1_234
10
11.7456778
20
46.7852694
11
11.4709924
21
46.7852694
0
LINE
8
DEFAULT_255_1_234
10
11.4709924
20
46.7852694
11
11.4709924
21
46.3122
0
LINE
8
DEFAULT_255_1_234
10
11.4709924
20
46.3122
11
11.3159798
21
46.3122
0
LINE
8
DEFAULT_255_1_234
10
11.3159798
20
46.3122
11
11.3159798
21
47.4816211
0
LINE
8
DEFAULT_255_1_234
10
11.3159798
20
47.4816211
11
11.7031096
21
47.4816211
0
LINE
8
DEFAULT_255_1_234
10
11.8902491
20
46.8181995
11
12.1649346
21
46.3218381
0
LINE
8
DEFAULT_255_1_234
10
12.1649346
20
46.3218381
11
12.1649346
21
46.3122
0
LINE
8
DEFAULT_255_1_234
10
12.1649346
20
46.3122
11
11.9994808
21
46.3122
0
LINE
8
DEFAULT_255_1_234
10
11.4709924
20
47.3547196
11
11.4709924
21
46.9113677
0
LINE
8
DEFAULT_255_1_234
10
11.4709924
20
46.9113677
11
11.7079287
21
46.9113677
0
LINE
8
DEFAULT_255_1_234
10
11.7071255
20
47.3547196
11
11.4709924
21
47.3547196
0
ARC
8
DEFAULT_255_1_234
10
11.7072736
20
46.7854761
40
0.6961575
50
80.653586
51
90.3427061
0
ARC
8
DEFAULT_255_1_234
10
11.749221
20
47.0317348
40
0.4463577
50
65.6987447
51
80.8329603
0
ARC
8
DEFAULT_255_1_234
10
11.7969851
20
47.1412322
40
0.3269094
50
50.0017161
51
65.4305835
0
ARC
8
DEFAULT_255_1_234
10
11.8188315
20
47.1707482
40
0.2902647
50
11.628416
51
49.5603263
0
ARC
8
DEFAULT_255_1_234
10
11.6652651
20
47.1332299
40
0.4482792
50
359.5655735
51
12.3691
0
ARC
8
DEFAULT_255_1_234
10
11.7729511
20
47.1269644
40
0.3405924
50
341.9983148
51
0.4822259
0
ARC
8
DEFAULT_255_1_234
10
11.8124351
20
47.1162471
40
0.2997359
50
323.8609373
51
341.61416
0
ARC
8
DEFAULT_255_1_234
10
11.7822595
20
47.1395484
40
0.3378487
50
296.7018614
51
323.6876402
0
ARC
8
DEFAULT_255_1_234
10
11.7381491
20
47.2184235
40
0.4281516
50
290.8086567
51
297.2323311
0
ARC
8
DEFAULT_255_1_234
10
11.710502
20
47.2707351
40
0.3593766
50
269.589728
51
281.8058135
0
ARC
8
DEFAULT_255_1_234
10
11.7355919
20
47.1559743
40
0.2419125
50
281.5501019
51
303.9357432
0
ARC
8
DEFAULT_255_1_234
10
11.7493107
20
47.1321936
40
0.2145323
50
304.4415616
51
311.2106213
0
ARC
8
DEFAULT_255_1_234
10
11.7625212
20
47.1182632
40
0.1953505
50
310.9875673
51
356.2715578
0
ARC
8
DEFAULT_255_1_234
10
11.6868861
20
47.1295422
40
0.2716331
50
354.9348262
51
0.0609027
0
ARC
8
DEFAULT_255_1_234
10
11.6681735
20
47.1322435
40
0.2903554
50
359.5239371
51
12.8808918
0
ARC
8
DEFAULT_255_1_234
10
11.7659291
20
47.1561728
40
0.1897315
50
12.4173452
51
43.1022135
0
ARC
8
DEFAULT_255_1_234
10
11.7720895
20
47.1598724
40
0.1827118
50
43.5751728
51
48.203944
0
ARC
8
DEFAULT_255_1_234
10
11.7551387
20
47.1377302
40
0.2105272
50
48.7809703
51
72.6969569
0
ARC
8
DEFAULT_255_1_234
10
11.7197012
20
47.030182
40
0.3237537
50
72.3702241
51
84.8791103
0
ARC
8
DEFAULT_255_1_234
10
11.7049488
20
46.8959769
40
0.4587478
50
84.5400526
51
89.7281406
0
LINE
8
DEFAULT_255_1_234
10
12.4291788
20
47.4816211
11
12.7110928
21
47.0334501
0
LINE
8
DEFAULT_255_1_234
10
12.7110928
20
47.0334501
11
12.9914004
21
47.4816211
0
LINE
8
DEFAULT_255_1_234
10
12.9914004
20
47.4816211
11
13.1729177
21
47.4816211
0
LINE
8
DEFAULT_255_1_234
10
13.1729177
20
47.4816211
11
12.8034578
21
46.9017296
0
LINE
8
DEFAULT_255_1_234
10
12.8034578
20
46.9017296
11
13.1817526
21
46.3122
0
LINE
8
DEFAULT_255_1_234
10
13.1817526
20
46.3122
11
12.998629
21
46.3122
0
LINE
8
DEFAULT_255_1_234
10
12.998629
20
46.3122
11
12.7110928
21
46.7684027
0
LINE
8
DEFAULT_255_1_234
10
12.7110928
20
46.7684027
11
12.4219502
21
46.3122
0
LINE
8
DEFAULT_255_1_234
10
12.4219502
20
46.3122
11
12.2396297
21
46.3122
0
LINE
8
DEFAULT_255_1_234
10
12.2396297
20
46.3122
11
12.6187278
21
46.9017296
0
LINE
8
DEFAULT_255_1_234
10
12.6187278
20
46.9017296
11
12.2484646
21
47.4816211
0
LINE
8
DEFAULT_255_1_234
10
12.2484646
20
47.4816211
11
12.4291788
21
47.4816211
0
LINE
8
DEFAULT_255_1_234
10
14.5439354
20
47.1434849
11
14.3889229
21
47.1434849
0
LINE
8
DEFAULT_255_1_234
10
13.6965871
20
46.6511394
11
13.8515996
21
46.6511394
0
ARC
8
DEFAULT_255_1_234
10
14.4548042
20
48.0381768
40
1.252368
50
248.9199003
51
254.1439814
0
ARC
8
DEFAULT_255_1_234
10
14.2867537
20
47.6055234
40
0.788226
50
241.633709
51
249.0064503
0
ARC
8
DEFAULT_255_1_234
10
14.1338931
20
47.3254317
40
0.4691427
50
230.498225
51
241.8087113
0
ARC
8
DEFAULT_255_1_234
10
14.0554505
20
47.2254906
40
0.3421437
50
227.4064532
51
229.9881192
0
ARC
8
DEFAULT_255_1_234
10
14.0067026
20
47.1779088
40
0.2741476
50
200.6781896
51
228.1763934
0
ARC
8
DEFAULT_255_1_234
10
14.0139337
20
47.1764077
40
0.2804109
50
179.5061581
51
199.8694617
0
ARC
8
DEFAULT_255_1_234
10
14.0130088
20
47.183821
40
0.2795204
50
132.4834203
51
181.0242172
0
ARC
8
DEFAULT_255_1_234
10
14.0725671
20
47.1275704
40
0.3612768
50
129.2532479
51
133.4242687
0
ARC
8
DEFAULT_255_1_234
10
14.087212
20
47.1055965
40
0.3875675
50
101.98776
51
128.8742646
0
ARC
8
DEFAULT_255_1_234
10
14.1270731
20
46.9334741
40
0.5642249
50
89.5906553
51
102.3169264
0
ARC
8
DEFAULT_255_1_234
10
14.1341223
20
46.9653148
40
0.5323783
50
77.2360837
51
90.3248275
0
ARC
8
DEFAULT_255_1_234
10
14.1548302
20
47.06204
40
0.4334697
50
63.837784
51
77.0809408
0
ARC
8
DEFAULT_255_1_234
10
14.1826064
20
47.1137911
40
0.3747796
50
45.9864267
51
64.1607727
0
ARC
8
DEFAULT_255_1_234
10
14.2086945
20
47.1435866
40
0.3352302
50
32.2747395
51
45.6547121
0
ARC
8
DEFAULT_255_1_234
10
14.2153386
20
47.145488
40
0.328603
50
359.6507365
51
32.6130309
0
ARC
8
DEFAULT_255_1_234
10
14.1210481
20
47.145966
40
0.2678863
50
359.469343
51
14.9832209
0
ARC
8
DEFAULT_255_1_234
10
14.1915544
20
47.1648539
40
0.1948938
50
14.9781179
51
48.2004265
0
ARC
8
DEFAULT_255_1_234
10
14.1751188
20
47.1441983
40
0.2212521
50
48.5927837
51
74.1241538
0
ARC
8
DEFAULT_255_1_234
10
14.1417677
20
47.0341248
40
0.3362561
50
73.7888341
51
86.6652678
0
ARC
8
DEFAULT_255_1_234
10
14.1315243
20
46.9133881
40
0.4573953
50
86.2640471
51
90.0526343
0
ARC
8
DEFAULT_255_1_234
10
14.1286955
20
46.9529192
40
0.4178709
50
89.6697524
51
99.2309573
0
ARC
8
DEFAULT_255_1_234
10
14.1044406
20
47.0973964
40
0.2713749
50
99.069534
51
113.7658566
0
ARC
8
DEFAULT_255_1_234
10
14.0770597
20
47.1619677
40
0.2012469
50
114.0401004
51
127.9850673
0
ARC
8
DEFAULT_255_1_234
10
14.0530161
20
47.191573
40
0.1631167
50
127.7287463
51
176.7105154
0
ARC
8
DEFAULT_255_1_234
10
14.1208879
20
47.1814693
40
0.2315392
50
175.1779447
51
180.0581938
0
ARC
8
DEFAULT_255_1_234
10
14.0365726
20
47.1802428
40
0.1472271
50
179.6142195
51
228.1246017
0
ARC
8
DEFAULT_255_1_234
10
14.0807394
20
47.2211308
40
0.2072299
50
226.5779593
51
230.8800004
0
ARC
8
DEFAULT_255_1_234
10
14.1278473
20
47.2836636
40
0.2854818
50
231.4635071
51
241.9260842
0
ARC
8
DEFAULT_255_1_234
10
14.2475651
20
47.50398
40
0.53622
50
241.7178533
51
248.3259551
0
ARC
8
DEFAULT_255_1_234
10
14.3861023
20
47.8472064
40
0.9063478
50
248.2007737
51
252.4528373
0
ARC
8
DEFAULT_255_1_234
10
14.5064748
20
48.2193441
40
1.2974635
50
252.3391078
51
254.3469452
0
ARC
8
DEFAULT_255_1_234
10
13.752245
20
45.5216148
40
1.5037162
50
71.0197183
51
74.4087047
0
ARC
8
DEFAULT_255_1_234
10
13.9217136
20
46.0108111
40
0.9859993
50
66.1847285
51
71.086374
0
ARC
8
DEFAULT_255_1_234
10
14.0773448
20
46.36122
40
0.6025855
50
59.3536294
51
66.2691831
0
ARC
8
DEFAULT_255_1_234
10
14.16621
20
46.5115609
40
0.4279449
50
49.1020879
51
59.3293958
0
ARC
8
DEFAULT_255_1_234
10
14.248084
20
46.6048834
40
0.3038015
50
32.7919921
51
49.2505539
0
ARC
8
DEFAULT_255_1_234
10
14.280193
20
46.6277191
40
0.264448
50
31.1181161
51
32.4005348
0
ARC
8
DEFAULT_255_1_234
10
14.2713468
20
46.6241779
40
0.2738556
50
8.1116974
51
30.7958831
0
ARC
8
DEFAULT_255_1_234
10
14.1903136
20
46.6103753
40
0.3560327
50
359.8389159
51
8.4706516
0
ARC
8
DEFAULT_255_1_234
10
14.2528927
20
46.6055137
40
0.2934776
50
337.4731098
51
0.7537279
0
ARC
8
DEFAULT_255_1_234
10
14.2707622
20
46.6035387
40
0.2762607
50
307.5917067
51
336.4315538
0
ARC
8
DEFAULT_255_1_234
10
14.224745
20
46.6548102
40
0.3449979
50
307.6551545
51
308.4529766
0
ARC
8
DEFAULT_255_1_234
10
14.2017169
20
46.690325
40
0.3871988
50
284.3734338
51
307.1424381
0
ARC
8
DEFAULT_255_1_234
10
14.1521999
20
46.8724932
40
0.5759636
50
272.4382747
51
284.646547
0
ARC
8
DEFAULT_255_1_234
10
14.1395208
20
47.0524893
40
0.7563528
50
269.9708387
51
272.8178037
0
ARC
8
DEFAULT_255_1_234
10
14.1352248
20
46.8486716
40
0.5525489
50
248.2707594
51
270.4055579
0
ARC
8
DEFAULT_255_1_234
10
14.1297989
20
46.8296192
40
0.5328452
50
246.1383403
51
248.0542782
0
ARC
8
DEFAULT_255_1_234
10
14.0879368
20
46.7416843
40
0.4355005
50
233.1670131
51
246.4950969
0
ARC
8
DEFAULT_255_1_234
10
14.0325273
20
46.6668812
40
0.3424126
50
215.3403242
51
233.0843104
0
ARC
8
DEFAULT_255_1_234
10
14.0052704
20
46.6470549
40
0.3087104
50
179.2419209
51
215.2648451
0
ARC
8
DEFAULT_255_1_234
10
14.0820298
20
46.6484666
40
0.2304457
50
179.335461
51
199.1045811
0
ARC
8
DEFAULT_255_1_234
10
14.0487974
20
46.6397766
40
0.1962176
50
199.8828939
51
232.7063202
0
ARC
8
DEFAULT_255_1_234
10
14.0960243
20
46.6991788
40
0.2720938
50
232.3738199
51
255.5136649
0
ARC
8
DEFAULT_255_1_234
10
14.1301109
20
46.8235835
40
0.4010747
50
255.2446292
51
267.5320849
0
ARC
8
DEFAULT_255_1_234
10
14.1388733
20
46.9468702
40
0.5246356
50
267.1557994
51
270.0286766
0
ARC
8
DEFAULT_255_1_234
10
14.1416505
20
46.902495
40
0.4802668
50
269.7000017
51
278.1660162
0
ARC
8
DEFAULT_255_1_234
10
14.167251
20
46.7294515
40
0.3053425
50
278.0231263
51
290.625471
0
ARC
8
DEFAULT_255_1_234
10
14.2020197
20
46.6367025
40
0.206291
50
290.6619762
51
307.0370976
0
ARC
8
DEFAULT_255_1_234
10
14.2320586
20
46.5998504
40
0.1587906
50
306.3943566
51
355.3030547
0
ARC
8
DEFAULT_255_1_234
10
14.1808518
20
46.6075113
40
0.2104809
50
354.3660432
51
0.0698737
0
ARC
8
DEFAULT_255_1_234
10
14.1950863
20
46.6097617
40
0.1962563
50
359.417946
51
16.1971788
0
ARC
8
DEFAULT_255_1_234
10
14.2406173
20
46.6222418
40
0.149053
50
16.4723299
51
52.6262157
0
ARC
8
DEFAULT_255_1_234
10
14.1585227
20
46.5138433
40
0.2850296
50
52.7386432
51
62.4979148
0
ARC
8
DEFAULT_255_1_234
10
14.0200304
20
46.2532283
40
0.5801521
50
62.2515216
51
68.1220564
0
ARC
8
DEFAULT_255_1_234
10
13.8480215
20
45.8304872
40
1.0365451
50
68.0062803
51
71.8053402
0
ARC
8
DEFAULT_255_1_234
10
13.6684586
20
45.2919758
40
1.6042013
50
71.7183119
51
73.9258742
0
LINE
8
DEFAULT_255_1_234
10
14.6828845
20
46.7226218
11
14.6828845
21
46.7499297
0
LINE
8
DEFAULT_255_1_234
10
15.4201981
20
46.7659932
11
15.4201981
21
46.7041488
0
LINE
8
DEFAULT_255_1_234
10
15.4201981
20
46.7041488
11
14.8314717
21
46.7041488
0
LINE
8
DEFAULT_255_1_234
10
15.318195
20
46.5346792
11
15.4089537
21
46.4639999
0
LINE
8
DEFAULT_255_1_234
10
14.8362907
20
46.8262313
11
15.2716109
21
46.8262313
0
LINE
8
DEFAULT_255_1_234
10
15.2716109
20
46.8262313
11
15.2716109
21
46.8374757
0
ARC
8
DEFAULT_255_1_234
10
15.076821
20
46.7337332
40
0.4376191
50
252.3266134
51
270.5810217
0
ARC
8
DEFAULT_255_1_234
10
15.0563299
20
46.6596644
40
0.3608374
50
223.3000567
51
251.8561855
0
ARC
8
DEFAULT_255_1_234
10
15.077466
20
46.6801937
40
0.3902993
50
190.9374509
51
223.3654032
0
ARC
8
DEFAULT_255_1_234
10
15.2499632
20
46.7191885
40
0.5670891
50
179.6531105
51
191.4989439
0
ARC
8
DEFAULT_255_1_234
10
15.2621645
20
46.7531417
40
0.5792888
50
167.4007466
51
180.3176909
0
ARC
8
DEFAULT_255_1_234
10
15.1569706
20
46.7753885
40
0.471777
50
154.1835823
51
167.250763
0
ARC
8
DEFAULT_255_1_234
10
15.0938174
20
46.8086417
40
0.4004528
50
134.3149965
51
154.5315275
0
ARC
8
DEFAULT_255_1_234
10
15.0720669
20
46.8277228
40
0.371612
50
122.8616532
51
133.9707695
0
ARC
8
DEFAULT_255_1_234
10
15.0617243
20
46.8499703
40
0.3473289
50
89.8249009
51
123.4199222
0
ARC
8
DEFAULT_255_1_234
10
15.0667284
20
46.7852967
40
0.4120197
50
74.7876118
51
90.5482747
0
ARC
8
DEFAULT_255_1_234
10
15.0961027
20
46.893803
40
0.2996077
50
39.8178249
51
74.7633718
0
ARC
8
DEFAULT_255_1_234
10
15.0448347
20
46.8538351
40
0.3645855
50
16.8990863
51
39.4829761
0
ARC
8
DEFAULT_255_1_234
10
14.8553644
20
46.7931526
40
0.5635218
50
4.9636328
51
17.2026414
0
ARC
8
DEFAULT_255_1_234
10
14.6135714
20
46.767634
40
0.8066286
50
359.8834553
51
5.2834307
0
ARC
8
DEFAULT_255_1_234
10
15.2173238
20
46.7107803
40
0.3859091
50
180.9846213
51
194.9401313
0
ARC
8
DEFAULT_255_1_234
10
15.1123516
20
46.6820849
40
0.2770883
50
194.80314
51
222.0412631
0
ARC
8
DEFAULT_255_1_234
10
15.0819398
20
46.6519116
40
0.2343055
50
221.5417084
51
268.8614402
0
ARC
8
DEFAULT_255_1_234
10
15.0892393
20
46.7195686
40
0.3021528
50
267.732405
51
270.0097136
0
ARC
8
DEFAULT_255_1_234
10
15.0910203
20
46.7397105
40
0.3222994
50
269.6924892
51
280.4117579
0
ARC
8
DEFAULT_255_1_234
10
15.1086609
20
46.6478193
40
0.2287344
50
280.2255091
51
298.6338936
0
ARC
8
DEFAULT_255_1_234
10
15.1203401
20
46.6234223
40
0.2017294
50
299.0430333
51
300.4643464
0
ARC
8
DEFAULT_255_1_234
10
15.0523407
20
46.7368038
40
0.3339357
50
300.6577328
51
322.0378878
0
ARC
8
DEFAULT_255_1_234
10
15.0172946
20
46.7672021
40
0.3802736
50
321.6750233
51
322.3046845
0
ARC
8
DEFAULT_255_1_234
10
15.1103907
20
46.650537
40
0.3520454
50
276.9728461
51
328.0035423
0
ARC
8
DEFAULT_255_1_234
10
15.082696
20
46.7985841
40
0.5024498
50
269.8361028
51
278.0581756
0
ARC
8
DEFAULT_255_1_234
10
15.0599698
20
46.8730757
40
0.202159
50
89.2018686
51
117.2851756
0
ARC
8
DEFAULT_255_1_234
10
15.0652867
20
46.8688752
40
0.2083484
50
118.0551165
51
137.4540413
0
ARC
8
DEFAULT_255_1_234
10
15.1027607
20
46.8348304
40
0.2589774
50
137.5109581
51
158.8516286
0
ARC
8
DEFAULT_255_1_234
10
15.2165442
20
46.7889074
40
0.38167
50
158.5845963
51
170.1721436
0
ARC
8
DEFAULT_255_1_234
10
15.3334831
20
46.7656823
40
0.5008657
50
169.8376422
51
173.0566086
0
ARC
8
DEFAULT_255_1_234
10
14.8637905
20
46.8167509
40
0.4083467
50
2.9091802
51
12.8847116
0
ARC
8
DEFAULT_255_1_234
10
15.0008582
20
46.8490101
40
0.2675383
50
12.6957781
51
28.6404489
0
ARC
8
DEFAULT_255_1_234
10
15.0550253
20
46.8770458
40
0.2065654
50
29.0169854
51
41.1487595
0
ARC
8
DEFAULT_255_1_234
10
15.0753038
20
46.8947003
40
0.1796786
50
41.1646065
51
85.0013516
0
ARC
8
DEFAULT_255_1_234
10
15.0632134
20
46.8212431
40
0.2539726
50
83.7280015
51
90.0964893
0
LINE
8
DEFAULT_255_1_234
10
16.0121372
20
47.1860531
11
16.0121372
21
47.0479072
0
LINE
8
DEFAULT_255_1_234
10
15.7406645
20
46.9290375
11
15.7406645
21
46.3122
0
LINE
8
DEFAULT_255_1_234
10
15.7406645
20
46.3122
11
15.5920773
21
46.3122
0
LINE
8
DEFAULT_255_1_234
10
15.5920773
20
46.3122
11
15.5920773
21
47.1812341
0
LINE
8
DEFAULT_255_1_234
10
15.5920773
20
47.1812341
11
15.7366486
21
47.1812341
0
LINE
8
DEFAULT_255_1_234
10
15.7366486
20
47.1812341
11
15.7390581
21
47.0808374
0
ARC
8
DEFAULT_255_1_234
10
15.9454778
20
46.6419342
40
0.4114092
50
80.6754243
51
86.8932892
0
ARC
8
DEFAULT_255_1_234
10
15.9394312
20
46.54517
40
0.5083596
50
86.8038578
51
90.0431435
0
ARC
8
DEFAULT_255_1_234
10
15.9357293
20
46.7908866
40
0.2626638
50
89.2759698
51
106.6213787
0
ARC
8
DEFAULT_255_1_234
10
15.9152857
20
46.865183
40
0.1856317
50
107.1346045
51
157.6458115
0
ARC
8
DEFAULT_255_1_234
10
15.9844458
20
46.8268311
40
0.2643398
50
155.6586782
51
157.2539184
0
ARC
8
DEFAULT_255_1_234
10
15.963966
20
46.9437157
40
0.2634121
50
127.8165941
51
148.6302098
0
ARC
8
DEFAULT_255_1_234
10
15.9386129
20
46.9697218
40
0.2273596
50
91.3329982
51
126.7875809
0
ARC
8
DEFAULT_255_1_234
10
15.946207
20
46.8982195
40
0.299078
50
89.986594
51
92.4688449
0
ARC
8
DEFAULT_255_1_234
10
15.9470465
20
46.9257078
40
0.2715908
50
85.3589899
51
90.1623399
0
ARC
8
DEFAULT_255_1_234
10
15.955498
20
47.0261164
40
0.1708278
50
78.401942
51
85.4594656
0
ARC
8
DEFAULT_255_1_234
10
15.9699864
20
47.0952236
40
0.1002194
50
67.7858312
51
78.5728455
0
ARC
8
DEFAULT_255_1_234
10
15.9807717
20
47.1231887
40
0.0702548
50
63.4835954
51
67.3062642
0
LINE
8
DEFAULT_255_1_234
10
16.3101147
20
47.1812341
11
16.3101147
21
46.3122
0
LINE
8
DEFAULT_255_1_234
10
16.3101147
20
46.3122
11
16.1615275
21
46.3122
0
LINE
8
DEFAULT_255_1_234
10
16.1615275
20
46.3122
11
16.1615275
21
47.1812341
0
LINE
8
DEFAULT_255_1_234
10
16.1615275
20
47.1812341
11
16.3101147
21
47.1812341
0
ARC
8
DEFAULT_255_1_234
10
16.2473424
20
47.4126889
40
0.097867
50
161.415052
51
180.5526306
0
ARC
8
DEFAULT_255_1_234
10
16.2349202
20
47.4161077
40
0.0850062
50
138.1827368
51
160.9307106
0
ARC
8
DEFAULT_255_1_234
10
16.2239148
20
47.4256588
40
0.0704362
50
104.6368899
51
138.0039868
0
ARC
8
DEFAULT_255_1_234
10
16.2346303
20
47.3889963
40
0.1086221
50
92.0600725
51
105.2189128
0
ARC
8
DEFAULT_255_1_234
10
16.2369651
20
47.3547117
40
0.1429728
50
89.9756393
51
92.5012496
0
ARC
8
DEFAULT_255_1_234
10
16.237967
20
47.3772731
40
0.1204151
50
78.0235316
51
90.4478182
0
ARC
8
DEFAULT_255_1_234
10
16.2471762
20
47.4186295
40
0.0780493
50
55.051506
51
78.3369085
0
ARC
8
DEFAULT_255_1_234
10
16.2522037
20
47.4270711
40
0.0682538
50
42.0501187
51
54.4513741
0
ARC
8
DEFAULT_255_1_234
10
16.2386904
20
47.4146798
40
0.0865878
50
1.7497075
51
42.1496013
0
ARC
8
DEFAULT_255_1_234
10
16.2132237
20
47.4117738
40
0.1121515
50
359.9852656
51
2.8364544
0
ARC
8
DEFAULT_255_1_234
10
16.2298229
20
47.4108229
40
0.0955566
50
342.1070653
51
0.552888
0
ARC
8
DEFAULT_255_1_234
10
16.2440926
20
47.4068904
40
0.0807713
50
316.7107116
51
341.6516965
0
ARC
8
DEFAULT_255_1_234
10
16.2507963
20
47.4008823
40
0.0717724
50
285.4397031
51
316.5324284
0
ARC
8
DEFAULT_255_1_234
10
16.239788
20
47.4374554
40
0.1099597
50
272.3547054
51
285.8953117
0
ARC
8
DEFAULT_255_1_234
10
16.2371038
20
47.4740048
40
0.1465932
50
269.9695369
51
272.8160237
0
ARC
8
DEFAULT_255_1_234
10
16.236122
20
47.4520863
40
0.1246779
50
258.8431134
51
270.4153935
0
ARC
8
DEFAULT_255_1_234
10
16.2271262
20
47.4085414
40
0.0802162
50
238.5431189
51
259.1288175
0
ARC
8
DEFAULT_255_1_234
10
16.2203147
20
47.3961856
40
0.0661247
50
222.5062634
51
237.9906969
0
ARC
8
DEFAULT_255_1_234
10
16.2330734
20
47.4077889
40
0.0833707
50
184.1069131
51
222.460413
0
ARC
8
DEFAULT_255_1_234
10
16.2599975
20
47.4116349
40
0.1105176
50
179.9429482
51
185.0960898
0
LINE
8
DEFAULT_255_1_234
10
16.510105
20
46.7226218
11
16.510105
21
46.7499297
0
LINE
8
DEFAULT_255_1_234
10
17.2474186
20
46.7659932
11
17.2474186
21
46.7041488
0
LINE
8
DEFAULT_255_1_234
10
17.2474186
20
46.7041488
11
16.6586921
21
46.7041488
0
LINE
8
DEFAULT_255_1_234
10
17.1454155
20
46.5346792
11
17.2361741
21
46.4639999
0
LINE
8
DEFAULT_255_1_234
10
16.6635112
20
46.8262313
11
17.0988314
21
46.8262313
0
LINE
8
DEFAULT_255_1_234
10
17.0988314
20
46.8262313
11
17.0988314
21
46.8374757
0
ARC
8
DEFAULT_255_1_234
10
16.9040415
20
46.7337332
40
0.4376191
50
252.3266134
51
270.5810217
0
ARC
8
DEFAULT_255_1_234
10
16.8835504
20
46.6596644
40
0.3608374
50
223.3000567
51
251.8561855
0
ARC
8
DEFAULT_255_1_234
10
16.9046865
20
46.6801937
40
0.3902993
50
190.9374509
51
223.3654032
0
ARC
8
DEFAULT_255_1_234
10
17.0771837
20
46.7191885
40
0.5670891
50
179.6531105
51
191.4989439
0
ARC
8
DEFAULT_255_1_234
10
17.0893849
20
46.7531417
40
0.5792888
50
167.4007466
51
180.3176909
0
ARC
8
DEFAULT_255_1_234
10
16.9841911
20
46.7753885
40
0.471777
50
154.1835823
51
167.250763
0
ARC
8
DEFAULT_255_1_234
10
16.9210378
20
46.8086417
40
0.4004528
50
134.3149965
51
154.5315275
0
ARC
8
DEFAULT_255_1_234
10
16.8992873
20
46.8277228
40
0.371612
50
122.8616532
51
133.9707695
0
ARC
8
DEFAULT_255_1_234
10
16.8889447
20
46.8499703
40
0.3473289
50
89.8249009
51
123.4199222
0
ARC
8
DEFAULT_255_1_234
10
16.8939488
20
46.7852967
40
0.4120197
50
74.7876118
51
90.5482747
0
ARC
8
DEFAULT_255_1_234
10
16.9233232
20
46.893803
40
0.2996077
50
39.8178249
51
74.7633718
0
ARC
8
DEFAULT_255_1_234
10
16.8720552
20
46.8538351
40
0.3645855
50
16.8990863
51
39.4829761
0
ARC
8
DEFAULT_255_1_234
10
16.6825848
20
46.7931526
40
0.5635218
50
4.9636328
51
17.2026414
0
ARC
8
DEFAULT_255_1_234
10
16.4407918
20
46.767634
40
0.8066286
50
359.8834553
51
5.2834307
0
ARC
8
DEFAULT_255_1_234
10
17.0445443
20
46.7107803
40
0.3859091
50
180.9846213
51
194.9401313
0
ARC
8
DEFAULT_255_1_234
10
16.9395721
20
46.6820849
40
0.2770883
50
194.80314
51
222.0412631
0
ARC
8
DEFAULT_255_1_234
10
16.9091603
20
46.6519116
40
0.2343055
50
221.5417084
51
268.8614402
0
ARC
8
DEFAULT_255_1_234
10
16.9164597
20
46.7195686
40
0.3021528
50
267.732405
51
270.0097136
0
ARC
8
DEFAULT_255_1_234
10
16.9182407
20
46.7397105
40
0.3222994
50
269.6924892
51
280.4117579
0
ARC
8
DEFAULT_255_1_234
10
16.9358814
20
46.6478193
40
0.2287344
50
280.2255091
51
298.6338936
0
ARC
8
DEFAULT_255_1_234
10
16.9475606
20
46.6234223
40
0.2017294
50
299.0430333
51
300.4643464
0
ARC
8
DEFAULT_255_1_234
10
16.8795611
20
46.7368038
40
0.3339357
50
300.6577328
51
322.0378878
0
ARC
8
DEFAULT_255_1_234
10
16.8445151
20
46.7672021
40
0.3802736
50
321.6750233
51
322.3046845
0
ARC
8
DEFAULT_255_1_234
10
16.9376112
20
46.650537
40
0.3520454
50
276.9728461
51
328.0035423
0
ARC
8
DEFAULT_255_1_234
10
16.9099165
20
46.7985841
40
0.5024498
50
269.8361028
51
278.0581756
0
ARC
8
DEFAULT_255_1_234
10
16.8871902
20
46.8730757
40
0.202159
50
89.2018686
51
117.2851756
0
ARC
8
DEFAULT_255_1_234
10
16.8925071
20
46.8688752
40
0.2083484
50
118.0551165
51
137.4540413
0
ARC
8
DEFAULT_255_1_234
10
16.9299811
20
46.8348304
40
0.2589774
50
137.5109581
51
158.8516286
0
ARC
8
DEFAULT_255_1_234
10
17.0437647
20
46.7889074
40
0.38167
50
158.5845963
51
170.1721436
0
ARC
8
DEFAULT_255_1_234
10
17.1607036
20
46.7656823
40
0.5008657
50
169.8376422
51
173.0566086
0
ARC
8
DEFAULT_255_1_234
10
16.691011
20
46.8167509
40
0.4083467
50
2.9091802
51
12.8847116
0
ARC
8
DEFAULT_255_1_234
10
16.8280786
20
46.8490101
40
0.2675383
50
12.6957781
51
28.6404489
0
ARC
8
DEFAULT_255_1_234
10
16.8822457
20
46.8770458
40
0.2065654
50
29.0169854
51
41.1487595
0
ARC
8
DEFAULT_255_1_234
10
16.9025242
20
46.8947003
40
0.1796786
50
41.1646065
51
85.0013516
0
ARC
8
DEFAULT_255_1_234
10
16.8904339
20
46.8212431
40
0.2539726
50
83.7280015
51
90.0964893
0
LINE
8
DEFAULT_255_1_234
10
18.0658527
20
46.9258248
11
17.9164624
21
46.9258248
0
LINE
8
DEFAULT_255_1_234
10
17.3831549
20
46.5796569
11
17.5317421
21
46.5796569
0
ARC
8
DEFAULT_255_1_234
10
17.7976442
20
46.5441959
40
0.1276617
50
359.3334982
51
18.5871358
0
ARC
8
DEFAULT_255_1_234
10
17.8185079
20
46.5497133
40
0.1061371
50
19.3540742
51
54.6485071
0
ARC
8
DEFAULT_255_1_234
10
17.7680981
20
46.4801919
40
0.1920087
50
54.3827097
51
65.0622807
0
ARC
8
DEFAULT_255_1_234
10
17.6912378
20
46.31849
40
0.3710447
50
64.8282493
51
71.4200025
0
ARC
8
DEFAULT_255_1_234
10
17.6010253
20
46.0538107
40
0.6506741
50
71.3164301
51
75.8006402
0
ARC
8
DEFAULT_255_1_234
10
17.5169073
20
45.7297561
40
0.9854641
50
75.6809531
51
78.0061883
0
ARC
8
DEFAULT_255_1_234
10
17.9617606
20
47.827677
40
1.1591028
50
254.6901892
51
258.0466452
0
ARC
8
DEFAULT_255_1_234
10
17.8579515
20
47.4517781
40
0.7691345
50
249.9010773
51
254.755261
0
ARC
8
DEFAULT_255_1_234
10
17.7575857
20
47.1791982
40
0.478665
50
243.3097214
51
249.9709442
0
ARC
8
DEFAULT_255_1_234
10
17.6946878
20
47.0537778
40
0.3383568
50
234.4047477
51
243.2862168
0
ARC
8
DEFAULT_255_1_234
10
17.6324401
20
46.9678232
40
0.2322322
50
220.8667099
51
234.5493881
0
ARC
8
DEFAULT_255_1_234
10
17.5982342
20
46.9366817
40
0.1859923
50
214.3062465
51
220.5065136
0
ARC
8
DEFAULT_255_1_234
10
17.5956422
20
46.933588
40
0.1821108
50
186.912965
51
213.9618616
0
ARC
8
DEFAULT_255_1_234
10
17.6488516
20
46.9422009
40
0.2359799
50
179.8808832
51
187.4339886
0
ARC
8
DEFAULT_255_1_234
10
17.633365
20
46.9442088
40
0.2204978
50
132.005434
51
180.3942919
0
ARC
8
DEFAULT_255_1_234
10
17.6990263
20
46.8836083
40
0.3095791
50
129.2319861
51
133.5302299
0
ARC
8
DEFAULT_255_1_234
10
17.7043771
20
46.8741928
40
0.3202615
50
100.4410011
51
128.9081242
0
ARC
8
DEFAULT_255_1_234
10
17.7317655
20
46.7456455
40
0.4516583
50
89.6985377
51
100.9026564
0
ARC
8
DEFAULT_255_1_234
10
17.7374697
20
46.7296166
40
0.4676928
50
77.6965325
51
90.4076836
0
ARC
8
DEFAULT_255_1_234
10
17.7705681
20
46.8723413
40
0.3211988
50
50.7276602
51
78.0399361
0
ARC
8
DEFAULT_255_1_234
10
17.815014
20
46.9241296
40
0.2529778
50
25.7545084
51
51.0957453
0
ARC
8
DEFAULT_255_1_234
10
17.8151364
20
46.9291206
40
0.250738
50
359.2468627
51
24.7394243
0
ARC
8
DEFAULT_255_1_234
10
17.7866816
20
46.9262664
40
0.1297815
50
359.8050318
51
45.1544908
0
ARC
8
DEFAULT_255_1_234
10
17.7459958
20
46.8914794
40
0.1831883
50
43.8047702
51
49.6271585
0
ARC
8
DEFAULT_255_1_234
10
17.746786
20
46.8915678
40
0.18261
50
49.7980766
51
82.1218353
0
ARC
8
DEFAULT_255_1_234
10
17.7348831
20
46.8268998
40
0.2483163
50
81.4465357
51
90.1710293
0
ARC
8
DEFAULT_255_1_234
10
17.7324434
20
46.774288
40
0.300932
50
89.6766211
51
99.1264602
0
ARC
8
DEFAULT_255_1_234
10
17.7152896
20
46.8776537
40
0.1961547
50
98.968313
51
113.4570237
0
ARC
8
DEFAULT_255_1_234
10
17.6956981
20
46.9244965
40
0.1453859
50
113.722589
51
127.4763106
0
ARC
8
DEFAULT_255_1_234
10
17.6788627
20
46.9445124
40
0.1192639
50
126.9083309
51
150.3165862
0
ARC
8
DEFAULT_255_1_234
10
17.674096
20
46.9495981
40
0.112623
50
151.3635175
51
180.0701457
0
ARC
8
DEFAULT_255_1_234
10
17.7049745
20
46.947499
40
0.1435149
50
179.2169974
51
179.9954013
0
ARC
8
DEFAULT_255_1_234
10
17.6688802
20
46.9462056
40
0.1074286
50
179.3040112
51
198.4225446
0
ARC
8
DEFAULT_255_1_234
10
17.6496936
20
46.9412127
40
0.0876573
50
199.2895851
51
238.6034594
0
ARC
8
DEFAULT_255_1_234
10
17.7099782
20
47.035845
40
0.1998512
50
237.9846301
51
246.8744712
0
ARC
8
DEFAULT_255_1_234
10
17.7957727
20
47.2321205
40
0.4140547
50
246.6234531
51
251.8168941
0
ARC
8
DEFAULT_255_1_234
10
17.8988271
20
47.5415905
40
0.7402308
50
251.713434
51
255.0778414
0
ARC
8
DEFAULT_255_1_234
10
18.0187533
20
47.9882563
40
1.2027155
50
255.0367487
51
257.4705983
0
ARC
8
DEFAULT_255_1_234
10
17.5079543
20
45.6868863
40
1.1546601
50
73.6837552
51
77.5016755
0
ARC
8
DEFAULT_255_1_234
10
17.6168318
20
46.0568581
40
0.7690009
50
68.7044154
51
73.7249639
0
ARC
8
DEFAULT_255_1_234
10
17.7071339
20
46.2895654
40
0.5193873
50
63.590599
51
68.6626804
0
ARC
8
DEFAULT_255_1_234
10
17.7842358
20
46.4433123
40
0.3473927
50
54.7106439
51
63.7013633
0
ARC
8
DEFAULT_255_1_234
10
17.8466812
20
46.53054
40
0.2401192
50
41.0622434
51
54.8487496
0
ARC
8
DEFAULT_255_1_234
10
17.8808199
20
46.5618592
40
0.1938094
50
34.4950568
51
40.7105546
0
ARC
8
DEFAULT_255_1_234
10
17.8855006
20
46.5667078
40
0.1872106
50
9.3763373
51
34.0833615
0
ARC
8
DEFAULT_255_1_234
10
17.8201876
20
46.5541728
40
0.2536988
50
359.7694872
51
9.7663171
0
ARC
8
DEFAULT_255_1_234
10
17.8399377
20
46.5498764
40
0.2339696
50
335.8654732
51
0.8022045
0
ARC
8
DEFAULT_255_1_234
10
17.8474422
20
46.5512197
40
0.2277108
50
307.7357725
51
334.7849066
0
ARC
8
DEFAULT_255_1_234
10
17.8073597
20
46.5962645
40
0.2878951
50
307.0241536
51
308.5578354
0
ARC
8
DEFAULT_255_1_234
10
17.7815929
20
46.6348801
40
0.3342515
50
282.9362969
51
306.5646424
0
ARC
8
DEFAULT_255_1_234
10
17.7454226
20
46.7816108
40
0.4853615
50
271.1026298
51
283.2200835
0
ARC
8
DEFAULT_255_1_234
10
17.739047
20
46.9057418
40
0.6096052
50
269.9919117
51
271.4772449
0
ARC
8
DEFAULT_255_1_234
10
17.7364225
20
46.7979436
40
0.5018135
50
259.0723564
51
270.289833
0
ARC
8
DEFAULT_255_1_234
10
17.7151957
20
46.6862271
40
0.388099
50
245.4963068
51
259.0227342
0
ARC
8
DEFAULT_255_1_234
10
17.6873914
20
46.6280615
40
0.3236422
50
228.9684658
51
245.7044727
0
ARC
8
DEFAULT_255_1_234
10
17.6608357
20
46.5953575
40
0.2815426
50
214.4011705
51
228.6759915
0
ARC
8
DEFAULT_255_1_234
10
17.6319098
20
46.579529
40
0.2487548
50
179.9705531
51
215.1572795
0
ARC
8
DEFAULT_255_1_234
10
17.7019698
20
46.5868806
40
0.1703809
50
182.4299387
51
203.0329699
0
ARC
8
DEFAULT_255_1_234
10
17.6835355
20
46.5812396
40
0.1512226
50
203.798802
51
232.548466
0
ARC
8
DEFAULT_255_1_234
10
17.7111877
20
46.6163826
40
0.1959374
50
232.3782728
51
256.3934612
0
ARC
8
DEFAULT_255_1_234
10
17.7342238
20
46.7053842
40
0.2878639
50
256.104506
51
268.4626716
0
ARC
8
DEFAULT_255_1_234
10
17.7388723
20
46.7850487
40
0.3676329
50
268.0715632
51
270.0138206
0
ARC
8
DEFAULT_255_1_234
10
17.7407247
20
46.7578083
40
0.3403971
50
269.7031147
51
278.8341955
0
ARC
8
DEFAULT_255_1_234
10
17.7589341
20
46.6447876
40
0.2259217
50
278.6728789
51
292.8232582
0
ARC
8
DEFAULT_255_1_234
10
17.7789879
20
46.5946449
40
0.171929
50
293.1452328
51
303.6655899
0
ARC
8
DEFAULT_255_1_234
10
17.8054758
20
46.5570204
40
0.1259367
50
303.1248165
51
321.742847
0
ARC
8
DEFAULT_255_1_234
10
17.8240638
20
46.5407156
40
0.1012531
50
322.4748573
51
1.1291126
0
LINE
8
DEFAULT_255_2_778
10
9.3932417
20
36.9093831
11
10.7161417
21
36.9093831
0
LINE
8
DEFAULT_255_2_778
10
10.7161417
20
36.9093831
11
10.7161417
21
23.6801831
0
LINE
8
DEFAULT_255_2_778
10
9.3932834
20
23.6802333
11
12.0390834
21
23.6802333
0
LINE
8
DEFAULT_255_2_778
10
12.0390834
20
23.6802333
11
12.0390834
21
18.3885333
0
LINE
8
DEFAULT_255_2_778
10
12.0390834
20
18.3885333
11
9.3932834
21
18.3885333
0
LINE
8
DEFAULT_255_2_778
10
9.3932834
20
18.3885333
11
9.3932834
21
23.6802333
0
ARC
8
DEFAULT_255_2_778_1
10
13.1931093
20
18.4904014
40
4.8170853
50
120.9433603
51
122.3507015
0
ARC
8
DEFAULT_255_2_778_1
10
12.7461038
20
19.1946847
40
3.9829221
50
122.3397244
51
124.1937515
0
ARC
8
DEFAULT_255_2_778_1
10
12.3065747
20
19.8406798
40
3.2015802
50
124.1846593
51
126.4326997
0
ARC
8
DEFAULT_255_2_778_1
10
11.9203674
20
20.3638048
40
2.5513373
50
126.4315193
51
128.8866284
0
ARC
8
DEFAULT_255_2_778_1
10
11.5855558
20
20.7782163
40
2.0185751
50
128.8737413
51
131.8715456
0
ARC
8
DEFAULT_255_2_778_1
10
11.288321
20
21.1093578
40
1.5735995
50
131.8602881
51
135.4159792
0
ARC
8
DEFAULT_255_2_778_1
10
11.0256267
20
21.367444
40
1.2053382
50
135.3881787
51
139.9675704
0
ARC
8
DEFAULT_255_2_778_1
10
10.7927929
20
21.5622514
40
0.9017578
50
139.9292361
51
145.9248399
0
ARC
8
DEFAULT_255_2_778_1
10
10.5965937
20
21.6943002
40
0.6652613
50
145.8774658
51
153.8137102
0
ARC
8
DEFAULT_255_2_778_1
10
10.4445289
20
21.7686584
40
0.4959902
50
153.7699933
51
164.3475994
0
ARC
8
DEFAULT_255_2_778_1
10
10.3431712
20
21.7968709
40
0.3907795
50
164.3211971
51
179.8086094
0
ARC
8
DEFAULT_255_2_778_1
10
10.364224
20
21.8050045
40
0.4118868
50
180.9498805
51
213.8115801
0
ARC
8
DEFAULT_255_2_778_1
10
10.6401277
20
21.9745791
40
0.7355981
50
212.8273456
51
224.258786
0
ARC
8
DEFAULT_255_2_778_1
10
11.0230021
20
22.3439447
40
1.2675939
50
224.1380843
51
231.4510938
0
ARC
8
DEFAULT_255_2_778_1
10
11.6656086
20
23.1468497
40
2.2959891
50
231.3959152
51
236.1261501
0
ARC
8
DEFAULT_255_2_778_1
10
13.4977386
20
25.8931226
40
5.5973037
50
236.2236313
51
239.1319841
0
ARC
8
DEFAULT_255_2_778_1
10
25.44793
20
45.6216296
40
28.6628078
50
238.8610976
51
239.0715198
0
ARC
8
DEFAULT_255_2_778_1
10
6.2759964
20
13.524401
40
8.7244052
50
57.2424849
51
59.4068306
0
ARC
8
DEFAULT_255_2_778_1
10
9.5034336
20
18.5550081
40
2.7475194
50
52.8293541
51
57.0795464
0
ARC
8
DEFAULT_255_2_778_1
10
10.2780944
20
19.5753614
40
1.4664186
50
46.3045833
51
52.860304
0
ARC
8
DEFAULT_255_2_778_1
10
10.7102649
20
20.0254451
40
0.8424453
50
36.2180257
51
46.4093296
0
ARC
8
DEFAULT_255_2_778_1
10
10.994804
20
20.2303061
40
0.4918506
50
17.4004011
51
36.5495579
0
ARC
8
DEFAULT_255_2_778_1
10
11.1088821
20
20.270164
40
0.3710943
50
0.067873
51
16.7952822
0
ARC
8
DEFAULT_255_2_778_1
10
11.0878458
20
20.2720332
40
0.3921328
50
343.8036427
51
359.7911248
0
ARC
8
DEFAULT_255_2_778_1
10
10.9815867
20
20.3025038
40
0.502674
50
333.2506199
51
343.8466729
0
ARC
8
DEFAULT_255_2_778_1
10
10.8277744
20
20.3792168
40
0.6745539
50
325.6600211
51
333.3122631
0
ARC
8
DEFAULT_255_2_778_1
10
10.6323392
20
20.5120073
40
0.9108335
50
319.7561437
51
325.6977425
0
ARC
8
DEFAULT_255_2_778_1
10
10.4042094
20
20.7037727
40
1.2088543
50
315.4577629
51
319.8038562
0
ARC
8
DEFAULT_255_2_778_1
10
10.1408322
20
20.9626077
40
1.578128
50
311.7299879
51
315.4672579
0
ARC
8
DEFAULT_255_2_778_1
10
9.8318145
20
21.3081549
40
2.0416949
50
308.7231184
51
311.7471999
0
ARC
8
DEFAULT_255_2_778_1
10
9.4777678
20
21.7491927
40
2.6072594
50
306.1164816
51
308.7302597
0
ARC
8
DEFAULT_255_2_778_1
10
9.0747329
20
22.3005635
40
3.2902284
50
303.9558771
51
306.1266851
0
ARC
8
DEFAULT_255_2_778_1
10
8.6627948
20
22.910378
40
4.0261398
50
302.373487
51
303.9711747
0
ARC
8
DEFAULT_255_2_778_1
10
8.243509
20
23.5713653
40
4.8088943
50
300.9435453
51
302.3758968
0
LINE
8
DEFAULT_255_2_778
10
10.7161335
20
18.3885996
11
10.7161335
21
5.1593996
0
LINE
8
DEFAULT_255_2_778
10
10.7161335
20
5.1593996
11
9.3932335
21
5.1593996
0
LINE
8
DEFAULT_255_2_778
10
19.9765335
20
36.9093996
11
18.6536335
21
36.9093996
0
LINE
8
DEFAULT_255_2_778
10
18.6536335
20
36.9093996
11
18.6536335
21
31.6176996
0
LINE
8
DEFAULT_255_2_778
10
17.3307834
20
31.6177333
11
19.9765834
21
31.6177333
0
LINE
8
DEFAULT_255_2_778
10
19.9765834
20
31.6177333
11
19.9765834
21
26.3260333
0
LINE
8
DEFAULT_255_2_778
10
19.9765834
20
26.3260333
11
17.3307834
21
26.3260333
0
LINE
8
DEFAULT_255_2_778
10
17.3307834
20
26.3260333
11
17.3307834
21
31.6177333
0
ARC
8
DEFAULT_255_2_778_1
10
21.130363
20
26.428477
40
4.816461
50
120.9442904
51
122.351755
0
ARC
8
DEFAULT_255_2_778_1
10
20.6837561
20
27.1321039
40
3.9830657
50
122.3407904
51
124.1946752
0
ARC
8
DEFAULT_255_2_778_1
10
20.2438503
20
27.7786306
40
3.2010724
50
124.1855758
51
126.4338849
0
ARC
8
DEFAULT_255_2_778_1
10
19.8579167
20
28.3013611
40
2.5513094
50
126.4326926
51
128.8877368
0
ARC
8
DEFAULT_255_2_778_1
10
19.5231006
20
28.7157658
40
2.0185498
50
128.8749205
51
131.8726567
0
ARC
8
DEFAULT_255_2_778_1
10
19.2259715
20
29.0467854
40
1.5737356
50
131.8616166
51
135.4168838
0
ARC
8
DEFAULT_255_2_778_1
10
18.9631718
20
29.3049765
40
1.2053256
50
135.3893975
51
139.9687014
0
ARC
8
DEFAULT_255_2_778_1
10
18.7302927
20
29.4998102
40
0.9016937
50
139.9301659
51
145.9260426
0
ARC
8
DEFAULT_255_2_778_1
10
18.5341578
20
29.6318104
40
0.6652776
50
145.8787362
51
153.8146208
0
ARC
8
DEFAULT_255_2_778_1
10
18.3820592
20
29.7061797
40
0.4959714
50
153.770634
51
164.3484794
0
ARC
8
DEFAULT_255_2_778_1
10
18.2807425
20
29.7343786
40
0.3908039
50
164.3220276
51
179.8083066
0
ARC
8
DEFAULT_255_2_778_1
10
18.3017827
20
29.742515
40
0.4118985
50
180.9499449
51
213.8111542
0
ARC
8
DEFAULT_255_2_778_1
10
18.5776866
20
29.9120896
40
0.73561
50
212.8271214
51
224.258472
0
ARC
8
DEFAULT_255_2_778_1
10
18.9605373
20
30.2814236
40
1.267567
50
224.1376218
51
231.4508261
0
ARC
8
DEFAULT_255_2_778_1
10
19.6032233
20
31.0844168
40
2.2960809
50
231.3955893
51
236.1256478
0
ARC
8
DEFAULT_255_2_778_1
10
21.4355261
20
33.8309293
40
5.5976905
50
236.2233172
51
239.1314682
0
ARC
8
DEFAULT_255_2_778_1
10
33.3854308
20
53.5586568
40
28.6623793
50
238.8606853
51
239.0711101
0
ARC
8
DEFAULT_255_2_778_1
10
14.2132319
20
21.4615653
40
8.7248518
50
57.2420924
51
59.4062964
0
ARC
8
DEFAULT_255_2_778_1
10
17.4409279
20
26.4925102
40
2.747542
50
52.8289294
51
57.079028
0
ARC
8
DEFAULT_255_2_778_1
10
18.2155821
20
27.5128488
40
1.466457
50
46.3041868
51
52.8596521
0
ARC
8
DEFAULT_255_2_778_1
10
18.6478111
20
27.9629842
40
0.8424061
50
36.2174211
51
46.4090895
0
ARC
8
DEFAULT_255_2_778_1
10
18.9323127
20
28.1678128
40
0.4918609
50
17.400375
51
36.5489745
0
ARC
8
DEFAULT_255_2_778_1
10
19.0464032
20
28.2076754
40
0.3710912
50
0.0676858
51
16.7951297
0
ARC
8
DEFAULT_255_2_778_1
10
19.0253651
20
28.2095428
40
0.3921317
50
343.8035191
51
359.7912046
0
ARC
8
DEFAULT_255_2_778_1
10
18.919095
20
28.2400167
40
0.5026844
50
333.2506233
51
343.8465691
0
ARC
8
DEFAULT_255_2_778_1
10
18.7652796
20
28.3167313
40
0.6745679
50
325.6600948
51
333.3122657
0
ARC
8
DEFAULT_255_2_778_1
10
18.5698382
20
28.4495296
40
0.9108568
50
319.7560915
51
325.6976089
0
ARC
8
DEFAULT_255_2_778_1
10
18.3417028
20
28.6413002
40
1.2088854
50
315.4577584
51
319.8037947
0
ARC
8
DEFAULT_255_2_778_1
10
18.0783165
20
28.9001507
40
1.5781764
50
311.7298824
51
315.4670864
0
ARC
8
DEFAULT_255_2_778_1
10
17.7692917
20
29.2457074
40
2.0417554
50
308.723055
51
311.7470879
0
ARC
8
DEFAULT_255_2_778_1
10
17.4150928
20
29.6869492
40
2.6075745
50
306.1165163
51
308.7300151
0
ARC
8
DEFAULT_255_2_778_1
10
17.0121129
20
30.2382523
40
3.2904564
50
303.9559446
51
306.1266333
0
ARC
8
DEFAULT_255_2_778_1
10
16.600547
20
30.847515
40
4.0257023
50
302.3733397
51
303.9712246
0
ARC
8
DEFAULT_255_2_778_1
10
16.1809385
20
31.5090058
40
4.8090549
50
300.9434827
51
302.3758078
0
LINE
8
DEFAULT_255_2_778
10
18.6536417
20
26.3260333
11
18.6536417
21
21.0343333
0
LINE
8
DEFAULT_255_2_778
10
18.6536417
20
21.0343333
11
19.9765417
21
21.0343333
0
LINE
8
DEFAULT_255_1_234
10
4.9274119
20
44.4491792
11
4.9274119
21
44.3279
0
LINE
8
DEFAULT_255_1_234
10
4.9274119
20
44.3279
11
4.161184
21
44.3279
0
LINE
8
DEFAULT_255_1_234
10
4.161184
20
44.3279
11
4.161184
21
44.4347221
0
LINE
8
DEFAULT_255_1_234
10
4.161184
20
44.4347221
11
4.5659836
21
44.8844995
0
LINE
8
DEFAULT_255_1_234
10
4.2872823
20
45.1527595
11
4.1386952
21
45.1527595
0
LINE
8
DEFAULT_255_1_234
10
4.6535296
20
44.7889218
11
4.3402918
21
44.4491792
0
LINE
8
DEFAULT_255_1_234
10
4.3402918
20
44.4491792
11
4.9274119
21
44.4491792
0
ARC
8
DEFAULT_255_1_234
10
3.216967
20
46.0774527
40
1.8008286
50
318.5132453
51
320.7828378
0
ARC
8
DEFAULT_255_1_234
10
3.7456644
20
45.6471426
40
1.1191493
50
320.7372736
51
323.9737074
0
ARC
8
DEFAULT_255_1_234
10
4.1376501
20
45.3631361
40
0.6350923
50
323.8961724
51
328.6421089
0
ARC
8
DEFAULT_255_1_234
10
4.3423096
20
45.2369031
40
0.3946393
50
328.8299013
51
331.789948
0
ARC
8
DEFAULT_255_1_234
10
4.4420274
20
45.1854509
40
0.2824501
50
331.4255242
51
352.9364833
0
ARC
8
DEFAULT_255_1_234
10
4.4556775
20
45.1823976
40
0.2685315
50
353.2248685
51
0.0169286
0
ARC
8
DEFAULT_255_1_234
10
4.4766652
20
45.184695
40
0.2475536
50
359.4866256
51
15.9339782
0
ARC
8
DEFAULT_255_1_234
10
4.5273637
20
45.1983286
40
0.1950618
50
16.1714718
51
43.5284424
0
ARC
8
DEFAULT_255_1_234
10
4.5350946
20
45.2060573
40
0.184134
50
43.4415429
51
83.1661404
0
ARC
8
DEFAULT_255_1_234
10
4.5216864
20
45.1323771
40
0.258926
50
82.160215
51
90.1505798
0
ARC
8
DEFAULT_255_1_234
10
4.5185291
20
45.0786865
40
0.3126255
50
89.5460705
51
102.5418777
0
ARC
8
DEFAULT_255_1_234
10
4.4942377
20
45.1817665
40
0.2067346
50
102.1739365
51
129.2061916
0
ARC
8
DEFAULT_255_1_234
10
4.4863449
20
45.1942094
40
0.1921118
50
129.7279328
51
135.7542026
0
ARC
8
DEFAULT_255_1_234
10
4.4984977
20
45.1845045
40
0.2075944
50
136.175737
51
166.3674722
0
ARC
8
DEFAULT_255_1_234
10
4.5991896
20
45.1575182
40
0.3118201
50
165.9092917
51
178.8683903
0
ARC
8
DEFAULT_255_1_234
10
4.6856757
20
45.1528179
40
0.3983935
50
178.438168
51
180.0083905
0
ARC
8
DEFAULT_255_1_234
10
4.5455359
20
45.1567231
40
0.4068601
50
163.2878735
51
180.5581814
0
ARC
8
DEFAULT_255_1_234
10
4.4653621
20
45.178784
40
0.3237344
50
133.454115
51
162.9470031
0
ARC
8
DEFAULT_255_1_234
10
4.4832162
20
45.1598
40
0.349795
50
100.7869394
51
133.4384016
0
ARC
8
DEFAULT_255_1_234
10
4.5179934
20
45.0049319
40
0.5084616
50
89.6605301
51
101.3704185
0
ARC
8
DEFAULT_255_1_234
10
4.5246273
20
45.0110496
40
0.502348
50
78.2171172
51
90.4130393
0
ARC
8
DEFAULT_255_1_234
10
4.5601351
20
45.1734637
40
0.3361092
50
55.9268222
51
78.4888551
0
ARC
8
DEFAULT_255_1_234
10
4.5797791
20
45.2073324
40
0.2970617
50
47.9292255
51
55.4054003
0
ARC
8
DEFAULT_255_1_234
10
4.5899352
20
45.2176502
40
0.2825983
50
4.3347696
51
48.0560701
0
ARC
8
DEFAULT_255_1_234
10
4.4803745
20
45.2006601
40
0.393225
50
359.925209
51
5.5967654
0
ARC
8
DEFAULT_255_1_234
10
4.5232637
20
45.2062816
40
0.3503892
50
337.8914096
51
358.9967724
0
ARC
8
DEFAULT_255_1_234
10
4.2519049
20
45.3109706
40
0.6412172
50
326.9135351
51
338.3505194
0
ARC
8
DEFAULT_255_1_234
10
3.8533353
20
45.5664284
40
1.1146189
50
319.6472867
51
327.095818
0
ARC
8
DEFAULT_255_1_234
10
3.4700356
20
45.8826
40
1.6114559
50
317.2586784
51
319.9046139
0
LINE
8
DEFAULT_255_1_234
10
5.7121127
20
45.4973211
11
5.7121127
21
44.720652
0
LINE
8
DEFAULT_255_1_234
10
5.7121127
20
44.720652
11
5.8743538
21
44.720652
0
LINE
8
DEFAULT_255_1_234
10
5.8743538
20
44.720652
11
5.8743538
21
44.5993728
0
LINE
8
DEFAULT_255_1_234
10
5.8743538
20
44.5993728
11
5.7121127
21
44.5993728
0
LINE
8
DEFAULT_255_1_234
10
5.7121127
20
44.5993728
11
5.7121127
21
44.3279
0
LINE
8
DEFAULT_255_1_234
10
5.7121127
20
44.3279
11
5.5627224
21
44.3279
0
LINE
8
DEFAULT_255_1_234
10
5.5627224
20
44.3279
11
5.5627224
21
44.5993728
0
LINE
8
DEFAULT_255_1_234
10
5.5627224
20
44.5993728
11
5.0302181
21
44.5993728
0
LINE
8
DEFAULT_255_1_234
10
5.0302181
20
44.5993728
11
5.0302181
21
44.6869187
0
LINE
8
DEFAULT_255_1_234
10
5.0302181
20
44.6869187
11
5.5538875
21
45.4973211
0
LINE
8
DEFAULT_255_1_234
10
5.5538875
20
45.4973211
11
5.7121127
21
45.4973211
0
LINE
8
DEFAULT_255_1_234
10
5.5450525
20
45.2619912
11
5.1988846
21
44.720652
0
LINE
8
DEFAULT_255_1_234
10
5.1988846
20
44.720652
11
5.5627224
21
44.720652
0
LINE
8
DEFAULT_255_1_234
10
5.5627224
20
44.720652
11
5.5627224
21
45.2941181
0
LINE
8
DEFAULT_255_1_234
10
5.5627224
20
45.2941181
11
5.5450525
21
45.2619912
0
LINE
8
DEFAULT_255_1_234
10
6.101652
20
45.4973211
11
6.434166
21
44.5327093
0
LINE
8
DEFAULT_255_1_234
10
6.434166
20
44.5327093
11
6.7682863
21
45.4973211
0
LINE
8
DEFAULT_255_1_234
10
6.7682863
20
45.4973211
11
6.9369528
21
45.4973211
0
LINE
8
DEFAULT_255_1_234
10
6.9369528
20
45.4973211
11
6.5032389
21
44.3279
0
LINE
8
DEFAULT_255_1_234
10
6.5032389
20
44.3279
11
6.3666994
21
44.3279
0
LINE
8
DEFAULT_255_1_234
10
6.3666994
20
44.3279
11
5.9337887
21
45.4973211
0
LINE
8
DEFAULT_255_1_234
10
5.9337887
20
45.4973211
11
6.101652
21
45.4973211
0
LINE
8
DEFAULT_255_1_234
10
4.2857902
20
5.8098211
11
4.2857902
21
4.6404
0
LINE
8
DEFAULT_255_1_234
10
4.2857902
20
4.6404
11
4.1315808
21
4.6404
0
LINE
8
DEFAULT_255_1_234
10
4.1315808
20
4.6404
11
4.1315808
21
5.8098211
0
LINE
8
DEFAULT_255_1_234
10
4.1315808
20
5.8098211
11
4.2857902
21
5.8098211
0
LINE
8
DEFAULT_255_1_234
10
4.7452056
20
5.1761169
11
4.7452056
21
5.2973962
0
LINE
8
DEFAULT_255_1_234
10
4.7452056
20
5.2973962
11
4.8568468
21
5.2973962
0
LINE
8
DEFAULT_255_1_234
10
4.6664946
20
5.5030087
11
4.5179074
21
5.5030087
0
LINE
8
DEFAULT_255_1_234
10
4.5074662
20
4.9488188
11
4.6568565
21
4.9488188
0
LINE
8
DEFAULT_255_1_234
10
4.8568468
20
5.1761169
11
4.7452056
21
5.1761169
0
ARC
8
DEFAULT_255_1_234
10
4.8539334
20
5.6366713
40
0.3392876
50
270.4919872
51
281.8951556
0
ARC
8
DEFAULT_255_1_234
10
4.8780596
20
5.5264702
40
0.2264817
50
281.6691735
51
301.2943132
0
ARC
8
DEFAULT_255_1_234
10
4.8950806
20
5.4953304
40
0.1910381
50
301.7833094
51
311.7545298
0
ARC
8
DEFAULT_255_1_234
10
4.9042382
20
5.4851748
40
0.1773635
50
311.7323931
51
354.2802411
0
ARC
8
DEFAULT_255_1_234
10
4.8316007
20
5.4976722
40
0.2509385
50
353.0937916
51
0.1181479
0
ARC
8
DEFAULT_255_1_234
10
4.7854792
20
5.5024386
40
0.2970898
50
359.1805295
51
15.0453146
0
ARC
8
DEFAULT_255_1_234
10
4.9200629
20
5.5416992
40
0.1569564
50
13.9577229
51
77.6713066
0
ARC
8
DEFAULT_255_1_234
10
4.8814158
20
5.4031949
40
0.3006298
50
76.1116566
51
90.7026153
0
ARC
8
DEFAULT_255_1_234
10
4.8754996
20
5.4305545
40
0.2732568
50
89.5324876
51
103.531937
0
ARC
8
DEFAULT_255_1_234
10
4.8554441
20
5.5104884
40
0.1908508
50
103.2931773
51
133.5619022
0
ARC
8
DEFAULT_255_1_234
10
4.8509929
20
5.5164375
40
0.1834746
50
133.8349307
51
173.5344437
0
ARC
8
DEFAULT_255_1_234
10
4.9232972
20
5.5036213
40
0.2568033
50
172.5096846
51
180.1366907
0
ARC
8
DEFAULT_255_1_234
10
4.8281866
20
5.5070622
40
0.3103056
50
155.3484492
51
180.7484736
0
ARC
8
DEFAULT_255_1_234
10
4.8232955
20
5.5041846
40
0.3070957
50
131.5744599
51
154.4798489
0
ARC
8
DEFAULT_255_1_234
10
4.8546102
20
5.472531
40
0.3515643
50
96.9875458
51
131.9690667
0
ARC
8
DEFAULT_255_1_234
10
4.8765582
20
5.3479636
40
0.4779224
50
89.8596053
51
97.7825159
0
ARC
8
DEFAULT_255_1_234
10
4.8813645
20
5.3217616
40
0.5041361
50
78.3655447
51
90.4131539
0
ARC
8
DEFAULT_255_1_234
10
4.9171563
20
5.4876887
40
0.3344039
50
56.6229102
51
78.638727
0
ARC
8
DEFAULT_255_1_234
10
4.9386507
20
5.5252805
40
0.2912001
50
47.0253525
51
56.0854072
0
ARC
8
DEFAULT_255_1_234
10
4.9406287
20
5.5292223
40
0.2869704
50
10.9208013
51
46.7778124
0
ARC
8
DEFAULT_255_1_234
10
4.8042354
20
5.4976857
40
0.426899
50
359.6364486
51
11.6087304
0
ARC
8
DEFAULT_255_1_234
10
4.9877198
20
5.4961752
40
0.243409
50
332.3549906
51
359.7179418
0
ARC
8
DEFAULT_255_1_234
10
4.9226799
20
5.5270142
40
0.3153459
50
325.2333722
51
332.8745602
0
ARC
8
DEFAULT_255_1_234
10
4.9379423
20
5.5163828
40
0.2967456
50
292.9802137
51
325.2392345
0
ARC
8
DEFAULT_255_1_234
10
4.9104797
20
5.5697863
40
0.3566604
50
292.5402179
51
293.6924929
0
ARC
8
DEFAULT_255_1_234
10
4.9497393
20
4.9243091
40
0.3307468
50
57.6435486
51
72.8625112
0
ARC
8
DEFAULT_255_1_234
10
4.9851892
20
4.9817549
40
0.2632492
50
36.7248896
51
57.4697979
0
ARC
8
DEFAULT_255_1_234
10
4.9840525
20
4.983022
40
0.2634081
50
8.0545065
51
36.356114
0
ARC
8
DEFAULT_255_1_234
10
4.897771
20
4.9675174
40
0.3510261
50
359.8320645
51
8.5869982
0
ARC
8
DEFAULT_255_1_234
10
4.8602486
20
4.9627101
40
0.3885653
50
343.9829931
51
0.5571613
0
ARC
8
DEFAULT_255_1_234
10
4.9488684
20
4.9384438
40
0.2966924
50
311.6359546
51
343.7651759
0
ARC
8
DEFAULT_255_1_234
10
4.9110253
20
4.9811102
40
0.3537231
50
279.7829875
51
311.6255694
0
ARC
8
DEFAULT_255_1_234
10
4.8809029
20
5.124828
40
0.5004971
50
269.7286406
51
280.3856417
0
ARC
8
DEFAULT_255_1_234
10
4.8747102
20
5.1206996
40
0.4963778
50
256.6828919
51
270.4412052
0
ARC
8
DEFAULT_255_1_234
10
4.8408397
20
4.9822394
40
0.3538406
50
229.4223008
51
256.8556159
0
ARC
8
DEFAULT_255_1_234
10
4.799379
20
4.9355736
40
0.2914296
50
181.818294
51
229.6455059
0
ARC
8
DEFAULT_255_1_234
10
4.9033746
20
4.9486496
40
0.3959084
50
179.9755256
51
183.2323064
0
ARC
8
DEFAULT_255_1_234
10
4.8861492
20
4.9466037
40
0.2293034
50
179.4465117
51
196.2869258
0
ARC
8
DEFAULT_255_1_234
10
4.83739
20
4.9332651
40
0.1787621
50
196.5661473
51
227.705904
0
ARC
8
DEFAULT_255_1_234
10
4.8537995
20
4.9516155
40
0.2033784
50
227.7652068
51
257.8762805
0
ARC
8
DEFAULT_255_1_234
10
4.8762965
20
5.0459156
40
0.3003081
50
257.4584385
51
270.426602
0
ARC
8
DEFAULT_255_1_234
10
4.8808531
20
5.0748996
40
0.329292
50
269.5962073
51
280.8789248
0
ARC
8
DEFAULT_255_1_234
10
4.903806
20
4.9602685
40
0.2123908
50
280.6346389
51
299.8595945
0
ARC
8
DEFAULT_255_1_234
10
4.9228967
20
4.9240212
40
0.171457
50
300.3576302
51
314.5517981
0
ARC
8
DEFAULT_255_1_234
10
4.9146027
20
4.9300919
40
0.1816095
50
315.0728369
51
345.0431014
0
ARC
8
DEFAULT_255_1_234
10
4.8222841
20
4.9569841
40
0.2777492
50
344.5986631
51
357.9269593
0
ARC
8
DEFAULT_255_1_234
10
4.7327168
20
4.9631276
40
0.3674917
50
357.4748886
51
0.0231117
0
ARC
8
DEFAULT_255_1_234
10
4.8350277
20
4.9655679
40
0.2651907
50
359.5047933
51
13.4239635
0
ARC
8
DEFAULT_255_1_234
10
4.9216921
20
4.9877478
40
0.1757509
50
12.9498199
51
48.7551375
0
ARC
8
DEFAULT_255_1_234
10
4.9034655
20
4.96284
40
0.2065134
50
49.5088623
51
72.1836453
0
ARC
8
DEFAULT_255_1_234
10
4.8676807
20
4.8566291
40
0.3185836
50
71.9010081
51
84.3554254
0
ARC
8
DEFAULT_255_1_234
10
4.8515439
20
4.7205326
40
0.4556151
50
84.0193428
51
89.333121
0
LINE
8
DEFAULT_255_1_234
10
5.8937442
20
5.6090276
11
5.8937442
21
5.2676788
0
LINE
8
DEFAULT_255_1_234
10
5.8937442
20
5.2676788
11
6.2198328
21
5.2676788
0
LINE
8
DEFAULT_255_1_234
10
6.2198328
20
5.2676788
11
6.2198328
21
5.1271233
0
LINE
8
DEFAULT_255_1_234
10
6.2198328
20
5.1271233
11
5.8937442
21
5.1271233
0
LINE
8
DEFAULT_255_1_234
10
5.8937442
20
5.1271233
11
5.8937442
21
4.7576634
0
LINE
8
DEFAULT_255_1_234
10
5.8937442
20
4.7576634
11
5.7443539
21
4.7576634
0
LINE
8
DEFAULT_255_1_234
10
5.7443539
20
4.7576634
11
5.7443539
21
5.1271233
0
LINE
8
DEFAULT_255_1_234
10
5.7443539
20
5.1271233
11
5.4182653
21
5.1271233
0
LINE
8
DEFAULT_255_1_234
10
5.4182653
20
5.1271233
11
5.4182653
21
5.2676788
0
LINE
8
DEFAULT_255_1_234
10
5.4182653
20
5.2676788
11
5.7443539
21
5.2676788
0
LINE
8
DEFAULT_255_1_234
10
5.7443539
20
5.2676788
11
5.7443539
21
5.6090276
0
LINE
8
DEFAULT_255_1_234
10
5.7443539
20
5.6090276
11
5.8937442
21
5.6090276
0
LINE
8
DEFAULT_255_1_234
10
4.2857902
20
13.7473211
11
4.2857902
21
12.5779
0
LINE
8
DEFAULT_255_1_234
10
4.2857902
20
12.5779
11
4.1315808
21
12.5779
0
LINE
8
DEFAULT_255_1_234
10
4.1315808
20
12.5779
11
4.1315808
21
13.7473211
0
LINE
8
DEFAULT_255_1_234
10
4.1315808
20
13.7473211
11
4.2857902
21
13.7473211
0
LINE
8
DEFAULT_255_1_234
10
5.2953797
20
12.6991792
11
5.2953797
21
12.5779
0
LINE
8
DEFAULT_255_1_234
10
5.2953797
20
12.5779
11
4.5291519
21
12.5779
0
LINE
8
DEFAULT_255_1_234
10
4.5291519
20
12.5779
11
4.5291519
21
12.6847221
0
LINE
8
DEFAULT_255_1_234
10
4.5291519
20
12.6847221
11
4.9339515
21
13.1344995
0
LINE
8
DEFAULT_255_1_234
10
4.6552501
20
13.4027595
11
4.506663
21
13.4027595
0
LINE
8
DEFAULT_255_1_234
10
5.0214974
20
13.0389218
11
4.7082596
21
12.6991792
0
LINE
8
DEFAULT_255_1_234
10
4.7082596
20
12.6991792
11
5.2953797
21
12.6991792
0
ARC
8
DEFAULT_255_1_234
10
3.5849348
20
14.3274527
40
1.8008286
50
318.5132453
51
320.7828378
0
ARC
8
DEFAULT_255_1_234
10
4.1136322
20
13.8971426
40
1.1191493
50
320.7372736
51
323.9737074
0
ARC
8
DEFAULT_255_1_234
10
4.5056179
20
13.6131361
40
0.6350923
50
323.8961724
51
328.6421089
0
ARC
8
DEFAULT_255_1_234
10
4.7102774
20
13.4869031
40
0.3946393
50
328.8299013
51
331.789948
0
ARC
8
DEFAULT_255_1_234
10
4.8099953
20
13.4354509
40
0.2824501
50
331.4255242
51
352.9364833
0
ARC
8
DEFAULT_255_1_234
10
4.8236453
20
13.4323976
40
0.2685315
50
353.2248685
51
0.0169286
0
ARC
8
DEFAULT_255_1_234
10
4.844633
20
13.434695
40
0.2475536
50
359.4866256
51
15.9339782
0
ARC
8
DEFAULT_255_1_234
10
4.8953316
20
13.4483286
40
0.1950618
50
16.1714718
51
43.5284424
0
ARC
8
DEFAULT_255_1_234
10
4.9030624
20
13.4560573
40
0.184134
50
43.4415429
51
83.1661404
0
ARC
8
DEFAULT_255_1_234
10
4.8896542
20
13.3823771
40
0.258926
50
82.160215
51
90.1505798
0
ARC
8
DEFAULT_255_1_234
10
4.886497
20
13.3286865
40
0.3126255
50
89.5460705
51
102.5418777
0
ARC
8
DEFAULT_255_1_234
10
4.8622056
20
13.4317665
40
0.2067346
50
102.1739365
51
129.2061916
0
ARC
8
DEFAULT_255_1_234
10
4.8543127
20
13.4442094
40
0.1921118
50
129.7279328
51
135.7542026
0
ARC
8
DEFAULT_255_1_234
10
4.8664655
20
13.4345045
40
0.2075944
50
136.175737
51
166.3674722
0
ARC
8
DEFAULT_255_1_234
10
4.9671574
20
13.4075182
40
0.3118201
50
165.9092917
51
178.8683903
0
ARC
8
DEFAULT_255_1_234
10
5.0536436
20
13.4028179
40
0.3983935
50
178.438168
51
180.0083905
0
ARC
8
DEFAULT_255_1_234
10
4.9135038
20
13.4067231
40
0.4068601
50
163.2878735
51
180.5581814
0
ARC
8
DEFAULT_255_1_234
10
4.8333299
20
13.428784
40
0.3237344
50
133.454115
51
162.9470031
0
ARC
8
DEFAULT_255_1_234
10
4.8511841
20
13.4098
40
0.349795
50
100.7869394
51
133.4384016
0
ARC
8
DEFAULT_255_1_234
10
4.8859612
20
13.2549319
40
0.5084616
50
89.6605301
51
101.3704185
0
ARC
8
DEFAULT_255_1_234
10
4.8925951
20
13.2610496
40
0.502348
50
78.2171172
51
90.4130393
0
ARC
8
DEFAULT_255_1_234
10
4.9281029
20
13.4234637
40
0.3361092
50
55.9268222
51
78.4888551
0
ARC
8
DEFAULT_255_1_234
10
4.9477469
20
13.4573324
40
0.2970617
50
47.9292255
51
55.4054003
0
ARC
8
DEFAULT_255_1_234
10
4.957903
20
13.4676502
40
0.2825983
50
4.3347696
51
48.0560701
0
ARC
8
DEFAULT_255_1_234
10
4.8483424
20
13.4506601
40
0.393225
50
359.925209
51
5.5967654
0
ARC
8
DEFAULT_255_1_234
10
4.8912315
20
13.4562816
40
0.3503892
50
337.8914096
51
358.9967724
0
ARC
8
DEFAULT_255_1_234
10
4.6198727
20
13.5609706
40
0.6412172
50
326.9135351
51
338.3505194
0
ARC
8
DEFAULT_255_1_234
10
4.2213031
20
13.8164284
40
1.1146189
50
319.6472867
51
327.095818
0
ARC
8
DEFAULT_255_1_234
10
3.8380034
20
14.1326
40
1.6114559
50
317.2586784
51
319.9046139
0
LINE
8
DEFAULT_255_1_234
10
5.8937442
20
13.5465276
11
5.8937442
21
13.2051788
0
LINE
8
DEFAULT_255_1_234
10
5.8937442
20
13.2051788
11
6.2198328
21
13.2051788
0
LINE
8
DEFAULT_255_1_234
10
6.2198328
20
13.2051788
11
6.2198328
21
13.0646233
0
LINE
8
DEFAULT_255_1_234
10
6.2198328
20
13.0646233
11
5.8937442
21
13.0646233
0
LINE
8
DEFAULT_255_1_234
10
5.8937442
20
13.0646233
11
5.8937442
21
12.6951634
0
LINE
8
DEFAULT_255_1_234
10
5.8937442
20
12.6951634
11
5.7443539
21
12.6951634
0
LINE
8
DEFAULT_255_1_234
10
5.7443539
20
12.6951634
11
5.7443539
21
13.0646233
0
LINE
8
DEFAULT_255_1_234
10
5.7443539
20
13.0646233
11
5.4182653
21
13.0646233
0
LINE
8
DEFAULT_255_1_234
10
5.4182653
20
13.0646233
11
5.4182653
21
13.2051788
0
LINE
8
DEFAULT_255_1_234
10
5.4182653
20
13.2051788
11
5.7443539
21
13.2051788
0
LINE
8
DEFAULT_255_1_234
10
5.7443539
20
13.2051788
11
5.7443539
21
13.5465276
0
LINE
8
DEFAULT_255_1_234
10
5.7443539
20
13.5465276
11
5.8937442
21
13.5465276
0
LINE
8
DEFAULT_255_1_234
10
4.2857902
20
21.6848211
11
4.2857902
21
20.5154
0
LINE
8
DEFAULT_255_1_234
10
4.2857902
20
20.5154
11
4.1315808
21
20.5154
0
LINE
8
DEFAULT_255_1_234
10
4.1315808
20
20.5154
11
4.1315808
21
21.6848211
0
LINE
8
DEFAULT_255_1_234
10
4.1315808
20
21.6848211
11
4.2857902
21
21.6848211
0
LINE
8
DEFAULT_255_1_234
10
5.0174815
20
21.6904433
11
5.0174815
21
20.5154
0
LINE
8
DEFAULT_255_1_234
10
5.0174815
20
20.5154
11
4.8680912
21
20.5154
0
LINE
8
DEFAULT_255_1_234
10
4.8680912
20
20.5154
11
4.8680912
21
21.5057133
0
LINE
8
DEFAULT_255_1_234
10
4.8680912
20
21.5057133
11
4.5685074
21
21.3956785
0
LINE
8
DEFAULT_255_1_234
10
4.5685074
20
21.3956785
11
4.5685074
21
21.5306117
0
LINE
8
DEFAULT_255_1_234
10
4.5685074
20
21.5306117
11
4.9941895
21
21.6904433
0
LINE
8
DEFAULT_255_1_234
10
4.9941895
20
21.6904433
11
5.0174815
21
21.6904433
0
LINE
8
DEFAULT_255_1_234
10
5.8937442
20
21.4840276
11
5.8937442
21
21.1426788
0
LINE
8
DEFAULT_255_1_234
10
5.8937442
20
21.1426788
11
6.2198328
21
21.1426788
0
LINE
8
DEFAULT_255_1_234
10
6.2198328
20
21.1426788
11
6.2198328
21
21.0021233
0
LINE
8
DEFAULT_255_1_234
10
6.2198328
20
21.0021233
11
5.8937442
21
21.0021233
0
LINE
8
DEFAULT_255_1_234
10
5.8937442
20
21.0021233
11
5.8937442
21
20.6326634
0
LINE
8
DEFAULT_255_1_234
10
5.8937442
20
20.6326634
11
5.7443539
21
20.6326634
0
LINE
8
DEFAULT_255_1_234
10
5.7443539
20
20.6326634
11
5.7443539
21
21.0021233
0
LINE
8
DEFAULT_255_1_234
10
5.7443539
20
21.0021233
11
5.4182653
21
21.0021233
0
LINE
8
DEFAULT_255_1_234
10
5.4182653
20
21.0021233
11
5.4182653
21
21.1426788
0
LINE
8
DEFAULT_255_1_234
10
5.4182653
20
21.1426788
11
5.7443539
21
21.1426788
0
LINE
8
DEFAULT_255_1_234
10
5.7443539
20
21.1426788
11
5.7443539
21
21.4840276
0
LINE
8
DEFAULT_255_1_234
10
5.7443539
20
21.4840276
11
5.8937442
21
21.4840276
0
LINE
8
DEFAULT_255_1_234
10
4.2857902
20
29.6223211
11
4.2857902
21
28.4529
0
LINE
8
DEFAULT_255_1_234
10
4.2857902
20
28.4529
11
4.1315808
21
28.4529
0
LINE
8
DEFAULT_255_1_234
10
4.1315808
20
28.4529
11
4.1315808
21
29.6223211
0
LINE
8
DEFAULT_255_1_234
10
4.1315808
20
29.6223211
11
4.2857902
21
29.6223211
0
LINE
8
DEFAULT_255_1_234
10
5.2624496
20
29.1444327
11
5.2624496
21
28.9516709
0
LINE
8
DEFAULT_255_1_234
10
4.5243328
20
28.9315916
11
4.5243328
21
29.1299755
0
LINE
8
DEFAULT_255_1_234
10
5.1138624
20
28.9115123
11
5.1138624
21
29.1548739
0
LINE
8
DEFAULT_255_1_234
10
4.67292
20
29.1661184
11
4.67292
21
28.9283789
0
ARC
8
DEFAULT_255_1_234
10
4.0377385
20
28.9467805
40
1.2247208
50
353.8441951
51
0.2287902
0
ARC
8
DEFAULT_255_1_234
10
4.5016889
20
28.8949806
40
0.7578929
50
344.4934747
51
353.9765454
0
ARC
8
DEFAULT_255_1_234
10
4.8009479
20
28.8098981
40
0.4467846
50
329.2803592
51
344.7472793
0
ARC
8
DEFAULT_255_1_234
10
4.9002304
20
28.7554018
40
0.3336173
50
324.9352394
51
328.6160465
0
ARC
8
DEFAULT_255_1_234
10
4.9379413
20
28.7290427
40
0.2876076
50
280.580143
51
324.9173126
0
ARC
8
DEFAULT_255_1_234
10
4.8978205
20
28.8961099
40
0.4592847
50
269.5977311
51
281.6734359
0
ARC
8
DEFAULT_255_1_234
10
4.8906111
20
28.8841173
40
0.4472986
50
256.6228859
51
270.51044
0
ARC
8
DEFAULT_255_1_234
10
4.8504089
20
28.7292877
40
0.2873874
50
215.8618325
51
257.2788573
0
ARC
8
DEFAULT_255_1_234
10
4.952512
20
28.7977977
40
0.4102928
50
197.9693508
51
215.2623606
0
ARC
8
DEFAULT_255_1_234
10
5.2010236
20
28.8816709
40
0.6725652
50
187.8816417
51
198.2346507
0
ARC
8
DEFAULT_255_1_234
10
5.5968444
20
28.9388079
40
1.0724845
50
180.8976217
51
188.0055519
0
ARC
8
DEFAULT_255_1_234
10
5.8768632
20
28.9491777
40
1.3526448
50
180.7449369
51
181.1510016
0
ARC
8
DEFAULT_255_1_234
10
5.7191361
20
29.1348042
40
1.1948131
50
173.7675579
51
180.231553
0
ARC
8
DEFAULT_255_1_234
10
5.2673508
20
29.1858666
40
0.7401564
50
164.3058563
51
173.9002247
0
ARC
8
DEFAULT_255_1_234
10
4.9761577
20
29.2697656
40
0.4371288
50
148.7922025
51
164.568378
0
ARC
8
DEFAULT_255_1_234
10
4.8810029
20
29.3228929
40
0.3282386
50
144.5883898
51
148.1176286
0
ARC
8
DEFAULT_255_1_234
10
4.8466927
20
29.3468315
40
0.2864044
50
101.6440918
51
144.514236
0
ARC
8
DEFAULT_255_1_234
10
4.8891994
20
29.1779069
40
0.4604934
50
89.5284041
51
102.5819763
0
ARC
8
DEFAULT_255_1_234
10
4.8971081
20
29.1740018
40
0.464401
50
77.0437873
51
90.5081339
0
ARC
8
DEFAULT_255_1_234
10
4.9373083
20
29.3382615
40
0.2953195
50
48.2778575
51
77.4994676
0
ARC
8
DEFAULT_255_1_234
10
4.9445714
20
29.3511746
40
0.2808655
50
36.3142134
51
47.6305865
0
ARC
8
DEFAULT_255_1_234
10
4.8577021
20
29.2926515
40
0.3855453
50
18.2931786
51
35.6769206
0
ARC
8
DEFAULT_255_1_234
10
4.603378
20
29.2053593
40
0.654423
50
8.024666
51
18.5605216
0
ARC
8
DEFAULT_255_1_234
10
4.18707
20
29.1438792
40
1.0752407
50
1.1274072
51
8.1718305
0
ARC
8
DEFAULT_255_1_234
10
3.8634891
20
29.1311885
40
1.3990231
50
0.5424119
51
1.3863029
0
ARC
8
DEFAULT_255_1_234
10
4.0456269
20
29.1584342
40
1.0682415
50
359.8090433
51
4.9407866
0
ARC
8
DEFAULT_255_1_234
10
4.4666283
20
29.1960113
40
0.6455691
50
4.8362157
51
12.2904523
0
ARC
8
DEFAULT_255_1_234
10
4.7421398
20
29.2573965
40
0.3633074
50
12.0805627
51
23.8173984
0
ARC
8
DEFAULT_255_1_234
10
4.8595103
20
29.3070919
40
0.2358723
50
24.2871213
51
31.3935614
0
ARC
8
DEFAULT_255_1_234
10
4.91198
20
29.3414233
40
0.1732111
50
30.7407893
51
82.4657128
0
ARC
8
DEFAULT_255_1_234
10
4.8939934
20
29.2530691
40
0.263235
50
81.1060089
51
90.2184952
0
ARC
8
DEFAULT_255_1_234
10
4.8904233
20
29.2788924
40
0.2374236
50
89.3806855
51
105.6762551
0
ARC
8
DEFAULT_255_1_234
10
4.8720864
20
29.3455567
40
0.1682847
50
105.7981136
51
149.7388061
0
ARC
8
DEFAULT_255_1_234
10
4.9784942
20
29.281595
40
0.2924306
50
149.4208916
51
163.6286378
0
ARC
8
DEFAULT_255_1_234
10
5.187583
20
29.217825
40
0.5110213
50
163.3763315
51
172.1410975
0
ARC
8
DEFAULT_255_1_234
10
5.5176549
20
29.1705518
40
0.8444586
50
172.0259487
51
178.0703232
0
ARC
8
DEFAULT_255_1_234
10
5.8206639
20
29.1561906
40
1.1477868
50
177.8631668
51
179.5044149
0
ARC
8
DEFAULT_255_1_234
10
5.7134043
20
28.9247389
40
1.0404907
50
179.7995573
51
185.2460446
0
ARC
8
DEFAULT_255_1_234
10
5.3091083
20
28.8864513
40
0.6343885
50
185.1411642
51
193.0079639
0
ARC
8
DEFAULT_255_1_234
10
5.0447555
20
28.8239641
40
0.3627568
50
192.7897626
51
205.2507664
0
ARC
8
DEFAULT_255_1_234
10
4.9401102
20
28.7772415
40
0.2481908
50
205.8005384
51
211.2537509
0
ARC
8
DEFAULT_255_1_234
10
4.8877543
20
28.742158
40
0.1852521
50
210.3789793
51
238.4008143
0
ARC
8
DEFAULT_255_1_234
10
4.8858064
20
28.7468376
40
0.1882621
50
239.6520629
51
265.9793761
0
ARC
8
DEFAULT_255_1_234
10
4.8943265
20
28.8140427
40
0.2559272
50
265.1315437
51
270.060332
0
ARC
8
DEFAULT_255_1_234
10
4.8972043
20
28.7816534
40
0.2235528
50
269.3314664
51
287.2178029
0
ARC
8
DEFAULT_255_1_234
10
4.9109895
20
28.7313279
40
0.1714108
50
287.7958004
51
329.080874
0
ARC
8
DEFAULT_255_1_234
10
4.8152352
20
28.791093
40
0.2842745
50
328.6634704
51
343.3325132
0
ARC
8
DEFAULT_255_1_234
10
4.5979372
20
28.8587863
40
0.5118644
50
343.0499468
51
351.9393422
0
ARC
8
DEFAULT_255_1_234
10
4.2512672
20
28.9098949
40
0.8622784
50
351.8069023
51
357.7959224
0
ARC
8
DEFAULT_255_1_234
10
3.9277228
20
28.9266721
40
1.1862365
50
357.5871873
51
359.2677531
0
LINE
8
DEFAULT_255_1_234
10
5.8937442
20
29.4215276
11
5.8937442
21
29.0801788
0
LINE
8
DEFAULT_255_1_234
10
5.8937442
20
29.0801788
11
6.2198328
21
29.0801788
0
LINE
8
DEFAULT_255_1_234
10
6.2198328
20
29.0801788
11
6.2198328
21
28.9396233
0
LINE
8
DEFAULT_255_1_234
10
6.2198328
20
28.9396233
11
5.8937442
21
28.9396233
0
LINE
8
DEFAULT_255_1_234
10
5.8937442
20
28.9396233
11
5.8937442
21
28.5701634
0
LINE
8
DEFAULT_255_1_234
10
5.8937442
20
28.5701634
11
5.7443539
21
28.5701634
0
LINE
8
DEFAULT_255_1_234
10
5.7443539
20
28.5701634
11
5.7443539
21
28.9396233
0
LINE
8
DEFAULT_255_1_234
10
5.7443539
20
28.9396233
11
5.4182653
21
28.9396233
0
LINE
8
DEFAULT_255_1_234
10
5.4182653
20
28.9396233
11
5.4182653
21
29.0801788
0
LINE
8
DEFAULT_255_1_234
10
5.4182653
20
29.0801788
11
5.7443539
21
29.0801788
0
LINE
8
DEFAULT_255_1_234
10
5.7443539
20
29.0801788
11
5.7443539
21
29.4215276
0
LINE
8
DEFAULT_255_1_234
10
5.7443539
20
29.4215276
11
5.8937442
21
29.4215276
0
LINE
8
DEFAULT_255_1_234
10
4.5791137
20
37.5654433
11
4.5791137
21
36.3904
0
LINE
8
DEFAULT_255_1_234
10
4.5791137
20
36.3904
11
4.4297234
21
36.3904
0
LINE
8
DEFAULT_255_1_234
10
4.4297234
20
36.3904
11
4.4297234
21
37.3807133
0
LINE
8
DEFAULT_255_1_234
10
4.4297234
20
37.3807133
11
4.1301396
21
37.2706785
0
LINE
8
DEFAULT_255_1_234
10
4.1301396
20
37.2706785
11
4.1301396
21
37.4056117
0
LINE
8
DEFAULT_255_1_234
10
4.1301396
20
37.4056117
11
4.5558217
21
37.5654433
0
LINE
8
DEFAULT_255_1_234
10
4.5558217
20
37.5654433
11
4.5791137
21
37.5654433
0
LINE
8
DEFAULT_255_1_234
10
5.7581729
20
36.7614663
11
5.9131854
21
36.7614663
0
LINE
8
DEFAULT_255_1_234
10
5.0128276
20
36.9204947
11
5.0128276
21
37.0329391
0
LINE
8
DEFAULT_255_1_234
10
5.9131854
20
37.1839357
11
5.7581729
21
37.1839357
0
LINE
8
DEFAULT_255_1_234
10
5.1678401
20
37.0289232
11
5.1678401
21
36.9156757
0
ARC
8
DEFAULT_255_1_234
10
5.3651241
20
36.8211846
40
0.5513052
50
340.1774281
51
353.7814284
0
ARC
8
DEFAULT_255_1_234
10
5.5222594
20
36.7626582
40
0.3836379
50
311.4558989
51
340.4421614
0
ARC
8
DEFAULT_255_1_234
10
5.5189262
20
36.7737528
40
0.3941894
50
282.4333181
51
310.7513653
0
ARC
8
DEFAULT_255_1_234
10
5.4750001
20
36.9552679
40
0.5809175
50
269.9358511
51
282.809604
0
ARC
8
DEFAULT_255_1_234
10
5.4698067
20
37.1010212
40
0.7266847
50
270.0021091
51
270.3581957
0
ARC
8
DEFAULT_255_1_234
10
5.4645484
20
36.8409585
40
0.4666519
50
250.7884749
51
270.6489167
0
ARC
8
DEFAULT_255_1_234
10
5.4477319
20
36.7772319
40
0.4009729
50
219.3627325
51
250.0611886
0
ARC
8
DEFAULT_255_1_234
10
5.530653
20
36.8477042
40
0.5097822
50
193.5479632
51
219.5756669
0
ARC
8
DEFAULT_255_1_234
10
5.7678151
20
36.9092919
40
0.7547848
50
181.1218675
51
193.87563
0
ARC
8
DEFAULT_255_1_234
10
5.9748332
20
36.920358
40
0.9620055
50
179.9918545
51
181.5394234
0
ARC
8
DEFAULT_255_1_234
10
5.7897434
20
37.0366788
40
0.7769248
50
169.5837241
51
180.2757934
0
ARC
8
DEFAULT_255_1_234
10
5.6060372
20
37.0706229
40
0.590109
50
155.0365899
51
169.6003176
0
ARC
8
DEFAULT_255_1_234
10
5.4924836
20
37.1253677
40
0.4640625
50
136.783148
51
155.2472683
0
ARC
8
DEFAULT_255_1_234
10
5.4535313
20
37.1584562
40
0.4130255
50
121.7633186
51
136.428115
0
ARC
8
DEFAULT_255_1_234
10
5.4670275
20
37.1335227
40
0.4413323
50
95.6459699
51
121.5490577
0
ARC
8
DEFAULT_255_1_234
10
5.4827557
20
37.0226949
40
0.55319
50
89.924208
51
96.1377933
0
ARC
8
DEFAULT_255_1_234
10
5.487799
20
37.0345542
40
0.5413475
50
76.6779277
51
90.4563316
0
ARC
8
DEFAULT_255_1_234
10
5.5271613
20
37.1936114
40
0.3775041
50
47.485847
51
76.9287264
0
ARC
8
DEFAULT_255_1_234
10
5.5124586
20
37.1836159
40
0.3948286
50
16.5424086
51
46.8933463
0
ARC
8
DEFAULT_255_1_234
10
5.3516743
20
37.1307861
40
0.564021
50
5.4072051
51
17.0365086
0
ARC
8
DEFAULT_255_1_234
10
5.207776
20
37.1076679
40
0.5556559
50
7.8891745
51
15.9239216
0
ARC
8
DEFAULT_255_1_234
10
5.4064773
20
37.1653631
40
0.3487515
50
15.7653144
51
27.9410532
0
ARC
8
DEFAULT_255_1_234
10
5.5168991
20
37.224479
40
0.2235026
50
27.8166557
51
46.4008329
0
ARC
8
DEFAULT_255_1_234
10
5.5218634
20
37.2239082
40
0.2205286
50
47.4371857
51
75.0698205
0
ARC
8
DEFAULT_255_1_234
10
5.4910029
20
37.1164765
40
0.3322915
50
74.7008593
51
87.8124495
0
ARC
8
DEFAULT_255_1_234
10
5.4836716
20
37.0108844
40
0.4380987
50
87.3814673
51
90.0240855
0
ARC
8
DEFAULT_255_1_234
10
5.4798259
20
37.1286291
40
0.3203749
50
89.3451631
51
108.5745436
0
ARC
8
DEFAULT_255_1_234
10
5.4661365
20
37.1799908
40
0.2673494
50
109.2998449
51
143.3037509
0
ARC
8
DEFAULT_255_1_234
10
5.5423437
20
37.1213881
40
0.3634757
50
143.0753173
51
163.1916937
0
ARC
8
DEFAULT_255_1_234
10
5.7375165
20
37.0597967
40
0.5681262
50
162.9373603
51
174.6208611
0
ARC
8
DEFAULT_255_1_234
10
6.0001207
20
37.031001
40
0.8322832
50
174.3419979
51
180.1430411
0
ARC
8
DEFAULT_255_1_234
10
5.9070363
20
36.9115698
40
0.7392076
50
179.6817502
51
189.150529
0
ARC
8
DEFAULT_255_1_234
10
5.6569611
20
36.869919
40
0.4856932
50
188.9910863
51
203.5773039
0
ARC
8
DEFAULT_255_1_234
10
5.5489944
20
36.8251211
40
0.3688271
50
203.9077269
51
215.1312379
0
ARC
8
DEFAULT_255_1_234
10
5.4567038
20
36.7535941
40
0.2522457
50
213.9071664
51
263.8849284
0
ARC
8
DEFAULT_255_1_234
10
5.4692367
20
36.8320518
40
0.3316174
50
263.1758525
51
270.1031083
0
ARC
8
DEFAULT_255_1_234
10
5.4724459
20
36.9567365
40
0.4563091
50
269.6719807
51
279.0609165
0
ARC
8
DEFAULT_255_1_234
10
5.4991227
20
36.7954907
40
0.2928759
50
278.8750225
51
293.6346586
0
ARC
8
DEFAULT_255_1_234
10
5.5311435
20
36.72029
40
0.2111472
50
293.8553404
51
310.0518804
0
ARC
8
DEFAULT_255_1_234
10
5.5316289
20
36.7140516
40
0.2060917
50
311.0646779
51
332.0108348
0
ARC
8
DEFAULT_255_1_234
10
5.4124016
20
36.7797978
40
0.3422352
50
331.6588543
51
343.2878891
0
ARC
8
DEFAULT_255_1_234
10
5.2061531
20
36.8431798
40
0.5580003
50
343.1446044
51
351.010618
0
ARC
8
DEFAULT_255_1_234
10
5.0520177
20
36.8712871
40
0.7146438
50
350.7157277
51
351.1602153
0
LINE
8
DEFAULT_255_1_234
10
23.1660817
20
45.0194327
11
23.1660817
21
44.8266709
0
LINE
8
DEFAULT_255_1_234
10
22.427965
20
44.8065916
11
22.427965
21
45.0049755
0
LINE
8
DEFAULT_255_1_234
10
23.0174946
20
44.7865123
11
23.0174946
21
45.0298739
0
LINE
8
DEFAULT_255_1_234
10
22.5765521
20
45.0411184
11
22.5765521
21
44.8033789
0
ARC
8
DEFAULT_255_1_234
10
21.9413707
20
44.8217805
40
1.2247208
50
353.8441951
51
0.2287902
0
ARC
8
DEFAULT_255_1_234
10
22.4053211
20
44.7699806
40
0.7578929
50
344.4934747
51
353.9765454
0
ARC
8
DEFAULT_255_1_234
10
22.7045801
20
44.6848981
40
0.4467846
50
329.2803592
51
344.7472793
0
ARC
8
DEFAULT_255_1_234
10
22.8038626
20
44.6304018
40
0.3336173
50
324.9352394
51
328.6160465
0
ARC
8
DEFAULT_255_1_234
10
22.8415734
20
44.6040427
40
0.2876076
50
280.580143
51
324.9173126
0
ARC
8
DEFAULT_255_1_234
10
22.8014527
20
44.7711099
40
0.4592847
50
269.5977311
51
281.6734359
0
ARC
8
DEFAULT_255_1_234
10
22.7942433
20
44.7591173
40
0.4472986
50
256.6228859
51
270.51044
0
ARC
8
DEFAULT_255_1_234
10
22.754041
20
44.6042877
40
0.2873874
50
215.8618325
51
257.2788573
0
ARC
8
DEFAULT_255_1_234
10
22.8561442
20
44.6727977
40
0.4102928
50
197.9693508
51
215.2623606
0
ARC
8
DEFAULT_255_1_234
10
23.1046558
20
44.7566709
40
0.6725652
50
187.8816417
51
198.2346507
0
ARC
8
DEFAULT_255_1_234
10
23.5004766
20
44.8138079
40
1.0724845
50
180.8976217
51
188.0055519
0
ARC
8
DEFAULT_255_1_234
10
23.7804954
20
44.8241777
40
1.3526448
50
180.7449369
51
181.1510016
0
ARC
8
DEFAULT_255_1_234
10
23.6227683
20
45.0098042
40
1.1948131
50
173.7675579
51
180.231553
0
ARC
8
DEFAULT_255_1_234
10
23.170983
20
45.0608666
40
0.7401564
50
164.3058563
51
173.9002247
0
ARC
8
DEFAULT_255_1_234
10
22.8797899
20
45.1447656
40
0.4371288
50
148.7922025
51
164.568378
0
ARC
8
DEFAULT_255_1_234
10
22.7846351
20
45.1978929
40
0.3282386
50
144.5883898
51
148.1176286
0
ARC
8
DEFAULT_255_1_234
10
22.7503249
20
45.2218315
40
0.2864044
50
101.6440918
51
144.514236
0
ARC
8
DEFAULT_255_1_234
10
22.7928315
20
45.0529069
40
0.4604934
50
89.5284041
51
102.5819763
0
ARC
8
DEFAULT_255_1_234
10
22.8007403
20
45.0490018
40
0.464401
50
77.0437873
51
90.5081339
0
ARC
8
DEFAULT_255_1_234
10
22.8409405
20
45.2132615
40
0.2953195
50
48.2778575
51
77.4994676
0
ARC
8
DEFAULT_255_1_234
10
22.8482036
20
45.2261746
40
0.2808655
50
36.3142134
51
47.6305865
0
ARC
8
DEFAULT_255_1_234
10
22.7613343
20
45.1676515
40
0.3855453
50
18.2931786
51
35.6769206
0
ARC
8
DEFAULT_255_1_234
10
22.5070102
20
45.0803593
40
0.654423
50
8.024666
51
18.5605216
0
ARC
8
DEFAULT_255_1_234
10
22.0907022
20
45.0188792
40
1.0752407
50
1.1274072
51
8.1718305
0
ARC
8
DEFAULT_255_1_234
10
21.7671213
20
45.0061885
40
1.3990231
50
0.5424119
51
1.3863029
0
ARC
8
DEFAULT_255_1_234
10
21.949259
20
45.0334342
40
1.0682415
50
359.8090433
51
4.9407866
0
ARC
8
DEFAULT_255_1_234
10
22.3702604
20
45.0710113
40
0.6455691
50
4.8362157
51
12.2904523
0
ARC
8
DEFAULT_255_1_234
10
22.6457719
20
45.1323965
40
0.3633074
50
12.0805627
51
23.8173984
0
ARC
8
DEFAULT_255_1_234
10
22.7631425
20
45.1820919
40
0.2358723
50
24.2871213
51
31.3935614
0
ARC
8
DEFAULT_255_1_234
10
22.8156122
20
45.2164233
40
0.1732111
50
30.7407893
51
82.4657128
0
ARC
8
DEFAULT_255_1_234
10
22.7976256
20
45.1280691
40
0.263235
50
81.1060089
51
90.2184952
0
ARC
8
DEFAULT_255_1_234
10
22.7940555
20
45.1538924
40
0.2374236
50
89.3806855
51
105.6762551
0
ARC
8
DEFAULT_255_1_234
10
22.7757186
20
45.2205567
40
0.1682847
50
105.7981136
51
149.7388061
0
ARC
8
DEFAULT_255_1_234
10
22.8821264
20
45.156595
40
0.2924306
50
149.4208916
51
163.6286378
0
ARC
8
DEFAULT_255_1_234
10
23.0912152
20
45.092825
40
0.5110213
50
163.3763315
51
172.1410975
0
ARC
8
DEFAULT_255_1_234
10
23.4212871
20
45.0455518
40
0.8444586
50
172.0259487
51
178.0703232
0
ARC
8
DEFAULT_255_1_234
10
23.724296
20
45.0311906
40
1.1477868
50
177.8631668
51
179.5044149
0
ARC
8
DEFAULT_255_1_234
10
23.6170365
20
44.7997389
40
1.0404907
50
179.7995573
51
185.2460446
0
ARC
8
DEFAULT_255_1_234
10
23.2127404
20
44.7614513
40
0.6343885
50
185.1411642
51
193.0079639
0
ARC
8
DEFAULT_255_1_234
10
22.9483877
20
44.6989641
40
0.3627568
50
192.7897626
51
205.2507664
0
ARC
8
DEFAULT_255_1_234
10
22.8437424
20
44.6522415
40
0.2481908
50
205.8005384
51
211.2537509
0
ARC
8
DEFAULT_255_1_234
10
22.7913864
20
44.617158
40
0.1852521
50
210.3789793
51
238.4008143
0
ARC
8
DEFAULT_255_1_234
10
22.7894386
20
44.6218376
40
0.1882621
50
239.6520629
51
265.9793761
0
ARC
8
DEFAULT_255_1_234
10
22.7979586
20
44.6890427
40
0.2559272
50
265.1315437
51
270.060332
0
ARC
8
DEFAULT_255_1_234
10
22.8008365
20
44.6566534
40
0.2235528
50
269.3314664
51
287.2178029
0
ARC
8
DEFAULT_255_1_234
10
22.8146217
20
44.6063279
40
0.1714108
50
287.7958004
51
329.080874
0
ARC
8
DEFAULT_255_1_234
10
22.7188674
20
44.666093
40
0.2842745
50
328.6634704
51
343.3325132
0
ARC
8
DEFAULT_255_1_234
10
22.5015694
20
44.7337863
40
0.5118644
50
343.0499468
51
351.9393422
0
ARC
8
DEFAULT_255_1_234
10
22.1548994
20
44.7848949
40
0.8622784
50
351.8069023
51
357.7959224
0
ARC
8
DEFAULT_255_1_234
10
21.831355
20
44.8016721
40
1.1862365
50
357.5871873
51
359.2677531
0
LINE
8
DEFAULT_255_1_234
10
23.4496021
20
45.4973211
11
23.7821161
21
44.5327093
0
LINE
8
DEFAULT_255_1_234
10
23.7821161
20
44.5327093
11
24.1162364
21
45.4973211
0
LINE
8
DEFAULT_255_1_234
10
24.1162364
20
45.4973211
11
24.2849029
21
45.4973211
0
LINE
8
DEFAULT_255_1_234
10
24.2849029
20
45.4973211
11
23.851189
21
44.3279
0
LINE
8
DEFAULT_255_1_234
10
23.851189
20
44.3279
11
23.7146495
21
44.3279
0
LINE
8
DEFAULT_255_1_234
10
23.7146495
20
44.3279
11
23.2817388
21
45.4973211
0
LINE
8
DEFAULT_255_1_234
10
23.2817388
20
45.4973211
11
23.4496021
21
45.4973211
0
LINE
8
DEFAULT_255_1_234
10
22.3232902
20
21.6848211
11
22.3232902
21
20.5154
0
LINE
8
DEFAULT_255_1_234
10
22.3232902
20
20.5154
11
22.1690808
21
20.5154
0
LINE
8
DEFAULT_255_1_234
10
22.1690808
20
20.5154
11
22.1690808
21
21.6848211
0
LINE
8
DEFAULT_255_1_234
10
22.1690808
20
21.6848211
11
22.3232902
21
21.6848211
0
LINE
8
DEFAULT_255_1_234
10
23.0549815
20
21.6904433
11
23.0549815
21
20.5154
0
LINE
8
DEFAULT_255_1_234
10
23.0549815
20
20.5154
11
22.9055912
21
20.5154
0
LINE
8
DEFAULT_255_1_234
10
22.9055912
20
20.5154
11
22.9055912
21
21.5057133
0
LINE
8
DEFAULT_255_1_234
10
22.9055912
20
21.5057133
11
22.6060074
21
21.3956785
0
LINE
8
DEFAULT_255_1_234
10
22.6060074
20
21.3956785
11
22.6060074
21
21.5306117
0
LINE
8
DEFAULT_255_1_234
10
22.6060074
20
21.5306117
11
23.0316895
21
21.6904433
0
LINE
8
DEFAULT_255_1_234
10
23.0316895
20
21.6904433
11
23.0549815
21
21.6904433
0
LINE
8
DEFAULT_255_1_234
10
23.9312442
20
21.4840276
11
23.9312442
21
21.1426788
0
LINE
8
DEFAULT_255_1_234
10
23.9312442
20
21.1426788
11
24.2573328
21
21.1426788
0
LINE
8
DEFAULT_255_1_234
10
24.2573328
20
21.1426788
11
24.2573328
21
21.0021233
0
LINE
8
DEFAULT_255_1_234
10
24.2573328
20
21.0021233
11
23.9312442
21
21.0021233
0
LINE
8
DEFAULT_255_1_234
10
23.9312442
20
21.0021233
11
23.9312442
21
20.6326634
0
LINE
8
DEFAULT_255_1_234
10
23.9312442
20
20.6326634
11
23.7818539
21
20.6326634
0
LINE
8
DEFAULT_255_1_234
10
23.7818539
20
20.6326634
11
23.7818539
21
21.0021233
0
LINE
8
DEFAULT_255_1_234
10
23.7818539
20
21.0021233
11
23.4557653
21
21.0021233
0
LINE
8
DEFAULT_255_1_234
10
23.4557653
20
21.0021233
11
23.4557653
21
21.1426788
0
LINE
8
DEFAULT_255_1_234
10
23.4557653
20
21.1426788
11
23.7818539
21
21.1426788
0
LINE
8
DEFAULT_255_1_234
10
23.7818539
20
21.1426788
11
23.7818539
21
21.4840276
0
LINE
8
DEFAULT_255_1_234
10
23.7818539
20
21.4840276
11
23.9312442
21
21.4840276
0
LINE
8
DEFAULT_255_1_234
10
22.3232902
20
29.6223211
11
22.3232902
21
28.4529
0
LINE
8
DEFAULT_255_1_234
10
22.3232902
20
28.4529
11
22.1690808
21
28.4529
0
LINE
8
DEFAULT_255_1_234
10
22.1690808
20
28.4529
11
22.1690808
21
29.6223211
0
LINE
8
DEFAULT_255_1_234
10
22.1690808
20
29.6223211
11
22.3232902
21
29.6223211
0
LINE
8
DEFAULT_255_1_234
10
23.2999496
20
29.1444327
11
23.2999496
21
28.9516709
0
LINE
8
DEFAULT_255_1_234
10
22.5618328
20
28.9315916
11
22.5618328
21
29.1299755
0
LINE
8
DEFAULT_255_1_234
10
23.1513624
20
28.9115123
11
23.1513624
21
29.1548739
0
LINE
8
DEFAULT_255_1_234
10
22.71042
20
29.1661184
11
22.71042
21
28.9283789
0
ARC
8
DEFAULT_255_1_234
10
22.0752385
20
28.9467805
40
1.2247208
50
353.8441951
51
0.2287902
0
ARC
8
DEFAULT_255_1_234
10
22.5391889
20
28.8949806
40
0.7578929
50
344.4934747
51
353.9765454
0
ARC
8
DEFAULT_255_1_234
10
22.8384479
20
28.8098981
40
0.4467846
50
329.2803592
51
344.7472793
0
ARC
8
DEFAULT_255_1_234
10
22.9377304
20
28.7554018
40
0.3336173
50
324.9352394
51
328.6160465
0
ARC
8
DEFAULT_255_1_234
10
22.9754413
20
28.7290427
40
0.2876076
50
280.580143
51
324.9173126
0
ARC
8
DEFAULT_255_1_234
10
22.9353205
20
28.8961099
40
0.4592847
50
269.5977311
51
281.6734359
0
ARC
8
DEFAULT_255_1_234
10
22.9281111
20
28.8841173
40
0.4472986
50
256.6228859
51
270.51044
0
ARC
8
DEFAULT_255_1_234
10
22.8879089
20
28.7292877
40
0.2873874
50
215.8618325
51
257.2788573
0
ARC
8
DEFAULT_255_1_234
10
22.990012
20
28.7977977
40
0.4102928
50
197.9693508
51
215.2623606
0
ARC
8
DEFAULT_255_1_234
10
23.2385236
20
28.8816709
40
0.6725652
50
187.8816417
51
198.2346507
0
ARC
8
DEFAULT_255_1_234
10
23.6343444
20
28.9388079
40
1.0724845
50
180.8976217
51
188.0055519
0
ARC
8
DEFAULT_255_1_234
10
23.9143632
20
28.9491777
40
1.3526448
50
180.7449369
51
181.1510016
0
ARC
8
DEFAULT_255_1_234
10
23.7566361
20
29.1348042
40
1.1948131
50
173.7675579
51
180.231553
0
ARC
8
DEFAULT_255_1_234
10
23.3048508
20
29.1858666
40
0.7401564
50
164.3058563
51
173.9002247
0
ARC
8
DEFAULT_255_1_234
10
23.0136577
20
29.2697656
40
0.4371288
50
148.7922025
51
164.568378
0
ARC
8
DEFAULT_255_1_234
10
22.9185029
20
29.3228929
40
0.3282386
50
144.5883898
51
148.1176286
0
ARC
8
DEFAULT_255_1_234
10
22.8841927
20
29.3468315
40
0.2864044
50
101.6440918
51
144.514236
0
ARC
8
DEFAULT_255_1_234
10
22.9266994
20
29.1779069
40
0.4604934
50
89.5284041
51
102.5819763
0
ARC
8
DEFAULT_255_1_234
10
22.9346081
20
29.1740018
40
0.464401
50
77.0437873
51
90.5081339
0
ARC
8
DEFAULT_255_1_234
10
22.9748083
20
29.3382615
40
0.2953195
50
48.2778575
51
77.4994676
0
ARC
8
DEFAULT_255_1_234
10
22.9820714
20
29.3511746
40
0.2808655
50
36.3142134
51
47.6305865
0
ARC
8
DEFAULT_255_1_234
10
22.8952021
20
29.2926515
40
0.3855453
50
18.2931786
51
35.6769206
0
ARC
8
DEFAULT_255_1_234
10
22.640878
20
29.2053593
40
0.654423
50
8.024666
51
18.5605216
0
ARC
8
DEFAULT_255_1_234
10
22.22457
20
29.1438792
40
1.0752407
50
1.1274072
51
8.1718305
0
ARC
8
DEFAULT_255_1_234
10
21.9009891
20
29.1311885
40
1.3990231
50
0.5424119
51
1.3863029
0
ARC
8
DEFAULT_255_1_234
10
22.0831269
20
29.1584342
40
1.0682415
50
359.8090433
51
4.9407866
0
ARC
8
DEFAULT_255_1_234
10
22.5041283
20
29.1960113
40
0.6455691
50
4.8362157
51
12.2904523
0
ARC
8
DEFAULT_255_1_234
10
22.7796398
20
29.2573965
40
0.3633074
50
12.0805627
51
23.8173984
0
ARC
8
DEFAULT_255_1_234
10
22.8970103
20
29.3070919
40
0.2358723
50
24.2871213
51
31.3935614
0
ARC
8
DEFAULT_255_1_234
10
22.94948
20
29.3414233
40
0.1732111
50
30.7407893
51
82.4657128
0
ARC
8
DEFAULT_255_1_234
10
22.9314934
20
29.2530691
40
0.263235
50
81.1060089
51
90.2184952
0
ARC
8
DEFAULT_255_1_234
10
22.9279233
20
29.2788924
40
0.2374236
50
89.3806855
51
105.6762551
0
ARC
8
DEFAULT_255_1_234
10
22.9095864
20
29.3455567
40
0.1682847
50
105.7981136
51
149.7388061
0
ARC
8
DEFAULT_255_1_234
10
23.0159942
20
29.281595
40
0.2924306
50
149.4208916
51
163.6286378
0
ARC
8
DEFAULT_255_1_234
10
23.225083
20
29.217825
40
0.5110213
50
163.3763315
51
172.1410975
0
ARC
8
DEFAULT_255_1_234
10
23.5551549
20
29.1705518
40
0.8444586
50
172.0259487
51
178.0703232
0
ARC
8
DEFAULT_255_1_234
10
23.8581639
20
29.1561906
40
1.1477868
50
177.8631668
51
179.5044149
0
ARC
8
DEFAULT_255_1_234
10
23.7509043
20
28.9247389
40
1.0404907
50
179.7995573
51
185.2460446
0
ARC
8
DEFAULT_255_1_234
10
23.3466083
20
28.8864513
40
0.6343885
50
185.1411642
51
193.0079639
0
ARC
8
DEFAULT_255_1_234
10
23.0822555
20
28.8239641
40
0.3627568
50
192.7897626
51
205.2507664
0
ARC
8
DEFAULT_255_1_234
10
22.9776102
20
28.7772415
40
0.2481908
50
205.8005384
51
211.2537509
0
ARC
8
DEFAULT_255_1_234
10
22.9252543
20
28.742158
40
0.1852521
50
210.3789793
51
238.4008143
0
ARC
8
DEFAULT_255_1_234
10
22.9233064
20
28.7468376
40
0.1882621
50
239.6520629
51
265.9793761
0
ARC
8
DEFAULT_255_1_234
10
22.9318265
20
28.8140427
40
0.2559272
50
265.1315437
51
270.060332
0
ARC
8
DEFAULT_255_1_234
10
22.9347043
20
28.7816534
40
0.2235528
50
269.3314664
51
287.2178029
0
ARC
8
DEFAULT_255_1_234
10
22.9484895
20
28.7313279
40
0.1714108
50
287.7958004
51
329.080874
0
ARC
8
DEFAULT_255_1_234
10
22.8527352
20
28.791093
40
0.2842745
50
328.6634704
51
343.3325132
0
ARC
8
DEFAULT_255_1_234
10
22.6354372
20
28.8587863
40
0.5118644
50
343.0499468
51
351.9393422
0
ARC
8
DEFAULT_255_1_234
10
22.2887672
20
28.9098949
40
0.8622784
50
351.8069023
51
357.7959224
0
ARC
8
DEFAULT_255_1_234
10
21.9652228
20
28.9266721
40
1.1862365
50
357.5871873
51
359.2677531
0
LINE
8
DEFAULT_255_1_234
10
23.9312442
20
29.4215276
11
23.9312442
21
29.0801788
0
LINE
8
DEFAULT_255_1_234
10
23.9312442
20
29.0801788
11
24.2573328
21
29.0801788
0
LINE
8
DEFAULT_255_1_234
10
24.2573328
20
29.0801788
11
24.2573328
21
28.9396233
0
LINE
8
DEFAULT_255_1_234
10
24.2573328
20
28.9396233
11
23.9312442
21
28.9396233
0
LINE
8
DEFAULT_255_1_234
10
23.9312442
20
28.9396233
11
23.9312442
21
28.5701634
0
LINE
8
DEFAULT_255_1_234
10
23.9312442
20
28.5701634
11
23.7818539
21
28.5701634
0
LINE
8
DEFAULT_255_1_234
10
23.7818539
20
28.5701634
11
23.7818539
21
28.9396233
0
LINE
8
DEFAULT_255_1_234
10
23.7818539
20
28.9396233
11
23.4557653
21
28.9396233
0
LINE
8
DEFAULT_255_1_234
10
23.4557653
20
28.9396233
11
23.4557653
21
29.0801788
0
LINE
8
DEFAULT_255_1_234
10
23.4557653
20
29.0801788
11
23.7818539
21
29.0801788
0
LINE
8
DEFAULT_255_1_234
10
23.7818539
20
29.0801788
11
23.7818539
21
29.4215276
0
LINE
8
DEFAULT_255_1_234
10
23.7818539
20
29.4215276
11
23.9312442
21
29.4215276
0
LINE
8
DEFAULT_255_1_234
10
22.9087137
20
37.5654433
11
22.9087137
21
36.3904
0
LINE
8
DEFAULT_255_1_234
10
22.9087137
20
36.3904
11
22.7593234
21
36.3904
0
LINE
8
DEFAULT_255_1_234
10
22.7593234
20
36.3904
11
22.7593234
21
37.3807133
0
LINE
8
DEFAULT_255_1_234
10
22.7593234
20
37.3807133
11
22.4597396
21
37.2706785
0
LINE
8
DEFAULT_255_1_234
10
22.4597396
20
37.2706785
11
22.4597396
21
37.4056117
0
LINE
8
DEFAULT_255_1_234
10
22.4597396
20
37.4056117
11
22.8854217
21
37.5654433
0
LINE
8
DEFAULT_255_1_234
10
22.8854217
20
37.5654433
11
22.9087137
21
37.5654433
0
LINE
8
DEFAULT_255_1_234
10
24.0877729
20
36.7614663
11
24.2427854
21
36.7614663
0
LINE
8
DEFAULT_255_1_234
10
23.3424276
20
36.9204947
11
23.3424276
21
37.0329391
0
LINE
8
DEFAULT_255_1_234
10
24.2427854
20
37.1839357
11
24.0877729
21
37.1839357
0
LINE
8
DEFAULT_255_1_234
10
23.4974401
20
37.0289232
11
23.4974401
21
36.9156757
0
ARC
8
DEFAULT_255_1_234
10
23.6947241
20
36.8211846
40
0.5513052
50
340.1774281
51
353.7814284
0
ARC
8
DEFAULT_255_1_234
10
23.8518594
20
36.7626582
40
0.3836379
50
311.4558989
51
340.4421614
0
ARC
8
DEFAULT_255_1_234
10
23.8485262
20
36.7737528
40
0.3941894
50
282.4333181
51
310.7513653
0
ARC
8
DEFAULT_255_1_234
10
23.8046001
20
36.9552679
40
0.5809175
50
269.9358511
51
282.809604
0
ARC
8
DEFAULT_255_1_234
10
23.7994067
20
37.1010212
40
0.7266847
50
270.0021091
51
270.3581957
0
ARC
8
DEFAULT_255_1_234
10
23.7941484
20
36.8409585
40
0.4666519
50
250.7884749
51
270.6489167
0
ARC
8
DEFAULT_255_1_234
10
23.7773319
20
36.7772319
40
0.4009729
50
219.3627325
51
250.0611886
0
ARC
8
DEFAULT_255_1_234
10
23.860253
20
36.8477042
40
0.5097822
50
193.5479632
51
219.5756669
0
ARC
8
DEFAULT_255_1_234
10
24.0974151
20
36.9092919
40
0.7547848
50
181.1218675
51
193.87563
0
ARC
8
DEFAULT_255_1_234
10
24.3044332
20
36.920358
40
0.9620055
50
179.9918545
51
181.5394234
0
ARC
8
DEFAULT_255_1_234
10
24.1193434
20
37.0366788
40
0.7769248
50
169.5837241
51
180.2757934
0
ARC
8
DEFAULT_255_1_234
10
23.9356372
20
37.0706229
40
0.590109
50
155.0365899
51
169.6003176
0
ARC
8
DEFAULT_255_1_234
10
23.8220836
20
37.1253677
40
0.4640625
50
136.783148
51
155.2472683
0
ARC
8
DEFAULT_255_1_234
10
23.7831313
20
37.1584562
40
0.4130255
50
121.7633186
51
136.428115
0
ARC
8
DEFAULT_255_1_234
10
23.7966275
20
37.1335227
40
0.4413323
50
95.6459699
51
121.5490577
0
ARC
8
DEFAULT_255_1_234
10
23.8123557
20
37.0226949
40
0.55319
50
89.924208
51
96.1377933
0
ARC
8
DEFAULT_255_1_234
10
23.817399
20
37.0345542
40
0.5413475
50
76.6779277
51
90.4563316
0
ARC
8
DEFAULT_255_1_234
10
23.8567613
20
37.1936114
40
0.3775041
50
47.485847
51
76.9287264
0
ARC
8
DEFAULT_255_1_234
10
23.8420586
20
37.1836159
40
0.3948286
50
16.5424086
51
46.8933463
0
ARC
8
DEFAULT_255_1_234
10
23.6812743
20
37.1307861
40
0.564021
50
5.4072051
51
17.0365086
0
ARC
8
DEFAULT_255_1_234
10
23.537376
20
37.1076679
40
0.5556559
50
7.8891745
51
15.9239216
0
ARC
8
DEFAULT_255_1_234
10
23.7360773
20
37.1653631
40
0.3487515
50
15.7653144
51
27.9410532
0
ARC
8
DEFAULT_255_1_234
10
23.8464991
20
37.224479
40
0.2235026
50
27.8166557
51
46.4008329
0
ARC
8
DEFAULT_255_1_234
10
23.8514634
20
37.2239082
40
0.2205286
50
47.4371857
51
75.0698205
0
ARC
8
DEFAULT_255_1_234
10
23.8206029
20
37.1164765
40
0.3322915
50
74.7008593
51
87.8124495
0
ARC
8
DEFAULT_255_1_234
10
23.8132716
20
37.0108844
40
0.4380987
50
87.3814673
51
90.0240855
0
ARC
8
DEFAULT_255_1_234
10
23.8094259
20
37.1286291
40
0.3203749
50
89.3451631
51
108.5745436
0
ARC
8
DEFAULT_255_1_234
10
23.7957365
20
37.1799908
40
0.2673494
50
109.2998449
51
143.3037509
0
ARC
8
DEFAULT_255_1_234
10
23.8719437
20
37.1213881
40
0.3634757
50
143.0753173
51
163.1916937
0
ARC
8
DEFAULT_255_1_234
10
24.0671165
20
37.0597967
40
0.5681262
50
162.9373603
51
174.6208611
0
ARC
8
DEFAULT_255_1_234
10
24.3297207
20
37.031001
40
0.8322832
50
174.3419979
51
180.1430411
0
ARC
8
DEFAULT_255_1_234
10
24.2366363
20
36.9115698
40
0.7392076
50
179.6817502
51
189.150529
0
ARC
8
DEFAULT_255_1_234
10
23.9865611
20
36.869919
40
0.4856932
50
188.9910863
51
203.5773039
0
ARC
8
DEFAULT_255_1_234
10
23.8785944
20
36.8251211
40
0.3688271
50
203.9077269
51
215.1312379
0
ARC
8
DEFAULT_255_1_234
10
23.7863038
20
36.7535941
40
0.2522457
50
213.9071664
51
263.8849284
0
ARC
8
DEFAULT_255_1_234
10
23.7988367
20
36.8320518
40
0.3316174
50
263.1758525
51
270.1031083
0
ARC
8
DEFAULT_255_1_234
10
23.8020459
20
36.9567365
40
0.4563091
50
269.6719807
51
279.0609165
0
ARC
8
DEFAULT_255_1_234
10
23.8287227
20
36.7954907
40
0.2928759
50
278.8750225
51
293.6346586
0
ARC
8
DEFAULT_255_1_234
10
23.8607435
20
36.72029
40
0.2111472
50
293.8553404
51
310.0518804
0
ARC
8
DEFAULT_255_1_234
10
23.8612289
20
36.7140516
40
0.2060917
50
311.0646779
51
332.0108348
0
ARC
8
DEFAULT_255_1_234
10
23.7420016
20
36.7797978
40
0.3422352
50
331.6588543
51
343.2878891
0
ARC
8
DEFAULT_255_1_234
10
23.5357531
20
36.8431798
40
0.5580003
50
343.1446044
51
351.010618
0
ARC
8
DEFAULT_255_1_234
10
23.3816177
20
36.8712871
40
0.7146438
50
350.7157277
51
351.1602153
0
ENDSEC
0
EOF