0
SECTION
2
HEADER
9
$MEASUREMENT
70
1
0
ENDSEC
0
SECTION
2
TABLES
0
TABLE
2
LTYPE
0
LTYPE
72
65
70
64
2
CONTINUOUS
3
______
73
0
40
0
0
ENDTAB
0
TABLE
2
LAYER
0
LAYER
2
DEFAULT_255_2_778
70
0
62
255
6
CONTINUOUS
0
ENDTAB
0
ENDSEC
0
SECTION
2
ENTITIES
0
LINE
8
DEFAULT_255_2_778
10
14.4186971
20
26.9311269
11
14.4186971
21
35.6812269
0
LINE
8
DEFAULT_255_2_778
10
14.4186971
20
35.6812269
11
12.9187971
21
35.6812269
0
LINE
8
DEFAULT_255_2_778
10
12.9187971
20
35.6812269
11
12.9187971
21
26.9311269
0
LINE
8
DEFAULT_255_2_778
10
12.9187971
20
26.9311269
11
14.4186971
21
26.9311269
0
LINE
8
DEFAULT_255_2_778
10
14.4186971
20
26.9311269
11
14.4186971
21
25.3561269
0
LINE
8
DEFAULT_255_2_778
10
14.4186971
20
25.3561269
11
16.4435971
21
25.3561269
0
LINE
8
DEFAULT_255_2_778
10
16.4435971
20
25.3561269
11
16.4435971
21
24.9761269
0
LINE
8
DEFAULT_255_2_778
10
16.4435971
20
24.9761269
11
19.2436971
21
24.9761269
0
LINE
8
DEFAULT_255_2_778
10
19.2436971
20
24.9761269
11
19.2436971
21
25.3561269
0
LINE
8
DEFAULT_255_2_778
10
19.2436971
20
25.3561269
11
21.2438971
21
25.3561269
0
LINE
8
DEFAULT_255_2_778
10
21.2438971
20
25.3561269
11
21.2438971
21
28.2884269
0
LINE
8
DEFAULT_255_2_778
10
21.2438971
20
28.2884269
11
22.7437971
21
28.2884269
0
LINE
8
DEFAULT_255_2_778
10
22.7437971
20
28.2884269
11
22.7437971
21
29.4383269
0
LINE
8
DEFAULT_255_2_778
10
22.7437971
20
29.4383269
11
23.7439971
21
29.4383269
0
LINE
8
DEFAULT_255_2_778
10
23.7439971
20
29.4383269
11
23.7439971
21
33.4383269
0
LINE
8
DEFAULT_255_2_778
10
23.7439971
20
33.4383269
11
22.7437971
21
33.4383269
0
LINE
8
DEFAULT_255_2_778
10
22.7437971
20
33.4383269
11
22.7437971
21
34.5882269
0
LINE
8
DEFAULT_255_2_778
10
22.7437971
20
34.5882269
11
21.2438971
21
34.5882269
0
LINE
8
DEFAULT_255_2_778
10
21.2438971
20
34.5882269
11
21.2438971
21
37.2557269
0
LINE
8
DEFAULT_255_2_778
10
21.2438971
20
37.2557269
11
19.2436971
21
37.2557269
0
LINE
8
DEFAULT_255_2_778
10
19.2436971
20
37.2557269
11
19.2436971
21
37.6356269
0
LINE
8
DEFAULT_255_2_778
10
19.2436971
20
37.6356269
11
16.4435971
21
37.6356269
0
LINE
8
DEFAULT_255_2_778
10
16.4435971
20
37.6356269
11
16.4435971
21
37.2557269
0
LINE
8
DEFAULT_255_2_778
10
16.4435971
20
37.2557269
11
14.4186971
21
37.2557269
0
LINE
8
DEFAULT_255_2_778
10
14.4186971
20
37.2557269
11
14.4186971
21
35.6806269
0
LINE
8
DEFAULT_255_2_778
10
24.6498971
20
38.9313269
11
11.8998971
21
38.9313269
0
LINE
8
DEFAULT_255_2_778
10
11.8998971
20
38.9313269
11
11.8998971
21
23.6812269
0
LINE
8
DEFAULT_255_2_778
10
11.8998971
20
23.6812269
11
24.6498971
21
23.6812269
0
LINE
8
DEFAULT_255_2_778
10
24.6498971
20
23.6812269
11
24.6498971
21
38.9313269
0
ARC
8
DEFAULT_255_2_778
10
13.2503374
20
81.250185
40
0.0484309
50
141.0448916
51
166.3902628
0
ARC
8
DEFAULT_255_2_778
10
13.8356069
20
80.8427278
40
0.7614493
50
139.0192116
51
144.8936711
0
ARC
8
DEFAULT_255_2_778
10
15.7532205
20
79.2243544
40
3.2706474
50
137.7103272
51
139.6468041
0
ARC
8
DEFAULT_255_2_778
10
18.9711098
20
76.3043907
40
7.6158732
50
136.3009549
51
137.7494524
0
ARC
8
DEFAULT_255_2_778
10
22.7650855
20
72.6872947
40
12.8577826
50
134.969088
51
136.3279688
0
ARC
8
DEFAULT_255_2_778
10
13.1753747
20
79.6699027
40
0.0942347
50
47.7166477
51
71.4164952
0
ARC
8
DEFAULT_255_2_778
10
12.4056692
20
78.6536071
40
1.3687549
50
48.4676143
51
52.5073288
0
ARC
8
DEFAULT_255_2_778
10
10.4978071
20
76.457577
40
4.2777473
50
47.4446594
51
48.8409533
0
ARC
8
DEFAULT_255_2_778
10
7.6754378
20
73.3842909
40
8.4503791
50
46.1002294
51
47.4408843
0
ARC
8
DEFAULT_255_2_778
10
4.669111
20
70.2493942
40
12.7938271
50
45.0819351
51
46.1338782
0
LINE
8
DEFAULT_255_2_778
10
13.2032667
20
81.2588239
11
9.9533667
21
81.2588239
0
LINE
8
DEFAULT_255_2_778
10
13.2032667
20
79.7589239
11
13.2032667
21
81.2615239
0
LINE
8
DEFAULT_255_2_778
10
13.6781667
20
81.7840239
11
13.7030667
21
81.8089239
0
LINE
8
DEFAULT_255_2_778
10
9.4530667
20
79.3089239
11
9.9504667
21
79.7592239
0
LINE
8
DEFAULT_255_2_778
10
9.9504667
20
79.7592239
11
13.2053667
21
79.7592239
0
LINE
8
DEFAULT_255_2_778
10
9.4527667
20
81.8089239
11
9.4527667
21
79.3089239
0
LINE
8
DEFAULT_255_2_778
10
9.4527667
20
79.3089239
11
13.7027667
21
79.3089239
0
LINE
8
DEFAULT_255_2_778
10
13.7027667
20
79.3089239
11
13.7027667
21
81.8089239
0
LINE
8
DEFAULT_255_2_778
10
13.7027667
20
81.8089239
11
9.4532667
21
81.8089239
0
LINE
8
DEFAULT_255_2_778
10
9.4532667
20
81.8089239
11
9.4781667
21
81.7840239
0
LINE
8
DEFAULT_255_2_778
10
9.4781667
20
81.7840239
11
9.9533667
21
81.2615239
0
LINE
8
DEFAULT_255_2_778
10
9.9533667
20
81.2615239
11
9.9533667
21
79.7589239
0
ARC
8
DEFAULT_255_2_778
10
20.4257762
20
79.6695135
40
0.0942293
50
47.742401
51
71.467764
0
ARC
8
DEFAULT_255_2_778
10
19.659065
20
78.6562463
40
1.364528
50
48.4781799
51
52.5314809
0
ARC
8
DEFAULT_255_2_778
10
17.7619015
20
76.4715729
40
4.2579308
50
47.4495869
51
48.8525197
0
ARC
8
DEFAULT_255_2_778
10
14.9620898
20
73.42228
40
8.3976326
50
46.0969204
51
47.4460192
0
ARC
8
DEFAULT_255_2_778
10
11.9893589
20
70.322597
40
12.6924117
50
45.0707073
51
46.131012
0
ARC
8
DEFAULT_255_2_778
10
20.5001374
20
81.2501173
40
0.0484309
50
141.0448916
51
166.3902628
0
ARC
8
DEFAULT_255_2_778
10
21.0854069
20
80.8426601
40
0.7614493
50
139.0192116
51
144.8936711
0
ARC
8
DEFAULT_255_2_778
10
23.0030205
20
79.2242867
40
3.2706474
50
137.7103272
51
139.6468041
0
ARC
8
DEFAULT_255_2_778
10
26.2209098
20
76.304323
40
7.6158732
50
136.3009549
51
137.7494524
0
ARC
8
DEFAULT_255_2_778
10
30.0148855
20
72.687227
40
12.8577826
50
134.969088
51
136.3279688
0
LINE
8
DEFAULT_255_2_778
10
20.4533667
20
81.2587562
11
17.2034667
21
81.2587562
0
LINE
8
DEFAULT_255_2_778
10
16.7033667
20
79.3085562
11
17.2007667
21
79.7588562
0
LINE
8
DEFAULT_255_2_778
10
17.2007667
20
79.7588562
11
20.4556667
21
79.7588562
0
LINE
8
DEFAULT_255_2_778
10
20.4530667
20
79.7588562
11
20.4530667
21
81.2614562
0
LINE
8
DEFAULT_255_2_778
10
20.9279667
20
81.7839562
11
20.9528667
21
81.8088562
0
LINE
8
DEFAULT_255_2_778
10
16.7028667
20
81.8088562
11
16.7028667
21
79.3088562
0
LINE
8
DEFAULT_255_2_778
10
16.7028667
20
79.3088562
11
20.9528667
21
79.3088562
0
LINE
8
DEFAULT_255_2_778
10
20.9528667
20
79.3088562
11
20.9528667
21
81.8088562
0
LINE
8
DEFAULT_255_2_778
10
20.9528667
20
81.8088562
11
16.7033667
21
81.8088562
0
LINE
8
DEFAULT_255_2_778
10
16.7033667
20
81.8088562
11
16.7282667
21
81.7839562
0
LINE
8
DEFAULT_255_2_778
10
16.7282667
20
81.7839562
11
17.2034667
21
81.2614562
0
LINE
8
DEFAULT_255_2_778
10
17.2034667
20
81.2614562
11
17.2034667
21
79.7588562
0
ARC
8
DEFAULT_255_2_778
10
20.5006673
20
78.2500181
40
0.0484284
50
141.0436998
51
166.3905011
0
ARC
8
DEFAULT_255_2_778
10
21.0857928
20
77.8426448
40
0.7612806
50
139.0166406
51
144.8925409
0
ARC
8
DEFAULT_255_2_778
10
23.0018295
20
76.2254599
40
3.2685074
50
137.7063741
51
139.6442166
0
ARC
8
DEFAULT_255_2_778
10
26.2115359
20
73.3125193
40
7.6029538
50
136.2943927
51
137.7454774
0
ARC
8
DEFAULT_255_2_778
10
29.9880825
20
69.7112351
40
12.8213375
50
134.9584861
51
136.3214295
0
ARC
8
DEFAULT_255_2_778
10
20.4258112
20
76.6694203
40
0.094222
50
47.7411845
51
71.4680474
0
ARC
8
DEFAULT_255_2_778
10
19.6594231
20
75.656619
40
1.3639542
50
48.475451
51
52.5302855
0
ARC
8
DEFAULT_255_2_778
10
17.7656754
20
73.4760788
40
4.2519965
50
47.4449178
51
48.8497077
0
ARC
8
DEFAULT_255_2_778
10
14.9740203
20
70.4361335
40
8.3792965
50
46.0896039
51
47.4415061
0
ARC
8
DEFAULT_255_2_778
10
12.020783
20
67.3575471
40
12.6453565
50
45.05957
51
46.1236454
0
LINE
8
DEFAULT_255_2_778
10
20.453299
20
78.2586562
11
17.203499
21
78.2586562
0
LINE
8
DEFAULT_255_2_778
10
20.453599
20
76.7587562
11
20.453599
21
78.2613562
0
LINE
8
DEFAULT_255_2_778
10
20.928599
20
78.7838562
11
20.953399
21
78.8087562
0
LINE
8
DEFAULT_255_2_778
10
20.953399
20
78.8087562
11
20.953399
21
76.3087562
0
LINE
8
DEFAULT_255_2_778
10
20.953399
20
76.3087562
11
16.703399
21
76.3087562
0
LINE
8
DEFAULT_255_2_778
10
16.703399
20
76.3087562
11
16.703399
21
78.8087562
0
LINE
8
DEFAULT_255_2_778
10
16.703399
20
78.8087562
11
20.953399
21
78.8087562
0
LINE
8
DEFAULT_255_2_778
10
16.703399
20
78.8087562
11
16.728299
21
78.7838562
0
LINE
8
DEFAULT_255_2_778
10
16.728299
20
78.7838562
11
17.203499
21
78.2613562
0
LINE
8
DEFAULT_255_2_778
10
17.203499
20
78.2613562
11
17.203499
21
76.7587562
0
LINE
8
DEFAULT_255_2_778
10
16.703399
20
76.3084562
11
17.200799
21
76.7587562
0
LINE
8
DEFAULT_255_2_778
10
17.200799
20
76.7587562
11
20.455699
21
76.7587562
0
ARC
8
DEFAULT_255_2_778
10
20.5006673
20
75.2501566
40
0.0484284
50
141.0436998
51
166.3905011
0
ARC
8
DEFAULT_255_2_778
10
21.0857928
20
74.8427834
40
0.7612806
50
139.0166406
51
144.8925409
0
ARC
8
DEFAULT_255_2_778
10
23.0018295
20
73.2255984
40
3.2685074
50
137.7063741
51
139.6442166
0
ARC
8
DEFAULT_255_2_778
10
26.2115359
20
70.3126578
40
7.6029538
50
136.2943927
51
137.7454774
0
ARC
8
DEFAULT_255_2_778
10
29.9880825
20
66.7113736
40
12.8213375
50
134.9584861
51
136.3214295
0
ARC
8
DEFAULT_255_2_778
10
17.1565051
20
75.250154
40
0.0483567
50
13.6332049
51
39.0154521
0
ARC
8
DEFAULT_255_2_778
10
16.5712505
20
74.841908
40
0.7618136
50
35.1589521
51
41.0309914
0
ARC
8
DEFAULT_255_2_778
10
14.6438029
20
73.2123319
40
3.2857535
50
40.402739
51
42.3305163
0
ARC
8
DEFAULT_255_2_778
10
11.379864
20
70.2462734
40
7.6960583
50
42.2915677
51
43.725111
0
ARC
8
DEFAULT_255_2_778
10
7.4637345
20
66.5091096
40
13.1092312
50
43.6984031
51
45.0312779
0
LINE
8
DEFAULT_255_2_778
10
20.453299
20
75.2587948
11
17.203499
21
75.2587948
0
LINE
8
DEFAULT_255_2_778
10
17.203499
20
73.7588948
11
20.453599
21
73.7588948
0
LINE
8
DEFAULT_255_2_778
10
20.453599
20
74.5539948
11
20.453599
21
75.2614948
0
LINE
8
DEFAULT_255_2_778
10
20.928599
20
75.7839948
11
20.953399
21
75.8088948
0
LINE
8
DEFAULT_255_2_778
10
20.953399
20
73.2590948
11
20.453299
21
73.7591948
0
LINE
8
DEFAULT_255_2_778
10
20.453299
20
73.7591948
11
20.453299
21
74.5541948
0
LINE
8
DEFAULT_255_2_778
10
20.453299
20
74.5541948
11
20.453899
21
74.5589948
0
LINE
8
DEFAULT_255_2_778
10
20.453899
20
74.5589948
11
20.508099
21
74.5634948
0
LINE
8
DEFAULT_255_2_778
10
20.508099
20
74.5634948
11
20.693099
21
74.5653948
0
LINE
8
DEFAULT_255_2_778
10
20.693099
20
74.5653948
11
20.953099
21
74.5541948
0
LINE
8
DEFAULT_255_2_778
10
20.953099
20
74.5541948
11
20.953099
21
75.8088948
0
LINE
8
DEFAULT_255_2_778
10
20.953099
20
75.8088948
11
16.703399
21
75.8088948
0
LINE
8
DEFAULT_255_2_778
10
17.203499
20
74.5541948
11
17.203499
21
73.7591948
0
LINE
8
DEFAULT_255_2_778
10
17.203499
20
73.7591948
11
16.703399
21
73.2590948
0
LINE
8
DEFAULT_255_2_778
10
17.203499
20
74.5539948
11
17.203499
21
75.2614948
0
LINE
8
DEFAULT_255_2_778
10
16.728299
20
75.7837948
11
16.703399
21
75.8085948
0
LINE
8
DEFAULT_255_2_778
10
16.703399
20
75.8085948
11
16.703399
21
74.5539948
0
LINE
8
DEFAULT_255_2_778
10
16.703399
20
74.5539948
11
16.833799
21
74.5621948
0
LINE
8
DEFAULT_255_2_778
10
16.833799
20
74.5621948
11
16.963499
21
74.5650948
0
LINE
8
DEFAULT_255_2_778
10
16.963499
20
74.5650948
11
17.148399
21
74.5631948
0
LINE
8
DEFAULT_255_2_778
10
17.148399
20
74.5631948
11
17.202699
21
74.5584948
0
LINE
8
DEFAULT_255_2_778
10
17.202699
20
74.5584948
11
17.203499
21
74.5539948
0
LINE
8
DEFAULT_255_2_778
10
20.453299
20
72.2587239
11
17.203499
21
72.2587239
0
LINE
8
DEFAULT_255_2_778
10
20.453299
20
70.7588239
11
20.453299
21
72.2587239
0
LINE
8
DEFAULT_255_2_778
10
20.453299
20
72.2587239
11
20.953399
21
72.7588239
0
LINE
8
DEFAULT_255_2_778
10
20.953399
20
72.7588239
11
20.953399
21
70.2588239
0
LINE
8
DEFAULT_255_2_778
10
20.953399
20
70.2588239
11
16.703399
21
70.2588239
0
LINE
8
DEFAULT_255_2_778
10
16.703399
20
70.2588239
11
16.703399
21
72.7588239
0
LINE
8
DEFAULT_255_2_778
10
16.703399
20
72.7588239
11
20.953399
21
72.7588239
0
LINE
8
DEFAULT_255_2_778
10
16.703399
20
72.7588239
11
17.203499
21
72.2587239
0
LINE
8
DEFAULT_255_2_778
10
17.203499
20
72.2587239
11
17.203499
21
70.7588239
0
LINE
8
DEFAULT_255_2_778
10
16.703399
20
70.2588239
11
17.203499
21
70.7588239
0
LINE
8
DEFAULT_255_2_778
10
17.203499
20
70.7588239
11
20.453299
21
70.7588239
0
LINE
8
DEFAULT_255_2_778
10
20.453299
20
70.7588239
11
20.953399
21
70.2588239
0
LINE
8
DEFAULT_255_2_778
10
13.2031667
20
72.2587239
11
9.9533667
21
72.2587239
0
LINE
8
DEFAULT_255_2_778
10
9.9533667
20
70.7588239
11
13.2034667
21
70.7588239
0
LINE
8
DEFAULT_255_2_778
10
13.7035667
20
70.2588239
11
13.2034667
21
70.7588239
0
LINE
8
DEFAULT_255_2_778
10
13.2034667
20
70.7588239
11
13.2034667
21
72.2587239
0
LINE
8
DEFAULT_255_2_778
10
13.2034667
20
72.2587239
11
13.7035667
21
72.7588239
0
LINE
8
DEFAULT_255_2_778
10
9.4535667
20
72.7588239
11
9.9535667
21
72.2587239
0
LINE
8
DEFAULT_255_2_778
10
9.9535667
20
72.2587239
11
9.9535667
21
70.7588239
0
LINE
8
DEFAULT_255_2_778
10
9.9535667
20
70.7588239
11
9.4535667
21
70.2588239
0
LINE
8
DEFAULT_255_2_778
10
9.4535667
20
70.2588239
11
9.4535667
21
72.7588239
0
LINE
8
DEFAULT_255_2_778
10
9.4535667
20
72.7588239
11
13.7035667
21
72.7588239
0
LINE
8
DEFAULT_255_2_778
10
13.7035667
20
72.7588239
11
13.7035667
21
70.2588239
0
LINE
8
DEFAULT_255_2_778
10
13.7035667
20
70.2588239
11
9.4532667
21
70.2588239
0
ARC
8
DEFAULT_255_2_778
10
13.2505697
20
75.2501558
40
0.0484309
50
141.0448916
51
166.3902628
0
ARC
8
DEFAULT_255_2_778
10
13.8358392
20
74.8426987
40
0.7614493
50
139.0192116
51
144.8936711
0
ARC
8
DEFAULT_255_2_778
10
15.7534528
20
73.2243252
40
3.2706474
50
137.7103272
51
139.6468041
0
ARC
8
DEFAULT_255_2_778
10
18.971342
20
70.3043616
40
7.6158732
50
136.3009549
51
137.7494524
0
ARC
8
DEFAULT_255_2_778
10
22.7653178
20
66.6872656
40
12.8577826
50
134.969088
51
136.3279688
0
ARC
8
DEFAULT_255_2_778
10
9.9064096
20
75.250114
40
0.0483571
50
13.658536
51
39.0044538
0
ARC
8
DEFAULT_255_2_778
10
9.3205034
20
74.8415829
40
0.7625117
50
35.1475819
51
41.0109781
0
ARC
8
DEFAULT_255_2_778
10
7.3992573
20
73.2183407
40
3.2776266
50
40.3841672
51
42.3162321
0
ARC
8
DEFAULT_255_2_778
10
4.1750119
20
70.2898237
40
7.6333077
50
42.277432
51
43.7227717
0
ARC
8
DEFAULT_255_2_778
10
0.3740353
20
66.663004
40
12.8869943
50
43.695898
51
45.0522724
0
LINE
8
DEFAULT_255_2_778
10
13.203199
20
75.2587948
11
9.953399
21
75.2587948
0
LINE
8
DEFAULT_255_2_778
10
9.953399
20
73.7588948
11
13.203499
21
73.7588948
0
LINE
8
DEFAULT_255_2_778
10
13.203499
20
74.5539948
11
13.203499
21
75.2614948
0
LINE
8
DEFAULT_255_2_778
10
13.678399
20
75.7839948
11
13.703299
21
75.8088948
0
LINE
8
DEFAULT_255_2_778
10
13.703299
20
73.2590948
11
13.203199
21
73.7591948
0
LINE
8
DEFAULT_255_2_778
10
13.203199
20
73.7591948
11
13.203199
21
74.5541948
0
LINE
8
DEFAULT_255_2_778
10
13.203199
20
74.5541948
11
13.203799
21
74.5589948
0
LINE
8
DEFAULT_255_2_778
10
13.203799
20
74.5589948
11
13.257999
21
74.5634948
0
LINE
8
DEFAULT_255_2_778
10
13.257999
20
74.5634948
11
13.442999
21
74.5653948
0
LINE
8
DEFAULT_255_2_778
10
13.442999
20
74.5653948
11
13.702999
21
74.5541948
0
LINE
8
DEFAULT_255_2_778
10
13.702999
20
74.5541948
11
13.702999
21
75.8088948
0
LINE
8
DEFAULT_255_2_778
10
13.702999
20
75.8088948
11
9.453299
21
75.8088948
0
LINE
8
DEFAULT_255_2_778
10
9.953399
20
74.5539948
11
9.953399
21
75.2614948
0
LINE
8
DEFAULT_255_2_778
10
9.478199
20
75.7837948
11
9.453299
21
75.8085948
0
LINE
8
DEFAULT_255_2_778
10
9.453299
20
75.8085948
11
9.453299
21
74.5539948
0
LINE
8
DEFAULT_255_2_778
10
9.453299
20
74.5539948
11
9.583699
21
74.5621948
0
LINE
8
DEFAULT_255_2_778
10
9.583699
20
74.5621948
11
9.713399
21
74.5650948
0
LINE
8
DEFAULT_255_2_778
10
9.713399
20
74.5650948
11
9.898299
21
74.5631948
0
LINE
8
DEFAULT_255_2_778
10
9.898299
20
74.5631948
11
9.952599
21
74.5584948
0
LINE
8
DEFAULT_255_2_778
10
9.952599
20
74.5584948
11
9.953399
21
74.5539948
0
ARC
8
DEFAULT_255_2_778
10
13.2502697
20
78.249985
40
0.0484309
50
141.0448916
51
166.3902628
0
ARC
8
DEFAULT_255_2_778
10
13.8355392
20
77.8425278
40
0.7614493
50
139.0192116
51
144.8936711
0
ARC
8
DEFAULT_255_2_778
10
15.7531528
20
76.2241544
40
3.2706474
50
137.7103272
51
139.6468041
0
ARC
8
DEFAULT_255_2_778
10
18.971042
20
73.3041907
40
7.6158732
50
136.3009549
51
137.7494524
0
ARC
8
DEFAULT_255_2_778
10
22.7650178
20
69.6870947
40
12.8577826
50
134.969088
51
136.3279688
0
ARC
8
DEFAULT_255_2_778
10
13.175607
20
76.6697027
40
0.0942347
50
47.7166477
51
71.4164952
0
ARC
8
DEFAULT_255_2_778
10
12.4059015
20
75.6534071
40
1.3687549
50
48.4676143
51
52.5073288
0
ARC
8
DEFAULT_255_2_778
10
10.4980394
20
73.457377
40
4.2777473
50
47.4446594
51
48.8409533
0
ARC
8
DEFAULT_255_2_778
10
7.6756701
20
70.3840909
40
8.4503791
50
46.1002294
51
47.4408843
0
ARC
8
DEFAULT_255_2_778
10
4.6693433
20
67.2491942
40
12.7938271
50
45.0819351
51
46.1338782
0
LINE
8
DEFAULT_255_2_778
10
13.203199
20
78.2586239
11
9.953299
21
78.2586239
0
LINE
8
DEFAULT_255_2_778
10
13.203199
20
76.7587239
11
13.203199
21
78.2613239
0
LINE
8
DEFAULT_255_2_778
10
13.678099
20
78.7838239
11
13.702999
21
78.8087239
0
LINE
8
DEFAULT_255_2_778
10
9.452999
20
78.8087239
11
9.477899
21
78.7838239
0
LINE
8
DEFAULT_255_2_778
10
9.477899
20
78.7838239
11
9.953099
21
78.2613239
0
LINE
8
DEFAULT_255_2_778
10
9.953099
20
78.2613239
11
9.953099
21
76.7587239
0
LINE
8
DEFAULT_255_2_778
10
9.452999
20
76.3087239
11
13.702999
21
76.3087239
0
LINE
8
DEFAULT_255_2_778
10
13.702999
20
76.3087239
11
13.702999
21
78.8087239
0
LINE
8
DEFAULT_255_2_778
10
13.702999
20
78.8087239
11
9.453299
21
78.8087239
0
LINE
8
DEFAULT_255_2_778
10
9.453299
20
78.8087239
11
9.453299
21
76.3087239
0
LINE
8
DEFAULT_255_2_778
10
9.453299
20
76.3087239
11
9.950699
21
76.7590239
0
LINE
8
DEFAULT_255_2_778
10
9.950699
20
76.7590239
11
13.205599
21
76.7590239
0
LINE
8
DEFAULT_255_2_778
10
4.4645417
20
67.4009562
11
4.4645417
21
66.2722562
0
LINE
8
DEFAULT_255_2_778
10
4.4645417
20
66.2722562
11
4.3219417
21
66.2722562
0
LINE
8
DEFAULT_255_2_778
10
4.3219417
20
66.2722562
11
4.3219417
21
66.7939562
0
LINE
8
DEFAULT_255_2_778
10
4.3219417
20
66.7939562
11
3.8676417
21
66.7939562
0
LINE
8
DEFAULT_255_2_778
10
3.8676417
20
66.7939562
11
3.8676417
21
66.2722562
0
LINE
8
DEFAULT_255_2_778
10
3.8676417
20
66.2722562
11
3.7258417
21
66.2722562
0
LINE
8
DEFAULT_255_2_778
10
3.7258417
20
66.2722562
11
3.7258417
21
67.4009562
0
LINE
8
DEFAULT_255_2_778
10
3.7258417
20
67.4009562
11
3.8676417
21
67.4009562
0
LINE
8
DEFAULT_255_2_778
10
3.8676417
20
67.4009562
11
3.8676417
21
66.9157562
0
LINE
8
DEFAULT_255_2_778
10
3.8676417
20
66.9157562
11
4.3219417
21
66.9157562
0
LINE
8
DEFAULT_255_2_778
10
4.3219417
20
66.9157562
11
4.3219417
21
67.4009562
0
LINE
8
DEFAULT_255_2_778
10
4.3219417
20
67.4009562
11
4.4645417
21
67.4009562
0
LINE
8
DEFAULT_255_2_778
10
4.4645417
20
67.4009562
11
4.4645417
21
67.4009562
0
ARC
8
DEFAULT_255_2_778
10
4.0245731
20
67.5374358
40
1.222299
50
323.0112261
51
329.6967123
0
ARC
8
DEFAULT_255_2_778
10
4.639806
20
67.1735241
40
0.5075197
50
330.1208201
51
335.5706959
0
ARC
8
DEFAULT_255_2_778
10
4.8065078
20
67.0959959
40
0.3236831
50
335.8617753
51
0.2182958
0
ARC
8
DEFAULT_255_2_778
10
4.8934598
20
67.1082523
40
0.2369853
50
357.333974
51
34.6605957
0
ARC
8
DEFAULT_255_2_778
10
4.9810815
20
67.1680493
40
0.1309075
50
34.9435709
51
91.1787302
0
ARC
8
DEFAULT_255_2_778
10
4.9698385
20
67.1395169
40
0.1596414
50
86.9298834
51
141.1629883
0
ARC
8
DEFAULT_255_2_778
10
5.0482487
20
67.0955429
40
0.2487419
50
144.601489
51
179.5606321
0
ARC
8
DEFAULT_255_2_778
10
5.2833122
20
67.069171
40
0.4846239
50
176.6547036
51
180.0522366
0
ARC
8
DEFAULT_255_2_778
10
5.0369324
20
67.0833775
40
0.3758294
50
144.71127
51
182.2337223
0
ARC
8
DEFAULT_255_2_778
10
4.9827736
20
67.1111771
40
0.3156795
50
138.4329622
51
143.1509282
0
ARC
8
DEFAULT_255_2_778
10
4.9642975
20
67.122803
40
0.2941638
50
87.2543578
51
137.7394377
0
ARC
8
DEFAULT_255_2_778
10
4.993049
20
67.1397063
40
0.2773106
50
44.5154242
51
93.0304357
0
ARC
8
DEFAULT_255_2_778
10
4.9606375
20
67.1292696
40
0.3081184
50
357.2020536
51
41.6725644
0
ARC
8
DEFAULT_255_2_778
10
4.8063674
20
67.1274707
40
0.4622109
50
334.1621574
51
358.3583544
0
ARC
8
DEFAULT_255_2_778
10
4.2899429
20
67.3611472
40
1.028957
50
323.2639057
51
334.9837897
0
ARC
8
DEFAULT_255_2_778
10
3.8617066
20
67.6585856
40
1.5501538
50
322.6497487
51
323.9208775
0
LINE
8
DEFAULT_255_2_778
10
5.3101886
20
66.3895292
11
5.3101886
21
66.2725292
0
LINE
8
DEFAULT_255_2_778
10
5.3101886
20
66.2725292
11
4.6790886
21
66.2725292
0
LINE
8
DEFAULT_255_2_778
10
4.6790886
20
66.2725292
11
4.6790886
21
66.3757292
0
LINE
8
DEFAULT_255_2_778
10
4.6790886
20
66.3757292
11
5.0008886
21
66.8020292
0
LINE
8
DEFAULT_255_2_778
10
4.7986886
20
67.0687292
11
4.6613886
21
67.0687292
0
LINE
8
DEFAULT_255_2_778
10
5.0939886
20
66.7181292
11
4.8428886
21
66.3895292
0
LINE
8
DEFAULT_255_2_778
10
4.8428886
20
66.3895292
11
5.3103886
21
66.3895292
0
LINE
8
DEFAULT_255_2_778
10
5.3103886
20
66.3895292
11
5.3101886
21
66.3895292
0
LINE
8
DEFAULT_255_2_778
10
5.7287271
20
66.8104729
11
5.7287271
21
66.6935729
0
LINE
8
DEFAULT_255_2_778
10
5.7287271
20
66.6935729
11
5.4086271
21
66.6935729
0
LINE
8
DEFAULT_255_2_778
10
5.4086271
20
66.6935729
11
5.4086271
21
66.8104729
0
LINE
8
DEFAULT_255_2_778
10
5.4086271
20
66.8104729
11
5.7287271
21
66.8104729
0
LINE
8
DEFAULT_255_2_778
10
5.7287271
20
66.8104729
11
5.7287271
21
66.8104729
0
LINE
8
DEFAULT_255_2_778
10
6.4288229
20
66.9157562
11
6.4288229
21
66.7939562
0
LINE
8
DEFAULT_255_2_778
10
6.4288229
20
66.7939562
11
6.0295229
21
66.7939562
0
LINE
8
DEFAULT_255_2_778
10
6.0295229
20
66.7939562
11
6.0295229
21
66.3939562
0
LINE
8
DEFAULT_255_2_778
10
6.0295229
20
66.3939562
11
6.4947229
21
66.3939562
0
LINE
8
DEFAULT_255_2_778
10
6.4947229
20
66.3939562
11
6.4947229
21
66.2722562
0
LINE
8
DEFAULT_255_2_778
10
6.4947229
20
66.2722562
11
5.8877229
21
66.2722562
0
LINE
8
DEFAULT_255_2_778
10
5.8877229
20
66.2722562
11
5.8877229
21
67.4009562
0
LINE
8
DEFAULT_255_2_778
10
5.8877229
20
67.4009562
11
6.4870229
21
67.4009562
0
LINE
8
DEFAULT_255_2_778
10
6.4870229
20
67.4009562
11
6.4870229
21
67.2784562
0
LINE
8
DEFAULT_255_2_778
10
6.4870229
20
67.2784562
11
6.0295229
21
67.2784562
0
LINE
8
DEFAULT_255_2_778
10
6.0295229
20
67.2784562
11
6.0295229
21
66.9157562
0
LINE
8
DEFAULT_255_2_778
10
6.0295229
20
66.9157562
11
6.4288229
21
66.9157562
0
LINE
8
DEFAULT_255_2_778
10
6.4288229
20
66.9157562
11
6.4288229
21
66.9157562
0
ARC
8
DEFAULT_255_2_778
10
7.0050733
20
66.9962967
40
0.4048653
50
65.159328
51
91.8268359
0
ARC
8
DEFAULT_255_2_778
10
7.0610305
20
67.1341411
40
0.2563662
50
44.6964108
51
63.5660841
0
ARC
8
DEFAULT_255_2_778
10
7.0132791
20
67.1025618
40
0.3127196
50
3.4251896
51
42.6552913
0
ARC
8
DEFAULT_255_2_778
10
6.7586665
20
67.0625794
40
0.5698017
50
359.8669536
51
5.9095644
0
ARC
8
DEFAULT_255_2_778
10
6.9770277
20
67.0528628
40
0.3515392
50
330.293736
51
1.3681435
0
ARC
8
DEFAULT_255_2_778
10
7.0310809
20
67.0267302
40
0.2916684
50
294.420777
51
329.4906456
0
ARC
8
DEFAULT_255_2_778
10
6.9989517
20
67.0349566
40
0.184491
50
267.3950506
51
316.5406002
0
ARC
8
DEFAULT_255_2_778
10
6.9696258
20
67.0505941
40
0.2167132
50
318.8733361
51
2.8729853
0
ARC
8
DEFAULT_255_2_778
10
6.9187823
20
67.0739405
40
0.2675758
50
357.3257796
51
28.0276212
0
ARC
8
DEFAULT_255_2_778
10
7.0095946
20
67.1054513
40
0.1732454
50
32.9472512
51
93.6976602
0
ARC
8
DEFAULT_255_2_778
10
6.9893276
20
66.9343944
40
0.3440618
50
88.4854087
51
90.0101478
0
LINE
8
DEFAULT_255_2_778
10
7.2178667
20
66.2722562
11
7.0169667
21
66.7289562
0
LINE
8
DEFAULT_255_2_778
10
7.0169667
20
66.7289562
11
6.8185667
21
66.7289562
0
LINE
8
DEFAULT_255_2_778
10
6.8185667
20
66.7289562
11
6.8185667
21
66.2722562
0
LINE
8
DEFAULT_255_2_778
10
6.8185667
20
66.2722562
11
6.6759667
21
66.2722562
0
LINE
8
DEFAULT_255_2_778
10
6.6759667
20
66.2722562
11
6.6759667
21
67.4009562
0
LINE
8
DEFAULT_255_2_778
10
6.6759667
20
67.4009562
11
6.9921667
21
67.4009562
0
LINE
8
DEFAULT_255_2_778
10
7.1516667
20
66.7611562
11
7.3702667
21
66.2814562
0
LINE
8
DEFAULT_255_2_778
10
7.3702667
20
66.2814562
11
7.3702667
21
66.2722562
0
LINE
8
DEFAULT_255_2_778
10
7.3702667
20
66.2722562
11
7.2175667
21
66.2722562
0
LINE
8
DEFAULT_255_2_778
10
7.2175667
20
66.2722562
11
7.2178667
21
66.2722562
0
LINE
8
DEFAULT_255_2_778
10
6.8185667
20
67.2784562
11
6.8185667
21
66.8506562
0
LINE
8
DEFAULT_255_2_778
10
6.8185667
20
66.8506562
11
6.9905667
21
66.8506562
0
LINE
8
DEFAULT_255_2_778
10
6.9892667
20
67.2784562
11
6.8185667
21
67.2784562
0
LINE
8
DEFAULT_255_2_778
10
6.8185667
20
67.2784562
11
6.8185667
21
67.2784562
0
LINE
8
DEFAULT_255_2_778
10
7.5186917
20
67.4009562
11
7.7014917
21
67.4009562
0
LINE
8
DEFAULT_255_2_778
10
7.7014917
20
67.4009562
11
7.9959917
21
66.4802562
0
LINE
8
DEFAULT_255_2_778
10
7.9959917
20
66.4802562
11
8.2904917
21
67.4009562
0
LINE
8
DEFAULT_255_2_778
10
8.2904917
20
67.4009562
11
8.4732917
21
67.4009562
0
LINE
8
DEFAULT_255_2_778
10
8.4732917
20
67.4009562
11
8.4732917
21
66.2722562
0
LINE
8
DEFAULT_255_2_778
10
8.4732917
20
66.2722562
11
8.3314917
21
66.2722562
0
LINE
8
DEFAULT_255_2_778
10
8.3314917
20
66.2722562
11
8.3314917
21
66.7117562
0
LINE
8
DEFAULT_255_2_778
10
8.3314917
20
66.7117562
11
8.3446917
21
67.1519562
0
LINE
8
DEFAULT_255_2_778
10
8.3446917
20
67.1519562
11
8.0494917
21
66.2722562
0
LINE
8
DEFAULT_255_2_778
10
8.0494917
20
66.2722562
11
7.9409917
21
66.2722562
0
LINE
8
DEFAULT_255_2_778
10
7.9409917
20
66.2722562
11
7.6472917
21
67.1488562
0
LINE
8
DEFAULT_255_2_778
10
7.6472917
20
67.1488562
11
7.6604917
21
66.7117562
0
LINE
8
DEFAULT_255_2_778
10
7.6604917
20
66.7117562
11
7.6604917
21
66.2722562
0
LINE
8
DEFAULT_255_2_778
10
7.6604917
20
66.2722562
11
7.5186917
21
66.2722562
0
LINE
8
DEFAULT_255_2_778
10
7.5186917
20
66.2722562
11
7.5186917
21
67.4009562
0
LINE
8
DEFAULT_255_2_778
10
7.5186917
20
67.4009562
11
7.5186917
21
67.4009562
0
LINE
8
DEFAULT_255_2_778
10
9.0953104
20
67.4065021
11
9.0953104
21
66.2725021
0
LINE
8
DEFAULT_255_2_778
10
9.0953104
20
66.2725021
11
8.9575104
21
66.2725021
0
LINE
8
DEFAULT_255_2_778
10
8.9575104
20
66.2725021
11
8.9575104
21
67.2282021
0
LINE
8
DEFAULT_255_2_778
10
8.9575104
20
67.2282021
11
8.7204104
21
67.1221021
0
LINE
8
DEFAULT_255_2_778
10
8.7204104
20
67.1221021
11
8.7204104
21
67.2522021
0
LINE
8
DEFAULT_255_2_778
10
8.7204104
20
67.2522021
11
9.0739104
21
67.4065021
0
LINE
8
DEFAULT_255_2_778
10
9.0739104
20
67.4065021
11
9.0956104
21
67.4065021
0
LINE
8
DEFAULT_255_2_778
10
9.0956104
20
67.4065021
11
9.0953104
21
67.4065021
0
ARC
8
DEFAULT_255_2_778
10
8.892364
20
66.7416578
40
1.1811801
50
350.5413544
51
0.5906633
0
ARC
8
DEFAULT_255_2_778
10
9.5566771
20
66.6246112
40
0.5067026
50
331.3365261
51
351.2520382
0
ARC
8
DEFAULT_255_2_778
10
9.7006743
20
66.556895
40
0.3480047
50
329.5506312
51
329.7471101
0
ARC
8
DEFAULT_255_2_778
10
9.7869824
20
66.502574
40
0.2460912
50
266.5285392
51
330.2700804
0
ARC
8
DEFAULT_255_2_778
10
9.7585478
20
66.5052372
40
0.2486714
50
211.4385153
51
273.119761
0
ARC
8
DEFAULT_255_2_778
10
9.9620004
20
66.6199007
40
0.482135
50
189.4292412
51
210.4537137
0
ARC
8
DEFAULT_255_2_778
10
10.5659844
20
66.7361172
40
1.0971104
50
180.2080027
51
190.2489779
0
ARC
8
DEFAULT_255_2_778
10
10.6186838
20
66.9379924
40
1.1498668
50
170.3798847
51
180.6058233
0
ARC
8
DEFAULT_255_2_778
10
9.968582
20
67.0546439
40
0.4894542
50
150.6318504
51
171.1255059
0
LINE
8
DEFAULT_255_2_778
10
9.5420292
20
67.2946817
11
9.5421813
21
67.2949344
0
ARC
8
DEFAULT_255_2_778
10
9.7556221
20
67.1695222
40
0.2475585
50
86.5588825
51
149.5626421
0
ARC
8
DEFAULT_255_2_778
10
9.7860313
20
67.168318
40
0.2488028
50
32.2368167
51
93.5832934
0
ARC
8
DEFAULT_255_2_778
10
9.5921505
20
67.0607552
40
0.4703375
50
9.6029354
51
30.7214835
0
ARC
8
DEFAULT_255_2_778
10
8.997084
20
66.9442053
40
1.0766223
50
0.3900403
51
10.435732
0
ARC
8
DEFAULT_255_2_778
10
8.8997382
20
66.9615894
40
1.0365086
50
359.355721
51
8.4355733
0
ARC
8
DEFAULT_255_2_778
10
9.5414149
20
67.059349
40
0.3874414
50
8.0555483
51
23.5150731
0
ARC
8
DEFAULT_255_2_778
10
9.773627
20
67.1674276
40
0.1315493
50
20.7034369
51
91.4573966
0
ARC
8
DEFAULT_255_2_778
10
9.7678224
20
67.1685622
40
0.1303953
50
88.9194967
51
158.8857581
0
ARC
8
DEFAULT_255_2_778
10
10.0415744
20
67.0439342
40
0.4310248
50
156.5392122
51
174.3125128
0
ARC
8
DEFAULT_255_2_778
10
10.6650749
20
66.9608278
40
1.0598982
50
173.1822581
51
179.8320635
0
ARC
8
DEFAULT_255_2_778
10
10.601476
20
66.7193792
40
0.9963665
50
179.3125064
51
189.1530238
0
ARC
8
DEFAULT_255_2_778
10
10.0149845
20
66.6240471
40
0.4021792
50
189.0356266
51
203.5068548
0
ARC
8
DEFAULT_255_2_778
10
9.7719476
20
66.5072483
40
0.133114
50
199.1257991
51
269.9284054
0
ARC
8
DEFAULT_255_2_778
10
9.7735173
20
66.5038628
40
0.12974
50
269.2333252
51
339.5506829
0
ARC
8
DEFAULT_255_2_778
10
9.4898513
20
66.6316456
40
0.4406572
50
336.8681799
51
354.3376751
0
ARC
8
DEFAULT_255_2_778
10
8.818902
20
66.7201947
40
1.1172845
50
353.2136455
51
359.8276778
0
LINE
8
DEFAULT_255_2_778
10
10.0734813
20
66.9515344
11
10.0734813
21
66.7538344
0
LINE
8
DEFAULT_255_2_778
10
9.4688813
20
66.7321344
11
9.4688813
21
66.9258344
0
LINE
8
DEFAULT_255_2_778
10
10.0736813
20
66.9515344
11
10.0734813
21
66.9515344
0
LINE
8
DEFAULT_255_2_778
10
9.9361813
20
66.7165344
11
9.9361813
21
66.9499344
0
LINE
8
DEFAULT_255_2_778
10
9.6051813
20
66.9639344
11
9.6051813
21
66.7313344
0
LINE
8
DEFAULT_255_2_778
10
9.9361813
20
66.7168344
11
9.9361813
21
66.7165344
0
ARC
8
DEFAULT_255_2_778
10
9.676064
20
66.7416578
40
1.1811801
50
350.5413544
51
0.5906633
0
ARC
8
DEFAULT_255_2_778
10
10.3403771
20
66.6246112
40
0.5067026
50
331.3365261
51
351.2520382
0
ARC
8
DEFAULT_255_2_778
10
10.4843743
20
66.556895
40
0.3480047
50
329.5506312
51
329.7471101
0
ARC
8
DEFAULT_255_2_778
10
10.5706824
20
66.502574
40
0.2460912
50
266.5285392
51
330.2700804
0
ARC
8
DEFAULT_255_2_778
10
10.5422478
20
66.5052372
40
0.2486714
50
211.4385153
51
273.119761
0
ARC
8
DEFAULT_255_2_778
10
10.7457004
20
66.6199007
40
0.482135
50
189.4292412
51
210.4537137
0
ARC
8
DEFAULT_255_2_778
10
11.3496844
20
66.7361172
40
1.0971104
50
180.2080027
51
190.2489779
0
ARC
8
DEFAULT_255_2_778
10
11.4023838
20
66.9379924
40
1.1498668
50
170.3798847
51
180.6058233
0
ARC
8
DEFAULT_255_2_778
10
10.752282
20
67.0546439
40
0.4894542
50
150.6318504
51
171.1255059
0
LINE
8
DEFAULT_255_2_778
10
10.3257292
20
67.2946817
11
10.3258813
21
67.2949344
0
ARC
8
DEFAULT_255_2_778
10
10.5393221
20
67.1695222
40
0.2475585
50
86.5588825
51
149.5626421
0
ARC
8
DEFAULT_255_2_778
10
10.5697313
20
67.168318
40
0.2488028
50
32.2368167
51
93.5832934
0
ARC
8
DEFAULT_255_2_778
10
10.3758505
20
67.0607552
40
0.4703375
50
9.6029354
51
30.7214835
0
ARC
8
DEFAULT_255_2_778
10
9.780784
20
66.9442053
40
1.0766223
50
0.3900403
51
10.435732
0
ARC
8
DEFAULT_255_2_778
10
9.6834382
20
66.9615894
40
1.0365086
50
359.355721
51
8.4355733
0
ARC
8
DEFAULT_255_2_778
10
10.3251149
20
67.059349
40
0.3874414
50
8.0555483
51
23.5150731
0
ARC
8
DEFAULT_255_2_778
10
10.557327
20
67.1674276
40
0.1315493
50
20.7034369
51
91.4573966
0
ARC
8
DEFAULT_255_2_778
10
10.5515224
20
67.1685622
40
0.1303953
50
88.9194967
51
158.8857581
0
ARC
8
DEFAULT_255_2_778
10
10.8252744
20
67.0439342
40
0.4310248
50
156.5392122
51
174.3125128
0
ARC
8
DEFAULT_255_2_778
10
11.4487749
20
66.9608278
40
1.0598982
50
173.1822581
51
179.8320635
0
ARC
8
DEFAULT_255_2_778
10
11.385176
20
66.7193792
40
0.9963665
50
179.3125064
51
189.1530238
0
ARC
8
DEFAULT_255_2_778
10
10.7986845
20
66.6240471
40
0.4021792
50
189.0356266
51
203.5068548
0
ARC
8
DEFAULT_255_2_778
10
10.5556476
20
66.5072483
40
0.133114
50
199.1257991
51
269.9284054
0
ARC
8
DEFAULT_255_2_778
10
10.5572173
20
66.5038628
40
0.12974
50
269.2333252
51
339.5506829
0
ARC
8
DEFAULT_255_2_778
10
10.2735513
20
66.6316456
40
0.4406572
50
336.8681799
51
354.3376751
0
ARC
8
DEFAULT_255_2_778
10
9.602602
20
66.7201947
40
1.1172845
50
353.2136455
51
359.8276778
0
LINE
8
DEFAULT_255_2_778
10
10.8571813
20
66.9515344
11
10.8571813
21
66.7538344
0
LINE
8
DEFAULT_255_2_778
10
10.2525813
20
66.7321344
11
10.2525813
21
66.9258344
0
LINE
8
DEFAULT_255_2_778
10
10.8573813
20
66.9515344
11
10.8571813
21
66.9515344
0
LINE
8
DEFAULT_255_2_778
10
10.7198813
20
66.7165344
11
10.7198813
21
66.9499344
0
LINE
8
DEFAULT_255_2_778
10
10.3888813
20
66.9639344
11
10.3888813
21
66.7313344
0
LINE
8
DEFAULT_255_2_778
10
10.7198813
20
66.7168344
11
10.7198813
21
66.7165344
0
ARC
8
DEFAULT_255_2_778
10
1.7080447
20
80.8822766
40
5.1941599
50
89.996273
51
106.8413927
0
ARC
8
DEFAULT_255_2_778
10
1.7083747
20
80.8733493
40
5.2030872
50
87.9855321
51
89.9999132
0
ARC
8
DEFAULT_255_2_778
10
1.7082249
20
80.8696802
40
5.2067592
50
84.5452712
51
87.9853042
0
ARC
8
DEFAULT_255_2_778
10
2.200346
20
69.2558749
40
54.5537137
50
269.5785738
51
270.0029716
0
ARC
8
DEFAULT_255_2_778
10
2.1511816
20
62.7087522
40
48.0064066
50
269.1850358
51
269.5797763
0
ARC
8
DEFAULT_255_2_778
10
1.9956406
20
52.2505941
40
37.5470948
50
268.5964203
51
269.1953748
0
ARC
8
DEFAULT_255_2_778
10
1.6930673
20
39.9374754
40
25.2302593
50
267.970289
51
268.5984123
0
ARC
8
DEFAULT_255_2_778
10
1.3104343
20
29.3068175
40
14.5927203
50
267.0434001
51
267.9933724
0
ARC
8
DEFAULT_255_2_778
10
0.9231261
20
21.8307295
40
7.1066068
50
265.8429361
51
267.0529112
0
ARC
8
DEFAULT_255_2_778
10
0.590629
20
17.3583202
40
2.6218715
50
263.317239
51
266.0049506
0
ARC
8
DEFAULT_255_2_778
10
0.3301389
20
15.2034017
40
0.4513505
50
255.5374732
51
264.3262588
0
ARC
8
DEFAULT_255_2_778
10
0.2183366
20
14.783759
40
0.0174295
50
209.5572346
51
266.9711145
0
ARC
8
DEFAULT_255_2_778
10
30.6802116
20
14.7924974
40
0.0287963
50
269.6095251
51
322.2334406
0
ARC
8
DEFAULT_255_2_778
10
30.5362086
20
15.443505
40
0.6948473
50
275.3836492
51
281.9443576
0
ARC
8
DEFAULT_255_2_778
10
30.2659969
20
17.9174039
40
3.1833999
50
273.8630735
51
276.0479478
0
ARC
8
DEFAULT_255_2_778
10
29.9533915
20
22.3275696
40
7.6046206
50
272.9185483
51
273.9743725
0
ARC
8
DEFAULT_255_2_778
10
29.5938716
20
29.3678839
40
14.6541086
50
272.0321066
51
272.9208441
0
ARC
8
DEFAULT_255_2_778
10
29.2105468
20
39.9982908
40
25.2914235
50
271.377035
51
272.0460042
0
ARC
8
DEFAULT_255_2_778
10
28.9057071
20
52.5169008
40
37.813744
50
270.8015155
51
271.3829608
0
ARC
8
DEFAULT_255_2_778
10
28.7515306
20
63.0094815
40
48.3074554
50
270.3906695
51
270.8102741
0
ARC
8
DEFAULT_255_2_778
10
28.7054489
20
69.4339101
40
54.7320489
50
269.9975154
51
270.3930524
0
ARC
8
DEFAULT_255_2_778
10
0.2353696
20
74.4338941
40
0.0380958
50
91.608287
51
147.6811262
0
ARC
8
DEFAULT_255_2_778
10
0.4039495
20
73.8043613
40
0.6888314
50
97.0989339
51
104.2578028
0
ARC
8
DEFAULT_255_2_778
10
0.6825074
20
71.8047768
40
2.7076712
50
95.071412
51
97.7191175
0
ARC
8
DEFAULT_255_2_778
10
0.9945649
20
68.4350902
40
6.0917653
50
93.8601363
51
95.1933502
0
ARC
8
DEFAULT_255_2_778
10
1.346832
20
63.217316
40
11.3214173
50
92.710423
51
93.8611561
0
ARC
8
DEFAULT_255_2_778
10
1.7176207
20
55.5015584
40
19.0460779
50
91.8451844
51
92.7269983
0
ARC
8
DEFAULT_255_2_778
10
2.0100073
20
46.5365431
40
28.0158594
50
91.0773355
51
91.8524867
0
ARC
8
DEFAULT_255_2_778
10
2.1572317
20
39.07087
40
35.4829815
50
90.5257562
51
91.088363
0
ARC
8
DEFAULT_255_2_778
10
2.2008953
20
34.5362831
40
40.0177782
50
89.9967354
51
90.5286944
0
ARC
8
DEFAULT_255_2_778
10
29.1984061
20
80.8822766
40
5.1941599
50
73.1586073
51
90.003727
0
ARC
8
DEFAULT_255_2_778
10
29.1980762
20
80.8733493
40
5.2030872
50
90.0000868
51
92.0144679
0
ARC
8
DEFAULT_255_2_778
10
29.1982259
20
80.8696802
40
5.2067592
50
92.0146958
51
95.4547288
0
ARC
8
DEFAULT_255_2_778
10
2.2006225
20
87.765947
40
1.9929158
50
89.926605
51
114.3113989
0
ARC
8
DEFAULT_255_2_778
10
2.2056757
20
87.7571038
40
2.0030556
50
114.3389823
51
170.1972101
0
ARC
8
DEFAULT_255_2_778
10
2.2163369
20
87.7594762
40
2.0131615
50
170.3154071
51
180.0175033
0
ARC
8
DEFAULT_255_2_778
10
28.7103201
20
87.7614213
40
1.992957
50
359.9264
51
24.3124852
0
ARC
8
DEFAULT_255_2_778
10
28.7015496
20
87.7563888
40
2.0030218
50
24.3403845
51
80.2028599
0
ARC
8
DEFAULT_255_2_778
10
28.7038725
20
87.7455469
40
2.0133146
50
80.3205027
51
90.0226828
0
LINE
8
DEFAULT_255_2_778
10
13.2031754
20
-0.2426388
11
22.2032754
21
-0.2426388
0
LINE
8
DEFAULT_255_2_778
10
13.2031754
20
1.2573612
11
13.4532754
21
1.2573612
0
LINE
8
DEFAULT_255_2_778
10
21.9532754
20
1.2573612
11
22.2032754
21
1.2573612
0
LINE
8
DEFAULT_255_2_778
10
13.2058754
20
3.6102612
11
13.2031754
21
3.6102612
0
LINE
8
DEFAULT_255_2_778
10
21.9532754
20
4.2145612
11
21.9532754
21
-0.2309388
0
LINE
8
DEFAULT_255_2_778
10
21.9532754
20
-0.2309388
11
13.4532754
21
-0.2309388
0
LINE
8
DEFAULT_255_2_778
10
13.4532754
20
-0.2309388
11
13.4532754
21
4.2145612
0
LINE
8
DEFAULT_255_2_778
10
21.9532754
20
4.5413612
11
21.9532754
21
4.2145612
0
LINE
8
DEFAULT_255_2_778
10
21.9532754
20
4.2145612
11
13.4532754
21
4.2145612
0
LINE
8
DEFAULT_255_2_778
10
13.4532754
20
4.2145612
11
13.4532754
21
4.5413612
0
LINE
8
DEFAULT_255_2_778
10
13.4532754
20
4.5413612
11
21.9532754
21
4.5413612
0
LINE
8
DEFAULT_255_2_778
10
18.2032754
20
88.2573612
11
17.9532754
21
88.2573612
0
LINE
8
DEFAULT_255_2_778
10
9.4532754
20
88.2573612
11
9.2032754
21
88.2573612
0
LINE
8
DEFAULT_255_2_778
10
9.4532754
20
89.7572612
11
9.2032754
21
89.7572612
0
LINE
8
DEFAULT_255_2_778
10
18.2032754
20
89.7572612
11
17.9532754
21
89.7572612
0
LINE
8
DEFAULT_255_2_778
10
30.7032754
20
64.2583612
11
30.7032754
21
65.0070612
0
LINE
8
DEFAULT_255_2_778
10
17.9532754
20
86.0525612
11
17.9532754
21
89.7588612
0
LINE
8
DEFAULT_255_2_778
10
17.9532754
20
89.7588612
11
9.4532754
21
89.7588612
0
LINE
8
DEFAULT_255_2_778
10
9.4532754
20
89.7588612
11
9.4532754
21
84.8727612
0
LINE
8
DEFAULT_255_2_778
10
9.4532754
20
84.8727612
11
17.9532754
21
84.8727612
0
LINE
8
DEFAULT_255_2_778
10
17.9532754
20
84.8727612
11
17.9532754
21
86.0525612
0
LINE
8
DEFAULT_255_2_778
10
17.9532754
20
86.0525612
11
9.4532754
21
86.0525612
0
LINE
8
DEFAULT_255_2_778
10
28.7032754
20
-0.2428388
11
22.2032754
21
-0.2428388
0
LINE
8
DEFAULT_255_2_778
10
22.2032754
20
-0.2428388
11
22.2032754
21
4.2293612
0
LINE
8
DEFAULT_255_2_778
10
13.2031754
20
4.2293612
11
13.2031754
21
-0.2428388
0
LINE
8
DEFAULT_255_2_778
10
13.2031754
20
-0.2428388
11
2.2031754
21
-0.2428388
0
LINE
8
DEFAULT_255_2_778
10
29.9531754
20
65.0073612
11
29.9531754
21
64.2588612
0
LINE
8
DEFAULT_255_2_778
10
28.9530754
20
64.2588612
11
28.9530754
21
65.0073612
0
LINE
8
DEFAULT_255_2_778
10
1.9531754
20
65.0073612
11
1.9531754
21
64.2588612
0
LINE
8
DEFAULT_255_2_778
10
0.9529754
20
64.2588612
11
0.9529754
21
65.0073612
0
LINE
8
DEFAULT_255_2_778
10
30.7029754
20
4.4627612
11
30.7029754
21
1.4970612
0
LINE
8
DEFAULT_255_2_778
10
30.7029754
20
1.4970612
11
30.6500754
21
1.2311612
0
LINE
8
DEFAULT_255_2_778
10
30.6500754
20
1.2311612
11
30.4505754
21
0.7503612
0
LINE
8
DEFAULT_255_2_778
10
30.4505754
20
0.7503612
11
30.3016754
21
0.5273612
0
LINE
8
DEFAULT_255_2_778
10
30.3016754
20
0.5273612
11
30.0248754
21
0.2505612
0
LINE
8
DEFAULT_255_2_778
10
30.0248754
20
0.2505612
11
29.9219754
21
0.1661612
0
LINE
8
DEFAULT_255_2_778
10
29.9219754
20
0.1661612
11
29.7044754
21
0.0211612
0
LINE
8
DEFAULT_255_2_778
10
29.7044754
20
0.0211612
11
29.5896754
21
-0.0402388
0
LINE
8
DEFAULT_255_2_778
10
29.5896754
20
-0.0402388
11
29.3475754
21
-0.1404388
0
LINE
8
DEFAULT_255_2_778
10
29.3475754
20
-0.1404388
11
29.2205754
21
-0.1788388
0
LINE
8
DEFAULT_255_2_778
10
29.2205754
20
-0.1788388
11
28.9649754
21
-0.2296388
0
LINE
8
DEFAULT_255_2_778
10
28.9649754
20
-0.2296388
11
28.8350754
21
-0.2426388
0
LINE
8
DEFAULT_255_2_778
10
28.8350754
20
-0.2426388
11
28.7030754
21
-0.2426388
0
LINE
8
DEFAULT_255_2_778
10
28.7030754
20
-0.2426388
11
28.7030754
21
4.2296612
0
LINE
8
DEFAULT_255_2_778
10
28.7030754
20
4.2296612
11
22.2032754
21
4.2296612
0
LINE
8
DEFAULT_255_2_778
10
22.2032754
20
4.2296612
11
22.2032754
21
4.7574612
0
LINE
8
DEFAULT_255_2_778
10
22.2032754
20
4.7574612
11
13.2031754
21
4.7574612
0
LINE
8
DEFAULT_255_2_778
10
13.2031754
20
4.7574612
11
13.2031754
21
4.2296612
0
LINE
8
DEFAULT_255_2_778
10
13.2031754
20
4.2296612
11
2.2031754
21
4.2296612
0
LINE
8
DEFAULT_255_2_778
10
2.2031754
20
4.2296612
11
2.2031754
21
-0.2426388
0
LINE
8
DEFAULT_255_2_778
10
2.2031754
20
-0.2426388
11
2.0711754
21
-0.2426388
0
LINE
8
DEFAULT_255_2_778
10
2.0711754
20
-0.2426388
11
1.9411754
21
-0.2296388
0
LINE
8
DEFAULT_255_2_778
10
1.9411754
20
-0.2296388
11
1.6856754
21
-0.1788388
0
LINE
8
DEFAULT_255_2_778
10
1.6856754
20
-0.1788388
11
1.5586754
21
-0.1404388
0
LINE
8
DEFAULT_255_2_778
10
1.5586754
20
-0.1404388
11
1.3165754
21
-0.0402388
0
LINE
8
DEFAULT_255_2_778
10
1.3165754
20
-0.0402388
11
1.2016754
21
0.0211612
0
LINE
8
DEFAULT_255_2_778
10
1.2016754
20
0.0211612
11
0.9841754
21
0.1661612
0
LINE
8
DEFAULT_255_2_778
10
0.9841754
20
0.1661612
11
0.8812754
21
0.2505612
0
LINE
8
DEFAULT_255_2_778
10
0.8812754
20
0.2505612
11
0.6045754
21
0.5273612
0
LINE
8
DEFAULT_255_2_778
10
0.6045754
20
0.5273612
11
0.4555754
21
0.7503612
0
LINE
8
DEFAULT_255_2_778
10
0.4555754
20
0.7503612
11
0.2560754
21
1.2311612
0
LINE
8
DEFAULT_255_2_778
10
0.2560754
20
1.2311612
11
0.2031754
21
1.4970612
0
LINE
8
DEFAULT_255_2_778
10
0.2031754
20
1.4970612
11
0.2031754
21
4.4627612
0
LINE
8
DEFAULT_255_2_778
10
0.2031754
20
74.4542612
11
0.2031754
21
85.8536612
0
LINE
8
DEFAULT_255_2_778
10
2.2031754
20
86.0528612
11
2.2031754
21
89.7588612
0
LINE
8
DEFAULT_255_2_778
10
3.5781754
20
14.7021612
11
3.5781754
21
7.6819612
0
LINE
8
DEFAULT_255_2_778
10
3.5781754
20
7.6819612
11
27.3282754
21
7.6819612
0
LINE
8
DEFAULT_255_2_778
10
27.3282754
20
7.6819612
11
27.3282754
21
14.7021612
0
LINE
8
DEFAULT_255_2_778
10
28.7032754
20
64.2588612
11
2.2031754
21
64.2588612
0
LINE
8
DEFAULT_255_2_778
10
0.2031754
20
65.0073612
11
0.2031754
21
64.2588612
0
LINE
8
DEFAULT_255_2_778
10
0.2031754
20
64.2588612
11
2.2031754
21
64.2588612
0
LINE
8
DEFAULT_255_2_778
10
2.2031754
20
64.2588612
11
2.2031754
21
14.7021612
0
LINE
8
DEFAULT_255_2_778
10
2.2031754
20
14.7021612
11
2.2031754
21
14.7021612
0
LINE
8
DEFAULT_255_2_778
10
0.2031754
20
14.7751612
11
0.2031754
21
64.2588612
0
LINE
8
DEFAULT_255_2_778
10
30.7032754
20
14.7748612
11
30.7032754
21
4.4307612
0
LINE
8
DEFAULT_255_2_778
10
30.7032754
20
4.4307612
11
30.6503754
21
4.3989612
0
LINE
8
DEFAULT_255_2_778
10
30.6503754
20
4.3989612
11
30.4508754
21
4.3423612
0
LINE
8
DEFAULT_255_2_778
10
30.4508754
20
4.3423612
11
30.3018754
21
4.3166612
0
LINE
8
DEFAULT_255_2_778
10
30.3018754
20
4.3166612
11
29.9222754
21
4.2754612
0
LINE
8
DEFAULT_255_2_778
10
29.9222754
20
4.2754612
11
29.5898754
21
4.2521612
0
LINE
8
DEFAULT_255_2_778
10
29.5898754
20
4.2521612
11
29.2207754
21
4.2365612
0
LINE
8
DEFAULT_255_2_778
10
29.2207754
20
4.2365612
11
28.7032754
21
4.2293612
0
LINE
8
DEFAULT_255_2_778
10
28.7032754
20
4.2293612
11
28.7032754
21
14.7018612
0
LINE
8
DEFAULT_255_2_778
10
28.7032754
20
14.7018612
11
27.3282754
21
14.7018612
0
LINE
8
DEFAULT_255_2_778
10
27.3282754
20
14.7018612
11
27.3282754
21
62.4318612
0
LINE
8
DEFAULT_255_2_778
10
27.3282754
20
62.4318612
11
3.5781754
21
62.4318612
0
LINE
8
DEFAULT_255_2_778
10
3.5781754
20
62.4318612
11
3.5781754
21
14.7021612
0
LINE
8
DEFAULT_255_2_778
10
3.5781754
20
14.7021612
11
2.2031754
21
14.7021612
0
LINE
8
DEFAULT_255_2_778
10
2.2031754
20
14.7021612
11
2.2031754
21
4.2296612
0
LINE
8
DEFAULT_255_2_778
10
2.2031754
20
4.2296612
11
1.5586754
21
4.2410612
0
LINE
8
DEFAULT_255_2_778
10
1.5586754
20
4.2410612
11
1.2016754
21
4.2592612
0
LINE
8
DEFAULT_255_2_778
10
1.2016754
20
4.2592612
11
0.8815754
21
4.2852612
0
LINE
8
DEFAULT_255_2_778
10
0.8815754
20
4.2852612
11
0.6047754
21
4.3169612
0
LINE
8
DEFAULT_255_2_778
10
0.6047754
20
4.3169612
11
0.4558754
21
4.3426612
0
LINE
8
DEFAULT_255_2_778
10
0.4558754
20
4.3426612
11
0.2563754
21
4.3992612
0
LINE
8
DEFAULT_255_2_778
10
0.2563754
20
4.3992612
11
0.2034754
21
4.4309612
0
LINE
8
DEFAULT_255_2_778
10
0.2034754
20
4.4309612
11
0.2034754
21
14.7751612
0
LINE
8
DEFAULT_255_2_778
10
30.2643754
20
64.2588612
11
30.2643754
21
64.2583612
0
LINE
8
DEFAULT_255_2_778
10
30.2643754
20
64.2583612
11
30.7029754
21
64.2583612
0
LINE
8
DEFAULT_255_2_778
10
30.7029754
20
64.2583612
11
30.7029754
21
14.7748612
0
LINE
8
DEFAULT_255_2_778
10
30.7029754
20
14.7748612
11
30.7029754
21
14.7748612
0
LINE
8
DEFAULT_255_2_778
10
28.7030754
20
14.7018612
11
28.7030754
21
64.2588612
0
LINE
8
DEFAULT_255_2_778
10
28.7030754
20
64.2588612
11
30.2643754
21
64.2588612
0
LINE
8
DEFAULT_255_2_778
10
21.2031754
20
65.0073612
11
28.7530754
21
65.0073612
0
LINE
8
DEFAULT_255_2_778
10
30.7529754
20
65.0073612
11
28.7530754
21
65.0073612
0
LINE
8
DEFAULT_255_2_778
10
28.7530754
20
65.0073612
11
28.7530754
21
72.5178612
0
LINE
8
DEFAULT_255_2_778
10
28.7530754
20
72.5178612
11
30.7529754
21
74.5074612
0
LINE
8
DEFAULT_255_2_778
10
30.7529754
20
74.5074612
11
30.7529754
21
65.0073612
0
LINE
8
DEFAULT_255_2_778
10
2.2028754
20
65.0073612
11
0.2031754
21
65.0073612
0
LINE
8
DEFAULT_255_2_778
10
0.2031754
20
65.0073612
11
0.2031754
21
74.4542612
0
LINE
8
DEFAULT_255_2_778
10
0.2031754
20
74.4542612
11
0.2031754
21
74.4542612
0
LINE
8
DEFAULT_255_2_778
10
2.2031754
20
74.5540612
11
2.2031754
21
86.0525612
0
LINE
8
DEFAULT_255_2_778
10
2.2031754
20
86.0525612
11
9.2032754
21
86.0525612
0
LINE
8
DEFAULT_255_2_778
10
9.2032754
20
86.0525612
11
9.2032754
21
84.7571612
0
LINE
8
DEFAULT_255_2_778
10
9.2032754
20
84.7571612
11
18.2032754
21
84.7571612
0
LINE
8
DEFAULT_255_2_778
10
18.2032754
20
84.7571612
11
18.2032754
21
86.0525612
0
LINE
8
DEFAULT_255_2_778
10
18.2032754
20
86.0525612
11
28.7032754
21
86.0525612
0
LINE
8
DEFAULT_255_2_778
10
28.7032754
20
86.0525612
11
28.7032754
21
74.5540612
0
LINE
8
DEFAULT_255_2_778
10
28.7032754
20
74.5540612
11
30.7027754
21
74.4569612
0
LINE
8
DEFAULT_255_2_778
10
30.7027754
20
74.4569612
11
30.7032754
21
85.8536612
0
LINE
8
DEFAULT_255_2_778
10
28.7032754
20
86.0528612
11
28.7032754
21
89.7588612
0
LINE
8
DEFAULT_255_2_778
10
28.7032754
20
72.4680612
11
28.7032754
21
74.5540612
0
LINE
8
DEFAULT_255_2_778
10
28.7032754
20
74.5540612
11
20.9530754
21
74.5540612
0
LINE
8
DEFAULT_255_2_778
10
20.9530754
20
74.5540612
11
20.9530754
21
73.2589612
0
LINE
8
DEFAULT_255_2_778
10
20.9530754
20
73.2589612
11
16.7030754
21
73.2589612
0
LINE
8
DEFAULT_255_2_778
10
16.7030754
20
73.2589612
11
16.7030754
21
74.5540612
0
LINE
8
DEFAULT_255_2_778
10
16.7030754
20
74.5540612
11
13.7032754
21
74.5540612
0
LINE
8
DEFAULT_255_2_778
10
13.7032754
20
74.5540612
11
13.7032754
21
73.2589612
0
LINE
8
DEFAULT_255_2_778
10
13.7032754
20
73.2589612
11
9.4532754
21
73.2589612
0
LINE
8
DEFAULT_255_2_778
10
9.9533754
20
74.5540612
11
9.9533754
21
73.7589612
0
LINE
8
DEFAULT_255_2_778
10
9.9533754
20
73.7589612
11
9.4532754
21
73.2589612
0
LINE
8
DEFAULT_255_2_778
10
9.4532754
20
73.2589612
11
9.4532754
21
74.5540612
0
LINE
8
DEFAULT_255_2_778
10
9.4532754
20
74.5540612
11
2.2031754
21
74.5540612
0
LINE
8
DEFAULT_255_2_778
10
2.2031754
20
74.5540612
11
2.2031754
21
65.0073612
0
LINE
8
DEFAULT_255_2_778
10
2.2031754
20
65.0073612
11
21.2031754
21
65.0073612
0
LINE
8
DEFAULT_255_2_778
10
21.2031754
20
65.0073612
11
28.7532754
21
72.5178612
0
LINE
8
DEFAULT_255_2_778
10
9.2032754
20
86.0528612
11
9.2032754
21
89.7588612
0
LINE
8
DEFAULT_255_2_778
10
9.2032754
20
89.7588612
11
2.2031754
21
89.7588612
0
LINE
8
DEFAULT_255_2_778
10
0.2031754
20
87.7588612
11
0.2031754
21
85.8536612
0
LINE
8
DEFAULT_255_2_778
10
30.7032754
20
85.8536612
11
30.7032754
21
87.7588612
0
LINE
8
DEFAULT_255_2_778
10
28.7030754
20
89.7588612
11
18.2032754
21
89.7588612
0
LINE
8
DEFAULT_255_2_778
10
18.2032754
20
89.7588612
11
18.2032754
21
86.0525612
0
ENDSEC
0
EOF