0
SECTION
2
HEADER
9
$MEASUREMENT
70
1
0
ENDSEC
0
SECTION
2
TABLES
0
TABLE
2
LTYPE
0
LTYPE
72
65
70
64
2
CONTINUOUS
3
______
73
0
40
0
0
ENDTAB
0
TABLE
2
LAYER
0
LAYER
2
DEFAULT_255_2_778
70
0
62
255
6
CONTINUOUS
0
LAYER
2
DEFAULT_255_1_604
70
0
62
255
6
CONTINUOUS
0
LAYER
2
DEFAULT_255_1_234
70
0
62
255
6
CONTINUOUS
0
ENDTAB
0
ENDSEC
0
SECTION
2
ENTITIES
0
ARC
8
DEFAULT_255_2_778
10
3.5700693
20
28.1802037
40
0.7914215
50
129.1312896
51
180.1450914
0
ARC
8
DEFAULT_255_2_778
10
3.5703345
20
28.1806908
40
0.7912112
50
89.854026
51
129.1684493
0
ARC
8
DEFAULT_255_2_778
10
25.7993937
20
28.1803773
40
0.7915249
50
39.4792447
51
90.147911
0
ARC
8
DEFAULT_255_2_778
10
25.7999935
20
28.180224
40
0.7911595
50
359.8533901
51
39.5154338
0
ARC
8
DEFAULT_255_2_778
10
25.7996693
20
-1.9863486
40
0.7914836
50
309.4761667
51
0.1482649
0
ARC
8
DEFAULT_255_2_778
10
25.799398
20
-1.9867797
40
0.7913235
50
269.8517415
51
309.511178
0
ARC
8
DEFAULT_255_2_778
10
3.570342
20
-1.9867215
40
0.7913815
50
219.1282118
51
270.1454017
0
ARC
8
DEFAULT_255_2_778
10
3.5700247
20
-1.986339
40
0.7913769
50
179.8524075
51
219.1641908
0
LINE
8
DEFAULT_255_2_778
10
3.5723503
20
28.9718996
11
25.7973503
21
28.9718996
0
LINE
8
DEFAULT_255_2_778
10
26.5911503
20
28.1781996
11
26.5911503
21
-1.9843004
0
LINE
8
DEFAULT_255_2_778
10
25.7973503
20
-2.7781004
11
3.5723503
21
-2.7781004
0
LINE
8
DEFAULT_255_2_778
10
2.7786503
20
-1.9843004
11
2.7786503
21
28.1781996
0
LINE
8
DEFAULT_255_1_604
10
10.0737902
20
0.8092977
11
10.0737902
21
-0.7109
0
LINE
8
DEFAULT_255_1_604
10
10.0737902
20
-0.7109
11
9.8722805
21
-0.7109
0
LINE
8
DEFAULT_255_1_604
10
9.8722805
20
-0.7109
11
9.8722805
21
-0.0082262
0
LINE
8
DEFAULT_255_1_604
10
9.8722805
20
-0.0082262
11
9.1059171
21
-0.0082262
0
LINE
8
DEFAULT_255_1_604
10
9.1059171
20
-0.0082262
11
9.1059171
21
-0.7109
0
LINE
8
DEFAULT_255_1_604
10
9.1059171
20
-0.7109
11
8.9054515
21
-0.7109
0
LINE
8
DEFAULT_255_1_604
10
8.9054515
20
-0.7109
11
8.9054515
21
0.8092977
0
LINE
8
DEFAULT_255_1_604
10
8.9054515
20
0.8092977
11
9.1059171
21
0.8092977
0
LINE
8
DEFAULT_255_1_604
10
9.1059171
20
0.8092977
11
9.1059171
21
0.1556962
0
LINE
8
DEFAULT_255_1_604
10
9.1059171
20
0.1556962
11
9.8722805
21
0.1556962
0
LINE
8
DEFAULT_255_1_604
10
9.8722805
20
0.1556962
11
9.8722805
21
0.8092977
0
LINE
8
DEFAULT_255_1_604
10
9.8722805
20
0.8092977
11
10.0737902
21
0.8092977
0
LINE
8
DEFAULT_255_1_604
10
11.3757727
20
-0.5532421
11
11.3757727
21
-0.7109
0
LINE
8
DEFAULT_255_1_604
10
11.3757727
20
-0.7109
11
10.3797091
21
-0.7109
0
LINE
8
DEFAULT_255_1_604
10
10.3797091
20
-0.7109
11
10.3797091
21
-0.5720358
0
LINE
8
DEFAULT_255_1_604
10
10.3797091
20
-0.5720358
11
10.9059314
21
0.0126556
0
LINE
8
DEFAULT_255_1_604
10
10.5436315
20
0.3613823
11
10.3504746
21
0.3613823
0
LINE
8
DEFAULT_255_1_604
10
11.0197374
20
-0.1115913
11
10.6125416
21
-0.5532421
0
LINE
8
DEFAULT_255_1_604
10
10.6125416
20
-0.5532421
11
11.3757727
21
-0.5532421
0
ARC
8
DEFAULT_255_1_604
10
9.1522449
20
1.5634624
40
2.3410292
50
318.513271
51
320.7828357
0
ARC
8
DEFAULT_255_1_604
10
9.8394461
20
1.0041368
40
1.4549769
50
320.7375321
51
323.9736753
0
ARC
8
DEFAULT_255_1_604
10
10.3490652
20
0.6348972
40
0.8256542
50
323.8963242
51
328.6419085
0
ARC
8
DEFAULT_255_1_604
10
10.6154036
20
0.4706351
40
0.5127425
50
328.8285352
51
331.7901522
0
ARC
8
DEFAULT_255_1_604
10
10.7447946
20
0.4038794
40
0.367172
50
331.4254946
51
352.9365149
0
ARC
8
DEFAULT_255_1_604
10
10.7625316
20
0.3999103
40
0.349086
50
353.2250252
51
0.0169584
0
ARC
8
DEFAULT_255_1_604
10
10.7898317
20
0.4028986
40
0.3217987
50
359.4863351
51
15.9342296
0
ARC
8
DEFAULT_255_1_604
10
10.8557282
20
0.4206207
40
0.2535708
50
16.1714081
51
43.5285108
0
ARC
8
DEFAULT_255_1_604
10
10.8657772
20
0.4306668
40
0.2393664
50
43.4416531
51
83.1662234
0
ARC
8
DEFAULT_255_1_604
10
10.8483468
20
0.3348793
40
0.3365994
50
82.1603671
51
90.1505737
0
ARC
8
DEFAULT_255_1_604
10
10.8442415
20
0.2650952
40
0.4063951
50
89.5459142
51
102.5418751
0
ARC
8
DEFAULT_255_1_604
10
10.8126643
20
0.399091
40
0.2687452
50
102.1738823
51
129.2062395
0
ARC
8
DEFAULT_255_1_604
10
10.8024131
20
0.4152571
40
0.249749
50
129.7282356
51
135.7542178
0
ARC
8
DEFAULT_255_1_604
10
10.8182019
20
0.4026499
40
0.2698631
50
136.1757281
51
166.3675485
0
ARC
8
DEFAULT_255_1_604
10
10.9490909
20
0.3675683
40
0.4053462
50
165.9090448
51
178.8683608
0
ARC
8
DEFAULT_255_1_604
10
11.0615213
20
0.3614653
40
0.5178896
50
178.438946
51
180.0091831
0
ARC
8
DEFAULT_255_1_604
10
10.8793544
20
0.3665335
40
0.5289049
50
163.2878723
51
180.558041
0
ARC
8
DEFAULT_255_1_604
10
10.7751267
20
0.3952134
40
0.4208399
50
133.4540582
51
162.9470171
0
ARC
8
DEFAULT_255_1_604
10
10.7983386
20
0.3705313
40
0.4547218
50
100.7870211
51
133.4382382
0
ARC
8
DEFAULT_255_1_604
10
10.8435483
20
0.1691903
40
0.6610008
50
89.6607391
51
101.3702307
0
ARC
8
DEFAULT_255_1_604
10
10.8521695
20
0.1771615
40
0.6530349
50
78.2171576
51
90.4130072
0
ARC
8
DEFAULT_255_1_604
10
10.8983285
20
0.3882972
40
0.4369273
50
55.9267954
51
78.488844
0
ARC
8
DEFAULT_255_1_604
10
10.9238389
20
0.4322913
40
0.3862098
50
47.9296795
51
55.4050352
0
ARC
8
DEFAULT_255_1_604
10
10.9370664
20
0.4457369
40
0.3673667
50
4.3348317
51
48.056014
0
ARC
8
DEFAULT_255_1_604
10
10.7946947
20
0.4236553
40
0.5111241
50
359.9247088
51
5.596838
0
ARC
8
DEFAULT_255_1_604
10
10.8503939
20
0.4309594
40
0.4554945
50
337.8914976
51
358.9967003
0
ARC
8
DEFAULT_255_1_604
10
10.4976602
20
0.5670408
40
0.8335352
50
326.9133997
51
338.3506587
0
ARC
8
DEFAULT_255_1_604
10
9.9795754
20
0.8990906
40
1.4488861
50
319.647155
51
327.0960531
0
ARC
8
DEFAULT_255_1_604
10
9.4811644
20
1.3102174
40
2.0949336
50
317.2587072
51
319.9045043
0
LINE
8
DEFAULT_255_1_604
10
12.0022278
20
0.0136997
11
12.0022278
21
-0.1439582
0
LINE
8
DEFAULT_255_1_604
10
12.0022278
20
-0.1439582
11
11.492711
21
-0.1439582
0
LINE
8
DEFAULT_255_1_604
10
11.492711
20
-0.1439582
11
11.492711
21
0.0136997
0
LINE
8
DEFAULT_255_1_604
10
11.492711
20
0.0136997
11
12.0022278
21
0.0136997
0
LINE
8
DEFAULT_255_1_604
10
13.0797305
20
0.1556962
11
13.0797305
21
-0.0082262
0
LINE
8
DEFAULT_255_1_604
10
13.0797305
20
-0.0082262
11
12.4209086
21
-0.0082262
0
LINE
8
DEFAULT_255_1_604
10
12.4209086
20
-0.0082262
11
12.4209086
21
-0.5469776
0
LINE
8
DEFAULT_255_1_604
10
12.4209086
20
-0.5469776
11
13.1862279
21
-0.5469776
0
LINE
8
DEFAULT_255_1_604
10
13.1862279
20
-0.5469776
11
13.1862279
21
-0.7109
0
LINE
8
DEFAULT_255_1_604
10
13.1862279
20
-0.7109
11
12.220443
21
-0.7109
0
LINE
8
DEFAULT_255_1_604
10
12.220443
20
-0.7109
11
12.220443
21
0.8092977
0
LINE
8
DEFAULT_255_1_604
10
12.220443
20
0.8092977
11
13.175787
21
0.8092977
0
LINE
8
DEFAULT_255_1_604
10
13.175787
20
0.8092977
11
13.175787
21
0.6443312
0
LINE
8
DEFAULT_255_1_604
10
13.175787
20
0.6443312
11
12.4209086
21
0.6443312
0
LINE
8
DEFAULT_255_1_604
10
12.4209086
20
0.6443312
11
12.4209086
21
0.1556962
0
LINE
8
DEFAULT_255_1_604
10
12.4209086
20
0.1556962
11
13.0797305
21
0.1556962
0
LINE
8
DEFAULT_255_1_604
10
13.9630322
20
-0.7109
11
13.4357658
21
-0.7109
0
LINE
8
DEFAULT_255_1_604
10
13.4357658
20
-0.7109
11
13.4357658
21
0.8092977
0
LINE
8
DEFAULT_255_1_604
10
13.4357658
20
0.8092977
11
13.9327535
21
0.8092977
0
LINE
8
DEFAULT_255_1_604
10
13.9703408
20
0.0001265
11
13.6362314
21
0.0001265
0
LINE
8
DEFAULT_255_1_604
10
13.6362314
20
0.0001265
11
13.6362314
21
-0.5469776
0
LINE
8
DEFAULT_255_1_604
10
13.6362314
20
-0.5469776
11
13.9672085
21
-0.5469776
0
LINE
8
DEFAULT_255_1_604
10
13.6362314
20
0.6443312
11
13.6362314
21
0.1609167
0
LINE
8
DEFAULT_255_1_604
10
13.6362314
20
0.1609167
11
13.9390181
21
0.1609167
0
LINE
8
DEFAULT_255_1_604
10
13.9327535
20
0.6443312
11
13.6362314
21
0.6443312
0
ARC
8
DEFAULT_255_1_604
10
13.9376525
20
-0.1484275
40
0.9577377
50
82.1256031
51
90.2930757
0
ARC
8
DEFAULT_255_1_604
10
13.988216
20
0.2049161
40
0.600801
50
69.9044245
51
82.2856314
0
ARC
8
DEFAULT_255_1_604
10
14.0624045
20
0.4054576
40
0.386979
50
51.1838307
51
70.0182091
0
ARC
8
DEFAULT_255_1_604
10
14.0955457
20
0.4536319
40
0.328699
50
12.1018414
51
50.4212805
0
ARC
8
DEFAULT_255_1_604
10
13.9156091
20
0.4084494
40
0.5141499
50
359.5253348
51
12.821154
0
ARC
8
DEFAULT_255_1_604
10
14.1210018
20
0.3994386
40
0.3087759
50
323.4907457
51
0.8817067
0
ARC
8
DEFAULT_255_1_604
10
14.0666248
20
0.4414508
40
0.3774801
50
298.6824188
51
323.2758135
0
ARC
8
DEFAULT_255_1_604
10
14.0196174
20
0.5195869
40
0.4686048
50
293.1995883
51
299.1394057
0
ARC
8
DEFAULT_255_1_604
10
14.1070954
20
-0.2714951
40
0.3732275
50
54.0009817
51
74.9167658
0
ARC
8
DEFAULT_255_1_604
10
14.1222274
20
-0.2458554
40
0.3436018
50
36.3578154
51
53.5293992
0
ARC
8
DEFAULT_255_1_604
10
14.1057444
20
-0.2576045
40
0.3638415
50
4.8189087
51
36.3090464
0
ARC
8
DEFAULT_255_1_604
10
14.0044859
20
-0.2718673
40
0.4659752
50
359.9367765
51
5.5205294
0
ARC
8
DEFAULT_255_1_604
10
13.9622719
20
-0.2771481
40
0.5082112
50
344.7479939
51
0.537398
0
ARC
8
DEFAULT_255_1_604
10
14.0910962
20
-0.3118721
40
0.3747897
50
311.178628
51
344.6886592
0
ARC
8
DEFAULT_255_1_604
10
14.0531436
20
-0.2646257
40
0.4353462
50
286.0417887
51
310.8440647
0
ARC
8
DEFAULT_255_1_604
10
13.9872108
20
-0.0505311
40
0.6593372
50
274.1043995
51
286.4070195
0
ARC
8
DEFAULT_255_1_604
10
13.9642403
20
0.1942336
40
0.9051344
50
269.9235231
51
274.4457651
0
ARC
8
DEFAULT_255_1_604
10
13.9702179
20
-0.1098566
40
0.4371314
50
269.6055605
51
281.3739019
0
ARC
8
DEFAULT_255_1_604
10
14.0002012
20
-0.2519731
40
0.291896
50
281.1054628
51
302.5133988
0
ARC
8
DEFAULT_255_1_604
10
14.0192913
20
-0.2862221
40
0.2527647
50
303.0371934
51
311.8811868
0
ARC
8
DEFAULT_255_1_604
10
14.0285784
20
-0.2972681
40
0.238341
50
311.9916739
51
351.7144321
0
ARC
8
DEFAULT_255_1_604
10
13.9224021
20
-0.2758148
40
0.3465515
50
350.7341957
51
0.2224023
0
ARC
8
DEFAULT_255_1_604
10
13.9084177
20
-0.2684643
40
0.3605834
50
359.0457196
51
17.2295835
0
ARC
8
DEFAULT_255_1_604
10
14.0435014
20
-0.2283341
40
0.2196814
50
17.6684379
51
78.9941241
0
ARC
8
DEFAULT_255_1_604
10
13.9763144
20
-0.4694733
40
0.4696345
50
76.5636957
51
90.6980584
0
LINE
8
DEFAULT_255_1_604
10
13.9705928
20
0.0001265
11
13.9703408
21
0.0001265
0
ARC
8
DEFAULT_255_1_604
10
13.9419528
20
0.5880112
40
0.4271046
50
269.6063106
51
281.4534923
0
ARC
8
DEFAULT_255_1_604
10
13.9709155
20
0.4513562
40
0.2874224
50
281.2042928
51
302.5145739
0
ARC
8
DEFAULT_255_1_604
10
13.9887388
20
0.4192716
40
0.2507964
50
303.020928
51
309.8376581
0
ARC
8
DEFAULT_255_1_604
10
14.0125555
20
0.392568
40
0.2150376
50
309.5229262
51
356.9508422
0
ARC
8
DEFAULT_255_1_604
10
13.9263357
20
0.4049739
40
0.3018958
50
355.4699421
51
0.0493903
0
ARC
8
DEFAULT_255_1_604
10
13.8900407
20
0.4078547
40
0.338201
50
359.5560369
51
11.2092191
0
ARC
8
DEFAULT_255_1_604
10
14.0144937
20
0.4336098
40
0.2111181
50
10.9185365
51
31.3225373
0
ARC
8
DEFAULT_255_1_604
10
14.0516447
20
0.4542785
40
0.1686451
50
31.8854132
51
52.1412247
0
ARC
8
DEFAULT_255_1_604
10
14.0159888
20
0.4039058
40
0.2303149
50
52.8286942
51
71.984654
0
ARC
8
DEFAULT_255_1_604
10
13.9671359
20
0.2601177
40
0.3821676
50
71.686566
51
82.8456151
0
ARC
8
DEFAULT_255_1_604
10
13.9360097
20
0.0249135
40
0.6194192
50
82.698473
51
90.1731399
0
ARC
8
DEFAULT_255_1_604
10
13.9331
20
0.1656161
40
0.4787149
50
89.8757807
51
90.0414711
0
LINE
8
DEFAULT_255_1_604
10
15.6836955
20
-0.2285296
11
15.8852052
21
-0.2285296
0
LINE
8
DEFAULT_255_1_604
10
14.7147783
20
-0.0217994
11
14.7147783
21
0.1243734
0
LINE
8
DEFAULT_255_1_604
10
15.8852052
20
0.3206627
11
15.6836955
21
0.3206627
0
LINE
8
DEFAULT_255_1_604
10
14.916288
20
0.119153
11
14.916288
21
-0.028064
0
ARC
8
DEFAULT_255_1_604
10
15.1727311
20
-0.1508937
40
0.7166915
50
340.1775576
51
353.7812106
0
ARC
8
DEFAULT_255_1_604
10
15.3770169
20
-0.2269796
40
0.4987141
50
311.4559504
51
340.4421488
0
ARC
8
DEFAULT_255_1_604
10
15.3726856
20
-0.2125602
40
0.5124271
50
282.4333086
51
310.7514973
0
ARC
8
DEFAULT_255_1_604
10
15.3155839
20
0.0233955
40
0.7551593
50
269.9357733
51
282.8096752
0
ARC
8
DEFAULT_255_1_604
10
15.3088734
20
0.202638
40
0.9344198
50
269.9995741
51
270.3595627
0
ARC
8
DEFAULT_255_1_604
10
15.3019968
20
-0.1251877
40
0.6066331
50
250.7885824
51
270.6488458
0
ARC
8
DEFAULT_255_1_604
10
15.2801372
20
-0.2080322
40
0.521251
50
219.3628447
51
250.061101
0
ARC
8
DEFAULT_255_1_604
10
15.3879322
20
-0.1164224
40
0.6626984
50
193.5480378
51
219.5756113
0
ARC
8
DEFAULT_255_1_604
10
15.6962507
20
-0.0363598
40
0.981209
50
181.1220108
51
193.8755006
0
ARC
8
DEFAULT_255_1_604
10
15.9646383
20
-0.0219846
40
1.2498599
50
179.99151
51
181.5399535
0
ARC
8
DEFAULT_255_1_604
10
15.7247514
20
0.1292326
40
1.0099848
50
169.583756
51
180.2756585
0
ARC
8
DEFAULT_255_1_604
10
15.4859232
20
0.173361
40
0.7671142
50
155.0365328
51
169.6003042
0
ARC
8
DEFAULT_255_1_604
10
15.3383133
20
0.2445249
40
0.6032646
50
136.7831839
51
155.2472054
0
ARC
8
DEFAULT_255_1_604
10
15.2876686
20
0.2875472
40
0.5369068
50
121.7631907
51
136.4282303
0
ARC
8
DEFAULT_255_1_604
10
15.3052202
20
0.2551227
40
0.5737183
50
95.6460587
51
121.548908
0
ARC
8
DEFAULT_255_1_604
10
15.3256654
20
0.1110699
40
0.7191102
50
89.924257
51
96.1379577
0
ARC
8
DEFAULT_255_1_604
10
15.33222
20
0.1264691
40
0.7037327
50
76.6779318
51
90.4562576
0
ARC
8
DEFAULT_255_1_604
10
15.3833916
20
0.3332426
40
0.4907369
50
47.4858007
51
76.9288246
0
ARC
8
DEFAULT_255_1_604
10
15.3642788
20
0.3202476
40
0.5132589
50
16.5423853
51
46.8934164
0
ARC
8
DEFAULT_255_1_604
10
15.1552431
20
0.2515658
40
0.7332251
50
5.4074004
51
17.0363574
0
ARC
8
DEFAULT_255_1_604
10
14.9682352
20
0.2215239
40
0.7222963
50
7.8890383
51
15.9241503
0
ARC
8
DEFAULT_255_1_604
10
15.2265153
20
0.296523
40
0.4533522
50
15.7651386
51
27.9411443
0
ARC
8
DEFAULT_255_1_604
10
15.3700454
20
0.3733644
40
0.2905491
50
27.8167389
51
46.4005855
0
ARC
8
DEFAULT_255_1_604
10
15.3765022
20
0.3726241
40
0.2866793
50
47.4371997
51
75.0696919
0
ARC
8
DEFAULT_255_1_604
10
15.3363883
20
0.2329784
40
0.4319546
50
74.7008352
51
87.8127327
0
ARC
8
DEFAULT_255_1_604
10
15.3268652
20
0.0961229
40
0.5690901
50
87.3805145
51
90.0250812
0
ARC
8
DEFAULT_255_1_604
10
15.3218576
20
0.2487605
40
0.4164797
50
89.345352
51
108.5744563
0
ARC
8
DEFAULT_255_1_604
10
15.3040613
20
0.3155339
40
0.3475436
50
109.2999369
51
143.3037548
0
ARC
8
DEFAULT_255_1_604
10
15.4031205
20
0.2393572
40
0.4724957
50
143.0752268
51
163.191912
0
ARC
8
DEFAULT_255_1_604
10
15.6568415
20
0.1592881
40
0.7385381
50
162.9373961
51
174.620923
0
ARC
8
DEFAULT_255_1_604
10
15.998285
20
0.1218498
40
1.0820005
50
174.3421243
51
180.1428039
0
ARC
8
DEFAULT_255_1_604
10
15.8772009
20
-0.0334019
40
0.9609277
50
179.6817205
51
189.1506051
0
ARC
8
DEFAULT_255_1_604
10
15.5521202
20
-0.0875472
40
0.631376
50
188.9910195
51
203.5773417
0
ARC
8
DEFAULT_255_1_604
10
15.4117695
20
-0.1457827
40
0.4794561
50
203.9076808
51
215.1312703
0
ARC
8
DEFAULT_255_1_604
10
15.291799
20
-0.2387624
40
0.3279095
50
213.9072132
51
263.884848
0
ARC
8
DEFAULT_255_1_604
10
15.3080923
20
-0.1367526
40
0.4311075
50
263.1759381
51
270.1028896
0
ARC
8
DEFAULT_255_1_604
10
15.3122623
20
0.0253256
40
0.5931948
50
269.6720046
51
279.0607459
0
ARC
8
DEFAULT_255_1_604
10
15.3469399
20
-0.1843001
40
0.3807256
50
278.8752379
51
293.6348896
0
ARC
8
DEFAULT_255_1_604
10
15.3885674
20
-0.2820582
40
0.274481
50
293.8553414
51
310.0519576
0
ARC
8
DEFAULT_255_1_604
10
15.3891982
20
-0.2901671
40
0.26791
50
311.0646716
51
332.0108643
0
ARC
8
DEFAULT_255_1_604
10
15.2342195
20
-0.2047038
40
0.4448784
50
331.6586146
51
343.2879852
0
ARC
8
DEFAULT_255_1_604
10
14.9660593
20
-0.1222983
40
0.7254111
50
343.144835
51
351.0104737
0
ARC
8
DEFAULT_255_1_604
10
14.7570819
20
-0.0843788
40
0.9377591
50
350.7171884
51
351.1575273
0
LINE
8
DEFAULT_255_1_604
10
16.7434486
20
0.8166063
11
16.7434486
21
-0.7109
0
LINE
8
DEFAULT_255_1_604
10
16.7434486
20
-0.7109
11
16.5492476
21
-0.7109
0
LINE
8
DEFAULT_255_1_604
10
16.5492476
20
-0.7109
11
16.5492476
21
0.5764652
0
LINE
8
DEFAULT_255_1_604
10
16.5492476
20
0.5764652
11
16.1598013
21
0.4334246
0
LINE
8
DEFAULT_255_1_604
10
16.1598013
20
0.4334246
11
16.1598013
21
0.608832
0
LINE
8
DEFAULT_255_1_604
10
16.1598013
20
0.608832
11
16.71317
21
0.8166063
0
LINE
8
DEFAULT_255_1_604
10
16.71317
20
0.8166063
11
16.7434486
21
0.8166063
0
LINE
8
DEFAULT_255_1_604
10
18.2626022
20
0.188063
11
18.2626022
21
-0.062519
0
LINE
8
DEFAULT_255_1_604
10
17.3030818
20
-0.0886213
11
17.3030818
21
0.1692694
0
LINE
8
DEFAULT_255_1_604
10
18.0694452
20
-0.1147236
11
18.0694452
21
0.2016362
0
LINE
8
DEFAULT_255_1_604
10
17.4962388
20
0.2162535
11
17.4962388
21
-0.0927977
0
ARC
8
DEFAULT_255_1_604
10
16.6705768
20
-0.068878
40
1.5920381
50
353.844072
51
0.228855
0
ARC
8
DEFAULT_255_1_604
10
17.2736187
20
-0.1362082
40
0.985256
50
344.4935621
51
353.9763669
0
ARC
8
DEFAULT_255_1_604
10
17.6626666
20
-0.2468164
40
0.5808042
50
329.280406
51
344.7472378
0
ARC
8
DEFAULT_255_1_604
10
17.7917088
20
-0.3176461
40
0.4337163
50
324.9354918
51
328.6160618
0
ARC
8
DEFAULT_255_1_604
10
17.840755
20
-0.3519263
40
0.3738777
50
280.5801844
51
324.9173532
0
ARC
8
DEFAULT_255_1_604
10
17.7885979
20
-0.1347232
40
0.5970733
50
269.5979407
51
281.673183
0
ARC
8
DEFAULT_255_1_604
10
17.7792261
20
-0.1503484
40
0.5814565
50
256.6227814
51
270.5106393
0
ARC
8
DEFAULT_255_1_604
10
17.7269674
20
-0.3516071
40
0.3735921
50
215.8618579
51
257.278794
0
ARC
8
DEFAULT_255_1_604
10
17.859701
20
-0.2625451
40
0.5333683
50
197.9694693
51
215.2623127
0
ARC
8
DEFAULT_255_1_604
10
18.1827595
20
-0.1535133
40
0.8743151
50
187.8817462
51
198.2346499
0
ARC
8
DEFAULT_255_1_604
10
18.6973071
20
-0.0792385
40
1.3941903
50
180.897698
51
188.0055977
0
ARC
8
DEFAULT_255_1_604
10
19.0760093
20
-0.0655135
40
1.7730781
50
180.7467329
51
181.1494316
0
ARC
8
DEFAULT_255_1_604
10
18.8562242
20
0.1755482
40
1.5531551
50
173.7674183
51
180.231626
0
ARC
8
DEFAULT_255_1_604
10
18.2690025
20
0.2419192
40
0.9622012
50
164.3059658
51
173.90004
0
ARC
8
DEFAULT_255_1_604
10
17.8904455
20
0.3509853
40
0.5682604
50
148.7923002
51
164.5681503
0
ARC
8
DEFAULT_255_1_604
10
17.7668806
20
0.4199573
40
0.4268683
50
144.5889551
51
148.1167696
0
ARC
8
DEFAULT_255_1_604
10
17.7221356
20
0.4511732
40
0.3723131
50
101.6440547
51
144.5142428
0
ARC
8
DEFAULT_255_1_604
10
17.7773917
20
0.2315799
40
0.5986198
50
89.5282941
51
102.5819087
0
ARC
8
DEFAULT_255_1_604
10
17.7876741
20
0.2265003
40
0.6037029
50
77.0438328
51
90.5081498
0
ARC
8
DEFAULT_255_1_604
10
17.8399323
20
0.4400324
40
0.3839026
50
48.2778225
51
77.4994431
0
ARC
8
DEFAULT_255_1_604
10
17.8493787
20
0.4568214
40
0.3651082
50
36.3142913
51
47.6308229
0
ARC
8
DEFAULT_255_1_604
10
17.7364484
20
0.3807417
40
0.5011918
50
18.293146
51
35.6769135
0
ARC
8
DEFAULT_255_1_604
10
17.4058282
20
0.2672628
40
0.8507313
50
8.0247336
51
18.560474
0
ARC
8
DEFAULT_255_1_604
10
16.8647105
20
0.1873466
40
1.3977114
50
1.1273293
51
8.1720346
0
ARC
8
DEFAULT_255_1_604
10
16.4441018
20
0.1708359
40
1.818582
50
0.5427621
51
1.3866942
0
ARC
8
DEFAULT_255_1_604
10
16.6807564
20
0.2062639
40
1.3886965
50
359.8090701
51
4.9407098
0
ARC
8
DEFAULT_255_1_604
10
17.228064
20
0.2551113
40
0.8392168
50
4.8363061
51
12.2905023
0
ARC
8
DEFAULT_255_1_604
10
17.5862237
20
0.334912
40
0.4722819
50
12.0805216
51
23.8174133
0
ARC
8
DEFAULT_255_1_604
10
17.7388006
20
0.3995113
40
0.3066226
50
24.2876241
51
31.394091
0
ARC
8
DEFAULT_255_1_604
10
17.807007
20
0.444143
40
0.2251665
50
30.7407096
51
82.4657698
0
ARC
8
DEFAULT_255_1_604
10
17.7836249
20
0.3292841
40
0.3421959
50
81.1060461
51
90.2184888
0
ARC
8
DEFAULT_255_1_604
10
17.7789836
20
0.3628568
40
0.3086387
50
89.3806266
51
105.6762951
0
ARC
8
DEFAULT_255_1_604
10
17.7551465
20
0.4495155
40
0.2187631
50
105.798058
51
149.7387379
0
ARC
8
DEFAULT_255_1_604
10
17.8934788
20
0.3663649
40
0.3801546
50
149.420947
51
163.6284234
0
ARC
8
DEFAULT_255_1_604
10
18.1652946
20
0.2834672
40
0.6643218
50
163.3764959
51
172.1410516
0
ARC
8
DEFAULT_255_1_604
10
18.5943207
20
0.2220213
40
1.0977224
50
172.0259084
51
178.0704914
0
ARC
8
DEFAULT_255_1_604
10
18.9892031
20
0.2033306
40
1.49302
50
177.8638579
51
179.5040659
0
ARC
8
DEFAULT_255_1_604
10
18.8488741
20
-0.0975275
40
1.3526435
50
179.7996524
51
185.2459386
0
ARC
8
DEFAULT_255_1_604
10
18.3232306
20
-0.1473052
40
0.8246519
50
185.1410844
51
193.0081331
0
ARC
8
DEFAULT_255_1_604
10
17.9796034
20
-0.2285342
40
0.4715624
50
192.7897213
51
205.2508841
0
ARC
8
DEFAULT_255_1_604
10
17.8435032
20
-0.289308
40
0.3225565
50
205.7999823
51
211.2545647
0
ARC
8
DEFAULT_255_1_604
10
17.7755132
20
-0.3348771
40
0.2408189
50
210.3790492
51
238.400988
0
ARC
8
DEFAULT_255_1_604
10
17.7729828
20
-0.3287926
40
0.244734
50
239.6520455
51
265.9792338
0
ARC
8
DEFAULT_255_1_604
10
17.7840578
20
-0.241397
40
0.3327272
50
265.1320301
51
270.0603327
0
ARC
8
DEFAULT_255_1_604
10
17.7878003
20
-0.2835425
40
0.2906013
50
269.331179
51
287.2180041
0
ARC
8
DEFAULT_255_1_604
10
17.8057195
20
-0.3489556
40
0.2228266
50
287.7957061
51
329.080821
0
ARC
8
DEFAULT_255_1_604
10
17.6812324
20
-0.2712597
40
0.3695553
50
328.6637907
51
343.3324074
0
ARC
8
DEFAULT_255_1_604
10
17.3987498
20
-0.183261
40
0.6654171
50
343.0499757
51
351.9391695
0
ARC
8
DEFAULT_255_1_604
10
16.9480571
20
-0.1168208
40
1.1209764
50
351.8070082
51
357.7957543
0
ARC
8
DEFAULT_255_1_604
10
16.5279533
20
-0.0950282
40
1.5416177
50
357.5869373
51
359.2679819
0
LINE
8
DEFAULT_255_1_604
10
19.4633078
20
0.188063
11
19.4633078
21
-0.062519
0
LINE
8
DEFAULT_255_1_604
10
18.5037874
20
-0.0886213
11
18.5037874
21
0.1692694
0
LINE
8
DEFAULT_255_1_604
10
19.2701508
20
-0.1147236
11
19.2701508
21
0.2016362
0
LINE
8
DEFAULT_255_1_604
10
18.6969444
20
0.2162535
11
18.6969444
21
-0.0927977
0
ARC
8
DEFAULT_255_1_604
10
17.8712824
20
-0.068878
40
1.5920381
50
353.844072
51
0.228855
0
ARC
8
DEFAULT_255_1_604
10
18.4743242
20
-0.1362082
40
0.985256
50
344.4935621
51
353.9763669
0
ARC
8
DEFAULT_255_1_604
10
18.8633722
20
-0.2468164
40
0.5808042
50
329.280406
51
344.7472378
0
ARC
8
DEFAULT_255_1_604
10
18.9924143
20
-0.3176461
40
0.4337163
50
324.9354918
51
328.6160618
0
ARC
8
DEFAULT_255_1_604
10
19.0414605
20
-0.3519263
40
0.3738777
50
280.5801844
51
324.9173532
0
ARC
8
DEFAULT_255_1_604
10
18.9893035
20
-0.1347232
40
0.5970733
50
269.5979407
51
281.673183
0
ARC
8
DEFAULT_255_1_604
10
18.9799317
20
-0.1503484
40
0.5814565
50
256.6227814
51
270.5106393
0
ARC
8
DEFAULT_255_1_604
10
18.927673
20
-0.3516071
40
0.3735921
50
215.8618579
51
257.278794
0
ARC
8
DEFAULT_255_1_604
10
19.0604066
20
-0.2625451
40
0.5333683
50
197.9694693
51
215.2623127
0
ARC
8
DEFAULT_255_1_604
10
19.3834651
20
-0.1535133
40
0.8743151
50
187.8817462
51
198.2346499
0
ARC
8
DEFAULT_255_1_604
10
19.8980127
20
-0.0792385
40
1.3941903
50
180.897698
51
188.0055977
0
ARC
8
DEFAULT_255_1_604
10
20.2767149
20
-0.0655135
40
1.7730781
50
180.7467329
51
181.1494316
0
ARC
8
DEFAULT_255_1_604
10
20.0569298
20
0.1755482
40
1.5531551
50
173.7674183
51
180.231626
0
ARC
8
DEFAULT_255_1_604
10
19.469708
20
0.2419192
40
0.9622012
50
164.3059658
51
173.90004
0
ARC
8
DEFAULT_255_1_604
10
19.091151
20
0.3509853
40
0.5682604
50
148.7923002
51
164.5681503
0
ARC
8
DEFAULT_255_1_604
10
18.9675862
20
0.4199573
40
0.4268683
50
144.5889551
51
148.1167696
0
ARC
8
DEFAULT_255_1_604
10
18.9228412
20
0.4511732
40
0.3723131
50
101.6440547
51
144.5142428
0
ARC
8
DEFAULT_255_1_604
10
18.9780973
20
0.2315799
40
0.5986198
50
89.5282941
51
102.5819087
0
ARC
8
DEFAULT_255_1_604
10
18.9883796
20
0.2265003
40
0.6037029
50
77.0438328
51
90.5081498
0
ARC
8
DEFAULT_255_1_604
10
19.0406378
20
0.4400324
40
0.3839026
50
48.2778225
51
77.4994431
0
ARC
8
DEFAULT_255_1_604
10
19.0500842
20
0.4568214
40
0.3651082
50
36.3142913
51
47.6308229
0
ARC
8
DEFAULT_255_1_604
10
18.9371539
20
0.3807417
40
0.5011918
50
18.293146
51
35.6769135
0
ARC
8
DEFAULT_255_1_604
10
18.6065338
20
0.2672628
40
0.8507313
50
8.0247336
51
18.560474
0
ARC
8
DEFAULT_255_1_604
10
18.065416
20
0.1873466
40
1.3977114
50
1.1273293
51
8.1720346
0
ARC
8
DEFAULT_255_1_604
10
17.6448074
20
0.1708359
40
1.818582
50
0.5427621
51
1.3866942
0
ARC
8
DEFAULT_255_1_604
10
17.881462
20
0.2062639
40
1.3886965
50
359.8090701
51
4.9407098
0
ARC
8
DEFAULT_255_1_604
10
18.4287696
20
0.2551113
40
0.8392168
50
4.8363061
51
12.2905023
0
ARC
8
DEFAULT_255_1_604
10
18.7869293
20
0.334912
40
0.4722819
50
12.0805216
51
23.8174133
0
ARC
8
DEFAULT_255_1_604
10
18.9395062
20
0.3995113
40
0.3066226
50
24.2876241
51
31.394091
0
ARC
8
DEFAULT_255_1_604
10
19.0077125
20
0.444143
40
0.2251665
50
30.7407096
51
82.4657698
0
ARC
8
DEFAULT_255_1_604
10
18.9843304
20
0.3292841
40
0.3421959
50
81.1060461
51
90.2184888
0
ARC
8
DEFAULT_255_1_604
10
18.9796892
20
0.3628568
40
0.3086387
50
89.3806266
51
105.6762951
0
ARC
8
DEFAULT_255_1_604
10
18.9558521
20
0.4495155
40
0.2187631
50
105.798058
51
149.7387379
0
ARC
8
DEFAULT_255_1_604
10
19.0941843
20
0.3663649
40
0.3801546
50
149.420947
51
163.6284234
0
ARC
8
DEFAULT_255_1_604
10
19.3660002
20
0.2834672
40
0.6643218
50
163.3764959
51
172.1410516
0
ARC
8
DEFAULT_255_1_604
10
19.7950262
20
0.2220213
40
1.0977224
50
172.0259084
51
178.0704914
0
ARC
8
DEFAULT_255_1_604
10
20.1899087
20
0.2033306
40
1.49302
50
177.8638579
51
179.5040659
0
ARC
8
DEFAULT_255_1_604
10
20.0495796
20
-0.0975275
40
1.3526435
50
179.7996524
51
185.2459386
0
ARC
8
DEFAULT_255_1_604
10
19.5239362
20
-0.1473052
40
0.8246519
50
185.1410844
51
193.0081331
0
ARC
8
DEFAULT_255_1_604
10
19.1803089
20
-0.2285342
40
0.4715624
50
192.7897213
51
205.2508841
0
ARC
8
DEFAULT_255_1_604
10
19.0442087
20
-0.289308
40
0.3225565
50
205.7999823
51
211.2545647
0
ARC
8
DEFAULT_255_1_604
10
18.9762188
20
-0.3348771
40
0.2408189
50
210.3790492
51
238.400988
0
ARC
8
DEFAULT_255_1_604
10
18.9736884
20
-0.3287926
40
0.244734
50
239.6520455
51
265.9792338
0
ARC
8
DEFAULT_255_1_604
10
18.9847634
20
-0.241397
40
0.3327272
50
265.1320301
51
270.0603327
0
ARC
8
DEFAULT_255_1_604
10
18.9885059
20
-0.2835425
40
0.2906013
50
269.331179
51
287.2180041
0
ARC
8
DEFAULT_255_1_604
10
19.0064251
20
-0.3489556
40
0.2228266
50
287.7957061
51
329.080821
0
ARC
8
DEFAULT_255_1_604
10
18.881938
20
-0.2712597
40
0.3695553
50
328.6637907
51
343.3324074
0
ARC
8
DEFAULT_255_1_604
10
18.5994554
20
-0.183261
40
0.6654171
50
343.0499757
51
351.9391695
0
ARC
8
DEFAULT_255_1_604
10
18.1487627
20
-0.1168208
40
1.1209764
50
351.8070082
51
357.7957543
0
ARC
8
DEFAULT_255_1_604
10
17.7286589
20
-0.0950282
40
1.5416177
50
357.5869373
51
359.2679819
0
ARC
8
DEFAULT_255_2_778
10
20.2534188
20
25.3616525
40
0.3580657
50
89.9945037
51
180.0054963
0
ARC
8
DEFAULT_255_2_778
10
20.2534875
20
25.3616525
40
0.3580657
50
359.9945037
51
90.0054963
0
ARC
8
DEFAULT_255_2_778
10
20.2534875
20
25.3615838
40
0.3580657
50
269.9945037
51
0.0054963
0
ARC
8
DEFAULT_255_2_778
10
20.2534188
20
25.3615838
40
0.3580657
50
179.9945037
51
270.0054963
0
ARC
8
DEFAULT_255_2_778
10
22.9622406
20
25.093282
40
2.3282817
50
111.9150345
51
128.7655504
0
ARC
8
DEFAULT_255_2_778
10
22.8791007
20
25.225352
40
2.1733214
50
129.2366206
51
154.7721516
0
ARC
8
DEFAULT_255_2_778
10
23.480657
20
24.9295583
40
2.8435961
50
154.5467617
51
165.9285636
0
ARC
8
DEFAULT_255_2_778
10
23.9646902
20
24.7921212
40
3.3465569
50
165.6609748
51
166.525375
0
ARC
8
DEFAULT_255_2_778
10
21.5282291
20
26.0103171
40
1.414623
50
156.0627036
51
175.7189082
0
ARC
8
DEFAULT_255_2_778
10
22.1164502
20
25.756783
40
2.0551309
50
144.7505594
51
156.2560535
0
ARC
8
DEFAULT_255_2_778
10
22.8861799
20
25.2214863
40
2.9926766
50
137.345293
51
144.8863205
0
ARC
8
DEFAULT_255_2_778
10
23.8131446
20
24.3723407
40
4.2497776
50
131.6389266
51
137.393651
0
ARC
8
DEFAULT_255_2_778
10
24.5393492
20
23.5756248
40
5.3277326
50
130.1334351
51
131.7826198
0
LINE
8
DEFAULT_255_2_778
10
19.8953532
20
25.3616182
11
19.8953532
21
25.3616182
0
LINE
8
DEFAULT_255_2_778
10
21.1052532
20
27.6489182
11
22.0932532
21
27.2533182
0
LINE
8
DEFAULT_255_2_778
10
20.7102532
20
25.5719182
11
20.1175532
21
26.1159182
0
LINE
8
DEFAULT_255_2_778
10
21.1052532
20
27.6489182
11
21.1052532
21
27.6489182
0
ARC
8
DEFAULT_255_2_778
10
13.7594907
20
26.1851437
40
0.8717226
50
88.9281645
51
133.9885749
0
ARC
8
DEFAULT_255_2_778
10
13.7757454
20
25.9600604
40
1.0966534
50
88.9487005
51
89.9972984
0
ARC
8
DEFAULT_255_2_778
10
13.7953
20
26.2555011
40
0.8010283
50
72.1310318
51
89.9594908
0
ARC
8
DEFAULT_255_2_778
10
13.8705373
20
26.5125083
40
0.5333823
50
60.6505783
51
71.3519493
0
ARC
8
DEFAULT_255_2_778
10
13.9543387
20
26.6396349
40
0.3816498
50
20.3938858
51
62.2625554
0
ARC
8
DEFAULT_255_2_778
10
14.9704645
20
26.1516628
40
0.9050345
50
89.7568633
51
136.6758865
0
ARC
8
DEFAULT_255_2_778
10
14.9742773
20
26.0340709
40
1.0226182
50
88.9864436
51
89.9984426
0
ARC
8
DEFAULT_255_2_778
10
14.992248
20
26.273192
40
0.7833372
50
71.373585
51
89.9913488
0
ARC
8
DEFAULT_255_2_778
10
15.0841803
20
26.552042
40
0.489734
50
42.2193789
51
71.1458349
0
ARC
8
DEFAULT_255_2_778
10
15.0590908
20
26.5445658
40
0.5134635
50
8.5226311
51
40.9558105
0
ARC
8
DEFAULT_255_2_778
10
14.7367896
20
26.4793045
40
0.8420446
50
359.6942069
51
9.6641803
0
ARC
8
DEFAULT_255_2_778
10
14.4472507
20
26.4763277
40
1.1315727
50
355.5855084
51
359.923173
0
ARC
8
DEFAULT_255_2_778
10
14.2502845
20
26.4486289
40
0.7547163
50
352.4548626
51
359.7652122
0
ARC
8
DEFAULT_255_2_778
10
14.4078893
20
26.4457192
40
0.5971052
50
359.9824407
51
2.1700815
0
ARC
8
DEFAULT_255_2_778
10
14.8167551
20
26.4615752
40
0.1879327
50
2.0595693
51
88.944897
0
ARC
8
DEFAULT_255_2_778
10
14.7529878
20
26.1742725
40
0.4799353
50
81.9476992
51
88.9638763
0
ARC
8
DEFAULT_255_2_778
10
14.7641352
20
26.1681844
40
0.4859511
50
90.2910974
51
140.7094043
0
ARC
8
DEFAULT_255_2_778
10
14.950423
20
25.9753111
40
0.7529164
50
138.3264016
51
141.8088804
0
ARC
8
DEFAULT_255_2_778
10
13.0111845
20
26.4452289
40
0.7547163
50
352.4548626
51
359.7652122
0
ARC
8
DEFAULT_255_2_778
10
13.1687893
20
26.4423192
40
0.5971052
50
359.9824407
51
2.1700815
0
ARC
8
DEFAULT_255_2_778
10
13.5767327
20
26.4591775
40
0.1888212
50
1.7455696
51
88.6065628
0
ARC
8
DEFAULT_255_2_778
10
13.5151974
20
26.1828897
40
0.469731
50
81.9072271
51
88.8693446
0
ARC
8
DEFAULT_255_2_778
10
13.5126914
20
26.1428568
40
0.5098084
50
88.6765396
51
89.9981553
0
ARC
8
DEFAULT_255_2_778
10
13.5179114
20
26.1464569
40
0.5062351
50
90.5889431
51
134.9317856
0
ARC
8
DEFAULT_255_2_778
10
13.6708307
20
25.9560835
40
0.749469
50
132.9288129
51
135.7848647
0
LINE
8
DEFAULT_255_2_778
10
12.6682663
20
27.0224292
11
13.2005663
21
27.0240292
0
LINE
8
DEFAULT_255_2_778
10
13.2005663
20
27.0240292
11
13.1540663
21
26.8123292
0
LINE
8
DEFAULT_255_2_778
10
15.5754663
20
26.3892292
11
15.5715663
21
26.3464292
0
LINE
8
DEFAULT_255_2_778
10
15.5715663
20
26.3464292
11
15.3386663
21
25.1610292
0
LINE
8
DEFAULT_255_2_778
10
15.3386663
20
25.1610292
11
14.7655663
21
25.1610292
0
LINE
8
DEFAULT_255_2_778
10
14.7655663
20
25.1610292
11
14.9984663
21
26.3495292
0
LINE
8
DEFAULT_255_2_778
10
14.3586663
20
26.4408292
11
14.3525663
21
26.4014292
0
LINE
8
DEFAULT_255_2_778
10
14.3525663
20
26.4014292
11
14.0975663
21
25.1610292
0
LINE
8
DEFAULT_255_2_778
10
14.0975663
20
25.1610292
11
13.5265663
21
25.1610292
0
LINE
8
DEFAULT_255_2_778
10
13.5265663
20
25.1610292
11
13.7593663
21
26.3461292
0
LINE
8
DEFAULT_255_2_778
10
13.1336663
20
26.4787292
11
12.8603663
21
25.1610292
0
LINE
8
DEFAULT_255_2_778
10
12.8603663
20
25.1610292
11
12.2893663
21
25.1610292
0
LINE
8
DEFAULT_255_2_778
10
12.2893663
20
25.1610292
11
12.6679663
21
27.0221292
0
LINE
8
DEFAULT_255_2_778
10
12.6679663
20
27.0221292
11
12.6682663
21
27.0224292
0
ARC
8
DEFAULT_255_2_778
10
16.6196053
20
25.8706974
40
1.1843517
50
72.4959718
51
89.9898173
0
ARC
8
DEFAULT_255_2_778
10
16.6943099
20
26.1335251
40
0.9112583
50
60.3350936
51
72.0051619
0
ARC
8
DEFAULT_255_2_778
10
16.7749673
20
26.2552792
40
0.7656054
50
24.9513793
51
61.0705157
0
ARC
8
DEFAULT_255_2_778
10
16.6824605
20
26.2139093
40
0.8669314
50
359.4887328
51
24.8512384
0
ARC
8
DEFAULT_255_2_778
10
16.4761349
20
26.2075613
40
1.0732233
50
353.5741487
51
359.9259073
0
ARC
8
DEFAULT_255_2_778
10
16.4716228
20
26.1768768
40
1.0747201
50
309.8384697
51
355.2268883
0
ARC
8
DEFAULT_255_2_778
10
16.4133732
20
26.2432792
40
1.1630257
50
274.0087174
51
309.9462649
0
ARC
8
DEFAULT_255_2_778
10
16.3622118
20
26.6113469
40
1.5339783
50
269.9463719
51
274.9539392
0
ARC
8
DEFAULT_255_2_778
10
16.3608389
20
26.7362055
40
1.6588361
50
269.1564
51
269.9978262
0
ARC
8
DEFAULT_255_2_778
10
16.3361786
20
26.2475777
40
1.1700287
50
252.1169151
51
270.0116144
0
ARC
8
DEFAULT_255_2_778
10
16.2640737
20
25.9974983
40
0.9099269
50
240.5370005
51
251.6023302
0
ARC
8
DEFAULT_255_2_778
10
16.1851932
20
25.8761956
40
0.7655666
50
205.2400495
51
241.211713
0
ARC
8
DEFAULT_255_2_778
10
16.2644058
20
25.9133619
40
0.8530649
50
179.5368594
51
205.2293562
0
ARC
8
DEFAULT_255_2_778
10
16.4511104
20
25.9189615
40
1.0397424
50
173.5174505
51
179.9285896
0
ARC
8
DEFAULT_255_2_778
10
16.6391803
20
25.9076625
40
1.2279263
50
153.4099026
51
173.9843619
0
ARC
8
DEFAULT_255_2_778
10
16.479574
20
25.9754316
40
1.0549233
50
129.6863931
51
152.8211827
0
ARC
8
DEFAULT_255_2_778
10
16.5416695
20
25.9049288
40
1.1488354
50
92.7647679
51
129.8242239
0
ARC
8
DEFAULT_255_2_778
10
16.5841385
20
25.5620027
40
1.493635
50
89.9700537
51
93.7575078
0
ARC
8
DEFAULT_255_2_778
10
16.5848078
20
25.4604988
40
1.5951388
50
88.7352629
51
89.9960004
0
ARC
8
DEFAULT_255_2_778
10
16.4400633
20
25.8515898
40
0.4277578
50
179.6036168
51
209.4859363
0
ARC
8
DEFAULT_255_2_778
10
16.339418
20
25.8046704
40
0.3171735
50
211.0570865
51
223.1755117
0
ARC
8
DEFAULT_255_2_778
10
16.3473332
20
25.8226661
40
0.3353476
50
224.4925211
51
268.7887171
0
ARC
8
DEFAULT_255_2_778
10
16.3774447
20
26.0353734
40
0.5492412
50
266.1163412
51
268.8180997
0
ARC
8
DEFAULT_255_2_778
10
16.3835472
20
26.1637785
40
0.6777536
50
268.526223
51
269.9955091
0
ARC
8
DEFAULT_255_2_778
10
16.3990701
20
25.973644
40
0.4878678
50
268.1704265
51
325.4339242
0
ARC
8
DEFAULT_255_2_778
10
16.1704695
20
26.1403456
40
0.7707306
50
324.8706977
51
351.0886768
0
ARC
8
DEFAULT_255_2_778
10
15.7623184
20
26.2192458
40
1.1862684
50
350.3775551
51
0.2885744
0
ARC
8
DEFAULT_255_2_778
10
15.4717188
20
26.2249413
40
1.4768528
50
0.0108339
51
1.7075744
0
ARC
8
DEFAULT_255_2_778
10
16.4934642
20
26.2598667
40
0.4545424
50
1.1449321
51
31.2379075
0
ARC
8
DEFAULT_255_2_778
10
16.5879741
20
26.3067655
40
0.3495266
50
32.6990639
51
41.7808189
0
ARC
8
DEFAULT_255_2_778
10
16.6096806
20
26.3157907
40
0.3274181
50
43.1340936
51
88.7627262
0
ARC
8
DEFAULT_255_2_778
10
16.5789521
20
26.1032982
40
0.541156
50
85.9947762
51
88.8708975
0
ARC
8
DEFAULT_255_2_778
10
16.5725564
20
26.0011831
40
0.6433922
50
88.4806373
51
89.9943348
0
ARC
8
DEFAULT_255_2_778
10
16.5615164
20
26.1550029
40
0.4896983
50
88.700744
51
145.0333048
0
ARC
8
DEFAULT_255_2_778
10
16.7601178
20
26.0017114
40
0.7403948
50
144.1199924
51
170.2822726
0
ARC
8
DEFAULT_255_2_778
10
17.186428
20
25.9146587
40
1.1753635
50
169.6073612
51
180.3524876
0
ARC
8
DEFAULT_255_2_778
10
17.5222715
20
25.9078311
40
1.5111849
50
180.0152873
51
182.0091954
0
LINE
8
DEFAULT_255_2_778
10
16.6200158
20
27.0552491
11
16.6198158
21
27.0550491
0
LINE
8
DEFAULT_255_2_778
10
16.0120158
20
25.8548491
11
16.0123158
21
25.8545491
0
ARC
8
DEFAULT_255_2_778
10
18.587937
20
24.9330854
40
1.642039
50
81.2830361
51
86.628458
0
ARC
8
DEFAULT_255_2_778
10
18.6429757
20
25.7715313
40
0.8018272
50
87.0310432
51
89.8986713
0
ARC
8
DEFAULT_255_2_778
10
18.6242064
20
25.6828997
40
0.8906863
50
88.7012797
51
89.9954117
0
ARC
8
DEFAULT_255_2_778
10
18.6103452
20
25.9271623
40
0.6465738
50
88.765285
51
116.6201427
0
ARC
8
DEFAULT_255_2_778
10
18.5802548
20
26.0111694
40
0.5580924
50
117.7228833
51
138.7756782
0
ARC
8
DEFAULT_255_2_778
10
18.7590475
20
26.3773707
40
0.6980151
50
116.489914
51
143.0810972
0
ARC
8
DEFAULT_255_2_778
10
18.7053938
20
26.4574223
40
0.6025621
50
89.4580016
51
115.3188873
0
ARC
8
DEFAULT_255_2_778
10
18.6965205
20
26.1226885
40
0.9373821
50
77.9674605
51
89.1092017
0
ARC
8
DEFAULT_255_2_778
10
18.6028478
20
25.5921466
40
1.4759175
50
78.008513
51
78.7045202
0
LINE
8
DEFAULT_255_2_778
10
18.9094938
20
27.0361573
11
18.8367938
21
26.5561573
0
LINE
8
DEFAULT_255_2_778
10
18.1604938
20
26.3789573
11
17.9072938
21
25.1610573
0
LINE
8
DEFAULT_255_2_778
10
17.9072938
20
25.1610573
11
17.3362938
21
25.1610573
0
LINE
8
DEFAULT_255_2_778
10
17.3362938
20
25.1610573
11
17.7169938
21
27.0221573
0
LINE
8
DEFAULT_255_2_778
10
17.7169938
20
27.0221573
11
18.2535938
21
27.0237573
0
LINE
8
DEFAULT_255_2_778
10
18.2535938
20
27.0237573
11
18.2009938
21
26.7966573
0
LINE
8
DEFAULT_255_2_778
10
18.9094938
20
27.0358573
11
18.9094938
21
27.0361573
0
ARC
8
DEFAULT_255_2_778
10
19.1571128
20
26.2475762
40
1.1700739
50
250.1384534
51
270.3253519
0
ARC
8
DEFAULT_255_2_778
10
19.1018273
20
26.0667495
40
0.9812659
50
242.0400724
51
249.5873206
0
ARC
8
DEFAULT_255_2_778
10
19.001531
20
25.9083015
40
0.794417
50
208.3292132
51
243.0715083
0
ARC
8
DEFAULT_255_2_778
10
18.9937252
20
25.8992929
40
0.7832826
50
179.5739013
51
208.0201199
0
ARC
8
DEFAULT_255_2_778
10
19.1404713
20
25.9043153
40
0.9300073
50
174.3657638
51
179.9505495
0
ARC
8
DEFAULT_255_2_778
10
19.322969
20
25.9456913
40
1.1082855
50
145.24933
51
173.7565404
0
ARC
8
DEFAULT_255_2_778
10
19.3043239
20
25.9706177
40
1.0788028
50
116.4826416
51
145.7726174
0
ARC
8
DEFAULT_255_2_778
10
19.3348976
20
25.9009316
40
1.1548163
50
89.3335424
51
116.2986099
0
ARC
8
DEFAULT_255_2_778
10
19.3482483
20
25.6585133
40
1.3971563
50
88.7200635
51
89.9966493
0
ARC
8
DEFAULT_255_2_778
10
19.3739264
20
25.9429187
40
1.1124162
50
73.6937809
51
89.7151452
0
ARC
8
DEFAULT_255_2_778
10
19.4851962
20
26.3148827
40
0.7241771
50
40.439997
51
73.880282
0
ARC
8
DEFAULT_255_2_778
10
19.4514712
20
26.2929387
40
0.7640962
50
0.3370816
51
40.0519836
0
ARC
8
DEFAULT_255_2_778
10
19.2137457
20
26.269313
40
1.0022031
50
359.994028
51
1.6078833
0
ARC
8
DEFAULT_255_2_778
10
19.0846833
20
26.2714808
40
1.1312679
50
353.167063
51
359.8849147
0
ARC
8
DEFAULT_255_2_778
10
18.9406155
20
26.2862227
40
1.2760687
50
352.3939633
51
353.279462
0
ARC
8
DEFAULT_255_2_778
10
19.1530478
20
25.8475308
40
0.3604224
50
171.5294964
51
179.9003766
0
ARC
8
DEFAULT_255_2_778
10
19.1259641
20
25.8517602
40
0.3333577
50
180.6192204
51
227.8732743
0
ARC
8
DEFAULT_255_2_778
10
19.2039834
20
26.1125848
40
0.5908529
50
239.3033103
51
268.7295305
0
ARC
8
DEFAULT_255_2_778
10
19.2271224
20
26.3465887
40
0.8255073
50
267.4839269
51
270.0168707
0
ARC
8
DEFAULT_255_2_778
10
19.2268753
20
26.4314158
40
0.9103345
50
270.0308514
51
273.2230324
0
ARC
8
DEFAULT_255_2_778
10
19.2542379
20
25.7702649
40
0.2488861
50
275.4917641
51
302.3582203
0
ARC
8
DEFAULT_255_2_778
10
19.3200418
20
25.6543063
40
0.115896
50
305.561706
51
314.7657745
0
ARC
8
DEFAULT_255_2_778
10
19.3095773
20
25.6871064
40
0.1473882
50
308.6632861
51
359.3837416
0
ARC
8
DEFAULT_255_2_778
10
17.807225
20
27.4097828
40
2.962762
50
318.8021847
51
324.4102292
0
ARC
8
DEFAULT_255_2_778
10
18.7925821
20
26.5414505
40
1.6494092
50
310.4033061
51
318.953359
0
ARC
8
DEFAULT_255_2_778
10
19.3188808
20
25.9148187
40
0.831118
50
295.9312381
51
310.7744109
0
ARC
8
DEFAULT_255_2_778
10
19.4407027
20
25.6859771
40
0.5721233
50
294.3678437
51
294.9811966
0
ARC
8
DEFAULT_255_2_778
10
19.1940828
20
26.4529614
40
1.3756016
50
269.5724547
51
290.5412856
0
ARC
8
DEFAULT_255_2_778
10
19.1838577
20
26.6712488
40
1.5938505
50
269.2881822
51
269.9985732
0
ARC
8
DEFAULT_255_2_778
10
19.3390649
20
26.0846819
40
0.5598634
50
88.7931239
51
89.9984438
0
ARC
8
DEFAULT_255_2_778
10
19.3326983
20
26.1815553
40
0.463034
50
89.2102909
51
125.5845733
0
ARC
8
DEFAULT_255_2_778
10
19.4008068
20
26.1098825
40
0.5611219
50
126.9818839
51
147.669232
0
ARC
8
DEFAULT_255_2_778
10
19.876359
20
25.7901894
40
1.1340353
50
146.870707
51
156.2884785
0
ARC
8
DEFAULT_255_2_778
10
19.2351279
20
26.3680109
40
0.4275542
50
349.7487379
51
359.8271594
0
ARC
8
DEFAULT_255_2_778
10
19.2975857
20
26.367282
40
0.3650948
50
359.9119884
51
9.2266083
0
ARC
8
DEFAULT_255_2_778
10
19.4133961
20
26.3823643
40
0.2483918
50
10.0759194
51
54.8339385
0
ARC
8
DEFAULT_255_2_778
10
19.3593417
20
26.2862413
40
0.3582778
50
56.6210187
51
91.3472693
0
LINE
8
DEFAULT_255_2_778
10
18.2149569
20
25.9956211
11
18.2212569
21
26.0662211
0
LINE
8
DEFAULT_255_2_778
10
20.2054569
20
26.1173211
11
20.1723569
21
25.9006211
0
LINE
8
DEFAULT_255_2_778
10
20.1723569
20
25.9006211
11
18.7965569
21
25.9006211
0
LINE
8
DEFAULT_255_2_778
10
19.4569569
20
25.6855211
11
20.2165569
21
25.6855211
0
LINE
8
DEFAULT_255_2_778
10
18.8380569
20
26.2462211
11
19.6434569
21
26.2462211
0
LINE
8
DEFAULT_255_2_778
10
19.6434569
20
26.2462211
11
19.6558569
21
26.2919211
0
LINE
8
DEFAULT_255_2_778
10
11.4252281
20
26.8330177
11
12.8081281
21
26.0170177
0
LINE
8
DEFAULT_255_2_778
10
12.8081281
20
26.0170177
11
11.2770281
21
25.4236177
0
LINE
8
DEFAULT_255_2_778
10
11.2770281
20
25.4236177
11
11.5979281
21
26.1406177
0
LINE
8
DEFAULT_255_2_778
10
11.5979281
20
26.1406177
11
11.4252281
21
26.8330177
0
ARC
8
DEFAULT_255_2_778
10
7.8633492
20
26.5526349
40
1.734445
50
345.0500681
51
0.450213
0
ARC
8
DEFAULT_255_2_778
10
8.1424128
20
26.4884315
40
1.4482985
50
339.8011311
51
344.6559926
0
ARC
8
DEFAULT_255_2_778
10
8.2241959
20
26.4429595
40
1.3559213
50
318.9869254
51
340.4112117
0
ARC
8
DEFAULT_255_2_778
10
8.3403786
20
26.3550223
40
1.2105876
50
317.7755753
51
318.5188915
0
ARC
8
DEFAULT_255_2_778
10
8.3677776
20
26.3291224
40
1.1728926
50
293.4453171
51
317.8130059
0
ARC
8
DEFAULT_255_2_778
10
8.3381728
20
26.4073502
40
1.2564472
50
269.4376299
51
293.2645473
0
ARC
8
DEFAULT_255_2_778
10
8.6390116
20
26.6154305
40
1.0182316
50
68.112945
51
90.7974227
0
ARC
8
DEFAULT_255_2_778
10
8.6827218
20
26.7507759
40
0.8764035
50
66.6600337
51
67.4660887
0
ARC
8
DEFAULT_255_2_778
10
8.6950616
20
26.7625129
40
0.860764
50
41.8199578
51
67.1046866
0
ARC
8
DEFAULT_255_2_778
10
8.5939144
20
26.6862866
40
0.9870277
50
18.4442061
51
41.2024761
0
ARC
8
DEFAULT_255_2_778
10
8.2913394
20
26.5826986
40
1.3068358
50
359.9236227
51
18.5554774
0
ARC
8
DEFAULT_255_2_778
10
7.9767371
20
26.5662824
40
1.6215036
50
359.9993331
51
0.5185192
0
ARC
8
DEFAULT_255_2_778
10
8.1161265
20
26.5724191
40
1.1556879
50
359.3527282
51
15.3461488
0
ARC
8
DEFAULT_255_2_778
10
8.3555709
20
26.6275091
40
0.9102591
50
15.9909101
51
17.2384514
0
ARC
8
DEFAULT_255_2_778
10
8.5215656
20
26.6909942
40
0.7329962
50
16.3441173
51
39.0583428
0
ARC
8
DEFAULT_255_2_778
10
8.6385861
20
26.7765513
40
0.5882641
50
39.7694118
51
66.0014919
0
ARC
8
DEFAULT_255_2_778
10
8.6052911
20
26.6835083
40
0.6868457
50
66.6208799
51
90.9301944
0
ARC
8
DEFAULT_255_2_778
10
8.3674619
20
26.2785777
40
0.865983
50
269.2774049
51
294.6427005
0
ARC
8
DEFAULT_255_2_778
10
8.3809787
20
26.2305801
40
0.8167574
50
295.184769
51
321.1699914
0
ARC
8
DEFAULT_255_2_778
10
8.188821
20
26.3770326
40
1.0582969
50
321.5163412
51
341.7776814
0
ARC
8
DEFAULT_255_2_778
10
7.8940618
20
26.4925931
40
1.374523
50
341.044332
51
342.4824039
0
ARC
8
DEFAULT_255_2_778
10
7.7898077
20
26.5142334
40
1.4804949
50
342.8981919
51
356.6952858
0
ARC
8
DEFAULT_255_2_778
10
7.2862441
20
26.5579849
40
1.9857973
50
356.2725814
51
0.0484329
0
LINE
8
DEFAULT_255_2_778
10
8.3258407
20
25.1509635
11
7.2765407
21
25.1266635
0
LINE
8
DEFAULT_255_2_778
10
7.2765407
20
25.1266635
11
7.7858407
21
27.6335635
0
LINE
8
DEFAULT_255_2_778
10
7.7858407
20
27.6335635
11
8.6248407
21
27.6335635
0
LINE
8
DEFAULT_255_2_778
10
9.5982407
20
26.5662635
11
9.5977407
21
26.5662635
0
LINE
8
DEFAULT_255_2_778
10
8.5941407
20
27.3702635
11
7.9962407
21
27.3522635
0
LINE
8
DEFAULT_255_2_778
10
7.9962407
20
27.3522635
11
7.6363407
21
25.3740635
0
LINE
8
DEFAULT_255_2_778
10
7.6363407
20
25.3740635
11
8.3565407
21
25.4126635
0
LINE
8
DEFAULT_255_2_778
10
9.2720407
20
26.5596635
11
9.2717407
21
26.5593635
0
ARC
8
DEFAULT_255_2_778
10
10.302374
20
25.954919
40
0.5777251
50
269.3131992
51
298.9193317
0
ARC
8
DEFAULT_255_2_778
10
10.2422898
20
26.0595114
40
0.6983333
50
299.0845099
51
323.1838183
0
ARC
8
DEFAULT_255_2_778
10
10.0730419
20
26.1834915
40
0.9081244
50
323.3206017
51
342.9705556
0
ARC
8
DEFAULT_255_2_778
10
9.9076255
20
26.2409416
40
1.0831324
50
342.6274164
51
0.2324268
0
ARC
8
DEFAULT_255_2_778
10
10.2433391
20
26.2580185
40
0.7475175
50
359.0278167
51
16.1300251
0
ARC
8
DEFAULT_255_2_778
10
10.5672449
20
26.3511392
40
0.4104922
50
16.2042834
51
41.9480466
0
ARC
8
DEFAULT_255_2_778
10
10.5796118
20
26.3429262
40
0.4070383
50
43.9719544
51
85.3997935
0
ARC
8
DEFAULT_255_2_778
10
10.5322186
20
26.0672297
40
0.686108
50
83.300847
51
90.1477804
0
ARC
8
DEFAULT_255_2_778
10
10.5219616
20
26.1719474
40
0.58145
50
89.163628
51
118.6648078
0
ARC
8
DEFAULT_255_2_778
10
10.581079
20
26.0749564
40
0.6949321
50
119.1056578
51
143.2104754
0
ARC
8
DEFAULT_255_2_778
10
10.7542438
20
25.9479766
40
0.9096571
50
143.3373192
51
162.9538381
0
ARC
8
DEFAULT_255_2_778
10
10.9180519
20
25.8909321
40
1.0830106
50
162.6089297
51
180.2167337
0
ARC
8
DEFAULT_255_2_778
10
10.590132
20
25.8741465
40
0.7551896
50
179.037255
51
196.0102976
0
ARC
8
DEFAULT_255_2_778
10
10.2623689
20
25.7806213
40
0.4143448
50
196.0798237
51
221.5429745
0
ARC
8
DEFAULT_255_2_778
10
10.2435386
20
25.7822741
40
0.4015819
50
223.501568
51
264.945498
0
ARC
8
DEFAULT_255_2_778
10
10.2934062
20
26.062423
40
0.6854906
50
262.8561454
51
270.170743
0
ARC
8
DEFAULT_255_2_778
10
10.2496801
20
26.1201733
40
0.993603
50
251.4783364
51
270.6555979
0
ARC
8
DEFAULT_255_2_778
10
10.1671823
20
25.8744369
40
0.7343883
50
228.2272369
51
251.4910714
0
ARC
8
DEFAULT_255_2_778
10
10.1298392
20
25.8237077
40
0.671704
50
202.6960886
51
227.720176
0
ARC
8
DEFAULT_255_2_778
10
10.2495562
20
25.8690656
40
0.7996635
50
179.6456167
51
202.3846702
0
ARC
8
DEFAULT_255_2_778
10
10.5173927
20
25.8852351
40
1.0675438
50
179.9999853
51
180.6023814
0
ARC
8
DEFAULT_255_2_778
10
10.5536721
20
25.892223
40
1.1038452
50
157.230675
51
180.3627006
0
ARC
8
DEFAULT_255_2_778
10
10.5843324
20
25.8826196
40
1.135837
50
135.6908415
51
157.3825693
0
ARC
8
DEFAULT_255_2_778
10
10.5546282
20
25.909315
40
1.0959349
50
113.1058727
51
135.604761
0
ARC
8
DEFAULT_255_2_778
10
10.5551078
20
25.9135049
40
1.0922713
50
89.5047522
51
113.2152626
0
ARC
8
DEFAULT_255_2_778
10
10.5759287
20
26.0104295
40
0.9953709
50
71.5130801
51
90.6550541
0
ARC
8
DEFAULT_255_2_778
10
10.6573575
20
26.2562115
40
0.7364524
50
48.2602918
51
71.4580165
0
ARC
8
DEFAULT_255_2_778
10
10.6956984
20
26.3096961
40
0.6710546
50
22.5497085
51
47.6627683
0
ARC
8
DEFAULT_255_2_778
10
10.5670556
20
26.2603328
40
0.8088011
50
359.0650515
51
22.2845409
0
ARC
8
DEFAULT_255_2_778
10
10.2767028
20
26.2410709
40
1.0990629
50
337.1812514
51
0.316152
0
ARC
8
DEFAULT_255_2_778
10
10.2412655
20
26.2516512
40
1.135837
50
315.6908415
51
337.3825693
0
ARC
8
DEFAULT_255_2_778
10
10.2631229
20
26.2336107
40
1.1075969
50
293.2336194
51
315.5688359
0
ARC
8
DEFAULT_255_2_778
10
10.268874
20
26.2129991
40
1.0863919
50
269.5873092
51
293.383724
0
LINE
8
DEFAULT_255_2_778
10
10.295449
20
25.3769354
11
10.295449
21
25.3772354
0
LINE
8
DEFAULT_255_2_778
10
10.261049
20
25.1266354
11
10.261049
21
25.1266354
0
LINE
8
DEFAULT_255_1_234
10
11.6772879
20
23.6691211
11
11.6772879
21
22.4997
0
LINE
8
DEFAULT_255_1_234
10
11.6772879
20
22.4997
11
11.5222753
21
22.4997
0
LINE
8
DEFAULT_255_1_234
10
11.5222753
20
22.4997
11
11.5222753
21
23.040236
0
LINE
8
DEFAULT_255_1_234
10
11.5222753
20
23.040236
11
10.9327458
21
23.040236
0
LINE
8
DEFAULT_255_1_234
10
10.9327458
20
23.040236
11
10.9327458
21
22.4997
0
LINE
8
DEFAULT_255_1_234
10
10.9327458
20
22.4997
11
10.7785364
21
22.4997
0
LINE
8
DEFAULT_255_1_234
10
10.7785364
20
22.4997
11
10.7785364
21
23.6691211
0
LINE
8
DEFAULT_255_1_234
10
10.7785364
20
23.6691211
11
10.9327458
21
23.6691211
0
LINE
8
DEFAULT_255_1_234
10
10.9327458
20
23.6691211
11
10.9327458
21
23.1663343
0
LINE
8
DEFAULT_255_1_234
10
10.9327458
20
23.1663343
11
11.5222753
21
23.1663343
0
LINE
8
DEFAULT_255_1_234
10
11.5222753
20
23.1663343
11
11.5222753
21
23.6691211
0
LINE
8
DEFAULT_255_1_234
10
11.5222753
20
23.6691211
11
11.6772879
21
23.6691211
0
LINE
8
DEFAULT_255_1_234
10
12.6788457
20
22.6209792
11
12.6788457
21
22.4997
0
LINE
8
DEFAULT_255_1_234
10
12.6788457
20
22.4997
11
11.9126178
21
22.4997
0
LINE
8
DEFAULT_255_1_234
10
11.9126178
20
22.4997
11
11.9126178
21
22.6065221
0
LINE
8
DEFAULT_255_1_234
10
11.9126178
20
22.6065221
11
12.3174174
21
23.0562995
0
LINE
8
DEFAULT_255_1_234
10
12.0387161
20
23.3245595
11
11.890129
21
23.3245595
0
LINE
8
DEFAULT_255_1_234
10
12.4049634
20
22.9607218
11
12.0917256
21
22.6209792
0
LINE
8
DEFAULT_255_1_234
10
12.0917256
20
22.6209792
11
12.6788457
21
22.6209792
0
ARC
8
DEFAULT_255_1_234
10
10.9684008
20
24.2492527
40
1.8008286
50
318.5132453
51
320.7828378
0
ARC
8
DEFAULT_255_1_234
10
11.4970982
20
23.8189426
40
1.1191493
50
320.7372736
51
323.9737074
0
ARC
8
DEFAULT_255_1_234
10
11.8890838
20
23.5349361
40
0.6350923
50
323.8961724
51
328.6421089
0
ARC
8
DEFAULT_255_1_234
10
12.0937434
20
23.4087031
40
0.3946393
50
328.8299013
51
331.789948
0
ARC
8
DEFAULT_255_1_234
10
12.1934612
20
23.3572509
40
0.2824501
50
331.4255242
51
352.9364833
0
ARC
8
DEFAULT_255_1_234
10
12.2071113
20
23.3541976
40
0.2685315
50
353.2248685
51
0.0169286
0
ARC
8
DEFAULT_255_1_234
10
12.228099
20
23.356495
40
0.2475536
50
359.4866256
51
15.9339782
0
ARC
8
DEFAULT_255_1_234
10
12.2787975
20
23.3701286
40
0.1950618
50
16.1714718
51
43.5284424
0
ARC
8
DEFAULT_255_1_234
10
12.2865284
20
23.3778573
40
0.184134
50
43.4415429
51
83.1661404
0
ARC
8
DEFAULT_255_1_234
10
12.2731202
20
23.3041771
40
0.258926
50
82.160215
51
90.1505798
0
ARC
8
DEFAULT_255_1_234
10
12.2699629
20
23.2504865
40
0.3126255
50
89.5460705
51
102.5418777
0
ARC
8
DEFAULT_255_1_234
10
12.2456715
20
23.3535665
40
0.2067346
50
102.1739365
51
129.2061916
0
ARC
8
DEFAULT_255_1_234
10
12.2377787
20
23.3660094
40
0.1921118
50
129.7279328
51
135.7542026
0
ARC
8
DEFAULT_255_1_234
10
12.2499315
20
23.3563045
40
0.2075944
50
136.175737
51
166.3674722
0
ARC
8
DEFAULT_255_1_234
10
12.3506234
20
23.3293182
40
0.3118201
50
165.9092917
51
178.8683903
0
ARC
8
DEFAULT_255_1_234
10
12.4371095
20
23.3246179
40
0.3983935
50
178.438168
51
180.0083905
0
ARC
8
DEFAULT_255_1_234
10
12.2969697
20
23.3285231
40
0.4068601
50
163.2878735
51
180.5581814
0
ARC
8
DEFAULT_255_1_234
10
12.2167959
20
23.350584
40
0.3237344
50
133.454115
51
162.9470031
0
ARC
8
DEFAULT_255_1_234
10
12.23465
20
23.3316
40
0.349795
50
100.7869394
51
133.4384016
0
ARC
8
DEFAULT_255_1_234
10
12.2694271
20
23.1767319
40
0.5084616
50
89.6605301
51
101.3704185
0
ARC
8
DEFAULT_255_1_234
10
12.276061
20
23.1828496
40
0.502348
50
78.2171172
51
90.4130393
0
ARC
8
DEFAULT_255_1_234
10
12.3115689
20
23.3452637
40
0.3361092
50
55.9268222
51
78.4888551
0
ARC
8
DEFAULT_255_1_234
10
12.3312129
20
23.3791324
40
0.2970617
50
47.9292255
51
55.4054003
0
ARC
8
DEFAULT_255_1_234
10
12.3413689
20
23.3894502
40
0.2825983
50
4.3347696
51
48.0560701
0
ARC
8
DEFAULT_255_1_234
10
12.2318083
20
23.3724601
40
0.393225
50
359.925209
51
5.5967654
0
ARC
8
DEFAULT_255_1_234
10
12.2746975
20
23.3780816
40
0.3503892
50
337.8914096
51
358.9967724
0
ARC
8
DEFAULT_255_1_234
10
12.0033387
20
23.4827706
40
0.6412172
50
326.9135351
51
338.3505194
0
ARC
8
DEFAULT_255_1_234
10
11.6047691
20
23.7382284
40
1.1146189
50
319.6472867
51
327.095818
0
ARC
8
DEFAULT_255_1_234
10
11.2214694
20
24.0544
40
1.6114559
50
317.2586784
51
319.9046139
0
LINE
8
DEFAULT_255_1_234
10
14.0578951
20
23.3309849
11
13.9028826
21
23.3309849
0
LINE
8
DEFAULT_255_1_234
10
13.2105467
20
22.8386394
11
13.3655593
21
22.8386394
0
ARC
8
DEFAULT_255_1_234
10
13.9687639
20
24.2256768
40
1.252368
50
248.9199003
51
254.1439814
0
ARC
8
DEFAULT_255_1_234
10
13.8007133
20
23.7930234
40
0.788226
50
241.633709
51
249.0064503
0
ARC
8
DEFAULT_255_1_234
10
13.6478528
20
23.5129317
40
0.4691427
50
230.498225
51
241.8087113
0
ARC
8
DEFAULT_255_1_234
10
13.5694102
20
23.4129906
40
0.3421437
50
227.4064532
51
229.9881192
0
ARC
8
DEFAULT_255_1_234
10
13.5206623
20
23.3654088
40
0.2741476
50
200.6781896
51
228.1763934
0
ARC
8
DEFAULT_255_1_234
10
13.5278933
20
23.3639077
40
0.2804109
50
179.5061581
51
199.8694617
0
ARC
8
DEFAULT_255_1_234
10
13.5269685
20
23.371321
40
0.2795204
50
132.4834203
51
181.0242172
0
ARC
8
DEFAULT_255_1_234
10
13.5865267
20
23.3150704
40
0.3612768
50
129.2532479
51
133.4242687
0
ARC
8
DEFAULT_255_1_234
10
13.6011717
20
23.2930965
40
0.3875675
50
101.98776
51
128.8742646
0
ARC
8
DEFAULT_255_1_234
10
13.6410327
20
23.1209741
40
0.5642249
50
89.5906553
51
102.3169264
0
ARC
8
DEFAULT_255_1_234
10
13.648082
20
23.1528148
40
0.5323783
50
77.2360837
51
90.3248275
0
ARC
8
DEFAULT_255_1_234
10
13.6687899
20
23.24954
40
0.4334697
50
63.837784
51
77.0809408
0
ARC
8
DEFAULT_255_1_234
10
13.696566
20
23.3012911
40
0.3747796
50
45.9864267
51
64.1607727
0
ARC
8
DEFAULT_255_1_234
10
13.7226542
20
23.3310866
40
0.3352302
50
32.2747395
51
45.6547121
0
ARC
8
DEFAULT_255_1_234
10
13.7292983
20
23.332988
40
0.328603
50
359.6507365
51
32.6130309
0
ARC
8
DEFAULT_255_1_234
10
13.6350078
20
23.333466
40
0.2678863
50
359.469343
51
14.9832209
0
ARC
8
DEFAULT_255_1_234
10
13.705514
20
23.3523539
40
0.1948938
50
14.9781179
51
48.2004265
0
ARC
8
DEFAULT_255_1_234
10
13.6890784
20
23.3316983
40
0.2212521
50
48.5927837
51
74.1241538
0
ARC
8
DEFAULT_255_1_234
10
13.6557274
20
23.2216248
40
0.3362561
50
73.7888341
51
86.6652678
0
ARC
8
DEFAULT_255_1_234
10
13.645484
20
23.1008881
40
0.4573953
50
86.2640471
51
90.0526343
0
ARC
8
DEFAULT_255_1_234
10
13.6426552
20
23.1404192
40
0.4178709
50
89.6697524
51
99.2309573
0
ARC
8
DEFAULT_255_1_234
10
13.6184003
20
23.2848964
40
0.2713749
50
99.069534
51
113.7658566
0
ARC
8
DEFAULT_255_1_234
10
13.5910194
20
23.3494677
40
0.2012469
50
114.0401004
51
127.9850673
0
ARC
8
DEFAULT_255_1_234
10
13.5669758
20
23.379073
40
0.1631167
50
127.7287463
51
176.7105154
0
ARC
8
DEFAULT_255_1_234
10
13.6348475
20
23.3689693
40
0.2315392
50
175.1779447
51
180.0581938
0
ARC
8
DEFAULT_255_1_234
10
13.5505322
20
23.3677428
40
0.1472271
50
179.6142195
51
228.1246017
0
ARC
8
DEFAULT_255_1_234
10
13.5946991
20
23.4086308
40
0.2072299
50
226.5779593
51
230.8800004
0
ARC
8
DEFAULT_255_1_234
10
13.641807
20
23.4711636
40
0.2854818
50
231.4635071
51
241.9260842
0
ARC
8
DEFAULT_255_1_234
10
13.7615248
20
23.69148
40
0.53622
50
241.7178533
51
248.3259551
0
ARC
8
DEFAULT_255_1_234
10
13.9000619
20
24.0347064
40
0.9063478
50
248.2007737
51
252.4528373
0
ARC
8
DEFAULT_255_1_234
10
14.0204344
20
24.4068441
40
1.2974635
50
252.3391078
51
254.3469452
0
ARC
8
DEFAULT_255_1_234
10
13.2662047
20
21.7091148
40
1.5037162
50
71.0197183
51
74.4087047
0
ARC
8
DEFAULT_255_1_234
10
13.4356732
20
22.1983111
40
0.9859993
50
66.1847285
51
71.086374
0
ARC
8
DEFAULT_255_1_234
10
13.5913044
20
22.54872
40
0.6025855
50
59.3536294
51
66.2691831
0
ARC
8
DEFAULT_255_1_234
10
13.6801697
20
22.6990609
40
0.4279449
50
49.1020879
51
59.3293958
0
ARC
8
DEFAULT_255_1_234
10
13.7620437
20
22.7923834
40
0.3038015
50
32.7919921
51
49.2505539
0
ARC
8
DEFAULT_255_1_234
10
13.7941527
20
22.8152191
40
0.264448
50
31.1181161
51
32.4005348
0
ARC
8
DEFAULT_255_1_234
10
13.7853064
20
22.8116779
40
0.2738556
50
8.1116974
51
30.7958831
0
ARC
8
DEFAULT_255_1_234
10
13.7042732
20
22.7978753
40
0.3560327
50
359.8389159
51
8.4706516
0
ARC
8
DEFAULT_255_1_234
10
13.7668524
20
22.7930137
40
0.2934776
50
337.4731098
51
0.7537279
0
ARC
8
DEFAULT_255_1_234
10
13.7847219
20
22.7910387
40
0.2762607
50
307.5917067
51
336.4315538
0
ARC
8
DEFAULT_255_1_234
10
13.7387047
20
22.8423102
40
0.3449979
50
307.6551545
51
308.4529766
0
ARC
8
DEFAULT_255_1_234
10
13.7156766
20
22.877825
40
0.3871988
50
284.3734338
51
307.1424381
0
ARC
8
DEFAULT_255_1_234
10
13.6661596
20
23.0599932
40
0.5759636
50
272.4382747
51
284.646547
0
ARC
8
DEFAULT_255_1_234
10
13.6534805
20
23.2399893
40
0.7563528
50
269.9708387
51
272.8178037
0
ARC
8
DEFAULT_255_1_234
10
13.6491844
20
23.0361716
40
0.5525489
50
248.2707594
51
270.4055579
0
ARC
8
DEFAULT_255_1_234
10
13.6437585
20
23.0171192
40
0.5328452
50
246.1383403
51
248.0542782
0
ARC
8
DEFAULT_255_1_234
10
13.6018964
20
22.9291843
40
0.4355005
50
233.1670131
51
246.4950969
0
ARC
8
DEFAULT_255_1_234
10
13.5464869
20
22.8543812
40
0.3424126
50
215.3403242
51
233.0843104
0
ARC
8
DEFAULT_255_1_234
10
13.5192301
20
22.8345549
40
0.3087104
50
179.2419209
51
215.2648451
0
ARC
8
DEFAULT_255_1_234
10
13.5959894
20
22.8359666
40
0.2304457
50
179.335461
51
199.1045811
0
ARC
8
DEFAULT_255_1_234
10
13.5627571
20
22.8272766
40
0.1962176
50
199.8828939
51
232.7063202
0
ARC
8
DEFAULT_255_1_234
10
13.6099839
20
22.8866788
40
0.2720938
50
232.3738199
51
255.5136649
0
ARC
8
DEFAULT_255_1_234
10
13.6440706
20
23.0110835
40
0.4010747
50
255.2446292
51
267.5320849
0
ARC
8
DEFAULT_255_1_234
10
13.6528329
20
23.1343702
40
0.5246356
50
267.1557994
51
270.0286766
0
ARC
8
DEFAULT_255_1_234
10
13.6556102
20
23.089995
40
0.4802668
50
269.7000017
51
278.1660162
0
ARC
8
DEFAULT_255_1_234
10
13.6812106
20
22.9169515
40
0.3053425
50
278.0231263
51
290.625471
0
ARC
8
DEFAULT_255_1_234
10
13.7159793
20
22.8242025
40
0.206291
50
290.6619762
51
307.0370976
0
ARC
8
DEFAULT_255_1_234
10
13.7460183
20
22.7873504
40
0.1587906
50
306.3943566
51
355.3030547
0
ARC
8
DEFAULT_255_1_234
10
13.6948114
20
22.7950113
40
0.2104809
50
354.3660432
51
0.0698737
0
ARC
8
DEFAULT_255_1_234
10
13.7090459
20
22.7972617
40
0.1962563
50
359.417946
51
16.1971788
0
ARC
8
DEFAULT_255_1_234
10
13.754577
20
22.8097418
40
0.149053
50
16.4723299
51
52.6262157
0
ARC
8
DEFAULT_255_1_234
10
13.6724824
20
22.7013433
40
0.2850296
50
52.7386432
51
62.4979148
0
ARC
8
DEFAULT_255_1_234
10
13.53399
20
22.4407283
40
0.5801521
50
62.2515216
51
68.1220564
0
ARC
8
DEFAULT_255_1_234
10
13.3619811
20
22.0179872
40
1.0365451
50
68.0062803
51
71.8053402
0
ARC
8
DEFAULT_255_1_234
10
13.1824183
20
21.4794758
40
1.6042013
50
71.7183119
51
73.9258742
0
LINE
8
DEFAULT_255_1_234
10
14.1968442
20
22.9101218
11
14.1968442
21
22.9374297
0
LINE
8
DEFAULT_255_1_234
10
14.9341578
20
22.9534932
11
14.9341578
21
22.8916488
0
LINE
8
DEFAULT_255_1_234
10
14.9341578
20
22.8916488
11
14.3454313
21
22.8916488
0
LINE
8
DEFAULT_255_1_234
10
14.8321547
20
22.7221792
11
14.9229133
21
22.6514999
0
LINE
8
DEFAULT_255_1_234
10
14.3502504
20
23.0137313
11
14.7855706
21
23.0137313
0
LINE
8
DEFAULT_255_1_234
10
14.7855706
20
23.0137313
11
14.7855706
21
23.0249757
0
ARC
8
DEFAULT_255_1_234
10
14.5907807
20
22.9212332
40
0.4376191
50
252.3266134
51
270.5810217
0
ARC
8
DEFAULT_255_1_234
10
14.5702896
20
22.8471644
40
0.3608374
50
223.3000567
51
251.8561855
0
ARC
8
DEFAULT_255_1_234
10
14.5914257
20
22.8676937
40
0.3902993
50
190.9374509
51
223.3654032
0
ARC
8
DEFAULT_255_1_234
10
14.7639229
20
22.9066885
40
0.5670891
50
179.6531105
51
191.4989439
0
ARC
8
DEFAULT_255_1_234
10
14.7761241
20
22.9406417
40
0.5792888
50
167.4007466
51
180.3176909
0
ARC
8
DEFAULT_255_1_234
10
14.6709303
20
22.9628885
40
0.471777
50
154.1835823
51
167.250763
0
ARC
8
DEFAULT_255_1_234
10
14.607777
20
22.9961417
40
0.4004528
50
134.3149965
51
154.5315275
0
ARC
8
DEFAULT_255_1_234
10
14.5860265
20
23.0152228
40
0.371612
50
122.8616532
51
133.9707695
0
ARC
8
DEFAULT_255_1_234
10
14.575684
20
23.0374703
40
0.3473289
50
89.8249009
51
123.4199222
0
ARC
8
DEFAULT_255_1_234
10
14.580688
20
22.9727967
40
0.4120197
50
74.7876118
51
90.5482747
0
ARC
8
DEFAULT_255_1_234
10
14.6100624
20
23.081303
40
0.2996077
50
39.8178249
51
74.7633718
0
ARC
8
DEFAULT_255_1_234
10
14.5587944
20
23.0413351
40
0.3645855
50
16.8990863
51
39.4829761
0
ARC
8
DEFAULT_255_1_234
10
14.369324
20
22.9806526
40
0.5635218
50
4.9636328
51
17.2026414
0
ARC
8
DEFAULT_255_1_234
10
14.127531
20
22.955134
40
0.8066286
50
359.8834553
51
5.2834307
0
ARC
8
DEFAULT_255_1_234
10
14.7312835
20
22.8982803
40
0.3859091
50
180.9846213
51
194.9401313
0
ARC
8
DEFAULT_255_1_234
10
14.6263113
20
22.8695849
40
0.2770883
50
194.80314
51
222.0412631
0
ARC
8
DEFAULT_255_1_234
10
14.5958995
20
22.8394116
40
0.2343055
50
221.5417084
51
268.8614402
0
ARC
8
DEFAULT_255_1_234
10
14.6031989
20
22.9070686
40
0.3021528
50
267.732405
51
270.0097136
0
ARC
8
DEFAULT_255_1_234
10
14.6049799
20
22.9272105
40
0.3222994
50
269.6924892
51
280.4117579
0
ARC
8
DEFAULT_255_1_234
10
14.6226206
20
22.8353193
40
0.2287344
50
280.2255091
51
298.6338936
0
ARC
8
DEFAULT_255_1_234
10
14.6342998
20
22.8109223
40
0.2017294
50
299.0430333
51
300.4643464
0
ARC
8
DEFAULT_255_1_234
10
14.5663004
20
22.9243038
40
0.3339357
50
300.6577328
51
322.0378878
0
ARC
8
DEFAULT_255_1_234
10
14.5312543
20
22.9547021
40
0.3802736
50
321.6750233
51
322.3046845
0
ARC
8
DEFAULT_255_1_234
10
14.6243504
20
22.838037
40
0.3520454
50
276.9728461
51
328.0035423
0
ARC
8
DEFAULT_255_1_234
10
14.5966557
20
22.9860841
40
0.5024498
50
269.8361028
51
278.0581756
0
ARC
8
DEFAULT_255_1_234
10
14.5739294
20
23.0605757
40
0.202159
50
89.2018686
51
117.2851756
0
ARC
8
DEFAULT_255_1_234
10
14.5792463
20
23.0563752
40
0.2083484
50
118.0551165
51
137.4540413
0
ARC
8
DEFAULT_255_1_234
10
14.6167203
20
23.0223304
40
0.2589774
50
137.5109581
51
158.8516286
0
ARC
8
DEFAULT_255_1_234
10
14.7305039
20
22.9764074
40
0.38167
50
158.5845963
51
170.1721436
0
ARC
8
DEFAULT_255_1_234
10
14.8474428
20
22.9531823
40
0.5008657
50
169.8376422
51
173.0566086
0
ARC
8
DEFAULT_255_1_234
10
14.3777502
20
23.0042509
40
0.4083467
50
2.9091802
51
12.8847116
0
ARC
8
DEFAULT_255_1_234
10
14.5148178
20
23.0365101
40
0.2675383
50
12.6957781
51
28.6404489
0
ARC
8
DEFAULT_255_1_234
10
14.5689849
20
23.0645458
40
0.2065654
50
29.0169854
51
41.1487595
0
ARC
8
DEFAULT_255_1_234
10
14.5892634
20
23.0822003
40
0.1796786
50
41.1646065
51
85.0013516
0
ARC
8
DEFAULT_255_1_234
10
14.5771731
20
23.0087431
40
0.2539726
50
83.7280015
51
90.0964893
0
LINE
8
DEFAULT_255_1_234
10
15.5260969
20
23.3735531
11
15.5260969
21
23.2354072
0
LINE
8
DEFAULT_255_1_234
10
15.2546241
20
23.1165375
11
15.2546241
21
22.4997
0
LINE
8
DEFAULT_255_1_234
10
15.2546241
20
22.4997
11
15.106037
21
22.4997
0
LINE
8
DEFAULT_255_1_234
10
15.106037
20
22.4997
11
15.106037
21
23.3687341
0
LINE
8
DEFAULT_255_1_234
10
15.106037
20
23.3687341
11
15.2506083
21
23.3687341
0
LINE
8
DEFAULT_255_1_234
10
15.2506083
20
23.3687341
11
15.2530178
21
23.2683374
0
ARC
8
DEFAULT_255_1_234
10
15.4594374
20
22.8294342
40
0.4114092
50
80.6754243
51
86.8932892
0
ARC
8
DEFAULT_255_1_234
10
15.4533908
20
22.73267
40
0.5083596
50
86.8038578
51
90.0431435
0
ARC
8
DEFAULT_255_1_234
10
15.4496889
20
22.9783866
40
0.2626638
50
89.2759698
51
106.6213787
0
ARC
8
DEFAULT_255_1_234
10
15.4292453
20
23.052683
40
0.1856317
50
107.1346045
51
157.6458115
0
ARC
8
DEFAULT_255_1_234
10
15.4984055
20
23.0143311
40
0.2643398
50
155.6586782
51
157.2539184
0
ARC
8
DEFAULT_255_1_234
10
15.4779257
20
23.1312157
40
0.2634121
50
127.8165941
51
148.6302098
0
ARC
8
DEFAULT_255_1_234
10
15.4525726
20
23.1572218
40
0.2273596
50
91.3329982
51
126.7875809
0
ARC
8
DEFAULT_255_1_234
10
15.4601666
20
23.0857195
40
0.299078
50
89.986594
51
92.4688449
0
ARC
8
DEFAULT_255_1_234
10
15.4610061
20
23.1132078
40
0.2715908
50
85.3589899
51
90.1623399
0
ARC
8
DEFAULT_255_1_234
10
15.4694577
20
23.2136164
40
0.1708278
50
78.401942
51
85.4594656
0
ARC
8
DEFAULT_255_1_234
10
15.4839461
20
23.2827236
40
0.1002194
50
67.7858312
51
78.5728455
0
ARC
8
DEFAULT_255_1_234
10
15.4947314
20
23.3106887
40
0.0702548
50
63.4835954
51
67.3062642
0
LINE
8
DEFAULT_255_1_234
10
15.8240744
20
23.3687341
11
15.8240744
21
22.4997
0
LINE
8
DEFAULT_255_1_234
10
15.8240744
20
22.4997
11
15.6754872
21
22.4997
0
LINE
8
DEFAULT_255_1_234
10
15.6754872
20
22.4997
11
15.6754872
21
23.3687341
0
LINE
8
DEFAULT_255_1_234
10
15.6754872
20
23.3687341
11
15.8240744
21
23.3687341
0
ARC
8
DEFAULT_255_1_234
10
15.7613021
20
23.6001889
40
0.097867
50
161.415052
51
180.5526306
0
ARC
8
DEFAULT_255_1_234
10
15.7488799
20
23.6036077
40
0.0850062
50
138.1827368
51
160.9307106
0
ARC
8
DEFAULT_255_1_234
10
15.7378744
20
23.6131588
40
0.0704362
50
104.6368899
51
138.0039868
0
ARC
8
DEFAULT_255_1_234
10
15.7485899
20
23.5764963
40
0.1086221
50
92.0600725
51
105.2189128
0
ARC
8
DEFAULT_255_1_234
10
15.7509248
20
23.5422117
40
0.1429728
50
89.9756393
51
92.5012496
0
ARC
8
DEFAULT_255_1_234
10
15.7519267
20
23.5647731
40
0.1204151
50
78.0235316
51
90.4478182
0
ARC
8
DEFAULT_255_1_234
10
15.7611359
20
23.6061295
40
0.0780493
50
55.051506
51
78.3369085
0
ARC
8
DEFAULT_255_1_234
10
15.7661633
20
23.6145711
40
0.0682538
50
42.0501187
51
54.4513741
0
ARC
8
DEFAULT_255_1_234
10
15.75265
20
23.6021798
40
0.0865878
50
1.7497075
51
42.1496013
0
ARC
8
DEFAULT_255_1_234
10
15.7271833
20
23.5992738
40
0.1121515
50
359.9852656
51
2.8364544
0
ARC
8
DEFAULT_255_1_234
10
15.7437825
20
23.5983229
40
0.0955566
50
342.1070653
51
0.552888
0
ARC
8
DEFAULT_255_1_234
10
15.7580523
20
23.5943904
40
0.0807713
50
316.7107116
51
341.6516965
0
ARC
8
DEFAULT_255_1_234
10
15.764756
20
23.5883823
40
0.0717724
50
285.4397031
51
316.5324284
0
ARC
8
DEFAULT_255_1_234
10
15.7537477
20
23.6249554
40
0.1099597
50
272.3547054
51
285.8953117
0
ARC
8
DEFAULT_255_1_234
10
15.7510635
20
23.6615048
40
0.1465932
50
269.9695369
51
272.8160237
0
ARC
8
DEFAULT_255_1_234
10
15.7500816
20
23.6395863
40
0.1246779
50
258.8431134
51
270.4153935
0
ARC
8
DEFAULT_255_1_234
10
15.7410859
20
23.5960414
40
0.0802162
50
238.5431189
51
259.1288175
0
ARC
8
DEFAULT_255_1_234
10
15.7342744
20
23.5836856
40
0.0661247
50
222.5062634
51
237.9906969
0
ARC
8
DEFAULT_255_1_234
10
15.7470331
20
23.5952889
40
0.0833707
50
184.1069131
51
222.460413
0
ARC
8
DEFAULT_255_1_234
10
15.7739572
20
23.5991349
40
0.1105176
50
179.9429482
51
185.0960898
0
LINE
8
DEFAULT_255_1_234
10
16.0240646
20
22.9101218
11
16.0240646
21
22.9374297
0
LINE
8
DEFAULT_255_1_234
10
16.7613782
20
22.9534932
11
16.7613782
21
22.8916488
0
LINE
8
DEFAULT_255_1_234
10
16.7613782
20
22.8916488
11
16.1726518
21
22.8916488
0
LINE
8
DEFAULT_255_1_234
10
16.6593751
20
22.7221792
11
16.7501338
21
22.6514999
0
LINE
8
DEFAULT_255_1_234
10
16.1774708
20
23.0137313
11
16.6127911
21
23.0137313
0
LINE
8
DEFAULT_255_1_234
10
16.6127911
20
23.0137313
11
16.6127911
21
23.0249757
0
ARC
8
DEFAULT_255_1_234
10
16.4180012
20
22.9212332
40
0.4376191
50
252.3266134
51
270.5810217
0
ARC
8
DEFAULT_255_1_234
10
16.3975101
20
22.8471644
40
0.3608374
50
223.3000567
51
251.8561855
0
ARC
8
DEFAULT_255_1_234
10
16.4186461
20
22.8676937
40
0.3902993
50
190.9374509
51
223.3654032
0
ARC
8
DEFAULT_255_1_234
10
16.5911434
20
22.9066885
40
0.5670891
50
179.6531105
51
191.4989439
0
ARC
8
DEFAULT_255_1_234
10
16.6033446
20
22.9406417
40
0.5792888
50
167.4007466
51
180.3176909
0
ARC
8
DEFAULT_255_1_234
10
16.4981507
20
22.9628885
40
0.471777
50
154.1835823
51
167.250763
0
ARC
8
DEFAULT_255_1_234
10
16.4349975
20
22.9961417
40
0.4004528
50
134.3149965
51
154.5315275
0
ARC
8
DEFAULT_255_1_234
10
16.413247
20
23.0152228
40
0.371612
50
122.8616532
51
133.9707695
0
ARC
8
DEFAULT_255_1_234
10
16.4029044
20
23.0374703
40
0.3473289
50
89.8249009
51
123.4199222
0
ARC
8
DEFAULT_255_1_234
10
16.4079085
20
22.9727967
40
0.4120197
50
74.7876118
51
90.5482747
0
ARC
8
DEFAULT_255_1_234
10
16.4372828
20
23.081303
40
0.2996077
50
39.8178249
51
74.7633718
0
ARC
8
DEFAULT_255_1_234
10
16.3860149
20
23.0413351
40
0.3645855
50
16.8990863
51
39.4829761
0
ARC
8
DEFAULT_255_1_234
10
16.1965445
20
22.9806526
40
0.5635218
50
4.9636328
51
17.2026414
0
ARC
8
DEFAULT_255_1_234
10
15.9547515
20
22.955134
40
0.8066286
50
359.8834553
51
5.2834307
0
ARC
8
DEFAULT_255_1_234
10
16.558504
20
22.8982803
40
0.3859091
50
180.9846213
51
194.9401313
0
ARC
8
DEFAULT_255_1_234
10
16.4535317
20
22.8695849
40
0.2770883
50
194.80314
51
222.0412631
0
ARC
8
DEFAULT_255_1_234
10
16.4231199
20
22.8394116
40
0.2343055
50
221.5417084
51
268.8614402
0
ARC
8
DEFAULT_255_1_234
10
16.4304194
20
22.9070686
40
0.3021528
50
267.732405
51
270.0097136
0
ARC
8
DEFAULT_255_1_234
10
16.4322004
20
22.9272105
40
0.3222994
50
269.6924892
51
280.4117579
0
ARC
8
DEFAULT_255_1_234
10
16.4498411
20
22.8353193
40
0.2287344
50
280.2255091
51
298.6338936
0
ARC
8
DEFAULT_255_1_234
10
16.4615203
20
22.8109223
40
0.2017294
50
299.0430333
51
300.4643464
0
ARC
8
DEFAULT_255_1_234
10
16.3935208
20
22.9243038
40
0.3339357
50
300.6577328
51
322.0378878
0
ARC
8
DEFAULT_255_1_234
10
16.3584747
20
22.9547021
40
0.3802736
50
321.6750233
51
322.3046845
0
ARC
8
DEFAULT_255_1_234
10
16.4515709
20
22.838037
40
0.3520454
50
276.9728461
51
328.0035423
0
ARC
8
DEFAULT_255_1_234
10
16.4238761
20
22.9860841
40
0.5024498
50
269.8361028
51
278.0581756
0
ARC
8
DEFAULT_255_1_234
10
16.4011499
20
23.0605757
40
0.202159
50
89.2018686
51
117.2851756
0
ARC
8
DEFAULT_255_1_234
10
16.4064668
20
23.0563752
40
0.2083484
50
118.0551165
51
137.4540413
0
ARC
8
DEFAULT_255_1_234
10
16.4439408
20
23.0223304
40
0.2589774
50
137.5109581
51
158.8516286
0
ARC
8
DEFAULT_255_1_234
10
16.5577243
20
22.9764074
40
0.38167
50
158.5845963
51
170.1721436
0
ARC
8
DEFAULT_255_1_234
10
16.6746633
20
22.9531823
40
0.5008657
50
169.8376422
51
173.0566086
0
ARC
8
DEFAULT_255_1_234
10
16.2049706
20
23.0042509
40
0.4083467
50
2.9091802
51
12.8847116
0
ARC
8
DEFAULT_255_1_234
10
16.3420383
20
23.0365101
40
0.2675383
50
12.6957781
51
28.6404489
0
ARC
8
DEFAULT_255_1_234
10
16.3962054
20
23.0645458
40
0.2065654
50
29.0169854
51
41.1487595
0
ARC
8
DEFAULT_255_1_234
10
16.4164839
20
23.0822003
40
0.1796786
50
41.1646065
51
85.0013516
0
ARC
8
DEFAULT_255_1_234
10
16.4043936
20
23.0087431
40
0.2539726
50
83.7280015
51
90.0964893
0
LINE
8
DEFAULT_255_1_234
10
17.5798124
20
23.1133248
11
17.430422
21
23.1133248
0
LINE
8
DEFAULT_255_1_234
10
16.8971146
20
22.7671569
11
17.0457018
21
22.7671569
0
ARC
8
DEFAULT_255_1_234
10
17.3116039
20
22.7316959
40
0.1276617
50
359.3334982
51
18.5871358
0
ARC
8
DEFAULT_255_1_234
10
17.3324676
20
22.7372133
40
0.1061371
50
19.3540742
51
54.6485071
0
ARC
8
DEFAULT_255_1_234
10
17.2820578
20
22.6676919
40
0.1920087
50
54.3827097
51
65.0622807
0
ARC
8
DEFAULT_255_1_234
10
17.2051974
20
22.50599
40
0.3710447
50
64.8282493
51
71.4200025
0
ARC
8
DEFAULT_255_1_234
10
17.114985
20
22.2413107
40
0.6506741
50
71.3164301
51
75.8006402
0
ARC
8
DEFAULT_255_1_234
10
17.030867
20
21.9172561
40
0.9854641
50
75.6809531
51
78.0061883
0
ARC
8
DEFAULT_255_1_234
10
17.4757203
20
24.015177
40
1.1591028
50
254.6901892
51
258.0466452
0
ARC
8
DEFAULT_255_1_234
10
17.3719111
20
23.6392781
40
0.7691345
50
249.9010773
51
254.755261
0
ARC
8
DEFAULT_255_1_234
10
17.2715453
20
23.3666982
40
0.478665
50
243.3097214
51
249.9709442
0
ARC
8
DEFAULT_255_1_234
10
17.2086475
20
23.2412778
40
0.3383568
50
234.4047477
51
243.2862168
0
ARC
8
DEFAULT_255_1_234
10
17.1463998
20
23.1553232
40
0.2322322
50
220.8667099
51
234.5493881
0
ARC
8
DEFAULT_255_1_234
10
17.1121939
20
23.1241817
40
0.1859923
50
214.3062465
51
220.5065136
0
ARC
8
DEFAULT_255_1_234
10
17.1096018
20
23.121088
40
0.1821108
50
186.912965
51
213.9618616
0
ARC
8
DEFAULT_255_1_234
10
17.1628113
20
23.1297009
40
0.2359799
50
179.8808832
51
187.4339886
0
ARC
8
DEFAULT_255_1_234
10
17.1473246
20
23.1317088
40
0.2204978
50
132.005434
51
180.3942919
0
ARC
8
DEFAULT_255_1_234
10
17.212986
20
23.0711083
40
0.3095791
50
129.2319861
51
133.5302299
0
ARC
8
DEFAULT_255_1_234
10
17.2183368
20
23.0616928
40
0.3202615
50
100.4410011
51
128.9081242
0
ARC
8
DEFAULT_255_1_234
10
17.2457252
20
22.9331455
40
0.4516583
50
89.6985377
51
100.9026564
0
ARC
8
DEFAULT_255_1_234
10
17.2514294
20
22.9171166
40
0.4676928
50
77.6965325
51
90.4076836
0
ARC
8
DEFAULT_255_1_234
10
17.2845278
20
23.0598413
40
0.3211988
50
50.7276602
51
78.0399361
0
ARC
8
DEFAULT_255_1_234
10
17.3289736
20
23.1116296
40
0.2529778
50
25.7545084
51
51.0957453
0
ARC
8
DEFAULT_255_1_234
10
17.3290961
20
23.1166206
40
0.250738
50
359.2468627
51
24.7394243
0
ARC
8
DEFAULT_255_1_234
10
17.3006413
20
23.1137664
40
0.1297815
50
359.8050318
51
45.1544908
0
ARC
8
DEFAULT_255_1_234
10
17.2599555
20
23.0789794
40
0.1831883
50
43.8047702
51
49.6271585
0
ARC
8
DEFAULT_255_1_234
10
17.2607456
20
23.0790678
40
0.18261
50
49.7980766
51
82.1218353
0
ARC
8
DEFAULT_255_1_234
10
17.2488428
20
23.0143998
40
0.2483163
50
81.4465357
51
90.1710293
0
ARC
8
DEFAULT_255_1_234
10
17.2464031
20
22.961788
40
0.300932
50
89.6766211
51
99.1264602
0
ARC
8
DEFAULT_255_1_234
10
17.2292493
20
23.0651537
40
0.1961547
50
98.968313
51
113.4570237
0
ARC
8
DEFAULT_255_1_234
10
17.2096578
20
23.1119965
40
0.1453859
50
113.722589
51
127.4763106
0
ARC
8
DEFAULT_255_1_234
10
17.1928224
20
23.1320124
40
0.1192639
50
126.9083309
51
150.3165862
0
ARC
8
DEFAULT_255_1_234
10
17.1880557
20
23.1370981
40
0.112623
50
151.3635175
51
180.0701457
0
ARC
8
DEFAULT_255_1_234
10
17.2189341
20
23.134999
40
0.1435149
50
179.2169974
51
179.9954013
0
ARC
8
DEFAULT_255_1_234
10
17.1828399
20
23.1337056
40
0.1074286
50
179.3040112
51
198.4225446
0
ARC
8
DEFAULT_255_1_234
10
17.1636532
20
23.1287127
40
0.0876573
50
199.2895851
51
238.6034594
0
ARC
8
DEFAULT_255_1_234
10
17.2239379
20
23.223345
40
0.1998512
50
237.9846301
51
246.8744712
0
ARC
8
DEFAULT_255_1_234
10
17.3097324
20
23.4196205
40
0.4140547
50
246.6234531
51
251.8168941
0
ARC
8
DEFAULT_255_1_234
10
17.4127867
20
23.7290905
40
0.7402308
50
251.713434
51
255.0778414
0
ARC
8
DEFAULT_255_1_234
10
17.532713
20
24.1757563
40
1.2027155
50
255.0367487
51
257.4705983
0
ARC
8
DEFAULT_255_1_234
10
17.021914
20
21.8743863
40
1.1546601
50
73.6837552
51
77.5016755
0
ARC
8
DEFAULT_255_1_234
10
17.1307915
20
22.2443581
40
0.7690009
50
68.7044154
51
73.7249639
0
ARC
8
DEFAULT_255_1_234
10
17.2210935
20
22.4770654
40
0.5193873
50
63.590599
51
68.6626804
0
ARC
8
DEFAULT_255_1_234
10
17.2981954
20
22.6308123
40
0.3473927
50
54.7106439
51
63.7013633
0
ARC
8
DEFAULT_255_1_234
10
17.3606409
20
22.71804
40
0.2401192
50
41.0622434
51
54.8487496
0
ARC
8
DEFAULT_255_1_234
10
17.3947795
20
22.7493592
40
0.1938094
50
34.4950568
51
40.7105546
0
ARC
8
DEFAULT_255_1_234
10
17.3994603
20
22.7542078
40
0.1872106
50
9.3763373
51
34.0833615
0
ARC
8
DEFAULT_255_1_234
10
17.3341473
20
22.7416728
40
0.2536988
50
359.7694872
51
9.7663171
0
ARC
8
DEFAULT_255_1_234
10
17.3538974
20
22.7373764
40
0.2339696
50
335.8654732
51
0.8022045
0
ARC
8
DEFAULT_255_1_234
10
17.3614018
20
22.7387197
40
0.2277108
50
307.7357725
51
334.7849066
0
ARC
8
DEFAULT_255_1_234
10
17.3213194
20
22.7837645
40
0.2878951
50
307.0241536
51
308.5578354
0
ARC
8
DEFAULT_255_1_234
10
17.2955525
20
22.8223801
40
0.3342515
50
282.9362969
51
306.5646424
0
ARC
8
DEFAULT_255_1_234
10
17.2593823
20
22.9691108
40
0.4853615
50
271.1026298
51
283.2200835
0
ARC
8
DEFAULT_255_1_234
10
17.2530067
20
23.0932418
40
0.6096052
50
269.9919117
51
271.4772449
0
ARC
8
DEFAULT_255_1_234
10
17.2503822
20
22.9854436
40
0.5018135
50
259.0723564
51
270.289833
0
ARC
8
DEFAULT_255_1_234
10
17.2291554
20
22.8737271
40
0.388099
50
245.4963068
51
259.0227342
0
ARC
8
DEFAULT_255_1_234
10
17.201351
20
22.8155615
40
0.3236422
50
228.9684658
51
245.7044727
0
ARC
8
DEFAULT_255_1_234
10
17.1747954
20
22.7828575
40
0.2815426
50
214.4011705
51
228.6759915
0
ARC
8
DEFAULT_255_1_234
10
17.1458695
20
22.767029
40
0.2487548
50
179.9705531
51
215.1572795
0
ARC
8
DEFAULT_255_1_234
10
17.2159294
20
22.7743806
40
0.1703809
50
182.4299387
51
203.0329699
0
ARC
8
DEFAULT_255_1_234
10
17.1974952
20
22.7687396
40
0.1512226
50
203.798802
51
232.548466
0
ARC
8
DEFAULT_255_1_234
10
17.2251473
20
22.8038826
40
0.1959374
50
232.3782728
51
256.3934612
0
ARC
8
DEFAULT_255_1_234
10
17.2481835
20
22.8928842
40
0.2878639
50
256.104506
51
268.4626716
0
ARC
8
DEFAULT_255_1_234
10
17.2528319
20
22.9725487
40
0.3676329
50
268.0715632
51
270.0138206
0
ARC
8
DEFAULT_255_1_234
10
17.2546844
20
22.9453083
40
0.3403971
50
269.7031147
51
278.8341955
0
ARC
8
DEFAULT_255_1_234
10
17.2728937
20
22.8322876
40
0.2259217
50
278.6728789
51
292.8232582
0
ARC
8
DEFAULT_255_1_234
10
17.2929475
20
22.7821449
40
0.171929
50
293.1452328
51
303.6655899
0
ARC
8
DEFAULT_255_1_234
10
17.3194354
20
22.7445204
40
0.1259367
50
303.1248165
51
321.742847
0
ARC
8
DEFAULT_255_1_234
10
17.3380235
20
22.7282156
40
0.1012531
50
322.4748573
51
1.1291126
0
LINE
8
DEFAULT_255_1_234
10
4.2902235
20
21.0711963
11
4.1713538
21
21.1017169
0
LINE
8
DEFAULT_255_1_234
10
4.1713538
20
21.1017169
11
4.2307887
21
21.6848211
0
LINE
8
DEFAULT_255_1_234
10
4.2307887
20
21.6848211
11
4.8299563
21
21.6848211
0
LINE
8
DEFAULT_255_1_234
10
4.8299563
20
21.6848211
11
4.8299563
21
21.5474784
0
LINE
8
DEFAULT_255_1_234
10
4.8299563
20
21.5474784
11
4.356887
21
21.5474784
0
LINE
8
DEFAULT_255_1_234
10
4.356887
20
21.5474784
11
4.3215473
21
21.2286184
0
LINE
8
DEFAULT_255_1_234
10
4.1295888
20
20.8230156
11
4.2701442
21
20.8230156
0
LINE
8
DEFAULT_255_1_234
10
4.3295791
20
21.1033232
11
4.2902235
21
21.0711963
0
ARC
8
DEFAULT_255_1_234
10
4.5070257
20
20.910623
40
0.3681349
50
93.7182161
51
120.2538958
0
ARC
8
DEFAULT_255_1_234
10
4.516452
20
20.8298394
40
0.449379
50
89.9660152
51
94.2496022
0
ARC
8
DEFAULT_255_1_234
10
4.5205254
20
20.8887549
40
0.390482
50
73.8043271
51
90.5585896
0
ARC
8
DEFAULT_255_1_234
10
4.5440151
20
20.9745602
40
0.3015334
50
41.3071453
51
73.5430202
0
ARC
8
DEFAULT_255_1_234
10
4.5023978
20
20.9387324
40
0.3564457
50
13.5075983
51
41.2174222
0
ARC
8
DEFAULT_255_1_234
10
4.3382182
20
20.8957486
40
0.5261351
50
1.1331335
51
13.8829381
0
ARC
8
DEFAULT_255_1_234
10
4.1970551
20
20.8881665
40
0.6674378
50
359.9919444
51
1.544251
0
ARC
8
DEFAULT_255_1_234
10
4.3247377
20
20.884028
40
0.5397702
50
347.8572367
51
0.4293338
0
ARC
8
DEFAULT_255_1_234
10
4.4997695
20
20.8443736
40
0.3603188
50
323.673004
51
348.1672506
0
ARC
8
DEFAULT_255_1_234
10
4.5292203
20
20.8264168
40
0.3259678
50
316.8171152
51
323.1492751
0
ARC
8
DEFAULT_255_1_234
10
4.5353392
20
20.822746
40
0.3189975
50
281.8396411
51
316.5457803
0
ARC
8
DEFAULT_255_1_234
10
4.4977656
20
20.9782762
40
0.4789527
50
269.5770101
51
282.4214771
0
ARC
8
DEFAULT_255_1_234
10
4.4906467
20
20.9569125
40
0.45759
50
256.2427136
51
270.4486331
0
ARC
8
DEFAULT_255_1_234
10
4.460737
20
20.8369229
40
0.3339303
50
228.9023911
51
256.3314342
0
ARC
8
DEFAULT_255_1_234
10
4.4533602
20
20.8252746
40
0.32031
50
193.753695
51
228.5271154
0
ARC
8
DEFAULT_255_1_234
10
4.5771556
20
20.86158
40
0.4492253
50
184.924711
51
194.497588
0
ARC
8
DEFAULT_255_1_234
10
4.5964123
20
20.8651591
40
0.3289787
50
187.3600538
51
198.6732863
0
ARC
8
DEFAULT_255_1_234
10
4.4914417
20
20.8287674
40
0.217884
50
198.4451669
51
217.794479
0
ARC
8
DEFAULT_255_1_234
10
4.4618592
20
20.8078085
40
0.1816698
50
218.2887171
51
228.5612368
0
ARC
8
DEFAULT_255_1_234
10
4.4716379
20
20.8209963
40
0.1980329
50
228.9654866
51
258.1234728
0
ARC
8
DEFAULT_255_1_234
10
4.4922089
20
20.9090833
40
0.2884748
50
257.7258293
51
270.401361
0
ARC
8
DEFAULT_255_1_234
10
4.4966975
20
20.8645821
40
0.2439788
50
269.4204404
51
286.4209037
0
ARC
8
DEFAULT_255_1_234
10
4.5115463
20
20.8106657
40
0.1880666
50
286.7251356
51
320.600362
0
ARC
8
DEFAULT_255_1_234
10
4.4732288
20
20.8417595
40
0.2374121
50
320.6712579
51
344.5441685
0
ARC
8
DEFAULT_255_1_234
10
4.3575614
20
20.8757045
40
0.3579479
50
344.2412205
51
356.7357071
0
ARC
8
DEFAULT_255_1_234
10
4.2326763
20
20.8860444
40
0.4832297
50
356.3548756
51
0.0500261
0
ARC
8
DEFAULT_255_1_234
10
4.3663272
20
20.889165
40
0.3495889
50
359.5576869
51
12.953486
0
ARC
8
DEFAULT_255_1_234
10
4.4718169
20
20.9147434
40
0.2410532
50
12.6490276
51
41.6081334
0
ARC
8
DEFAULT_255_1_234
10
4.494854
20
20.9343321
40
0.2108218
50
41.7850273
51
85.9892764
0
ARC
8
DEFAULT_255_1_234
10
4.4825277
20
20.8530462
40
0.2928454
50
84.6957577
51
90.0676183
0
ARC
8
DEFAULT_255_1_234
10
4.4801761
20
20.7861716
40
0.3597255
50
89.6804936
51
99.1614436
0
ARC
8
DEFAULT_255_1_234
10
4.4596392
20
20.9089131
40
0.235281
50
98.9830931
51
113.8908934
0
ARC
8
DEFAULT_255_1_234
10
4.4366802
20
20.9630587
40
0.176479
50
114.1950727
51
127.3641004
0
LINE
8
DEFAULT_255_1_234
10
5.1199021
20
21.6848211
11
5.4524161
21
20.7202093
0
LINE
8
DEFAULT_255_1_234
10
5.4524161
20
20.7202093
11
5.7865364
21
21.6848211
0
LINE
8
DEFAULT_255_1_234
10
5.7865364
20
21.6848211
11
5.9552029
21
21.6848211
0
LINE
8
DEFAULT_255_1_234
10
5.9552029
20
21.6848211
11
5.521489
21
20.5154
0
LINE
8
DEFAULT_255_1_234
10
5.521489
20
20.5154
11
5.3849495
21
20.5154
0
LINE
8
DEFAULT_255_1_234
10
5.3849495
20
20.5154
11
4.9520388
21
21.6848211
0
LINE
8
DEFAULT_255_1_234
10
4.9520388
20
21.6848211
11
5.1199021
21
21.6848211
0
LINE
8
DEFAULT_255_1_234
10
4.9006341
20
4.6404
11
4.6468312
21
5.1134694
0
LINE
8
DEFAULT_255_1_234
10
4.6468312
20
5.1134694
11
4.3721458
21
5.1134694
0
LINE
8
DEFAULT_255_1_234
10
4.3721458
20
5.1134694
11
4.3721458
21
4.6404
0
LINE
8
DEFAULT_255_1_234
10
4.3721458
20
4.6404
11
4.2171332
21
4.6404
0
LINE
8
DEFAULT_255_1_234
10
4.2171332
20
4.6404
11
4.2171332
21
5.8098211
0
LINE
8
DEFAULT_255_1_234
10
4.2171332
20
5.8098211
11
4.604263
21
5.8098211
0
LINE
8
DEFAULT_255_1_234
10
4.7914025
20
5.1463995
11
5.0660879
21
4.6500381
0
LINE
8
DEFAULT_255_1_234
10
5.0660879
20
4.6500381
11
5.0660879
21
4.6404
0
LINE
8
DEFAULT_255_1_234
10
5.0660879
20
4.6404
11
4.9006341
21
4.6404
0
LINE
8
DEFAULT_255_1_234
10
4.3721458
20
5.6829196
11
4.3721458
21
5.2395677
0
LINE
8
DEFAULT_255_1_234
10
4.3721458
20
5.2395677
11
4.609082
21
5.2395677
0
LINE
8
DEFAULT_255_1_234
10
4.6082789
20
5.6829196
11
4.3721458
21
5.6829196
0
ARC
8
DEFAULT_255_1_234
10
4.6084269
20
5.1136761
40
0.6961575
50
80.653586
51
90.3427061
0
ARC
8
DEFAULT_255_1_234
10
4.6503744
20
5.3599348
40
0.4463577
50
65.6987447
51
80.8329603
0
ARC
8
DEFAULT_255_1_234
10
4.6981385
20
5.4694322
40
0.3269094
50
50.0017161
51
65.4305835
0
ARC
8
DEFAULT_255_1_234
10
4.7199849
20
5.4989482
40
0.2902647
50
11.628416
51
49.5603263
0
ARC
8
DEFAULT_255_1_234
10
4.5664185
20
5.4614299
40
0.4482792
50
359.5655735
51
12.3691
0
ARC
8
DEFAULT_255_1_234
10
4.6741045
20
5.4551644
40
0.3405924
50
341.9983148
51
0.4822259
0
ARC
8
DEFAULT_255_1_234
10
4.7135885
20
5.4444471
40
0.2997359
50
323.8609373
51
341.61416
0
ARC
8
DEFAULT_255_1_234
10
4.6834129
20
5.4677484
40
0.3378487
50
296.7018614
51
323.6876402
0
ARC
8
DEFAULT_255_1_234
10
4.6393024
20
5.5466235
40
0.4281516
50
290.8086567
51
297.2323311
0
ARC
8
DEFAULT_255_1_234
10
4.6116554
20
5.5989351
40
0.3593766
50
269.589728
51
281.8058135
0
ARC
8
DEFAULT_255_1_234
10
4.6367453
20
5.4841743
40
0.2419125
50
281.5501019
51
303.9357432
0
ARC
8
DEFAULT_255_1_234
10
4.6504641
20
5.4603936
40
0.2145323
50
304.4415616
51
311.2106213
0
ARC
8
DEFAULT_255_1_234
10
4.6636746
20
5.4464632
40
0.1953505
50
310.9875673
51
356.2715578
0
ARC
8
DEFAULT_255_1_234
10
4.5880395
20
5.4577422
40
0.2716331
50
354.9348262
51
0.0609027
0
ARC
8
DEFAULT_255_1_234
10
4.5693269
20
5.4604435
40
0.2903554
50
359.5239371
51
12.8808918
0
ARC
8
DEFAULT_255_1_234
10
4.6670824
20
5.4843728
40
0.1897315
50
12.4173452
51
43.1022135
0
ARC
8
DEFAULT_255_1_234
10
4.6732429
20
5.4880724
40
0.1827118
50
43.5751728
51
48.203944
0
ARC
8
DEFAULT_255_1_234
10
4.6562921
20
5.4659302
40
0.2105272
50
48.7809703
51
72.6969569
0
ARC
8
DEFAULT_255_1_234
10
4.6208546
20
5.358382
40
0.3237537
50
72.3702241
51
84.8791103
0
ARC
8
DEFAULT_255_1_234
10
4.6061022
20
5.2241769
40
0.4587478
50
84.5400526
51
89.7281406
0
LINE
8
DEFAULT_255_1_234
10
5.7206746
20
4.9793394
11
5.7206746
21
5.8098211
0
LINE
8
DEFAULT_255_1_234
10
5.7206746
20
5.8098211
11
5.8756872
21
5.8098211
0
LINE
8
DEFAULT_255_1_234
10
5.8756872
20
5.8098211
11
5.8756872
21
4.9817489
0
LINE
8
DEFAULT_255_1_234
10
5.1375704
20
4.9632759
11
5.2917798
21
4.9632759
0
ARC
8
DEFAULT_255_1_234
10
5.4266057
20
4.9779089
40
0.4490979
50
346.3129415
51
0.4899112
0
ARC
8
DEFAULT_255_1_234
10
5.5634406
20
4.9428729
40
0.3078632
50
313.3793358
51
346.6225026
0
ARC
8
DEFAULT_255_1_234
10
5.5433593
20
4.9681522
40
0.3400404
50
281.1587967
51
312.9131091
0
ARC
8
DEFAULT_255_1_234
10
5.5093056
20
5.1176185
40
0.4932916
50
269.6424364
51
281.6795951
0
ARC
8
DEFAULT_255_1_234
10
5.5024421
20
5.1725382
40
0.5482147
50
258.9990078
51
270.3955952
0
ARC
8
DEFAULT_255_1_234
10
5.4649725
20
4.9876746
40
0.359601
50
239.6256123
51
259.238693
0
ARC
8
DEFAULT_255_1_234
10
5.4360807
20
4.9331669
40
0.2979777
50
227.4959765
51
239.1188186
0
ARC
8
DEFAULT_255_1_234
10
5.4323374
20
4.9270689
40
0.2909561
50
191.339631
51
227.2280909
0
ARC
8
DEFAULT_255_1_234
10
5.5728014
20
4.9603031
40
0.4352412
50
179.6086538
51
191.9934722
0
ARC
8
DEFAULT_255_1_234
10
5.5862037
20
4.9610427
40
0.2944324
50
179.5654258
51
192.070398
0
ARC
8
DEFAULT_255_1_234
10
5.4890527
20
4.9392079
40
0.194866
50
191.7656467
51
215.6461951
0
ARC
8
DEFAULT_255_1_234
10
5.4712027
20
4.9284546
40
0.1741017
50
216.1938368
51
224.3931108
0
ARC
8
DEFAULT_255_1_234
10
5.4718914
20
4.9311473
40
0.1764834
50
224.8613677
51
254.362656
0
ARC
8
DEFAULT_255_1_234
10
5.4989628
20
5.020601
40
0.2699302
50
253.9471729
51
267.3949949
0
ARC
8
DEFAULT_255_1_234
10
5.5060134
20
5.1130067
40
0.362572
50
266.9456419
51
270.0337791
0
ARC
8
DEFAULT_255_1_234
10
5.5085515
20
4.996823
40
0.2463991
50
269.4595111
51
286.1822844
0
ARC
8
DEFAULT_255_1_234
10
5.5226805
20
4.9450047
40
0.1926982
50
286.4416479
51
315.8044008
0
ARC
8
DEFAULT_255_1_234
10
5.5172612
20
4.9492207
40
0.1995241
50
316.0212565
51
345.4794351
0
ARC
8
DEFAULT_255_1_234
10
5.4202118
20
4.9765575
40
0.3003349
50
345.0729543
51
358.325089
0
ARC
8
DEFAULT_255_1_234
10
5.332609
20
4.9821568
40
0.3880759
50
357.8767804
51
359.5840246
0
LINE
8
DEFAULT_255_1_234
10
6.7270514
20
5.8098211
11
6.7270514
21
5.033152
0
LINE
8
DEFAULT_255_1_234
10
6.7270514
20
5.033152
11
6.8892925
21
5.033152
0
LINE
8
DEFAULT_255_1_234
10
6.8892925
20
5.033152
11
6.8892925
21
4.9118728
0
LINE
8
DEFAULT_255_1_234
10
6.8892925
20
4.9118728
11
6.7270514
21
4.9118728
0
LINE
8
DEFAULT_255_1_234
10
6.7270514
20
4.9118728
11
6.7270514
21
4.6404
0
LINE
8
DEFAULT_255_1_234
10
6.7270514
20
4.6404
11
6.5776611
21
4.6404
0
LINE
8
DEFAULT_255_1_234
10
6.5776611
20
4.6404
11
6.5776611
21
4.9118728
0
LINE
8
DEFAULT_255_1_234
10
6.5776611
20
4.9118728
11
6.0451568
21
4.9118728
0
LINE
8
DEFAULT_255_1_234
10
6.0451568
20
4.9118728
11
6.0451568
21
4.9994187
0
LINE
8
DEFAULT_255_1_234
10
6.0451568
20
4.9994187
11
6.5688262
21
5.8098211
0
LINE
8
DEFAULT_255_1_234
10
6.5688262
20
5.8098211
11
6.7270514
21
5.8098211
0
LINE
8
DEFAULT_255_1_234
10
6.5599913
20
5.5744912
11
6.2138233
21
5.033152
0
LINE
8
DEFAULT_255_1_234
10
6.2138233
20
5.033152
11
6.5776611
21
5.033152
0
LINE
8
DEFAULT_255_1_234
10
6.5776611
20
5.033152
11
6.5776611
21
5.6066181
0
LINE
8
DEFAULT_255_1_234
10
6.5776611
20
5.6066181
11
6.5599913
21
5.5744912
0
LINE
8
DEFAULT_255_1_234
10
7.2105621
20
5.1961963
11
7.0916923
21
5.2267169
0
LINE
8
DEFAULT_255_1_234
10
7.0916923
20
5.2267169
11
7.1511272
21
5.8098211
0
LINE
8
DEFAULT_255_1_234
10
7.1511272
20
5.8098211
11
7.7502949
21
5.8098211
0
LINE
8
DEFAULT_255_1_234
10
7.7502949
20
5.8098211
11
7.7502949
21
5.6724784
0
LINE
8
DEFAULT_255_1_234
10
7.7502949
20
5.6724784
11
7.2772255
21
5.6724784
0
LINE
8
DEFAULT_255_1_234
10
7.2772255
20
5.6724784
11
7.2418858
21
5.3536184
0
LINE
8
DEFAULT_255_1_234
10
7.0499273
20
4.9480156
11
7.1904827
21
4.9480156
0
LINE
8
DEFAULT_255_1_234
10
7.2499176
20
5.2283232
11
7.2105621
21
5.1961963
0
ARC
8
DEFAULT_255_1_234
10
7.4273642
20
5.035623
40
0.3681349
50
93.7182161
51
120.2538958
0
ARC
8
DEFAULT_255_1_234
10
7.4367905
20
4.9548394
40
0.449379
50
89.9660152
51
94.2496022
0
ARC
8
DEFAULT_255_1_234
10
7.4408639
20
5.0137549
40
0.390482
50
73.8043271
51
90.5585896
0
ARC
8
DEFAULT_255_1_234
10
7.4643536
20
5.0995602
40
0.3015334
50
41.3071453
51
73.5430202
0
ARC
8
DEFAULT_255_1_234
10
7.4227364
20
5.0637324
40
0.3564457
50
13.5075983
51
41.2174222
0
ARC
8
DEFAULT_255_1_234
10
7.2585567
20
5.0207486
40
0.5261351
50
1.1331335
51
13.8829381
0
ARC
8
DEFAULT_255_1_234
10
7.1173936
20
5.0131665
40
0.6674378
50
359.9919444
51
1.544251
0
ARC
8
DEFAULT_255_1_234
10
7.2450763
20
5.009028
40
0.5397702
50
347.8572367
51
0.4293338
0
ARC
8
DEFAULT_255_1_234
10
7.420108
20
4.9693736
40
0.3603188
50
323.673004
51
348.1672506
0
ARC
8
DEFAULT_255_1_234
10
7.4495588
20
4.9514168
40
0.3259678
50
316.8171152
51
323.1492751
0
ARC
8
DEFAULT_255_1_234
10
7.4556777
20
4.947746
40
0.3189975
50
281.8396411
51
316.5457803
0
ARC
8
DEFAULT_255_1_234
10
7.4181041
20
5.1032762
40
0.4789527
50
269.5770101
51
282.4214771
0
ARC
8
DEFAULT_255_1_234
10
7.4109853
20
5.0819125
40
0.45759
50
256.2427136
51
270.4486331
0
ARC
8
DEFAULT_255_1_234
10
7.3810755
20
4.9619229
40
0.3339303
50
228.9023911
51
256.3314342
0
ARC
8
DEFAULT_255_1_234
10
7.3736988
20
4.9502746
40
0.32031
50
193.753695
51
228.5271154
0
ARC
8
DEFAULT_255_1_234
10
7.4974941
20
4.98658
40
0.4492253
50
184.924711
51
194.497588
0
ARC
8
DEFAULT_255_1_234
10
7.5167508
20
4.9901591
40
0.3289787
50
187.3600538
51
198.6732863
0
ARC
8
DEFAULT_255_1_234
10
7.4117802
20
4.9537674
40
0.217884
50
198.4451669
51
217.794479
0
ARC
8
DEFAULT_255_1_234
10
7.3821977
20
4.9328085
40
0.1816698
50
218.2887171
51
228.5612368
0
ARC
8
DEFAULT_255_1_234
10
7.3919764
20
4.9459963
40
0.1980329
50
228.9654866
51
258.1234728
0
ARC
8
DEFAULT_255_1_234
10
7.4125474
20
5.0340833
40
0.2884748
50
257.7258293
51
270.401361
0
ARC
8
DEFAULT_255_1_234
10
7.4170361
20
4.9895821
40
0.2439788
50
269.4204404
51
286.4209037
0
ARC
8
DEFAULT_255_1_234
10
7.4318848
20
4.9356657
40
0.1880666
50
286.7251356
51
320.600362
0
ARC
8
DEFAULT_255_1_234
10
7.3935673
20
4.9667595
40
0.2374121
50
320.6712579
51
344.5441685
0
ARC
8
DEFAULT_255_1_234
10
7.2778999
20
5.0007045
40
0.3579479
50
344.2412205
51
356.7357071
0
ARC
8
DEFAULT_255_1_234
10
7.1530148
20
5.0110444
40
0.4832297
50
356.3548756
51
0.0500261
0
ARC
8
DEFAULT_255_1_234
10
7.2866657
20
5.014165
40
0.3495889
50
359.5576869
51
12.953486
0
ARC
8
DEFAULT_255_1_234
10
7.3921555
20
5.0397434
40
0.2410532
50
12.6490276
51
41.6081334
0
ARC
8
DEFAULT_255_1_234
10
7.4151926
20
5.0593321
40
0.2108218
50
41.7850273
51
85.9892764
0
ARC
8
DEFAULT_255_1_234
10
7.4028662
20
4.9780462
40
0.2928454
50
84.6957577
51
90.0676183
0
ARC
8
DEFAULT_255_1_234
10
7.4005146
20
4.9111716
40
0.3597255
50
89.6804936
51
99.1614436
0
ARC
8
DEFAULT_255_1_234
10
7.3799777
20
5.0339131
40
0.235281
50
98.9830931
51
113.8908934
0
ARC
8
DEFAULT_255_1_234
10
7.3570188
20
5.0880587
40
0.176479
50
114.1950727
51
127.3641004
0
LINE
8
DEFAULT_255_1_234
10
4.8873484
20
13.2445343
11
4.8873484
21
13.118436
0
LINE
8
DEFAULT_255_1_234
10
4.8873484
20
13.118436
11
4.3805458
21
13.118436
0
LINE
8
DEFAULT_255_1_234
10
4.3805458
20
13.118436
11
4.3805458
21
12.7039983
0
LINE
8
DEFAULT_255_1_234
10
4.3805458
20
12.7039983
11
4.9692722
21
12.7039983
0
LINE
8
DEFAULT_255_1_234
10
4.9692722
20
12.7039983
11
4.9692722
21
12.5779
0
LINE
8
DEFAULT_255_1_234
10
4.9692722
20
12.5779
11
4.2263364
21
12.5779
0
LINE
8
DEFAULT_255_1_234
10
4.2263364
20
12.5779
11
4.2263364
21
13.7473211
0
LINE
8
DEFAULT_255_1_234
10
4.2263364
20
13.7473211
11
4.9612404
21
13.7473211
0
LINE
8
DEFAULT_255_1_234
10
4.9612404
20
13.7473211
11
4.9612404
21
13.6204196
0
LINE
8
DEFAULT_255_1_234
10
4.9612404
20
13.6204196
11
4.3805458
21
13.6204196
0
LINE
8
DEFAULT_255_1_234
10
4.3805458
20
13.6204196
11
4.3805458
21
13.2445343
0
LINE
8
DEFAULT_255_1_234
10
4.3805458
20
13.2445343
11
4.8873484
21
13.2445343
0
LINE
8
DEFAULT_255_1_234
10
5.9852871
20
13.7473211
11
5.9852871
21
13.6204196
0
LINE
8
DEFAULT_255_1_234
10
5.9852871
20
13.6204196
11
5.6094017
21
13.6204196
0
LINE
8
DEFAULT_255_1_234
10
5.6094017
20
13.6204196
11
5.6094017
21
12.5779
0
LINE
8
DEFAULT_255_1_234
10
5.6094017
20
12.5779
11
5.4559955
21
12.5779
0
LINE
8
DEFAULT_255_1_234
10
5.4559955
20
12.5779
11
5.4559955
21
13.6204196
0
LINE
8
DEFAULT_255_1_234
10
5.4559955
20
13.6204196
11
5.0809133
21
13.6204196
0
LINE
8
DEFAULT_255_1_234
10
5.0809133
20
13.6204196
11
5.0809133
21
13.7473211
0
LINE
8
DEFAULT_255_1_234
10
5.0809133
20
13.7473211
11
5.9852871
21
13.7473211
0
LINE
8
DEFAULT_255_1_234
10
7.0575241
20
13.7473211
11
7.0575241
21
12.5779
0
LINE
8
DEFAULT_255_1_234
10
7.0575241
20
12.5779
11
6.9025116
21
12.5779
0
LINE
8
DEFAULT_255_1_234
10
6.9025116
20
12.5779
11
6.9025116
21
13.118436
0
LINE
8
DEFAULT_255_1_234
10
6.9025116
20
13.118436
11
6.312982
21
13.118436
0
LINE
8
DEFAULT_255_1_234
10
6.312982
20
13.118436
11
6.312982
21
12.5779
0
LINE
8
DEFAULT_255_1_234
10
6.312982
20
12.5779
11
6.1587726
21
12.5779
0
LINE
8
DEFAULT_255_1_234
10
6.1587726
20
12.5779
11
6.1587726
21
13.7473211
0
LINE
8
DEFAULT_255_1_234
10
6.1587726
20
13.7473211
11
6.312982
21
13.7473211
0
LINE
8
DEFAULT_255_1_234
10
6.312982
20
13.7473211
11
6.312982
21
13.2445343
0
LINE
8
DEFAULT_255_1_234
10
6.312982
20
13.2445343
11
6.9025116
21
13.2445343
0
LINE
8
DEFAULT_255_1_234
10
6.9025116
20
13.2445343
11
6.9025116
21
13.7473211
0
LINE
8
DEFAULT_255_1_234
10
6.9025116
20
13.7473211
11
7.0575241
21
13.7473211
0
LINE
8
DEFAULT_255_1_234
10
7.7811837
20
13.7529433
11
7.7811837
21
12.5779
0
LINE
8
DEFAULT_255_1_234
10
7.7811837
20
12.5779
11
7.6317934
21
12.5779
0
LINE
8
DEFAULT_255_1_234
10
7.6317934
20
12.5779
11
7.6317934
21
13.5682133
0
LINE
8
DEFAULT_255_1_234
10
7.6317934
20
13.5682133
11
7.3322096
21
13.4581785
0
LINE
8
DEFAULT_255_1_234
10
7.3322096
20
13.4581785
11
7.3322096
21
13.5931117
0
LINE
8
DEFAULT_255_1_234
10
7.3322096
20
13.5931117
11
7.7578917
21
13.7529433
0
LINE
8
DEFAULT_255_1_234
10
7.7578917
20
13.7529433
11
7.7811837
21
13.7529433
0
LINE
8
DEFAULT_255_1_234
10
23.1659817
20
21.2069327
11
23.1659817
21
21.0141709
0
LINE
8
DEFAULT_255_1_234
10
22.427865
20
20.9940916
11
22.427865
21
21.1924755
0
LINE
8
DEFAULT_255_1_234
10
23.0173946
20
20.9740123
11
23.0173946
21
21.2173739
0
LINE
8
DEFAULT_255_1_234
10
22.5764521
20
21.2286184
11
22.5764521
21
20.9908789
0
ARC
8
DEFAULT_255_1_234
10
21.9412707
20
21.0092805
40
1.2247208
50
353.8441951
51
0.2287902
0
ARC
8
DEFAULT_255_1_234
10
22.4052211
20
20.9574806
40
0.7578929
50
344.4934747
51
353.9765454
0
ARC
8
DEFAULT_255_1_234
10
22.7044801
20
20.8723981
40
0.4467846
50
329.2803592
51
344.7472793
0
ARC
8
DEFAULT_255_1_234
10
22.8037626
20
20.8179018
40
0.3336173
50
324.9352394
51
328.6160465
0
ARC
8
DEFAULT_255_1_234
10
22.8414734
20
20.7915427
40
0.2876076
50
280.580143
51
324.9173126
0
ARC
8
DEFAULT_255_1_234
10
22.8013527
20
20.9586099
40
0.4592847
50
269.5977311
51
281.6734359
0
ARC
8
DEFAULT_255_1_234
10
22.7941433
20
20.9466173
40
0.4472986
50
256.6228859
51
270.51044
0
ARC
8
DEFAULT_255_1_234
10
22.753941
20
20.7917877
40
0.2873874
50
215.8618325
51
257.2788573
0
ARC
8
DEFAULT_255_1_234
10
22.8560442
20
20.8602977
40
0.4102928
50
197.9693508
51
215.2623606
0
ARC
8
DEFAULT_255_1_234
10
23.1045558
20
20.9441709
40
0.6725652
50
187.8816417
51
198.2346507
0
ARC
8
DEFAULT_255_1_234
10
23.5003766
20
21.0013079
40
1.0724845
50
180.8976217
51
188.0055519
0
ARC
8
DEFAULT_255_1_234
10
23.7803954
20
21.0116777
40
1.3526448
50
180.7449369
51
181.1510016
0
ARC
8
DEFAULT_255_1_234
10
23.6226683
20
21.1973042
40
1.1948131
50
173.7675579
51
180.231553
0
ARC
8
DEFAULT_255_1_234
10
23.170883
20
21.2483666
40
0.7401564
50
164.3058563
51
173.9002247
0
ARC
8
DEFAULT_255_1_234
10
22.8796899
20
21.3322656
40
0.4371288
50
148.7922025
51
164.568378
0
ARC
8
DEFAULT_255_1_234
10
22.7845351
20
21.3853929
40
0.3282386
50
144.5883898
51
148.1176286
0
ARC
8
DEFAULT_255_1_234
10
22.7502249
20
21.4093315
40
0.2864044
50
101.6440918
51
144.514236
0
ARC
8
DEFAULT_255_1_234
10
22.7927315
20
21.2404069
40
0.4604934
50
89.5284041
51
102.5819763
0
ARC
8
DEFAULT_255_1_234
10
22.8006403
20
21.2365018
40
0.464401
50
77.0437873
51
90.5081339
0
ARC
8
DEFAULT_255_1_234
10
22.8408405
20
21.4007615
40
0.2953195
50
48.2778575
51
77.4994676
0
ARC
8
DEFAULT_255_1_234
10
22.8481036
20
21.4136746
40
0.2808655
50
36.3142134
51
47.6305865
0
ARC
8
DEFAULT_255_1_234
10
22.7612343
20
21.3551515
40
0.3855453
50
18.2931786
51
35.6769206
0
ARC
8
DEFAULT_255_1_234
10
22.5069102
20
21.2678593
40
0.654423
50
8.024666
51
18.5605216
0
ARC
8
DEFAULT_255_1_234
10
22.0906022
20
21.2063792
40
1.0752407
50
1.1274072
51
8.1718305
0
ARC
8
DEFAULT_255_1_234
10
21.7670213
20
21.1936885
40
1.3990231
50
0.5424119
51
1.3863029
0
ARC
8
DEFAULT_255_1_234
10
21.949159
20
21.2209342
40
1.0682415
50
359.8090433
51
4.9407866
0
ARC
8
DEFAULT_255_1_234
10
22.3701604
20
21.2585113
40
0.6455691
50
4.8362157
51
12.2904523
0
ARC
8
DEFAULT_255_1_234
10
22.6456719
20
21.3198965
40
0.3633074
50
12.0805627
51
23.8173984
0
ARC
8
DEFAULT_255_1_234
10
22.7630425
20
21.3695919
40
0.2358723
50
24.2871213
51
31.3935614
0
ARC
8
DEFAULT_255_1_234
10
22.8155122
20
21.4039233
40
0.1732111
50
30.7407893
51
82.4657128
0
ARC
8
DEFAULT_255_1_234
10
22.7975256
20
21.3155691
40
0.263235
50
81.1060089
51
90.2184952
0
ARC
8
DEFAULT_255_1_234
10
22.7939555
20
21.3413924
40
0.2374236
50
89.3806855
51
105.6762551
0
ARC
8
DEFAULT_255_1_234
10
22.7756186
20
21.4080567
40
0.1682847
50
105.7981136
51
149.7388061
0
ARC
8
DEFAULT_255_1_234
10
22.8820264
20
21.344095
40
0.2924306
50
149.4208916
51
163.6286378
0
ARC
8
DEFAULT_255_1_234
10
23.0911152
20
21.280325
40
0.5110213
50
163.3763315
51
172.1410975
0
ARC
8
DEFAULT_255_1_234
10
23.4211871
20
21.2330518
40
0.8444586
50
172.0259487
51
178.0703232
0
ARC
8
DEFAULT_255_1_234
10
23.724196
20
21.2186906
40
1.1477868
50
177.8631668
51
179.5044149
0
ARC
8
DEFAULT_255_1_234
10
23.6169365
20
20.9872389
40
1.0404907
50
179.7995573
51
185.2460446
0
ARC
8
DEFAULT_255_1_234
10
23.2126404
20
20.9489513
40
0.6343885
50
185.1411642
51
193.0079639
0
ARC
8
DEFAULT_255_1_234
10
22.9482877
20
20.8864641
40
0.3627568
50
192.7897626
51
205.2507664
0
ARC
8
DEFAULT_255_1_234
10
22.8436424
20
20.8397415
40
0.2481908
50
205.8005384
51
211.2537509
0
ARC
8
DEFAULT_255_1_234
10
22.7912864
20
20.804658
40
0.1852521
50
210.3789793
51
238.4008143
0
ARC
8
DEFAULT_255_1_234
10
22.7893386
20
20.8093376
40
0.1882621
50
239.6520629
51
265.9793761
0
ARC
8
DEFAULT_255_1_234
10
22.7978586
20
20.8765427
40
0.2559272
50
265.1315437
51
270.060332
0
ARC
8
DEFAULT_255_1_234
10
22.8007365
20
20.8441534
40
0.2235528
50
269.3314664
51
287.2178029
0
ARC
8
DEFAULT_255_1_234
10
22.8145217
20
20.7938279
40
0.1714108
50
287.7958004
51
329.080874
0
ARC
8
DEFAULT_255_1_234
10
22.7187674
20
20.853593
40
0.2842745
50
328.6634704
51
343.3325132
0
ARC
8
DEFAULT_255_1_234
10
22.5014694
20
20.9212863
40
0.5118644
50
343.0499468
51
351.9393422
0
ARC
8
DEFAULT_255_1_234
10
22.1547994
20
20.9723949
40
0.8622784
50
351.8069023
51
357.7959224
0
ARC
8
DEFAULT_255_1_234
10
21.831255
20
20.9891721
40
1.1862365
50
357.5871873
51
359.2677531
0
LINE
8
DEFAULT_255_1_234
10
23.4495021
20
21.6848211
11
23.7820161
21
20.7202093
0
LINE
8
DEFAULT_255_1_234
10
23.7820161
20
20.7202093
11
24.1161364
21
21.6848211
0
LINE
8
DEFAULT_255_1_234
10
24.1161364
20
21.6848211
11
24.2848029
21
21.6848211
0
LINE
8
DEFAULT_255_1_234
10
24.2848029
20
21.6848211
11
23.851089
21
20.5154
0
LINE
8
DEFAULT_255_1_234
10
23.851089
20
20.5154
11
23.7145495
21
20.5154
0
LINE
8
DEFAULT_255_1_234
10
23.7145495
20
20.5154
11
23.2816388
21
21.6848211
0
LINE
8
DEFAULT_255_1_234
10
23.2816388
20
21.6848211
11
23.4495021
21
21.6848211
0
ENDSEC
0
EOF