0
SECTION
2
HEADER
9
$MEASUREMENT
70
1
0
ENDSEC
0
SECTION
2
TABLES
0
TABLE
2
LTYPE
0
LTYPE
72
65
70
64
2
CONTINUOUS
3
______
73
0
40
0
0
ENDTAB
0
TABLE
2
LAYER
0
LAYER
2
DEFAULT_255_2_778
70
0
62
255
6
CONTINUOUS
0
ENDTAB
0
ENDSEC
0
SECTION
2
ENTITIES
0
ARC
8
DEFAULT_255_2_778
10
2.6634109
20
9.5058784
40
0.9963191
50
179.916016
51
221.6459452
0
ARC
8
DEFAULT_255_2_778
10
2.6660384
20
9.5048975
40
0.9976339
50
221.5035703
51
268.2692494
0
ARC
8
DEFAULT_255_2_778
10
2.6671832
20
9.5259979
40
1.0187593
50
268.2407389
51
270.0005447
0
ARC
8
DEFAULT_255_2_778
10
2.6676087
20
59.5071116
40
1.0005159
50
135.0116884
51
179.9927137
0
ARC
8
DEFAULT_255_2_778
10
2.6673198
20
59.5068238
40
1.0005151
50
90.0072708
51
134.9883353
0
ARC
8
DEFAULT_255_2_778
10
1.1674204
20
56.5067225
40
1.0005163
50
90.0073027
51
134.9883058
0
ARC
8
DEFAULT_255_2_778
10
1.1677079
20
56.5070118
40
1.0005151
50
135.0116647
51
179.9927292
0
ARC
8
DEFAULT_255_2_778
10
1.1635109
20
12.5059784
40
0.9963191
50
179.916016
51
221.6459452
0
ARC
8
DEFAULT_255_2_778
10
1.1661384
20
12.5049975
40
0.9976339
50
221.5035703
51
268.2692494
0
ARC
8
DEFAULT_255_2_778
10
1.1672832
20
12.5260979
40
1.0187593
50
268.2407389
51
270.0005447
0
ARC
8
DEFAULT_255_2_778
10
22.4126808
20
85.5782379
40
4.1806395
50
88.4454939
51
89.9995032
0
ARC
8
DEFAULT_255_2_778
10
22.4101706
20
85.6513177
40
4.1075605
50
89.9644802
51
106.6876634
0
ARC
8
DEFAULT_255_2_778
10
22.4198996
20
85.6357809
40
4.1252395
50
106.7551336
51
158.335491
0
ARC
8
DEFAULT_255_2_778
10
22.4144812
20
85.6449475
40
4.116825
50
158.4262157
51
174.3166535
0
ARC
8
DEFAULT_255_2_778
10
22.407573
20
85.6452541
40
2.1097965
50
150.1922131
51
174.3316501
0
ARC
8
DEFAULT_255_2_778
10
22.4153905
20
85.6401192
40
2.1191324
50
97.1287604
51
150.1768161
0
ARC
8
DEFAULT_255_2_778
10
22.4126553
20
85.6355588
40
2.1233205
50
89.990799
51
97.0402528
0
ARC
8
DEFAULT_255_2_778
10
22.4129522
20
85.6105157
40
2.1483635
50
87.8301666
51
89.9988234
0
ARC
8
DEFAULT_255_2_778
10
19.0999271
20
72.5211813
40
1.9827371
50
156.3682798
51
180.09659
0
ARC
8
DEFAULT_255_2_778
10
19.1079456
20
72.5131577
40
1.9933037
50
101.6600358
51
156.2493806
0
ARC
8
DEFAULT_255_2_778
10
19.1158792
20
72.4731502
40
2.0340891
50
89.9629977
51
101.6511404
0
ARC
8
DEFAULT_255_2_778
10
23.1554116
20
5.0210986
40
3.2800033
50
243.1451836
51
264.330726
0
ARC
8
DEFAULT_255_2_778
10
23.159335
20
5.0282732
40
3.2881765
50
198.0374515
51
243.1406662
0
ARC
8
DEFAULT_255_2_778
10
23.1672055
20
5.0280711
40
3.2955986
50
189.8809937
51
197.9917421
0
ARC
8
DEFAULT_255_2_778
10
23.1559768
20
5.0245382
40
5.2840464
50
188.6542627
51
203.9324976
0
ARC
8
DEFAULT_255_2_778
10
23.1624083
20
5.0321806
40
5.2930269
50
203.9798704
51
250.7246493
0
ARC
8
DEFAULT_255_2_778
10
23.1556294
20
5.0264679
40
5.2853986
50
250.7735731
51
265.5310014
0
LINE
8
DEFAULT_255_2_778
10
1.6670928
20
11.5073388
11
1.6670928
21
9.5073388
0
LINE
8
DEFAULT_255_2_778
10
2.6671928
20
8.5072388
11
17.6195928
21
8.5072388
0
LINE
8
DEFAULT_255_2_778
10
17.5100928
20
10.0071388
11
10.0170928
21
10.0071388
0
LINE
8
DEFAULT_255_2_778
10
10.0170928
20
10.0071388
11
10.0170928
21
11.5070388
0
LINE
8
DEFAULT_255_2_778
10
17.1671928
20
59.0071388
11
10.0170928
21
59.0071388
0
LINE
8
DEFAULT_255_2_778
10
10.0170928
20
59.0071388
11
10.0170928
21
57.5072388
0
LINE
8
DEFAULT_255_2_778
10
1.6670928
20
57.5072388
11
1.6670928
21
59.5072388
0
LINE
8
DEFAULT_255_2_778
10
2.6671928
20
60.5073388
11
17.1671928
21
60.5073388
0
LINE
8
DEFAULT_255_2_778
10
0.1671928
20
12.5071388
11
0.1671928
21
56.5073388
0
LINE
8
DEFAULT_255_2_778
10
0.1671928
20
56.5073388
11
17.1700928
21
56.5073388
0
LINE
8
DEFAULT_255_2_778
10
17.3304928
20
12.5074388
11
0.1671928
21
12.5074388
0
LINE
8
DEFAULT_255_2_778
10
17.4005928
20
11.5073388
11
1.1672928
21
11.5073388
0
LINE
8
DEFAULT_255_2_778
10
1.1672928
20
11.5073388
11
1.1672928
21
57.5072388
0
LINE
8
DEFAULT_255_2_778
10
1.1672928
20
57.5072388
11
17.1671928
21
57.5072388
0
LINE
8
DEFAULT_255_2_778
10
20.3077928
20
85.8536388
11
19.1724928
21
74.5075388
0
LINE
8
DEFAULT_255_2_778
10
48.9171928
20
4.1714388
11
83.2256928
21
4.1714388
0
LINE
8
DEFAULT_255_2_778
10
83.2256928
20
4.1714388
11
84.7639928
21
5.6550388
0
LINE
8
DEFAULT_255_2_778
10
84.7639928
20
5.6550388
11
84.7639928
21
42.8046388
0
LINE
8
DEFAULT_255_2_778
10
84.7639928
20
42.8046388
11
83.2256928
21
44.1711388
0
LINE
8
DEFAULT_255_2_778
10
83.2256928
20
44.1711388
11
80.7206928
21
44.1711388
0
LINE
8
DEFAULT_255_2_778
10
80.7206928
20
44.1711388
11
80.7206928
21
82.8546388
0
LINE
8
DEFAULT_255_2_778
10
80.7206928
20
82.8546388
11
78.5279928
21
85.1715388
0
LINE
8
DEFAULT_255_2_778
10
78.5279928
20
85.1715388
11
48.9171928
21
85.1715388
0
LINE
8
DEFAULT_255_2_778
10
42.1671928
20
2.3916388
11
48.9171928
21
2.3916388
0
LINE
8
DEFAULT_255_2_778
10
48.9171928
20
2.3916388
11
48.9171928
21
5.1983388
0
LINE
8
DEFAULT_255_2_778
10
48.9171928
20
5.1983388
11
42.1671928
21
5.1983388
0
LINE
8
DEFAULT_255_2_778
10
34.6672928
20
84.3738388
11
48.9171928
21
84.3738388
0
LINE
8
DEFAULT_255_2_778
10
48.9171928
20
84.3738388
11
48.9171928
21
87.1805388
0
LINE
8
DEFAULT_255_2_778
10
48.9171928
20
87.1805388
11
34.6672928
21
87.1805388
0
LINE
8
DEFAULT_255_2_778
10
17.1671928
20
72.9599388
11
17.1671928
21
74.5540388
0
LINE
8
DEFAULT_255_2_778
10
19.1671928
20
64.2583388
11
17.1671928
21
64.2588388
0
LINE
8
DEFAULT_255_2_778
10
17.1671928
20
64.2588388
11
17.1671928
21
56.8582388
0
LINE
8
DEFAULT_255_2_778
10
17.1671928
20
56.8582388
11
17.1708928
21
56.6849388
0
LINE
8
DEFAULT_255_2_778
10
17.1708928
20
56.6849388
11
17.1708928
21
14.7021388
0
LINE
8
DEFAULT_255_2_778
10
18.3178928
20
86.0526388
11
17.1671928
21
74.5540388
0
LINE
8
DEFAULT_255_2_778
10
17.1671928
20
74.5540388
11
18.7567928
21
74.4747388
0
LINE
8
DEFAULT_255_2_778
10
18.7567928
20
74.4747388
11
18.6670928
21
74.4792388
0
LINE
8
DEFAULT_255_2_778
10
34.6669928
20
87.7573388
11
34.6669928
21
89.7573388
0
LINE
8
DEFAULT_255_2_778
10
34.6669928
20
89.7573388
11
22.5260928
21
89.7573388
0
LINE
8
DEFAULT_255_2_778
10
22.5260928
20
89.7573388
11
22.5191928
21
89.2641388
0
LINE
8
DEFAULT_255_2_778
10
22.5191928
20
89.2641388
11
22.5151928
21
88.9876388
0
LINE
8
DEFAULT_255_2_778
10
22.5151928
20
88.9876388
11
22.5117928
21
88.7645388
0
LINE
8
DEFAULT_255_2_778
10
22.5117928
20
88.7645388
11
22.5038928
21
88.2835388
0
LINE
8
DEFAULT_255_2_778
10
22.5038928
20
88.2835388
11
22.4990928
21
88.0176388
0
LINE
8
DEFAULT_255_2_778
10
22.4990928
20
88.0176388
11
22.4940928
21
87.7573388
0
LINE
8
DEFAULT_255_2_778
10
42.1668928
20
1.7574388
11
42.1668928
21
-0.2425612
0
LINE
8
DEFAULT_255_2_778
10
42.1668928
20
-0.2425612
11
22.7437928
21
-0.2425612
0
LINE
8
DEFAULT_255_2_778
10
19.4137928
20
65.0073388
11
19.4137928
21
64.2586388
0
LINE
8
DEFAULT_255_2_778
10
19.4137928
20
64.2586388
11
19.1668928
21
64.2586388
0
LINE
8
DEFAULT_255_2_778
10
19.1668928
20
64.2586388
11
19.1668928
21
14.7751388
0
LINE
8
DEFAULT_255_2_778
10
18.3178928
20
86.0526388
11
18.3561928
21
86.0489388
0
LINE
8
DEFAULT_255_2_778
10
18.3561928
20
86.0489388
11
20.3080928
21
85.8536388
0
LINE
8
DEFAULT_255_2_778
10
22.4942928
20
87.7573388
11
34.6672928
21
87.7573388
0
LINE
8
DEFAULT_255_2_778
10
34.6672928
20
87.7573388
11
34.6672928
21
70.2572388
0
LINE
8
DEFAULT_255_2_778
10
34.6672928
20
70.2572388
11
42.1671928
21
63.2571388
0
LINE
8
DEFAULT_255_2_778
10
42.1671928
20
63.2571388
11
42.1671928
21
1.7571388
0
LINE
8
DEFAULT_255_2_778
10
42.1671928
20
1.7571388
11
22.8313928
21
1.7571388
0
LINE
8
DEFAULT_255_2_778
10
19.1171928
20
65.0073388
11
19.1171928
21
74.5072388
0
LINE
8
DEFAULT_255_2_778
10
19.1171928
20
74.5072388
11
25.9171928
21
74.5072388
0
LINE
8
DEFAULT_255_2_778
10
25.9171928
20
74.5072388
11
25.9171928
21
65.0071388
0
LINE
8
DEFAULT_255_2_778
10
25.9171928
20
65.0071388
11
19.1171928
21
65.0071388
0
LINE
8
DEFAULT_255_2_778
10
19.1171928
20
65.0071388
11
17.1171928
21
65.0071388
0
LINE
8
DEFAULT_255_2_778
10
17.1171928
20
65.0071388
11
17.1171928
21
72.5178388
0
LINE
8
DEFAULT_255_2_778
10
17.1171928
20
72.5178388
11
17.1171928
21
72.5178388
0
LINE
8
DEFAULT_255_2_778
10
17.9320928
20
4.2296388
11
17.3732928
21
11.8811388
0
LINE
8
DEFAULT_255_2_778
10
17.3732928
20
11.8811388
11
17.3642928
21
12.0544388
0
LINE
8
DEFAULT_255_2_778
10
17.3642928
20
12.0544388
11
17.3513928
21
12.2319388
0
LINE
8
DEFAULT_255_2_778
10
22.7437928
20
-0.2425612
11
22.7636928
21
0.2508388
0
LINE
8
DEFAULT_255_2_778
10
22.7636928
20
0.2508388
11
22.7750928
21
0.5273388
0
LINE
8
DEFAULT_255_2_778
10
22.7750928
20
0.5273388
11
22.7845928
21
0.7504388
0
LINE
8
DEFAULT_255_2_778
10
22.7845928
20
0.7504388
11
22.8059928
21
1.2311388
0
LINE
8
DEFAULT_255_2_778
10
22.8059928
20
1.2311388
11
22.8183928
21
1.4970388
0
LINE
8
DEFAULT_255_2_778
10
22.8183928
20
1.4970388
11
22.8313928
21
1.7571388
0
LINE
8
DEFAULT_255_2_778
10
19.9204928
20
4.4625388
11
19.6619928
21
4.4307388
0
LINE
8
DEFAULT_255_2_778
10
19.6619928
20
4.4307388
11
17.9320928
21
4.2294388
0
LINE
8
DEFAULT_255_2_778
10
22.7437928
20
-0.2428612
11
22.7437928
21
-0.2425612
0
LINE
8
DEFAULT_255_2_778
10
17.1708928
20
56.5073388
11
17.1703928
21
14.7021388
0
LINE
8
DEFAULT_255_2_778
10
17.1703928
20
14.7021388
11
17.3507928
21
12.2317388
0
LINE
8
DEFAULT_255_2_778
10
17.3507928
20
12.2317388
11
17.3513928
21
12.2317388
0
LINE
8
DEFAULT_255_2_778
10
17.3513928
20
12.2317388
11
17.1708928
21
14.7021388
0
LINE
8
DEFAULT_255_2_778
10
17.1708928
20
14.7021388
11
19.1671928
21
14.7749388
0
LINE
8
DEFAULT_255_2_778
10
19.1671928
20
14.7749388
11
19.9204928
21
4.4627388
0
ENDSEC
0
EOF