0
SECTION
2
HEADER
9
$MEASUREMENT
70
1
0
ENDSEC
0
SECTION
2
TABLES
0
TABLE
2
LTYPE
0
LTYPE
72
65
70
64
2
CONTINUOUS
3
______
73
0
40
0
0
ENDTAB
0
TABLE
2
LAYER
0
LAYER
2
DEFAULT_255_2_778
70
0
62
255
6
CONTINUOUS
0
ENDTAB
0
ENDSEC
0
SECTION
2
ENTITIES
0
ARC
8
DEFAULT_255_2_778
10
18.2383087
20
19.0007129
40
1.0001615
50
180.0086889
51
257.7939892
0
ARC
8
DEFAULT_255_2_778
10
21.784029
20
18.2339379
40
1.0003858
50
257.7955753
51
265.5833225
0
ARC
8
DEFAULT_255_2_778
10
21.7839105
20
18.2327416
40
0.9991839
50
265.5848129
51
270.0002295
0
ARC
8
DEFAULT_255_2_778
10
21.7838519
20
18.2341189
40
1.0005612
50
270.003584
51
308.8837923
0
ARC
8
DEFAULT_255_2_778
10
21.7839965
20
18.2335793
40
1.0000505
50
308.8967515
51
359.998965
0
ARC
8
DEFAULT_255_2_778
10
21.7840846
20
70.2326272
40
0.9999626
50
0.0019486
51
51.5972191
0
ARC
8
DEFAULT_255_2_778
10
21.7837948
20
70.2320618
40
1.0005857
50
51.6043329
51
89.9938532
0
ARC
8
DEFAULT_255_2_778
10
21.7839015
20
70.2340574
40
0.9985899
50
89.9999614
51
94.1222382
0
ARC
8
DEFAULT_255_2_778
10
21.7839724
20
70.2334447
40
0.9992062
50
94.1237692
51
103.1973895
0
ARC
8
DEFAULT_255_2_778
10
18.238558
20
69.4009825
40
1.0001109
50
103.2020402
51
179.9954871
0
ARC
8
DEFAULT_255_2_778
10
20.5080679
20
76.4386563
40
1.2469241
50
147.4048535
51
180.1330274
0
ARC
8
DEFAULT_255_2_778
10
20.5077206
20
76.4391013
40
1.2463917
50
96.4533485
51
147.4134889
0
ARC
8
DEFAULT_255_2_778
10
20.5107589
20
76.4117727
40
1.2738885
50
89.9870349
51
96.4509854
0
ARC
8
DEFAULT_255_2_778
10
20.5139422
20
76.4387405
40
1.2469241
50
57.4048535
51
90.1330274
0
ARC
8
DEFAULT_255_2_778
10
20.5143872
20
76.4390878
40
1.2463917
50
6.4533485
51
57.4134889
0
ARC
8
DEFAULT_255_2_778
10
20.4870586
20
76.4360495
40
1.2738885
50
359.9870349
51
6.4509854
0
ARC
8
DEFAULT_255_2_778
10
20.5140265
20
76.4328662
40
1.2469241
50
327.4048535
51
0.1330274
0
ARC
8
DEFAULT_255_2_778
10
20.5143737
20
76.4324212
40
1.2463917
50
276.4533485
51
327.4134889
0
ARC
8
DEFAULT_255_2_778
10
20.5113354
20
76.4597498
40
1.2738885
50
269.9870349
51
276.4509854
0
ARC
8
DEFAULT_255_2_778
10
20.5081521
20
76.4327819
40
1.2469241
50
237.4048535
51
270.1330274
0
ARC
8
DEFAULT_255_2_778
10
20.5077071
20
76.4324347
40
1.2463917
50
186.4533485
51
237.4134889
0
ARC
8
DEFAULT_255_2_778
10
20.5350357
20
76.435473
40
1.2738885
50
179.9870349
51
186.4509854
0
ARC
8
DEFAULT_255_2_778
10
20.5080679
20
12.0554563
40
1.2469241
50
147.4048535
51
180.1330274
0
ARC
8
DEFAULT_255_2_778
10
20.5077206
20
12.0559013
40
1.2463917
50
96.4533485
51
147.4134889
0
ARC
8
DEFAULT_255_2_778
10
20.5107589
20
12.0285727
40
1.2738885
50
89.9870349
51
96.4509854
0
ARC
8
DEFAULT_255_2_778
10
20.5139422
20
12.0555405
40
1.2469241
50
57.4048535
51
90.1330274
0
ARC
8
DEFAULT_255_2_778
10
20.5143872
20
12.0558878
40
1.2463917
50
6.4533485
51
57.4134889
0
ARC
8
DEFAULT_255_2_778
10
20.4870586
20
12.0528495
40
1.2738885
50
359.9870349
51
6.4509854
0
ARC
8
DEFAULT_255_2_778
10
20.5140265
20
12.0496662
40
1.2469241
50
327.4048535
51
0.1330274
0
ARC
8
DEFAULT_255_2_778
10
20.5143737
20
12.0492212
40
1.2463917
50
276.4533485
51
327.4134889
0
ARC
8
DEFAULT_255_2_778
10
20.5113354
20
12.0765498
40
1.2738885
50
269.9870349
51
276.4509854
0
ARC
8
DEFAULT_255_2_778
10
20.5081521
20
12.0495819
40
1.2469241
50
237.4048535
51
270.1330274
0
ARC
8
DEFAULT_255_2_778
10
20.5077071
20
12.0492347
40
1.2463917
50
186.4533485
51
237.4134889
0
ARC
8
DEFAULT_255_2_778
10
20.5350357
20
12.052273
40
1.2738885
50
179.9870349
51
186.4509854
0
ARC
8
DEFAULT_255_2_778
10
10.1249909
20
78.7500579
40
0.0484152
50
140.9973558
51
166.3306165
0
ARC
8
DEFAULT_255_2_778
10
10.7121265
20
78.3407054
40
0.7640479
50
138.9985656
51
144.8549479
0
ARC
8
DEFAULT_255_2_778
10
12.6362714
20
76.7155196
40
3.2826313
50
137.6943672
51
139.6247034
0
ARC
8
DEFAULT_255_2_778
10
15.861827
20
73.7869582
40
7.6393123
50
136.2887954
51
137.7334615
0
ARC
8
DEFAULT_255_2_778
10
19.6527467
20
70.1712303
40
12.8780657
50
134.9586885
51
136.31572
0
ARC
8
DEFAULT_255_2_778
10
10.0504152
20
77.1695418
40
0.0942204
50
47.7041979
51
71.4394628
0
ARC
8
DEFAULT_255_2_778
10
9.280805
20
76.1537004
40
1.3683206
50
48.4546838
51
52.4981145
0
ARC
8
DEFAULT_255_2_778
10
7.3660388
20
73.9506793
40
4.2871185
50
47.4352715
51
48.8288871
0
ARC
8
DEFAULT_255_2_778
10
4.5144042
20
70.8465387
40
8.5022706
50
46.0991668
51
47.4315204
0
ARC
8
DEFAULT_255_2_778
10
1.4469946
20
67.648119
40
12.933845
50
45.0930006
51
46.1329631
0
LINE
8
DEFAULT_255_2_778
10
16.0110472
20
14.9942612
11
16.0110472
21
8.9942612
0
LINE
8
DEFAULT_255_2_778
10
16.0110472
20
8.9942612
11
24.0109472
21
8.9942612
0
LINE
8
DEFAULT_255_2_778
10
24.0109472
20
8.9942612
11
24.0109472
21
73.4943612
0
LINE
8
DEFAULT_255_2_778
10
24.0109472
20
73.4943612
11
16.0110472
21
73.4943612
0
LINE
8
DEFAULT_255_2_778
10
16.0110472
20
73.4943612
11
16.0110472
21
14.9944612
0
LINE
8
DEFAULT_255_2_778
10
16.0110472
20
14.9944612
11
24.0109472
21
14.9944612
0
LINE
8
DEFAULT_255_2_778
10
18.0268472
20
18.0231612
11
21.5725472
21
17.2561612
0
LINE
8
DEFAULT_255_2_778
10
22.7840472
20
18.2335612
11
22.7840472
21
70.2326612
0
LINE
8
DEFAULT_255_2_778
10
21.5558472
20
71.2062612
11
18.0101472
21
70.3746612
0
LINE
8
DEFAULT_255_2_778
10
17.2384472
20
69.4010612
11
17.2381472
21
19.0005612
0
LINE
8
DEFAULT_255_2_778
10
16.0110472
20
73.4941612
11
16.0110472
21
79.4943612
0
LINE
8
DEFAULT_255_2_778
10
16.0110472
20
79.4943612
11
24.0109472
21
79.4943612
0
LINE
8
DEFAULT_255_2_778
10
24.0109472
20
79.4943612
11
24.0109472
21
73.4943612
0
LINE
8
DEFAULT_255_2_778
10
19.2611472
20
76.4357612
11
19.2611472
21
76.4357612
0
LINE
8
DEFAULT_255_2_778
10
19.2611472
20
12.0525612
11
19.2611472
21
12.0525612
0
LINE
8
DEFAULT_255_2_778
10
25.7280472
20
70.7768612
11
24.5110472
21
70.7768612
0
LINE
8
DEFAULT_255_2_778
10
24.5110472
20
70.7768612
11
24.5110472
21
79.6573612
0
LINE
8
DEFAULT_255_2_778
10
25.7280472
20
23.1320612
11
24.5110472
21
23.1320612
0
LINE
8
DEFAULT_255_2_778
10
24.5110472
20
23.1320612
11
24.5110472
21
70.7771612
0
LINE
8
DEFAULT_255_2_778
10
24.5110472
20
23.1320612
11
24.5110472
21
8.6574612
0
LINE
8
DEFAULT_255_2_778
10
25.7280472
20
79.6573612
11
15.7281472
21
79.6573612
0
LINE
8
DEFAULT_255_2_778
10
15.2281472
20
80.2071612
11
26.2281472
21
80.2071612
0
LINE
8
DEFAULT_255_2_778
10
15.7281472
20
79.6597612
11
15.7281472
21
74.5291612
0
LINE
8
DEFAULT_255_2_778
10
26.2281472
20
8.1208612
11
15.2281472
21
8.1208612
0
LINE
8
DEFAULT_255_2_778
10
15.7281472
20
14.7203612
11
15.7281472
21
8.6561612
0
LINE
8
DEFAULT_255_2_778
10
15.7281472
20
8.6561612
11
25.7280472
21
8.6574612
0
LINE
8
DEFAULT_255_2_778
10
21.9781472
20
4.2145612
11
21.9781472
21
-0.2309388
0
LINE
8
DEFAULT_255_2_778
10
21.9781472
20
-0.2309388
11
13.4781472
21
-0.2309388
0
LINE
8
DEFAULT_255_2_778
10
13.4781472
20
-0.2309388
11
13.4781472
21
4.2145612
0
LINE
8
DEFAULT_255_2_778
10
21.9781472
20
4.6400612
11
21.9781472
21
4.2145612
0
LINE
8
DEFAULT_255_2_778
10
21.9781472
20
4.2145612
11
13.4781472
21
4.2145612
0
LINE
8
DEFAULT_255_2_778
10
13.4781472
20
4.2145612
11
13.4781472
21
4.6400612
0
LINE
8
DEFAULT_255_2_778
10
13.4781472
20
4.6400612
11
21.9781472
21
4.6400612
0
LINE
8
DEFAULT_255_2_778
10
13.2281472
20
-0.2428388
11
22.2281472
21
-0.2428388
0
LINE
8
DEFAULT_255_2_778
10
21.9781472
20
1.2570612
11
22.2281472
21
1.2570612
0
LINE
8
DEFAULT_255_2_778
10
13.2281472
20
1.2570612
11
13.4781472
21
1.2570612
0
LINE
8
DEFAULT_255_2_778
10
10.0779472
20
78.7587612
11
6.8281472
21
78.7587612
0
LINE
8
DEFAULT_255_2_778
10
10.0779472
20
77.2588612
11
10.0779472
21
78.7614612
0
LINE
8
DEFAULT_255_2_778
10
10.5531472
20
79.2839612
11
10.5780472
21
79.3088612
0
LINE
8
DEFAULT_255_2_778
10
6.3280472
20
79.3088612
11
6.3529472
21
79.2839612
0
LINE
8
DEFAULT_255_2_778
10
6.3529472
20
79.2839612
11
6.8281472
21
78.7614612
0
LINE
8
DEFAULT_255_2_778
10
6.8281472
20
78.7614612
11
6.8281472
21
77.2588612
0
LINE
8
DEFAULT_255_2_778
10
6.3280472
20
76.8085612
11
6.8254472
21
77.2588612
0
LINE
8
DEFAULT_255_2_778
10
6.8254472
20
77.2588612
11
10.0803472
21
77.2588612
0
LINE
8
DEFAULT_255_2_778
10
10.5777472
20
76.8085612
11
6.3280472
21
76.8085612
0
LINE
8
DEFAULT_255_2_778
10
6.3280472
20
76.8085612
11
6.3280472
21
79.3086612
0
LINE
8
DEFAULT_255_2_778
10
6.3280472
20
79.3086612
11
10.5780472
21
79.3086612
0
LINE
8
DEFAULT_255_2_778
10
10.5780472
20
79.3086612
11
10.5780472
21
76.8085612
0
LINE
8
DEFAULT_255_2_778
10
18.2282472
20
88.2573612
11
17.9781472
21
88.2573612
0
LINE
8
DEFAULT_255_2_778
10
9.4781472
20
88.2573612
11
9.2281472
21
88.2573612
0
LINE
8
DEFAULT_255_2_778
10
9.4781472
20
89.7572612
11
9.2281472
21
89.7572612
0
LINE
8
DEFAULT_255_2_778
10
18.2282472
20
89.7572612
11
17.9781472
21
89.7572612
0
LINE
8
DEFAULT_255_2_778
10
17.9781472
20
86.2258612
11
9.4781472
21
86.2258612
0
LINE
8
DEFAULT_255_2_778
10
9.4781472
20
86.2258612
11
9.4781472
21
85.1011612
0
LINE
8
DEFAULT_255_2_778
10
9.4781472
20
85.1011612
11
17.9781472
21
85.1011612
0
LINE
8
DEFAULT_255_2_778
10
17.9781472
20
85.1011612
11
17.9781472
21
89.7588612
0
LINE
8
DEFAULT_255_2_778
10
17.9781472
20
89.7588612
11
9.4781472
21
89.7588612
0
LINE
8
DEFAULT_255_2_778
10
9.4781472
20
89.7588612
11
9.4781472
21
86.2258612
0
ARC
8
DEFAULT_255_2_778
10
4.5294365
20
73.216014
40
0.6848931
50
60.8176109
51
91.1254253
0
ARC
8
DEFAULT_255_2_778
10
4.5704962
20
73.3041844
40
0.587937
50
26.5385939
51
60.1214904
0
ARC
8
DEFAULT_255_2_778
10
4.3840364
20
73.2133899
40
0.79532
50
359.887052
51
26.3885684
0
ARC
8
DEFAULT_255_2_778
10
4.132554
20
73.1948855
40
1.0469379
50
0.2183326
51
0.926927
0
ARC
8
DEFAULT_255_2_778
10
4.3427495
20
73.0889761
40
0.8368487
50
338.4115849
51
0.944798
0
ARC
8
DEFAULT_255_2_778
10
4.4969608
20
73.0383413
40
0.6748937
50
332.7929524
51
337.5916986
0
ARC
8
DEFAULT_255_2_778
10
4.5787208
20
72.9891426
40
0.5797207
50
299.3179603
51
333.4229417
0
ARC
8
DEFAULT_255_2_778
10
4.5177938
20
73.1184922
40
0.7224081
50
270.1832328
51
298.507876
0
ARC
8
DEFAULT_255_2_778
10
4.4974991
20
73.3623252
40
0.9665017
50
270.5919534
51
271.340177
0
ARC
8
DEFAULT_255_2_778
10
4.5122105
20
73.0731494
40
0.5150573
50
268.4729001
51
296.9382406
0
ARC
8
DEFAULT_255_2_778
10
4.5546734
20
72.9691454
40
0.4032078
50
298.2544041
51
318.2915706
0
ARC
8
DEFAULT_255_2_778
10
4.4761716
20
73.0258278
40
0.4996241
50
319.4286427
51
351.3425247
0
ARC
8
DEFAULT_255_2_778
10
4.1066596
20
73.1015899
40
0.8765421
50
350.0823526
51
0.3585395
0
ARC
8
DEFAULT_255_2_778
10
4.206372
20
73.2076429
40
0.7769173
50
359.0583544
51
16.7830781
0
ARC
8
DEFAULT_255_2_778
10
4.5039272
20
73.2946504
40
0.4669205
50
17.1042586
51
39.7751168
0
ARC
8
DEFAULT_255_2_778
10
4.5488109
20
73.319904
40
0.4163721
50
41.0558685
51
88.6722678
0
ARC
8
DEFAULT_255_2_778
10
4.5150051
20
73.081112
40
0.6564921
50
86.2047868
51
89.4606942
0
LINE
8
DEFAULT_255_2_778
10
4.5077844
20
72.396075
11
4.0912844
21
72.396075
0
LINE
8
DEFAULT_255_2_778
10
4.0912844
20
72.396075
11
4.0912844
21
73.900775
0
LINE
8
DEFAULT_255_2_778
10
4.0912844
20
73.900775
11
4.5159844
21
73.900775
0
LINE
8
DEFAULT_255_2_778
10
5.1794844
20
73.198875
11
5.1794844
21
73.102775
0
LINE
8
DEFAULT_255_2_778
10
4.5074844
20
72.395875
11
4.5077844
21
72.396075
0
LINE
8
DEFAULT_255_2_778
10
4.5211844
20
73.737575
11
4.2896844
21
73.737575
0
LINE
8
DEFAULT_255_2_778
10
4.2896844
20
73.737575
11
4.2896844
21
72.558275
0
LINE
8
DEFAULT_255_2_778
10
4.2896844
20
72.558275
11
4.4984844
21
72.558275
0
LINE
8
DEFAULT_255_2_778
10
4.9831844
20
73.107075
11
4.9831844
21
73.194875
0
LINE
8
DEFAULT_255_2_778
10
4.5211844
20
73.737575
11
4.5211844
21
73.737575
0
ARC
8
DEFAULT_255_2_778
10
4.5874858
20
74.3321929
40
1.8292162
50
318.1706035
51
323.5099663
0
ARC
8
DEFAULT_255_2_778
10
5.4878684
20
73.6675747
40
0.7101082
50
323.4199637
51
331.2261412
0
ARC
8
DEFAULT_255_2_778
10
5.7969729
20
73.4973393
40
0.3572266
50
331.2946586
51
359.7790074
0
ARC
8
DEFAULT_255_2_778
10
5.8849064
20
73.5061398
40
0.2694828
50
357.8354195
51
42.7489932
0
ARC
8
DEFAULT_255_2_778
10
5.903643
20
73.5147464
40
0.2499637
50
44.2157001
51
92.555724
0
ARC
8
DEFAULT_255_2_778
10
5.8784713
20
73.4522864
40
0.3124899
50
87.4275177
51
125.1733766
0
ARC
8
DEFAULT_255_2_778
10
5.8474453
20
73.5113331
40
0.2465036
50
127.1850162
51
135.7757917
0
ARC
8
DEFAULT_255_2_778
10
5.8919715
20
73.4808785
40
0.2997951
50
137.5403279
51
180.2665324
0
ARC
8
DEFAULT_255_2_778
10
6.0947516
20
73.4574531
40
0.5030545
50
177.4899888
51
180.0218302
0
ARC
8
DEFAULT_255_2_778
10
5.8441906
20
73.4750847
40
0.4441515
50
134.2444288
51
182.2998303
0
ARC
8
DEFAULT_255_2_778
10
5.8571011
20
73.4446032
40
0.4751475
50
92.3239131
51
132.7949647
0
ARC
8
DEFAULT_255_2_778
10
5.8918308
20
73.1921491
40
0.7292127
50
89.9476648
51
94.2464994
0
ARC
8
DEFAULT_255_2_778
10
5.9057871
20
73.3674745
40
0.5540463
50
66.7301469
51
91.3745215
0
ARC
8
DEFAULT_255_2_778
10
5.9637364
20
73.5217812
40
0.3894747
50
48.0097004
51
65.5935925
0
ARC
8
DEFAULT_255_2_778
10
5.9714944
20
73.534105
40
0.375133
50
357.5947027
51
47.6311366
0
ARC
8
DEFAULT_255_2_778
10
5.8618531
20
73.531358
40
0.4846181
50
333.65666
51
358.4632472
0
ARC
8
DEFAULT_255_2_778
10
5.3573509
20
73.7654614
40
1.0407068
50
322.2954777
51
334.4318791
0
ARC
8
DEFAULT_255_2_778
10
4.7033401
20
74.2525399
40
1.8560935
50
317.1085583
51
322.7468394
0
LINE
8
DEFAULT_255_2_778
10
6.4155969
20
72.5521614
11
6.4155969
21
72.3960614
0
LINE
8
DEFAULT_255_2_778
10
6.4155969
20
72.3960614
11
5.4294969
21
72.3960614
0
LINE
8
DEFAULT_255_2_778
10
5.4294969
20
72.3960614
11
5.4294969
21
72.5336614
0
LINE
8
DEFAULT_255_2_778
10
5.4294969
20
72.5336614
11
5.9504969
21
73.1122614
0
LINE
8
DEFAULT_255_2_778
10
5.5916969
20
73.4572614
11
5.4003969
21
73.4572614
0
LINE
8
DEFAULT_255_2_778
10
6.0631969
20
72.9892614
11
5.6601969
21
72.5521614
0
LINE
8
DEFAULT_255_2_778
10
5.6601969
20
72.5521614
11
6.4155969
21
72.5521614
0
LINE
8
DEFAULT_255_2_778
10
6.4155969
20
72.5521614
11
6.4155969
21
72.5521614
0
ARC
8
DEFAULT_255_2_778
10
7.6317737
20
73.5798483
40
0.3383002
50
268.6303627
51
301.4599818
0
ARC
8
DEFAULT_255_2_778
10
7.6733181
20
73.4956532
40
0.2449469
50
303.4495806
51
311.8327896
0
ARC
8
DEFAULT_255_2_778
10
7.6761319
20
73.4892447
40
0.2383051
50
312.3563777
51
2.6216226
0
ARC
8
DEFAULT_255_2_778
10
7.5984669
20
73.512867
40
0.3159769
50
357.6924622
51
27.2354141
0
ARC
8
DEFAULT_255_2_778
10
7.6933466
20
73.5444495
40
0.2177037
50
31.2761003
51
87.8041481
0
ARC
8
DEFAULT_255_2_778
10
7.651954
20
73.3141678
40
0.4505787
50
83.6628901
51
90.1610452
0
ARC
8
DEFAULT_255_2_778
10
7.6369551
20
73.4914308
40
0.2736587
50
87.1236377
51
132.2976816
0
ARC
8
DEFAULT_255_2_778
10
7.6269272
20
73.5170238
40
0.2481739
50
134.5622844
51
182.4893365
0
ARC
8
DEFAULT_255_2_778
10
7.5711988
20
73.5148295
40
0.3836074
50
131.2264419
51
181.2823247
0
ARC
8
DEFAULT_255_2_778
10
7.6324223
20
73.446619
40
0.475259
50
88.1769214
51
131.3582836
0
ARC
8
DEFAULT_255_2_778
10
7.6506853
20
73.2354002
40
0.6862445
50
89.9998178
51
90.2624565
0
ARC
8
DEFAULT_255_2_778
10
7.6638449
20
73.3654077
40
0.5563926
50
67.3037387
51
91.3550352
0
ARC
8
DEFAULT_255_2_778
10
7.7242792
20
73.5287375
40
0.3824612
50
47.1083743
51
66.2152191
0
ARC
8
DEFAULT_255_2_778
10
7.7114227
20
73.5263557
40
0.3930339
50
0.9482819
51
45.9715116
0
ARC
8
DEFAULT_255_2_778
10
7.4795003
20
73.4960214
40
0.6259873
50
359.9655266
51
3.3737663
0
ARC
8
DEFAULT_255_2_778
10
7.7745823
20
73.5004205
40
0.3309397
50
323.9027373
51
359.1731505
0
ARC
8
DEFAULT_255_2_778
10
7.7270169
20
73.5238934
40
0.3833097
50
291.7391147
51
325.2566605
0
ARC
8
DEFAULT_255_2_778
10
7.7679385
20
72.8126156
40
0.3693219
50
37.5391678
51
74.1209913
0
ARC
8
DEFAULT_255_2_778
10
7.7668858
20
72.8266852
40
0.3617764
50
358.2195264
51
35.670383
0
ARC
8
DEFAULT_255_2_778
10
7.7053338
20
72.7995692
40
0.4234514
50
321.7237735
51
2.1485793
0
ARC
8
DEFAULT_255_2_778
10
7.7307441
20
72.7902924
40
0.3978469
50
311.8513296
51
320.5056252
0
ARC
8
DEFAULT_255_2_778
10
7.680339
20
72.8577368
40
0.4817727
50
270.8897214
51
310.9648981
0
ARC
8
DEFAULT_255_2_778
10
7.6522661
20
73.0958933
40
0.7207486
50
269.9778575
51
272.8274987
0
ARC
8
DEFAULT_255_2_778
10
7.6380599
20
72.9295893
40
0.5546194
50
243.369149
51
271.4389699
0
ARC
8
DEFAULT_255_2_778
10
7.5939742
20
72.8213721
40
0.4382162
50
229.1399873
51
242.1794384
0
ARC
8
DEFAULT_255_2_778
10
7.5551167
20
72.779292
40
0.3809739
50
177.9462787
51
229.4195661
0
ARC
8
DEFAULT_255_2_778
10
7.6127342
20
72.7822704
40
0.2461783
50
177.5148463
51
226.8235865
0
ARC
8
DEFAULT_255_2_778
10
7.6369992
20
72.8251286
40
0.2942658
50
229.088703
51
272.9196059
0
ARC
8
DEFAULT_255_2_778
10
7.6650658
20
72.8563635
40
0.3253816
50
267.6964512
51
299.3358253
0
ARC
8
DEFAULT_255_2_778
10
7.7094069
20
72.7608744
40
0.2205637
50
301.4476526
51
314.4582928
0
ARC
8
DEFAULT_255_2_778
10
7.6694616
20
72.7867172
40
0.2671895
50
316.6914559
51
0.3477521
0
ARC
8
DEFAULT_255_2_778
10
7.4658805
20
72.810924
40
0.4713071
50
357.2533225
51
0.0268337
0
ARC
8
DEFAULT_255_2_778
10
7.6843994
20
72.8269985
40
0.2532847
50
356.4113728
51
47.2012412
0
ARC
8
DEFAULT_255_2_778
10
7.6602991
20
72.7702979
40
0.3119597
50
51.0317064
51
85.8780344
0
ARC
8
DEFAULT_255_2_778
10
7.6181057
20
72.5071811
40
0.5778936
50
83.5800597
51
89.4168273
0
LINE
8
DEFAULT_255_2_778
10
7.0357875
20
73.1133448
11
7.0357875
21
72.9572448
0
LINE
8
DEFAULT_255_2_778
10
7.0357875
20
72.9572448
11
6.5314875
21
72.9572448
0
LINE
8
DEFAULT_255_2_778
10
6.5314875
20
72.9572448
11
6.5314875
21
73.1133448
0
LINE
8
DEFAULT_255_2_778
10
6.5314875
20
73.1133448
11
7.0357875
21
73.1133448
0
LINE
8
DEFAULT_255_2_778
10
7.0357875
20
73.1133448
11
7.0357875
21
73.1133448
0
LINE
8
DEFAULT_255_2_778
10
7.4799875
20
73.0855448
11
7.4799875
21
73.2416448
0
LINE
8
DEFAULT_255_2_778
10
7.4799875
20
73.2416448
11
7.6236875
21
73.2416448
0
LINE
8
DEFAULT_255_2_778
10
7.3789875
20
73.5062448
11
7.1876875
21
73.5062448
0
LINE
8
DEFAULT_255_2_778
10
7.1743875
20
72.7929448
11
7.3667875
21
72.7929448
0
LINE
8
DEFAULT_255_2_778
10
7.6239875
20
73.0850448
11
7.4802875
21
73.0850448
0
LINE
8
DEFAULT_255_2_778
10
7.4802875
20
73.0850448
11
7.4799875
21
73.0855448
0
ARC
8
DEFAULT_255_2_778
10
7.5486858
20
74.3321929
40
1.8292162
50
318.1706035
51
323.5099663
0
ARC
8
DEFAULT_255_2_778
10
8.4490684
20
73.6675747
40
0.7101082
50
323.4199637
51
331.2261412
0
ARC
8
DEFAULT_255_2_778
10
8.7581729
20
73.4973393
40
0.3572266
50
331.2946586
51
359.7790074
0
ARC
8
DEFAULT_255_2_778
10
8.8461064
20
73.5061398
40
0.2694828
50
357.8354195
51
42.7489932
0
ARC
8
DEFAULT_255_2_778
10
8.864843
20
73.5147464
40
0.2499637
50
44.2157001
51
92.555724
0
ARC
8
DEFAULT_255_2_778
10
8.8396713
20
73.4522864
40
0.3124899
50
87.4275177
51
125.1733766
0
ARC
8
DEFAULT_255_2_778
10
8.8086453
20
73.5113331
40
0.2465036
50
127.1850162
51
135.7757917
0
ARC
8
DEFAULT_255_2_778
10
8.8531715
20
73.4808785
40
0.2997951
50
137.5403279
51
180.2665324
0
ARC
8
DEFAULT_255_2_778
10
9.0559516
20
73.4574531
40
0.5030545
50
177.4899888
51
180.0218302
0
ARC
8
DEFAULT_255_2_778
10
8.8053906
20
73.4750847
40
0.4441515
50
134.2444288
51
182.2998303
0
ARC
8
DEFAULT_255_2_778
10
8.8183011
20
73.4446032
40
0.4751475
50
92.3239131
51
132.7949647
0
ARC
8
DEFAULT_255_2_778
10
8.8530308
20
73.1921491
40
0.7292127
50
89.9476648
51
94.2464994
0
ARC
8
DEFAULT_255_2_778
10
8.8669871
20
73.3674745
40
0.5540463
50
66.7301469
51
91.3745215
0
ARC
8
DEFAULT_255_2_778
10
8.9249364
20
73.5217812
40
0.3894747
50
48.0097004
51
65.5935925
0
ARC
8
DEFAULT_255_2_778
10
8.9326944
20
73.534105
40
0.375133
50
357.5947027
51
47.6311366
0
ARC
8
DEFAULT_255_2_778
10
8.8230531
20
73.531358
40
0.4846181
50
333.65666
51
358.4632472
0
ARC
8
DEFAULT_255_2_778
10
8.3185509
20
73.7654614
40
1.0407068
50
322.2954777
51
334.4318791
0
ARC
8
DEFAULT_255_2_778
10
7.6645401
20
74.2525399
40
1.8560935
50
317.1085583
51
322.7468394
0
LINE
8
DEFAULT_255_2_778
10
9.3767969
20
72.5521614
11
9.3767969
21
72.3960614
0
LINE
8
DEFAULT_255_2_778
10
9.3767969
20
72.3960614
11
8.3906969
21
72.3960614
0
LINE
8
DEFAULT_255_2_778
10
8.3906969
20
72.3960614
11
8.3906969
21
72.5336614
0
LINE
8
DEFAULT_255_2_778
10
8.3906969
20
72.5336614
11
8.9116969
21
73.1122614
0
LINE
8
DEFAULT_255_2_778
10
8.5528969
20
73.4572614
11
8.3615969
21
73.4572614
0
LINE
8
DEFAULT_255_2_778
10
9.0243969
20
72.9892614
11
8.6213969
21
72.5521614
0
LINE
8
DEFAULT_255_2_778
10
8.6213969
20
72.5521614
11
9.3767969
21
72.5521614
0
LINE
8
DEFAULT_255_2_778
10
9.3767969
20
72.5521614
11
9.3767969
21
72.5521614
0
LINE
8
DEFAULT_255_2_778
10
10.6684813
20
73.9010427
11
10.6684813
21
73.7378427
0
LINE
8
DEFAULT_255_2_778
10
10.6684813
20
73.7378427
11
10.1848813
21
73.7378427
0
LINE
8
DEFAULT_255_2_778
10
10.1848813
20
73.7378427
11
10.1848813
21
72.3963427
0
LINE
8
DEFAULT_255_2_778
10
10.1848813
20
72.3963427
11
9.9874813
21
72.3963427
0
LINE
8
DEFAULT_255_2_778
10
9.9874813
20
72.3963427
11
9.9874813
21
73.7378427
0
LINE
8
DEFAULT_255_2_778
10
9.9874813
20
73.7378427
11
9.5048813
21
73.7378427
0
LINE
8
DEFAULT_255_2_778
10
9.5048813
20
73.7378427
11
9.5048813
21
73.9010427
0
LINE
8
DEFAULT_255_2_778
10
9.5048813
20
73.9010427
11
10.6684813
21
73.9010427
0
LINE
8
DEFAULT_255_2_778
10
10.6684813
20
73.9010427
11
10.6684813
21
73.9010427
0
ARC
8
DEFAULT_255_2_778
10
11.3300365
20
73.216014
40
0.6848931
50
60.8176109
51
91.1254253
0
ARC
8
DEFAULT_255_2_778
10
11.3710962
20
73.3041844
40
0.587937
50
26.5385939
51
60.1214904
0
ARC
8
DEFAULT_255_2_778
10
11.1846364
20
73.2133899
40
0.79532
50
359.887052
51
26.3885684
0
ARC
8
DEFAULT_255_2_778
10
10.933154
20
73.1948855
40
1.0469379
50
0.2183326
51
0.926927
0
ARC
8
DEFAULT_255_2_778
10
11.1433495
20
73.0889761
40
0.8368487
50
338.4115849
51
0.944798
0
ARC
8
DEFAULT_255_2_778
10
11.2975608
20
73.0383413
40
0.6748937
50
332.7929524
51
337.5916986
0
ARC
8
DEFAULT_255_2_778
10
11.3793208
20
72.9891426
40
0.5797207
50
299.3179603
51
333.4229417
0
ARC
8
DEFAULT_255_2_778
10
11.3183938
20
73.1184922
40
0.7224081
50
270.1832328
51
298.507876
0
ARC
8
DEFAULT_255_2_778
10
11.2980991
20
73.3623252
40
0.9665017
50
270.5919534
51
271.340177
0
ARC
8
DEFAULT_255_2_778
10
11.3128105
20
73.0731494
40
0.5150573
50
268.4729001
51
296.9382406
0
ARC
8
DEFAULT_255_2_778
10
11.3552734
20
72.9691454
40
0.4032078
50
298.2544041
51
318.2915706
0
ARC
8
DEFAULT_255_2_778
10
11.2767716
20
73.0258278
40
0.4996241
50
319.4286427
51
351.3425247
0
ARC
8
DEFAULT_255_2_778
10
10.9072596
20
73.1015899
40
0.8765421
50
350.0823526
51
0.3585395
0
ARC
8
DEFAULT_255_2_778
10
11.006972
20
73.2076429
40
0.7769173
50
359.0583544
51
16.7830781
0
ARC
8
DEFAULT_255_2_778
10
11.3045272
20
73.2946504
40
0.4669205
50
17.1042586
51
39.7751168
0
ARC
8
DEFAULT_255_2_778
10
11.3494109
20
73.319904
40
0.4163721
50
41.0558685
51
88.6722678
0
ARC
8
DEFAULT_255_2_778
10
11.3156051
20
73.081112
40
0.6564921
50
86.2047868
51
89.4606942
0
LINE
8
DEFAULT_255_2_778
10
11.3083844
20
72.396075
11
10.8918844
21
72.396075
0
LINE
8
DEFAULT_255_2_778
10
10.8918844
20
72.396075
11
10.8918844
21
73.900775
0
LINE
8
DEFAULT_255_2_778
10
10.8918844
20
73.900775
11
11.3165844
21
73.900775
0
LINE
8
DEFAULT_255_2_778
10
11.9800844
20
73.198875
11
11.9800844
21
73.102775
0
LINE
8
DEFAULT_255_2_778
10
11.3080844
20
72.395875
11
11.3083844
21
72.396075
0
LINE
8
DEFAULT_255_2_778
10
11.3217844
20
73.737575
11
11.0902844
21
73.737575
0
LINE
8
DEFAULT_255_2_778
10
11.0902844
20
73.737575
11
11.0902844
21
72.558275
0
LINE
8
DEFAULT_255_2_778
10
11.0902844
20
72.558275
11
11.2990844
21
72.558275
0
LINE
8
DEFAULT_255_2_778
10
11.7837844
20
73.107075
11
11.7837844
21
73.194875
0
LINE
8
DEFAULT_255_2_778
10
11.3217844
20
73.737575
11
11.3217844
21
73.737575
0
ARC
8
DEFAULT_255_2_778
10
11.3880858
20
74.3321929
40
1.8292162
50
318.1706035
51
323.5099663
0
ARC
8
DEFAULT_255_2_778
10
12.2884684
20
73.6675747
40
0.7101082
50
323.4199637
51
331.2261412
0
ARC
8
DEFAULT_255_2_778
10
12.5975729
20
73.4973393
40
0.3572266
50
331.2946586
51
359.7790074
0
ARC
8
DEFAULT_255_2_778
10
12.6855064
20
73.5061398
40
0.2694828
50
357.8354195
51
42.7489932
0
ARC
8
DEFAULT_255_2_778
10
12.704243
20
73.5147464
40
0.2499637
50
44.2157001
51
92.555724
0
ARC
8
DEFAULT_255_2_778
10
12.6790713
20
73.4522864
40
0.3124899
50
87.4275177
51
125.1733766
0
ARC
8
DEFAULT_255_2_778
10
12.6480453
20
73.5113331
40
0.2465036
50
127.1850162
51
135.7757917
0
ARC
8
DEFAULT_255_2_778
10
12.6925715
20
73.4808785
40
0.2997951
50
137.5403279
51
180.2665324
0
ARC
8
DEFAULT_255_2_778
10
12.8953516
20
73.4574531
40
0.5030545
50
177.4899888
51
180.0218302
0
ARC
8
DEFAULT_255_2_778
10
12.6447906
20
73.4750847
40
0.4441515
50
134.2444288
51
182.2998303
0
ARC
8
DEFAULT_255_2_778
10
12.6577011
20
73.4446032
40
0.4751475
50
92.3239131
51
132.7949647
0
ARC
8
DEFAULT_255_2_778
10
12.6924308
20
73.1921491
40
0.7292127
50
89.9476648
51
94.2464994
0
ARC
8
DEFAULT_255_2_778
10
12.7063871
20
73.3674745
40
0.5540463
50
66.7301469
51
91.3745215
0
ARC
8
DEFAULT_255_2_778
10
12.7643364
20
73.5217812
40
0.3894747
50
48.0097004
51
65.5935925
0
ARC
8
DEFAULT_255_2_778
10
12.7720944
20
73.534105
40
0.375133
50
357.5947027
51
47.6311366
0
ARC
8
DEFAULT_255_2_778
10
12.6624531
20
73.531358
40
0.4846181
50
333.65666
51
358.4632472
0
ARC
8
DEFAULT_255_2_778
10
12.1579509
20
73.7654614
40
1.0407068
50
322.2954777
51
334.4318791
0
ARC
8
DEFAULT_255_2_778
10
11.5039401
20
74.2525399
40
1.8560935
50
317.1085583
51
322.7468394
0
LINE
8
DEFAULT_255_2_778
10
13.2161969
20
72.5521614
11
13.2161969
21
72.3960614
0
LINE
8
DEFAULT_255_2_778
10
13.2161969
20
72.3960614
11
12.2300969
21
72.3960614
0
LINE
8
DEFAULT_255_2_778
10
12.2300969
20
72.3960614
11
12.2300969
21
72.5336614
0
LINE
8
DEFAULT_255_2_778
10
12.2300969
20
72.5336614
11
12.7510969
21
73.1122614
0
LINE
8
DEFAULT_255_2_778
10
12.3922969
20
73.4572614
11
12.2009969
21
73.4572614
0
LINE
8
DEFAULT_255_2_778
10
12.8637969
20
72.9892614
11
12.4607969
21
72.5521614
0
LINE
8
DEFAULT_255_2_778
10
12.4607969
20
72.5521614
11
13.2161969
21
72.5521614
0
LINE
8
DEFAULT_255_2_778
10
13.2161969
20
72.5521614
11
13.2161969
21
72.5521614
0
ARC
8
DEFAULT_255_2_778
10
30.7053825
20
14.7924973
40
0.0287961
50
269.609202
51
322.2334808
0
ARC
8
DEFAULT_255_2_778
10
30.5613788
20
15.4435114
40
0.6948537
50
275.3835841
51
281.9442912
0
ARC
8
DEFAULT_255_2_778
10
30.2911709
20
17.9173935
40
3.1833891
50
273.8629804
51
276.0478962
0
ARC
8
DEFAULT_255_2_778
10
29.9785577
20
22.3277492
40
7.6047999
50
272.9184703
51
273.9742931
0
ARC
8
DEFAULT_255_2_778
10
29.6190283
20
29.3684362
40
14.6546605
50
272.0320358
51
272.9207666
0
ARC
8
DEFAULT_255_2_778
10
29.2356874
20
39.9997047
40
25.2928371
50
271.3769706
51
272.0459294
0
ARC
8
DEFAULT_255_2_778
10
28.9308239
20
52.519922
40
37.8167651
50
270.8014651
51
271.382895
0
ARC
8
DEFAULT_255_2_778
10
28.7766182
20
63.015248
40
48.313222
50
270.3906399
51
270.8102227
0
ARC
8
DEFAULT_255_2_778
10
28.7305214
20
69.4424752
40
54.7406141
50
269.997514
51
270.3930216
0
ARC
8
DEFAULT_255_2_778
10
1.7329495
20
80.8830259
40
5.1934526
50
89.998044
51
106.8441467
0
ARC
8
DEFAULT_255_2_778
10
1.7331217
20
80.8791995
40
5.1972788
50
88.1027888
51
89.9999438
0
ARC
8
DEFAULT_255_2_778
10
1.7330706
20
80.877979
40
5.1985004
50
84.5363008
51
88.102671
0
ARC
8
DEFAULT_255_2_778
10
2.2252666
20
34.6927232
40
39.8616381
50
89.9960046
51
90.5768302
0
ARC
8
DEFAULT_255_2_778
10
2.1763007
20
39.4607512
40
35.0933587
50
90.5752602
51
91.1152789
0
ARC
8
DEFAULT_255_2_778
10
2.0212038
20
47.082601
40
27.4699349
50
91.1012722
51
91.920085
0
ARC
8
DEFAULT_255_2_778
10
1.7189279
20
56.0723259
40
18.4751296
50
91.9172919
51
92.7754169
0
ARC
8
DEFAULT_255_2_778
10
1.3368862
20
63.8315742
40
10.7064855
50
92.7439433
51
94.0398046
0
ARC
8
DEFAULT_255_2_778
10
0.9193502
20
69.6713589
40
4.851798
50
93.97971
51
96.0390014
0
ARC
8
DEFAULT_255_2_778
10
0.5635931
20
72.9698637
40
1.5341857
50
95.7864588
51
100.1321788
0
ARC
8
DEFAULT_255_2_778
10
0.3234321
20
74.2681675
40
0.2140309
50
97.9851432
51
114.2097975
0
ARC
8
DEFAULT_255_2_778
10
0.2397857
20
74.4521134
40
0.0119921
50
110.1101058
51
168.2215971
0
ARC
8
DEFAULT_255_2_778
10
0.2508136
20
14.7930986
40
0.0287998
50
217.7640541
51
270.3835155
0
ARC
8
DEFAULT_255_2_778
10
0.394879
20
15.4440759
40
0.6948349
50
258.0498725
51
264.6108561
0
ARC
8
DEFAULT_255_2_778
10
0.6652708
20
17.9174659
40
3.1829011
50
263.9466609
51
266.1319292
0
ARC
8
DEFAULT_255_2_778
10
0.9781133
20
22.3254584
40
7.6019707
50
266.0206104
51
267.0768314
0
ARC
8
DEFAULT_255_2_778
10
1.3377776
20
29.3578545
40
14.643558
50
267.0746141
51
267.9640216
0
ARC
8
DEFAULT_255_2_778
10
1.7208984
20
39.96132
40
25.2539417
50
267.9500252
51
268.6200156
0
ARC
8
DEFAULT_255_2_778
10
2.0257936
20
52.4519264
40
37.7482684
50
268.61395
51
269.1964354
0
ARC
8
DEFAULT_255_2_778
10
2.1798505
20
62.9120859
40
48.2095604
50
269.1877068
51
269.6081919
0
ARC
8
DEFAULT_255_2_778
10
2.2256915
20
69.2878884
40
54.5855274
50
269.6058403
51
270.0024717
0
ARC
8
DEFAULT_255_2_778
10
29.223243
20
80.8830259
40
5.1934526
50
73.1558533
51
90.001956
0
ARC
8
DEFAULT_255_2_778
10
29.2230708
20
80.8791995
40
5.1972788
50
90.0000562
51
91.8972112
0
ARC
8
DEFAULT_255_2_778
10
29.2231219
20
80.877979
40
5.1985004
50
91.897329
51
95.4636992
0
ARC
8
DEFAULT_255_2_778
10
25.7487896
20
74.5040746
40
0.0325519
50
87.0568811
51
129.5863307
0
ARC
8
DEFAULT_255_2_778
10
25.871064
20
73.6883442
40
0.8567702
50
93.4109779
51
98.0920995
0
ARC
8
DEFAULT_255_2_778
10
26.0581439
20
70.9601418
40
3.5913532
50
91.8140778
51
93.8006825
0
ARC
8
DEFAULT_255_2_778
10
26.2035607
20
66.6509172
40
7.9030264
50
90.3837084
51
91.8788164
0
ARC
8
DEFAULT_255_2_778
10
26.2278026
20
64.4473714
40
10.1066898
50
89.9980519
51
90.4374763
0
ARC
8
DEFAULT_255_2_778
10
26.2217335
20
26.9215574
40
12.2193979
50
268.9106038
51
270.030069
0
ARC
8
DEFAULT_255_2_778
10
26.1006299
20
20.8388646
40
6.1355044
50
267.5485472
51
268.961359
0
ARC
8
DEFAULT_255_2_778
10
25.8942593
20
16.1883513
40
1.4804378
50
264.5563952
51
267.8297531
0
ARC
8
DEFAULT_255_2_778
10
25.751158
20
14.7631408
40
0.0486234
50
241.6197583
51
273.1337593
0
ARC
8
DEFAULT_255_2_778
10
15.6811458
20
79.6483266
40
0.0483806
50
13.7172862
51
39.033343
0
ARC
8
DEFAULT_255_2_778
10
15.0923931
20
79.2374778
40
0.7661953
50
35.1686965
51
41.0067641
0
ARC
8
DEFAULT_255_2_778
10
13.161131
20
77.6058415
40
3.2943784
50
40.3822264
51
42.3055478
0
ARC
8
DEFAULT_255_2_778
10
9.9220273
20
74.6649496
40
7.6693785
50
42.2666564
51
43.705732
0
ARC
8
DEFAULT_255_2_778
10
6.114258
20
71.0338242
40
12.9309522
50
43.678868
51
45.0305441
0
ARC
8
DEFAULT_255_2_778
10
15.7074029
20
74.5040746
40
0.0325519
50
50.4136693
51
92.9431189
0
ARC
8
DEFAULT_255_2_778
10
15.5851285
20
73.6883442
40
0.8567702
50
81.9079005
51
86.5890221
0
ARC
8
DEFAULT_255_2_778
10
15.3980486
20
70.9601418
40
3.5913532
50
86.1993175
51
88.1859222
0
ARC
8
DEFAULT_255_2_778
10
15.2526318
20
66.6509172
40
7.9030264
50
88.1211836
51
89.6162916
0
ARC
8
DEFAULT_255_2_778
10
15.2283899
20
64.4473714
40
10.1066898
50
89.5625237
51
90.0019481
0
ARC
8
DEFAULT_255_2_778
10
30.6959521
20
74.4338941
40
0.0380958
50
32.3188738
51
88.391713
0
ARC
8
DEFAULT_255_2_778
10
30.5273722
20
73.8043613
40
0.6888314
50
75.7421972
51
82.9010661
0
ARC
8
DEFAULT_255_2_778
10
30.2488143
20
71.8047768
40
2.7076712
50
82.2808825
51
84.928588
0
ARC
8
DEFAULT_255_2_778
10
29.9367568
20
68.4350902
40
6.0917653
50
84.8066498
51
86.1398637
0
ARC
8
DEFAULT_255_2_778
10
29.5844897
20
63.217316
40
11.3214173
50
86.1388439
51
87.289577
0
ARC
8
DEFAULT_255_2_778
10
29.213701
20
55.5015584
40
19.0460779
50
87.2730017
51
88.1548156
0
ARC
8
DEFAULT_255_2_778
10
28.9213144
20
46.5365431
40
28.0158594
50
88.1475133
51
88.9226645
0
ARC
8
DEFAULT_255_2_778
10
28.77409
20
39.07087
40
35.4829815
50
88.911637
51
89.4742438
0
ARC
8
DEFAULT_255_2_778
10
28.7304264
20
34.5362831
40
40.0177782
50
89.4713056
51
90.0032646
0
ARC
8
DEFAULT_255_2_778
10
2.228062
20
87.7588883
40
1.9999729
50
90.000451
51
135.0008677
0
ARC
8
DEFAULT_255_2_778
10
2.2280185
20
87.7588455
40
1.9999723
50
134.9991175
51
179.9995477
0
ARC
8
DEFAULT_255_2_778
10
28.7281751
20
87.7588461
40
1.9999712
50
0.0004326
51
45.0008894
0
ARC
8
DEFAULT_255_2_778
10
28.7281308
20
87.7588891
40
1.999972
50
44.9991231
51
89.9995579
0
ARC
8
DEFAULT_255_2_778
10
12.9915093
20
5.0194981
40
0.2499631
50
89.9915343
51
180.0084427
0
ARC
8
DEFAULT_255_2_778
10
22.6081619
20
5.0194769
40
0.2499844
50
359.9964126
51
90.0265126
0
LINE
8
DEFAULT_255_2_778
10
30.7281463
20
4.4627612
11
30.7281463
21
14.7748612
0
LINE
8
DEFAULT_255_2_778
10
28.7281463
20
14.7018612
11
28.7281463
21
4.2293612
0
LINE
8
DEFAULT_255_2_778
10
28.7281463
20
4.2293612
11
29.3726463
21
4.2407612
0
LINE
8
DEFAULT_255_2_778
10
29.3726463
20
4.2407612
11
29.7296463
21
4.2590612
0
LINE
8
DEFAULT_255_2_778
10
29.7296463
20
4.2590612
11
30.0497463
21
4.2849612
0
LINE
8
DEFAULT_255_2_778
10
30.0497463
20
4.2849612
11
30.3265463
21
4.3166612
0
LINE
8
DEFAULT_255_2_778
10
30.3265463
20
4.3166612
11
30.4754463
21
4.3423612
0
LINE
8
DEFAULT_255_2_778
10
30.4754463
20
4.3423612
11
30.6749463
21
4.3989612
0
LINE
8
DEFAULT_255_2_778
10
30.6749463
20
4.3989612
11
30.7278463
21
4.4307612
0
LINE
8
DEFAULT_255_2_778
10
30.7278463
20
4.4307612
11
30.7278463
21
4.4624612
0
LINE
8
DEFAULT_255_2_778
10
30.7278463
20
4.4624612
11
30.7278463
21
1.4967612
0
LINE
8
DEFAULT_255_2_778
10
30.7278463
20
1.4967612
11
30.6749463
21
1.2308612
0
LINE
8
DEFAULT_255_2_778
10
30.6749463
20
1.2308612
11
30.4754463
21
0.7501612
0
LINE
8
DEFAULT_255_2_778
10
30.4754463
20
0.7501612
11
30.3265463
21
0.5270612
0
LINE
8
DEFAULT_255_2_778
10
30.3265463
20
0.5270612
11
30.0497463
21
0.2505612
0
LINE
8
DEFAULT_255_2_778
10
30.0497463
20
0.2505612
11
29.9468463
21
0.1661612
0
LINE
8
DEFAULT_255_2_778
10
29.9468463
20
0.1661612
11
29.7293463
21
0.0211612
0
LINE
8
DEFAULT_255_2_778
10
29.7293463
20
0.0211612
11
29.6145463
21
-0.0402388
0
LINE
8
DEFAULT_255_2_778
10
29.6145463
20
-0.0402388
11
29.3724463
21
-0.1404388
0
LINE
8
DEFAULT_255_2_778
10
29.3724463
20
-0.1404388
11
29.2454463
21
-0.1788388
0
LINE
8
DEFAULT_255_2_778
10
29.2454463
20
-0.1788388
11
28.9898463
21
-0.2296388
0
LINE
8
DEFAULT_255_2_778
10
28.9898463
20
-0.2296388
11
28.8599463
21
-0.2426388
0
LINE
8
DEFAULT_255_2_778
10
28.8599463
20
-0.2426388
11
28.7279463
21
-0.2426388
0
LINE
8
DEFAULT_255_2_778
10
28.7279463
20
-0.2426388
11
28.7279463
21
4.2296612
0
LINE
8
DEFAULT_255_2_778
10
28.7279463
20
4.2296612
11
22.2281463
21
4.2296612
0
LINE
8
DEFAULT_255_2_778
10
22.2281463
20
4.2296612
11
22.2281463
21
4.7574612
0
LINE
8
DEFAULT_255_2_778
10
22.2281463
20
4.7574612
11
13.2280463
21
4.7574612
0
LINE
8
DEFAULT_255_2_778
10
13.2280463
20
4.7574612
11
13.2280463
21
4.2296612
0
LINE
8
DEFAULT_255_2_778
10
13.2280463
20
4.2296612
11
2.2280463
21
4.2296612
0
LINE
8
DEFAULT_255_2_778
10
2.2280463
20
4.2296612
11
2.2280463
21
-0.2426388
0
LINE
8
DEFAULT_255_2_778
10
2.2280463
20
-0.2426388
11
2.0960463
21
-0.2426388
0
LINE
8
DEFAULT_255_2_778
10
2.0960463
20
-0.2426388
11
1.9660463
21
-0.2296388
0
LINE
8
DEFAULT_255_2_778
10
1.9660463
20
-0.2296388
11
1.7105463
21
-0.1788388
0
LINE
8
DEFAULT_255_2_778
10
1.7105463
20
-0.1788388
11
1.5835463
21
-0.1404388
0
LINE
8
DEFAULT_255_2_778
10
1.5835463
20
-0.1404388
11
1.3414463
21
-0.0402388
0
LINE
8
DEFAULT_255_2_778
10
1.3414463
20
-0.0402388
11
1.2265463
21
0.0211612
0
LINE
8
DEFAULT_255_2_778
10
1.2265463
20
0.0211612
11
1.0090463
21
0.1661612
0
LINE
8
DEFAULT_255_2_778
10
1.0090463
20
0.1661612
11
0.9061463
21
0.2505612
0
LINE
8
DEFAULT_255_2_778
10
0.9061463
20
0.2505612
11
0.6294463
21
0.5270612
0
LINE
8
DEFAULT_255_2_778
10
0.6294463
20
0.5270612
11
0.4804463
21
0.7501612
0
LINE
8
DEFAULT_255_2_778
10
0.4804463
20
0.7501612
11
0.2809463
21
1.2308612
0
LINE
8
DEFAULT_255_2_778
10
0.2809463
20
1.2308612
11
0.2280463
21
1.4967612
0
LINE
8
DEFAULT_255_2_778
10
0.2280463
20
1.4967612
11
0.2280463
21
4.4624612
0
LINE
8
DEFAULT_255_2_778
10
13.2280463
20
4.2293612
11
13.2280463
21
-0.2428388
0
LINE
8
DEFAULT_255_2_778
10
13.2280463
20
-0.2428388
11
2.2280463
21
-0.2428388
0
LINE
8
DEFAULT_255_2_778
10
28.7279463
20
-0.2428388
11
22.2281463
21
-0.2428388
0
LINE
8
DEFAULT_255_2_778
10
22.2281463
20
-0.2428388
11
22.2281463
21
4.2296612
0
LINE
8
DEFAULT_255_2_778
10
28.7281463
20
89.7588612
11
28.7281463
21
86.0525612
0
LINE
8
DEFAULT_255_2_778
10
28.7281463
20
86.0525612
11
18.2279463
21
86.0525612
0
LINE
8
DEFAULT_255_2_778
10
18.2279463
20
86.0525612
11
18.2279463
21
84.7571612
0
LINE
8
DEFAULT_255_2_778
10
18.2279463
20
84.7571612
11
9.2281463
21
84.7571612
0
LINE
8
DEFAULT_255_2_778
10
9.2281463
20
84.7571612
11
9.2281463
21
86.0525612
0
LINE
8
DEFAULT_255_2_778
10
9.2281463
20
86.0525612
11
2.2280463
21
86.0525612
0
LINE
8
DEFAULT_255_2_778
10
2.2280463
20
86.0525612
11
2.2280463
21
89.7588612
0
LINE
8
DEFAULT_255_2_778
10
0.2280463
20
74.4542612
11
0.2280463
21
85.8536612
0
LINE
8
DEFAULT_255_2_778
10
2.2280463
20
86.0528612
11
2.2280463
21
74.5543612
0
LINE
8
DEFAULT_255_2_778
10
0.2280463
20
74.4545612
11
0.2280463
21
74.4545612
0
LINE
8
DEFAULT_255_2_778
10
0.2280463
20
74.4545612
11
0.2280463
21
14.7754612
0
LINE
8
DEFAULT_255_2_778
10
2.2280463
20
14.7023612
11
2.2280463
21
14.7023612
0
LINE
8
DEFAULT_255_2_778
10
2.2280463
20
14.7023612
11
2.2280463
21
4.2299612
0
LINE
8
DEFAULT_255_2_778
10
2.2280463
20
4.2299612
11
1.5835463
21
4.2412612
0
LINE
8
DEFAULT_255_2_778
10
1.5835463
20
4.2412612
11
1.2265463
21
4.2595612
0
LINE
8
DEFAULT_255_2_778
10
1.2265463
20
4.2595612
11
0.9064463
21
4.2854612
0
LINE
8
DEFAULT_255_2_778
10
0.9064463
20
4.2854612
11
0.6296463
21
4.3172612
0
LINE
8
DEFAULT_255_2_778
10
0.6296463
20
4.3172612
11
0.4807463
21
4.3428612
0
LINE
8
DEFAULT_255_2_778
10
0.4807463
20
4.3428612
11
0.2812463
21
4.3995612
0
LINE
8
DEFAULT_255_2_778
10
0.2812463
20
4.3995612
11
0.2283463
21
4.4312612
0
LINE
8
DEFAULT_255_2_778
10
0.2283463
20
4.4312612
11
0.2283463
21
14.7754612
0
LINE
8
DEFAULT_255_2_778
10
30.7281463
20
74.4542612
11
30.7281463
21
85.8536612
0
LINE
8
DEFAULT_255_2_778
10
28.7281463
20
86.0528612
11
28.7281463
21
74.5543612
0
LINE
8
DEFAULT_255_2_778
10
28.7281463
20
74.5543612
11
26.2281463
21
74.5543612
0
LINE
8
DEFAULT_255_2_778
10
26.2281463
20
74.5543612
11
26.2281463
21
80.2071612
0
LINE
8
DEFAULT_255_2_778
10
26.2281463
20
80.2071612
11
26.2032463
21
80.1822612
0
LINE
8
DEFAULT_255_2_778
10
26.2032463
20
80.1822612
11
25.7280463
21
79.6597612
0
LINE
8
DEFAULT_255_2_778
10
25.7280463
20
79.6597612
11
25.7280463
21
74.5291612
0
LINE
8
DEFAULT_255_2_778
10
25.7280463
20
74.5291612
11
25.7280463
21
74.5291612
0
LINE
8
DEFAULT_255_2_778
10
26.2281463
20
74.5540612
11
26.2281463
21
14.7021612
0
LINE
8
DEFAULT_255_2_778
10
26.2281463
20
14.7021612
11
26.2281463
21
14.7021612
0
LINE
8
DEFAULT_255_2_778
10
25.7280463
20
14.7203612
11
25.7280463
21
74.5291612
0
LINE
8
DEFAULT_255_2_778
10
15.2529463
20
80.1822612
11
15.2280463
21
80.2071612
0
LINE
8
DEFAULT_255_2_778
10
15.2280463
20
80.2071612
11
15.2280463
21
14.7021612
0
LINE
8
DEFAULT_255_2_778
10
15.2280463
20
14.7021612
11
15.7281463
21
14.7203612
0
LINE
8
DEFAULT_255_2_778
10
15.7281463
20
14.7203612
11
15.7281463
21
14.7203612
0
LINE
8
DEFAULT_255_2_778
10
15.7281463
20
14.7203612
11
15.7281463
21
74.5291612
0
LINE
8
DEFAULT_255_2_778
10
15.2280463
20
74.5540612
11
2.2280463
21
74.5540612
0
LINE
8
DEFAULT_255_2_778
10
2.2280463
20
74.5540612
11
2.2280463
21
14.7021612
0
LINE
8
DEFAULT_255_2_778
10
2.2280463
20
14.7021612
11
15.2280463
21
14.7021612
0
LINE
8
DEFAULT_255_2_778
10
15.2280463
20
14.7021612
11
15.2280463
21
8.1208612
0
LINE
8
DEFAULT_255_2_778
10
15.2280463
20
8.1208612
11
15.2463463
21
8.1391612
0
LINE
8
DEFAULT_255_2_778
10
15.2463463
20
8.1391612
11
15.7281463
21
8.6561612
0
LINE
8
DEFAULT_255_2_778
10
30.7281463
20
14.7751612
11
30.7281463
21
74.4542612
0
LINE
8
DEFAULT_255_2_778
10
28.7281463
20
74.5540612
11
28.7281463
21
14.7021612
0
LINE
8
DEFAULT_255_2_778
10
28.7281463
20
14.7021612
11
26.2281463
21
14.7021612
0
LINE
8
DEFAULT_255_2_778
10
26.2281463
20
14.7021612
11
26.2281463
21
8.1208612
0
LINE
8
DEFAULT_255_2_778
10
26.2281463
20
8.1208612
11
26.2098463
21
8.1391612
0
LINE
8
DEFAULT_255_2_778
10
26.2098463
20
8.1391612
11
25.7280463
21
8.6561612
0
LINE
8
DEFAULT_255_2_778
10
25.7280463
20
8.6561612
11
25.7280463
21
14.7203612
0
LINE
8
DEFAULT_255_2_778
10
9.2281463
20
86.0525612
11
9.2281463
21
89.7588612
0
LINE
8
DEFAULT_255_2_778
10
9.2281463
20
89.7588612
11
2.2280463
21
89.7588612
0
LINE
8
DEFAULT_255_2_778
10
0.2280463
20
87.7588612
11
0.2280463
21
85.8536612
0
LINE
8
DEFAULT_255_2_778
10
30.7281463
20
85.8536612
11
30.7281463
21
87.7588612
0
LINE
8
DEFAULT_255_2_778
10
28.7281463
20
89.7588612
11
18.2281463
21
89.7588612
0
LINE
8
DEFAULT_255_2_778
10
18.2281463
20
89.7588612
11
18.2281463
21
86.0525612
0
LINE
8
DEFAULT_255_2_778
10
22.2281463
20
3.6102612
11
22.2212463
21
3.6102612
0
LINE
8
DEFAULT_255_2_778
10
22.2212463
20
3.6102612
11
22.2212463
21
4.7561612
0
LINE
8
DEFAULT_255_2_778
10
22.2212463
20
4.7561612
11
13.2212463
21
4.7561612
0
LINE
8
DEFAULT_255_2_778
10
13.2212463
20
4.7561612
11
13.2212463
21
3.6102612
0
LINE
8
DEFAULT_255_2_778
10
13.2212463
20
3.6102612
11
1.7279463
21
3.6102612
0
LINE
8
DEFAULT_255_2_778
10
1.7279463
20
3.6102612
11
1.7279463
21
4.1103612
0
LINE
8
DEFAULT_255_2_778
10
1.7279463
20
4.1103612
11
12.7415463
21
4.1103612
0
LINE
8
DEFAULT_255_2_778
10
12.7415463
20
4.1103612
11
12.7415463
21
5.0194612
0
LINE
8
DEFAULT_255_2_778
10
12.9915463
20
5.2694612
11
22.6080463
21
5.2694612
0
LINE
8
DEFAULT_255_2_778
10
22.8581463
20
5.0194612
11
22.8581463
21
4.1103612
0
LINE
8
DEFAULT_255_2_778
10
22.8581463
20
4.1103612
11
29.2282463
21
4.1103612
0
LINE
8
DEFAULT_255_2_778
10
29.2282463
20
4.1103612
11
29.2282463
21
3.6102612
0
LINE
8
DEFAULT_255_2_778
10
29.2282463
20
3.6102612
11
22.2212463
21
3.6102612
0
LINE
8
DEFAULT_255_2_778
10
22.2212463
20
3.6102612
11
22.2212463
21
4.7561612
0
LINE
8
DEFAULT_255_2_778
10
22.2212463
20
4.7561612
11
13.2280463
21
4.7561612
0
ENDSEC
0
EOF