0
SECTION
2
HEADER
9
$MEASUREMENT
70
1
0
ENDSEC
0
SECTION
2
TABLES
0
TABLE
2
LTYPE
0
LTYPE
72
65
70
64
2
CONTINUOUS
3
______
73
0
40
0
0
ENDTAB
0
TABLE
2
LAYER
0
LAYER
2
DEFAULT_255_2_778
70
0
62
255
6
CONTINUOUS
0
ENDTAB
0
ENDSEC
0
SECTION
2
ENTITIES
0
ARC
8
DEFAULT_255_2_778
10
18.2383087
20
19.0007129
40
1.0001615
50
180.0086889
51
257.7939892
0
ARC
8
DEFAULT_255_2_778
10
21.784029
20
18.2339379
40
1.0003858
50
257.7955753
51
265.5833225
0
ARC
8
DEFAULT_255_2_778
10
21.7839105
20
18.2327416
40
0.9991839
50
265.5848129
51
270.0002295
0
ARC
8
DEFAULT_255_2_778
10
21.7838519
20
18.2341189
40
1.0005612
50
270.003584
51
308.8837923
0
ARC
8
DEFAULT_255_2_778
10
21.7839965
20
18.2335793
40
1.0000505
50
308.8967515
51
359.998965
0
ARC
8
DEFAULT_255_2_778
10
21.7840846
20
70.2326272
40
0.9999626
50
0.0019486
51
51.5972191
0
ARC
8
DEFAULT_255_2_778
10
21.7837948
20
70.2320618
40
1.0005857
50
51.6043329
51
89.9938532
0
ARC
8
DEFAULT_255_2_778
10
21.7839015
20
70.2340574
40
0.9985899
50
89.9999614
51
94.1222382
0
ARC
8
DEFAULT_255_2_778
10
21.7839724
20
70.2334447
40
0.9992062
50
94.1237692
51
103.1973895
0
ARC
8
DEFAULT_255_2_778
10
18.238558
20
69.4009825
40
1.0001109
50
103.2020402
51
179.9954871
0
ARC
8
DEFAULT_255_2_778
10
20.5080679
20
76.4386563
40
1.2469241
50
147.4048535
51
180.1330274
0
ARC
8
DEFAULT_255_2_778
10
20.5077206
20
76.4391013
40
1.2463917
50
96.4533485
51
147.4134889
0
ARC
8
DEFAULT_255_2_778
10
20.5107589
20
76.4117727
40
1.2738885
50
89.9870349
51
96.4509854
0
ARC
8
DEFAULT_255_2_778
10
20.5139422
20
76.4387405
40
1.2469241
50
57.4048535
51
90.1330274
0
ARC
8
DEFAULT_255_2_778
10
20.5143872
20
76.4390878
40
1.2463917
50
6.4533485
51
57.4134889
0
ARC
8
DEFAULT_255_2_778
10
20.4870586
20
76.4360495
40
1.2738885
50
359.9870349
51
6.4509854
0
ARC
8
DEFAULT_255_2_778
10
20.5140265
20
76.4328662
40
1.2469241
50
327.4048535
51
0.1330274
0
ARC
8
DEFAULT_255_2_778
10
20.5143737
20
76.4324212
40
1.2463917
50
276.4533485
51
327.4134889
0
ARC
8
DEFAULT_255_2_778
10
20.5113354
20
76.4597498
40
1.2738885
50
269.9870349
51
276.4509854
0
ARC
8
DEFAULT_255_2_778
10
20.5081521
20
76.4327819
40
1.2469241
50
237.4048535
51
270.1330274
0
ARC
8
DEFAULT_255_2_778
10
20.5077071
20
76.4324347
40
1.2463917
50
186.4533485
51
237.4134889
0
ARC
8
DEFAULT_255_2_778
10
20.5350357
20
76.435473
40
1.2738885
50
179.9870349
51
186.4509854
0
ARC
8
DEFAULT_255_2_778
10
20.5080679
20
12.0554563
40
1.2469241
50
147.4048535
51
180.1330274
0
ARC
8
DEFAULT_255_2_778
10
20.5077206
20
12.0559013
40
1.2463917
50
96.4533485
51
147.4134889
0
ARC
8
DEFAULT_255_2_778
10
20.5107589
20
12.0285727
40
1.2738885
50
89.9870349
51
96.4509854
0
ARC
8
DEFAULT_255_2_778
10
20.5139422
20
12.0555405
40
1.2469241
50
57.4048535
51
90.1330274
0
ARC
8
DEFAULT_255_2_778
10
20.5143872
20
12.0558878
40
1.2463917
50
6.4533485
51
57.4134889
0
ARC
8
DEFAULT_255_2_778
10
20.4870586
20
12.0528495
40
1.2738885
50
359.9870349
51
6.4509854
0
ARC
8
DEFAULT_255_2_778
10
20.5140265
20
12.0496662
40
1.2469241
50
327.4048535
51
0.1330274
0
ARC
8
DEFAULT_255_2_778
10
20.5143737
20
12.0492212
40
1.2463917
50
276.4533485
51
327.4134889
0
ARC
8
DEFAULT_255_2_778
10
20.5113354
20
12.0765498
40
1.2738885
50
269.9870349
51
276.4509854
0
ARC
8
DEFAULT_255_2_778
10
20.5081521
20
12.0495819
40
1.2469241
50
237.4048535
51
270.1330274
0
ARC
8
DEFAULT_255_2_778
10
20.5077071
20
12.0492347
40
1.2463917
50
186.4533485
51
237.4134889
0
ARC
8
DEFAULT_255_2_778
10
20.5350357
20
12.052273
40
1.2738885
50
179.9870349
51
186.4509854
0
ARC
8
DEFAULT_255_2_778
10
10.1249909
20
78.7500579
40
0.0484152
50
140.9973558
51
166.3306165
0
ARC
8
DEFAULT_255_2_778
10
10.7121265
20
78.3407054
40
0.7640479
50
138.9985656
51
144.8549479
0
ARC
8
DEFAULT_255_2_778
10
12.6362714
20
76.7155196
40
3.2826313
50
137.6943672
51
139.6247034
0
ARC
8
DEFAULT_255_2_778
10
15.861827
20
73.7869582
40
7.6393123
50
136.2887954
51
137.7334615
0
ARC
8
DEFAULT_255_2_778
10
19.6527467
20
70.1712303
40
12.8780657
50
134.9586885
51
136.31572
0
ARC
8
DEFAULT_255_2_778
10
10.0504152
20
77.1695418
40
0.0942204
50
47.7041979
51
71.4394628
0
ARC
8
DEFAULT_255_2_778
10
9.280805
20
76.1537004
40
1.3683206
50
48.4546838
51
52.4981145
0
ARC
8
DEFAULT_255_2_778
10
7.3660388
20
73.9506793
40
4.2871185
50
47.4352715
51
48.8288871
0
ARC
8
DEFAULT_255_2_778
10
4.5144042
20
70.8465387
40
8.5022706
50
46.0991668
51
47.4315204
0
ARC
8
DEFAULT_255_2_778
10
1.4469946
20
67.648119
40
12.933845
50
45.0930006
51
46.1329631
0
LINE
8
DEFAULT_255_2_778
10
16.0110472
20
14.9942612
11
16.0110472
21
8.9942612
0
LINE
8
DEFAULT_255_2_778
10
16.0110472
20
8.9942612
11
24.0109472
21
8.9942612
0
LINE
8
DEFAULT_255_2_778
10
24.0109472
20
8.9942612
11
24.0109472
21
73.4943612
0
LINE
8
DEFAULT_255_2_778
10
24.0109472
20
73.4943612
11
16.0110472
21
73.4943612
0
LINE
8
DEFAULT_255_2_778
10
16.0110472
20
73.4943612
11
16.0110472
21
14.9944612
0
LINE
8
DEFAULT_255_2_778
10
16.0110472
20
14.9944612
11
24.0109472
21
14.9944612
0
LINE
8
DEFAULT_255_2_778
10
18.0268472
20
18.0231612
11
21.5725472
21
17.2561612
0
LINE
8
DEFAULT_255_2_778
10
22.7840472
20
18.2335612
11
22.7840472
21
70.2326612
0
LINE
8
DEFAULT_255_2_778
10
21.5558472
20
71.2062612
11
18.0101472
21
70.3746612
0
LINE
8
DEFAULT_255_2_778
10
17.2384472
20
69.4010612
11
17.2381472
21
19.0005612
0
LINE
8
DEFAULT_255_2_778
10
16.0110472
20
73.4941612
11
16.0110472
21
79.4943612
0
LINE
8
DEFAULT_255_2_778
10
16.0110472
20
79.4943612
11
24.0109472
21
79.4943612
0
LINE
8
DEFAULT_255_2_778
10
24.0109472
20
79.4943612
11
24.0109472
21
73.4943612
0
LINE
8
DEFAULT_255_2_778
10
19.2611472
20
76.4357612
11
19.2611472
21
76.4357612
0
LINE
8
DEFAULT_255_2_778
10
19.2611472
20
12.0525612
11
19.2611472
21
12.0525612
0
LINE
8
DEFAULT_255_2_778
10
25.7280472
20
70.7768612
11
24.5110472
21
70.7768612
0
LINE
8
DEFAULT_255_2_778
10
24.5110472
20
70.7768612
11
24.5110472
21
79.6573612
0
LINE
8
DEFAULT_255_2_778
10
25.7280472
20
23.1320612
11
24.5110472
21
23.1320612
0
LINE
8
DEFAULT_255_2_778
10
24.5110472
20
23.1320612
11
24.5110472
21
70.7771612
0
LINE
8
DEFAULT_255_2_778
10
24.5110472
20
23.1320612
11
24.5110472
21
8.6574612
0
LINE
8
DEFAULT_255_2_778
10
25.7280472
20
79.6573612
11
15.7281472
21
79.6573612
0
LINE
8
DEFAULT_255_2_778
10
15.2281472
20
80.2071612
11
26.2281472
21
80.2071612
0
LINE
8
DEFAULT_255_2_778
10
15.7281472
20
79.6597612
11
15.7281472
21
74.5291612
0
LINE
8
DEFAULT_255_2_778
10
26.2281472
20
8.1208612
11
15.2281472
21
8.1208612
0
LINE
8
DEFAULT_255_2_778
10
15.7281472
20
14.7203612
11
15.7281472
21
8.6561612
0
LINE
8
DEFAULT_255_2_778
10
15.7281472
20
8.6561612
11
25.7280472
21
8.6574612
0
LINE
8
DEFAULT_255_2_778
10
21.9781472
20
4.2145612
11
21.9781472
21
-0.2309388
0
LINE
8
DEFAULT_255_2_778
10
21.9781472
20
-0.2309388
11
13.4781472
21
-0.2309388
0
LINE
8
DEFAULT_255_2_778
10
13.4781472
20
-0.2309388
11
13.4781472
21
4.2145612
0
LINE
8
DEFAULT_255_2_778
10
21.9781472
20
4.6400612
11
21.9781472
21
4.2145612
0
LINE
8
DEFAULT_255_2_778
10
21.9781472
20
4.2145612
11
13.4781472
21
4.2145612
0
LINE
8
DEFAULT_255_2_778
10
13.4781472
20
4.2145612
11
13.4781472
21
4.6400612
0
LINE
8
DEFAULT_255_2_778
10
13.4781472
20
4.6400612
11
21.9781472
21
4.6400612
0
LINE
8
DEFAULT_255_2_778
10
13.2281472
20
-0.2428388
11
22.2281472
21
-0.2428388
0
LINE
8
DEFAULT_255_2_778
10
21.9781472
20
1.2570612
11
22.2281472
21
1.2570612
0
LINE
8
DEFAULT_255_2_778
10
13.2281472
20
1.2570612
11
13.4781472
21
1.2570612
0
LINE
8
DEFAULT_255_2_778
10
10.0779472
20
78.7587612
11
6.8281472
21
78.7587612
0
LINE
8
DEFAULT_255_2_778
10
10.0779472
20
77.2588612
11
10.0779472
21
78.7614612
0
LINE
8
DEFAULT_255_2_778
10
10.5531472
20
79.2839612
11
10.5780472
21
79.3088612
0
LINE
8
DEFAULT_255_2_778
10
6.3280472
20
79.3088612
11
6.3529472
21
79.2839612
0
LINE
8
DEFAULT_255_2_778
10
6.3529472
20
79.2839612
11
6.8281472
21
78.7614612
0
LINE
8
DEFAULT_255_2_778
10
6.8281472
20
78.7614612
11
6.8281472
21
77.2588612
0
LINE
8
DEFAULT_255_2_778
10
6.3280472
20
76.8085612
11
6.8254472
21
77.2588612
0
LINE
8
DEFAULT_255_2_778
10
6.8254472
20
77.2588612
11
10.0803472
21
77.2588612
0
LINE
8
DEFAULT_255_2_778
10
10.5777472
20
76.8085612
11
6.3280472
21
76.8085612
0
LINE
8
DEFAULT_255_2_778
10
6.3280472
20
76.8085612
11
6.3280472
21
79.3086612
0
LINE
8
DEFAULT_255_2_778
10
6.3280472
20
79.3086612
11
10.5780472
21
79.3086612
0
LINE
8
DEFAULT_255_2_778
10
10.5780472
20
79.3086612
11
10.5780472
21
76.8085612
0
LINE
8
DEFAULT_255_2_778
10
18.2282472
20
88.2573612
11
17.9781472
21
88.2573612
0
LINE
8
DEFAULT_255_2_778
10
9.4781472
20
88.2573612
11
9.2281472
21
88.2573612
0
LINE
8
DEFAULT_255_2_778
10
9.4781472
20
89.7572612
11
9.2281472
21
89.7572612
0
LINE
8
DEFAULT_255_2_778
10
18.2282472
20
89.7572612
11
17.9781472
21
89.7572612
0
LINE
8
DEFAULT_255_2_778
10
17.9781472
20
86.2258612
11
9.4781472
21
86.2258612
0
LINE
8
DEFAULT_255_2_778
10
9.4781472
20
86.2258612
11
9.4781472
21
85.1011612
0
LINE
8
DEFAULT_255_2_778
10
9.4781472
20
85.1011612
11
17.9781472
21
85.1011612
0
LINE
8
DEFAULT_255_2_778
10
17.9781472
20
85.1011612
11
17.9781472
21
89.7588612
0
LINE
8
DEFAULT_255_2_778
10
17.9781472
20
89.7588612
11
9.4781472
21
89.7588612
0
LINE
8
DEFAULT_255_2_778
10
9.4781472
20
89.7588612
11
9.4781472
21
86.2258612
0
ARC
8
DEFAULT_255_2_778
10
4.5295781
20
73.2163327
40
0.6848931
50
60.8176109
51
91.1254253
0
ARC
8
DEFAULT_255_2_778
10
4.5706379
20
73.3045032
40
0.587937
50
26.5385939
51
60.1214904
0
ARC
8
DEFAULT_255_2_778
10
4.3825414
20
73.2124699
40
0.7973368
50
359.969609
51
26.4160346
0
ARC
8
DEFAULT_255_2_778
10
4.1276622
20
73.1935473
40
1.0523784
50
0.3019703
51
1.0072471
0
ARC
8
DEFAULT_255_2_778
10
4.3427522
20
73.0893249
40
0.8373871
50
338.4187151
51
0.9421376
0
ARC
8
DEFAULT_255_2_778
10
4.4965498
20
73.0388547
40
0.6758759
50
332.8076663
51
337.6016544
0
ARC
8
DEFAULT_255_2_778
10
4.5793758
20
72.9895741
40
0.5797146
50
299.2941256
51
333.3991262
0
ARC
8
DEFAULT_255_2_778
10
4.5182248
20
73.1180305
40
0.7217275
50
270.1842543
51
298.5381955
0
ARC
8
DEFAULT_255_2_778
10
4.4980044
20
73.3578683
40
0.9618258
50
270.5910423
51
271.3429036
0
ARC
8
DEFAULT_255_2_778
10
4.5121522
20
73.0734681
40
0.5150573
50
268.4729001
51
296.9382406
0
ARC
8
DEFAULT_255_2_778
10
4.5546151
20
72.9694642
40
0.4032078
50
298.2544041
51
318.2915706
0
ARC
8
DEFAULT_255_2_778
10
4.4753746
20
73.0266004
40
0.5004804
50
319.4441823
51
351.5030831
0
ARC
8
DEFAULT_255_2_778
10
4.1048726
20
73.1019368
40
0.8782696
50
350.2135292
51
0.349476
0
ARC
8
DEFAULT_255_2_778
10
4.2067502
20
73.2079493
40
0.7764807
50
359.0587379
51
16.7877921
0
ARC
8
DEFAULT_255_2_778
10
4.5038527
20
73.2948412
40
0.4669509
50
17.1096142
51
39.7764798
0
ARC
8
DEFAULT_255_2_778
10
4.5489195
20
73.3205246
40
0.4159823
50
41.0292327
51
88.6940272
0
ARC
8
DEFAULT_255_2_778
10
4.5152519
20
73.0821554
40
0.6556648
50
86.2267036
51
89.4866688
0
ARC
8
DEFAULT_255_2_778
10
4.587715
20
74.3325252
40
1.8292162
50
318.1706035
51
323.5099663
0
ARC
8
DEFAULT_255_2_778
10
5.4880976
20
73.667907
40
0.7101082
50
323.4199637
51
331.2261412
0
ARC
8
DEFAULT_255_2_778
10
5.7972021
20
73.4976716
40
0.3572266
50
331.2946586
51
359.7790074
0
ARC
8
DEFAULT_255_2_778
10
5.8851356
20
73.5064721
40
0.2694828
50
357.8354195
51
42.7489932
0
ARC
8
DEFAULT_255_2_778
10
5.9041138
20
73.5156884
40
0.2493655
50
44.1540037
51
92.6174204
0
ARC
8
DEFAULT_255_2_778
10
5.8787005
20
73.4526187
40
0.3124899
50
87.4275177
51
125.1733766
0
ARC
8
DEFAULT_255_2_778
10
5.8476745
20
73.5116654
40
0.2465036
50
127.1850162
51
135.7757917
0
ARC
8
DEFAULT_255_2_778
10
5.8922007
20
73.4812107
40
0.2997951
50
137.5403279
51
180.2665324
0
ARC
8
DEFAULT_255_2_778
10
6.0949808
20
73.4577854
40
0.5030545
50
177.4899888
51
180.0218302
0
ARC
8
DEFAULT_255_2_778
10
5.8444198
20
73.475417
40
0.4441515
50
134.2444288
51
182.2998303
0
ARC
8
DEFAULT_255_2_778
10
5.8573302
20
73.4449355
40
0.4751475
50
92.3239131
51
132.7949647
0
ARC
8
DEFAULT_255_2_778
10
5.89206
20
73.1924814
40
0.7292127
50
89.9476648
51
94.2464994
0
ARC
8
DEFAULT_255_2_778
10
5.9059829
20
73.367224
40
0.5546281
50
66.8145787
51
91.369623
0
ARC
8
DEFAULT_255_2_778
10
5.9641617
20
73.5225396
40
0.3890267
50
47.9891776
51
65.6850238
0
ARC
8
DEFAULT_255_2_778
10
5.9717236
20
73.5344373
40
0.375133
50
357.5947027
51
47.6311366
0
ARC
8
DEFAULT_255_2_778
10
5.8620823
20
73.5316903
40
0.4846181
50
333.65666
51
358.4632472
0
ARC
8
DEFAULT_255_2_778
10
5.3575801
20
73.7657937
40
1.0407068
50
322.2954777
51
334.4318791
0
ARC
8
DEFAULT_255_2_778
10
4.7035693
20
74.2528722
40
1.8560935
50
317.1085583
51
322.7468394
0
LINE
8
DEFAULT_255_2_778
10
4.5077261
20
72.3963937
11
4.0912261
21
72.3963937
0
LINE
8
DEFAULT_255_2_778
10
4.0912261
20
72.3963937
11
4.0912261
21
73.9010937
0
LINE
8
DEFAULT_255_2_778
10
4.0912261
20
73.9010937
11
4.5161261
21
73.9010937
0
LINE
8
DEFAULT_255_2_778
10
5.1800261
20
73.1990937
11
5.1800261
21
73.1030937
0
LINE
8
DEFAULT_255_2_778
10
4.5079261
20
72.3960937
11
4.5077261
21
72.3963937
0
LINE
8
DEFAULT_255_2_778
10
4.5211261
20
73.7377937
11
4.2896261
21
73.7377937
0
LINE
8
DEFAULT_255_2_778
10
4.2896261
20
73.7377937
11
4.2896261
21
72.5585937
0
LINE
8
DEFAULT_255_2_778
10
4.2896261
20
72.5585937
11
4.4984261
21
72.5585937
0
LINE
8
DEFAULT_255_2_778
10
4.9831261
20
73.1072937
11
4.9831261
21
73.1951937
0
LINE
8
DEFAULT_255_2_778
10
4.5211261
20
73.7377937
11
4.5211261
21
73.7377937
0
LINE
8
DEFAULT_255_2_778
10
6.4156261
20
72.5524937
11
6.4156261
21
72.3963937
0
LINE
8
DEFAULT_255_2_778
10
6.4156261
20
72.3963937
11
5.4297261
21
72.3963937
0
LINE
8
DEFAULT_255_2_778
10
5.4297261
20
72.3963937
11
5.4297261
21
72.5336937
0
LINE
8
DEFAULT_255_2_778
10
5.4297261
20
72.5336937
11
5.9507261
21
73.1125937
0
LINE
8
DEFAULT_255_2_778
10
5.5919261
20
73.4575937
11
5.4006261
21
73.4575937
0
LINE
8
DEFAULT_255_2_778
10
6.0634261
20
72.9895937
11
5.6604261
21
72.5524937
0
LINE
8
DEFAULT_255_2_778
10
5.6604261
20
72.5524937
11
6.4158261
21
72.5524937
0
LINE
8
DEFAULT_255_2_778
10
6.4158261
20
72.5524937
11
6.4156261
21
72.5524937
0
LINE
8
DEFAULT_255_2_778
10
7.0357261
20
73.1136937
11
7.0357261
21
72.9575937
0
LINE
8
DEFAULT_255_2_778
10
7.0357261
20
72.9575937
11
6.5315261
21
72.9575937
0
LINE
8
DEFAULT_255_2_778
10
6.5315261
20
72.9575937
11
6.5315261
21
73.1136937
0
LINE
8
DEFAULT_255_2_778
10
6.5315261
20
73.1136937
11
7.0357261
21
73.1136937
0
LINE
8
DEFAULT_255_2_778
10
7.0357261
20
73.1136937
11
7.0357261
21
73.1136937
0
ARC
8
DEFAULT_255_2_778
10
7.631786
20
73.580655
40
0.3388054
50
268.6419525
51
301.413238
0
ARC
8
DEFAULT_255_2_778
10
7.6732272
20
73.4965316
40
0.2455591
50
303.3919223
51
311.7549844
0
ARC
8
DEFAULT_255_2_778
10
7.6760841
20
73.4894988
40
0.2384236
50
312.3683119
51
2.6313522
0
ARC
8
DEFAULT_255_2_778
10
7.5988553
20
73.5131594
40
0.3156572
50
357.6915106
51
27.2546998
0
ARC
8
DEFAULT_255_2_778
10
7.6933666
20
73.5445418
40
0.2178111
50
31.304574
51
87.8136256
0
ARC
8
DEFAULT_255_2_778
10
7.6519217
20
73.3138352
40
0.4511112
50
83.6677934
51
90.1607202
0
ARC
8
DEFAULT_255_2_778
10
7.6369385
20
73.490729
40
0.2745587
50
87.1361363
51
132.1311575
0
ARC
8
DEFAULT_255_2_778
10
7.626896
20
73.5175238
40
0.2481739
50
134.5622844
51
182.4893365
0
ARC
8
DEFAULT_255_2_778
10
7.5711676
20
73.5153295
40
0.3836074
50
131.2264419
51
181.2823247
0
ARC
8
DEFAULT_255_2_778
10
7.632391
20
73.447119
40
0.475259
50
88.1769214
51
131.3582836
0
ARC
8
DEFAULT_255_2_778
10
7.6506541
20
73.2359002
40
0.6862445
50
89.9998178
51
90.2624565
0
ARC
8
DEFAULT_255_2_778
10
7.6637984
20
73.3656363
40
0.5566637
50
67.3094579
51
91.3528091
0
ARC
8
DEFAULT_255_2_778
10
7.7241469
20
73.5287947
40
0.3829225
50
47.1314345
51
66.222894
0
ARC
8
DEFAULT_255_2_778
10
7.7114915
20
73.5268557
40
0.3930339
50
0.9482819
51
45.9715116
0
ARC
8
DEFAULT_255_2_778
10
7.479569
20
73.4965214
40
0.6259873
50
359.9655266
51
3.3737663
0
ARC
8
DEFAULT_255_2_778
10
7.774651
20
73.5009205
40
0.3309397
50
323.9027373
51
359.1731505
0
ARC
8
DEFAULT_255_2_778
10
7.7271735
20
73.5243861
40
0.3832333
50
291.7134392
51
325.2500778
0
ARC
8
DEFAULT_255_2_778
10
7.7677126
20
72.8126037
40
0.3698675
50
37.5742298
51
74.1136828
0
ARC
8
DEFAULT_255_2_778
10
7.7669545
20
72.8271852
40
0.3617764
50
358.2195264
51
35.670383
0
ARC
8
DEFAULT_255_2_778
10
7.7054026
20
72.8000692
40
0.4234514
50
321.7237735
51
2.1485793
0
ARC
8
DEFAULT_255_2_778
10
7.7308128
20
72.7907924
40
0.3978469
50
311.8513296
51
320.5056252
0
ARC
8
DEFAULT_255_2_778
10
7.6804078
20
72.8582368
40
0.4817727
50
270.8897214
51
310.9648981
0
ARC
8
DEFAULT_255_2_778
10
7.6523348
20
73.0963933
40
0.7207486
50
269.9778575
51
272.8274987
0
ARC
8
DEFAULT_255_2_778
10
7.6382233
20
72.9311789
40
0.5557063
50
243.5438564
51
271.4263874
0
ARC
8
DEFAULT_255_2_778
10
7.5939017
20
72.8218361
40
0.4381619
50
229.1409947
51
242.3625098
0
ARC
8
DEFAULT_255_2_778
10
7.5553117
20
72.7797655
40
0.381101
50
177.9429795
51
229.3911443
0
ARC
8
DEFAULT_255_2_778
10
7.612803
20
72.7827704
40
0.2461783
50
177.5148463
51
226.8235865
0
ARC
8
DEFAULT_255_2_778
10
7.6368964
20
72.826473
40
0.2947924
50
229.2213828
51
272.8488375
0
LINE
8
DEFAULT_255_2_778
10
7.6515479
20
72.532045
11
7.6520563
21
72.5320448
0
ARC
8
DEFAULT_255_2_778
10
7.6651948
20
72.8565317
40
0.3247528
50
267.6813446
51
299.519676
0
ARC
8
DEFAULT_255_2_778
10
7.7092675
20
72.7620861
40
0.2210033
50
301.6418872
51
314.4220589
0
ARC
8
DEFAULT_255_2_778
10
7.6706751
20
72.7869053
40
0.265937
50
316.6182135
51
0.0408401
0
ARC
8
DEFAULT_255_2_778
10
7.4681071
20
72.8116736
40
0.4691492
50
356.9969009
51
0.0331197
0
ARC
8
DEFAULT_255_2_778
10
7.6845892
20
72.8277547
40
0.2531612
50
356.4195373
51
47.2126792
0
ARC
8
DEFAULT_255_2_778
10
7.66031
20
72.7712651
40
0.3117884
50
50.9925654
51
85.8768159
0
ARC
8
DEFAULT_255_2_778
10
7.6180758
20
72.5080192
40
0.5778555
50
83.5761314
51
89.4169261
0
LINE
8
DEFAULT_255_2_778
10
7.4800563
20
73.0858448
11
7.4800563
21
73.2419448
0
LINE
8
DEFAULT_255_2_778
10
7.4800563
20
73.2419448
11
7.6237563
21
73.2419448
0
LINE
8
DEFAULT_255_2_778
10
7.3789563
20
73.5067448
11
7.1876563
21
73.5067448
0
LINE
8
DEFAULT_255_2_778
10
7.1744563
20
72.7934448
11
7.3668563
21
72.7934448
0
LINE
8
DEFAULT_255_2_778
10
7.6239563
20
73.0858448
11
7.4803563
21
73.0858448
0
LINE
8
DEFAULT_255_2_778
10
7.4803563
20
73.0858448
11
7.4800563
21
73.0858448
0
ARC
8
DEFAULT_255_2_778
10
7.5487046
20
74.3325252
40
1.8292162
50
318.1706035
51
323.5099663
0
ARC
8
DEFAULT_255_2_778
10
8.4490871
20
73.667907
40
0.7101082
50
323.4199637
51
331.2261412
0
ARC
8
DEFAULT_255_2_778
10
8.7581917
20
73.4976716
40
0.3572266
50
331.2946586
51
359.7790074
0
ARC
8
DEFAULT_255_2_778
10
8.8461252
20
73.5064721
40
0.2694828
50
357.8354195
51
42.7489932
0
ARC
8
DEFAULT_255_2_778
10
8.8648618
20
73.5150787
40
0.2499637
50
44.2157001
51
92.555724
0
ARC
8
DEFAULT_255_2_778
10
8.8396901
20
73.4526187
40
0.3124899
50
87.4275177
51
125.1733766
0
ARC
8
DEFAULT_255_2_778
10
8.8086641
20
73.5116654
40
0.2465036
50
127.1850162
51
135.7757917
0
ARC
8
DEFAULT_255_2_778
10
8.8531903
20
73.4812107
40
0.2997951
50
137.5403279
51
180.2665324
0
ARC
8
DEFAULT_255_2_778
10
9.0559704
20
73.4577854
40
0.5030545
50
177.4899888
51
180.0218302
0
ARC
8
DEFAULT_255_2_778
10
8.8054094
20
73.475417
40
0.4441515
50
134.2444288
51
182.2998303
0
ARC
8
DEFAULT_255_2_778
10
8.8183198
20
73.4449355
40
0.4751475
50
92.3239131
51
132.7949647
0
ARC
8
DEFAULT_255_2_778
10
8.8530496
20
73.1924814
40
0.7292127
50
89.9476648
51
94.2464994
0
ARC
8
DEFAULT_255_2_778
10
8.8670059
20
73.3678068
40
0.5540463
50
66.7301469
51
91.3745215
0
ARC
8
DEFAULT_255_2_778
10
8.9249552
20
73.5221135
40
0.3894747
50
48.0097004
51
65.5935925
0
ARC
8
DEFAULT_255_2_778
10
8.9327132
20
73.5344373
40
0.375133
50
357.5947027
51
47.6311366
0
ARC
8
DEFAULT_255_2_778
10
8.8230719
20
73.5316903
40
0.4846181
50
333.65666
51
358.4632472
0
ARC
8
DEFAULT_255_2_778
10
8.3185697
20
73.7657937
40
1.0407068
50
322.2954777
51
334.4318791
0
ARC
8
DEFAULT_255_2_778
10
7.6645589
20
74.2528722
40
1.8560935
50
317.1085583
51
322.7468394
0
ARC
8
DEFAULT_255_2_778
10
11.5759677
20
73.2163327
40
0.6848931
50
60.8176109
51
91.1254253
0
ARC
8
DEFAULT_255_2_778
10
11.6170275
20
73.3045032
40
0.587937
50
26.5385939
51
60.1214904
0
ARC
8
DEFAULT_255_2_778
10
11.428931
20
73.2124699
40
0.7973368
50
359.969609
51
26.4160346
0
ARC
8
DEFAULT_255_2_778
10
11.1740518
20
73.1935473
40
1.0523784
50
0.3019703
51
1.0072471
0
ARC
8
DEFAULT_255_2_778
10
11.3891418
20
73.0893249
40
0.8373871
50
338.4187151
51
0.9421376
0
ARC
8
DEFAULT_255_2_778
10
11.5429394
20
73.0388547
40
0.6758759
50
332.8076663
51
337.6016544
0
ARC
8
DEFAULT_255_2_778
10
11.6257653
20
72.9895741
40
0.5797146
50
299.2941256
51
333.3991262
0
ARC
8
DEFAULT_255_2_778
10
11.5646143
20
73.1180305
40
0.7217275
50
270.1842543
51
298.5381955
0
ARC
8
DEFAULT_255_2_778
10
11.544394
20
73.3578683
40
0.9618258
50
270.5910423
51
271.3429036
0
ARC
8
DEFAULT_255_2_778
10
11.5588418
20
73.0734681
40
0.5150573
50
268.4729001
51
296.9382406
0
ARC
8
DEFAULT_255_2_778
10
11.6013047
20
72.9694642
40
0.4032078
50
298.2544041
51
318.2915706
0
ARC
8
DEFAULT_255_2_778
10
11.5220642
20
73.0266004
40
0.5004804
50
319.4441823
51
351.5030831
0
ARC
8
DEFAULT_255_2_778
10
11.1515622
20
73.1019368
40
0.8782696
50
350.2135292
51
0.349476
0
ARC
8
DEFAULT_255_2_778
10
11.2534398
20
73.2079493
40
0.7764807
50
359.0587379
51
16.7877921
0
ARC
8
DEFAULT_255_2_778
10
11.5505423
20
73.2948412
40
0.4669509
50
17.1096142
51
39.7764798
0
ARC
8
DEFAULT_255_2_778
10
11.5956091
20
73.3205246
40
0.4159823
50
41.0292327
51
88.6940272
0
ARC
8
DEFAULT_255_2_778
10
11.5619414
20
73.0821554
40
0.6556648
50
86.2267036
51
89.4866688
0
LINE
8
DEFAULT_255_2_778
10
9.3768157
20
72.5524937
11
9.3768157
21
72.3963937
0
LINE
8
DEFAULT_255_2_778
10
9.3768157
20
72.3963937
11
8.3907157
21
72.3963937
0
LINE
8
DEFAULT_255_2_778
10
8.3907157
20
72.3963937
11
8.3907157
21
72.5336937
0
LINE
8
DEFAULT_255_2_778
10
8.3907157
20
72.5336937
11
8.9117157
21
73.1125937
0
LINE
8
DEFAULT_255_2_778
10
8.5529157
20
73.4575937
11
8.3616157
21
73.4575937
0
LINE
8
DEFAULT_255_2_778
10
9.0244157
20
72.9895937
11
8.6214157
21
72.5524937
0
LINE
8
DEFAULT_255_2_778
10
8.6214157
20
72.5524937
11
9.3768157
21
72.5524937
0
LINE
8
DEFAULT_255_2_778
10
9.3768157
20
72.5524937
11
9.3768157
21
72.5524937
0
LINE
8
DEFAULT_255_2_778
10
10.7854157
20
73.9012937
11
10.7854157
21
72.3965937
0
LINE
8
DEFAULT_255_2_778
10
10.7854157
20
72.3965937
11
10.5860157
21
72.3965937
0
LINE
8
DEFAULT_255_2_778
10
10.5860157
20
72.3965937
11
9.8284157
21
73.5562937
0
LINE
8
DEFAULT_255_2_778
10
9.8284157
20
73.5562937
11
9.8284157
21
72.3965937
0
LINE
8
DEFAULT_255_2_778
10
9.8284157
20
72.3965937
11
9.6290157
21
72.3965937
0
LINE
8
DEFAULT_255_2_778
10
9.6290157
20
72.3965937
11
9.6290157
21
73.9012937
0
LINE
8
DEFAULT_255_2_778
10
9.6290157
20
73.9012937
11
9.8284157
21
73.9012937
0
LINE
8
DEFAULT_255_2_778
10
9.8284157
20
73.9012937
11
10.5881157
21
72.7365937
0
LINE
8
DEFAULT_255_2_778
10
10.5881157
20
72.7365937
11
10.5881157
21
73.9012937
0
LINE
8
DEFAULT_255_2_778
10
10.5881157
20
73.9012937
11
10.7854157
21
73.9012937
0
LINE
8
DEFAULT_255_2_778
10
10.7854157
20
73.9012937
11
10.7854157
21
73.9012937
0
LINE
8
DEFAULT_255_2_778
10
11.5543157
20
72.3963937
11
11.1379157
21
72.3963937
0
LINE
8
DEFAULT_255_2_778
10
11.1379157
20
72.3963937
11
11.1379157
21
73.9010937
0
LINE
8
DEFAULT_255_2_778
10
11.1379157
20
73.9010937
11
11.5625157
21
73.9010937
0
LINE
8
DEFAULT_255_2_778
10
12.2264157
20
73.1990937
11
12.2264157
21
73.1030937
0
LINE
8
DEFAULT_255_2_778
10
11.5543157
20
72.3960937
11
11.5543157
21
72.3963937
0
LINE
8
DEFAULT_255_2_778
10
11.5678157
20
73.7377937
11
11.3363157
21
73.7377937
0
LINE
8
DEFAULT_255_2_778
10
11.3363157
20
73.7377937
11
11.3363157
21
72.5585937
0
LINE
8
DEFAULT_255_2_778
10
11.3363157
20
72.5585937
11
11.5451157
21
72.5585937
0
LINE
8
DEFAULT_255_2_778
10
12.0298157
20
73.1072937
11
12.0298157
21
73.1951937
0
LINE
8
DEFAULT_255_2_778
10
11.5678157
20
73.7377937
11
11.5678157
21
73.7377937
0
ARC
8
DEFAULT_255_2_778
10
12.905986
20
73.580655
40
0.3388054
50
268.6419525
51
301.413238
0
ARC
8
DEFAULT_255_2_778
10
12.9474272
20
73.4965316
40
0.2455591
50
303.3919223
51
311.7549844
0
ARC
8
DEFAULT_255_2_778
10
12.9502841
20
73.4894988
40
0.2384236
50
312.3683119
51
2.6313522
0
ARC
8
DEFAULT_255_2_778
10
12.8730553
20
73.5131594
40
0.3156572
50
357.6915106
51
27.2546998
0
ARC
8
DEFAULT_255_2_778
10
12.9675666
20
73.5445418
40
0.2178111
50
31.304574
51
87.8136256
0
ARC
8
DEFAULT_255_2_778
10
12.9261217
20
73.3138352
40
0.4511112
50
83.6677934
51
90.1607202
0
ARC
8
DEFAULT_255_2_778
10
12.9111385
20
73.490729
40
0.2745587
50
87.1361363
51
132.1311575
0
ARC
8
DEFAULT_255_2_778
10
12.901096
20
73.5175238
40
0.2481739
50
134.5622844
51
182.4893365
0
ARC
8
DEFAULT_255_2_778
10
12.8453676
20
73.5153295
40
0.3836074
50
131.2264419
51
181.2823247
0
ARC
8
DEFAULT_255_2_778
10
12.906591
20
73.447119
40
0.475259
50
88.1769214
51
131.3582836
0
ARC
8
DEFAULT_255_2_778
10
12.9248541
20
73.2359002
40
0.6862445
50
89.9998178
51
90.2624565
0
ARC
8
DEFAULT_255_2_778
10
12.9379984
20
73.3656363
40
0.5566637
50
67.3094579
51
91.3528091
0
ARC
8
DEFAULT_255_2_778
10
12.9983469
20
73.5287947
40
0.3829225
50
47.1314345
51
66.222894
0
ARC
8
DEFAULT_255_2_778
10
12.9856915
20
73.5268557
40
0.3930339
50
0.9482819
51
45.9715116
0
ARC
8
DEFAULT_255_2_778
10
12.753769
20
73.4965214
40
0.6259873
50
359.9655266
51
3.3737663
0
ARC
8
DEFAULT_255_2_778
10
13.048851
20
73.5009205
40
0.3309397
50
323.9027373
51
359.1731505
0
ARC
8
DEFAULT_255_2_778
10
13.0013735
20
73.5243861
40
0.3832333
50
291.7134392
51
325.2500778
0
ARC
8
DEFAULT_255_2_778
10
13.0419126
20
72.8126037
40
0.3698675
50
37.5742298
51
74.1136828
0
ARC
8
DEFAULT_255_2_778
10
13.0411545
20
72.8271852
40
0.3617764
50
358.2195264
51
35.670383
0
ARC
8
DEFAULT_255_2_778
10
12.9796026
20
72.8000692
40
0.4234514
50
321.7237735
51
2.1485793
0
ARC
8
DEFAULT_255_2_778
10
13.0050128
20
72.7907924
40
0.3978469
50
311.8513296
51
320.5056252
0
ARC
8
DEFAULT_255_2_778
10
12.9546078
20
72.8582368
40
0.4817727
50
270.8897214
51
310.9648981
0
ARC
8
DEFAULT_255_2_778
10
12.9265348
20
73.0963933
40
0.7207486
50
269.9778575
51
272.8274987
0
ARC
8
DEFAULT_255_2_778
10
12.9124233
20
72.9311789
40
0.5557063
50
243.5438564
51
271.4263874
0
ARC
8
DEFAULT_255_2_778
10
12.8681017
20
72.8218361
40
0.4381619
50
229.1409947
51
242.3625098
0
ARC
8
DEFAULT_255_2_778
10
12.8295117
20
72.7797655
40
0.381101
50
177.9429795
51
229.3911443
0
ARC
8
DEFAULT_255_2_778
10
12.887003
20
72.7827704
40
0.2461783
50
177.5148463
51
226.8235865
0
ARC
8
DEFAULT_255_2_778
10
12.9110964
20
72.826473
40
0.2947924
50
229.2213828
51
272.8488375
0
LINE
8
DEFAULT_255_2_778
10
12.9257479
20
72.532045
11
12.9262563
21
72.5320448
0
ARC
8
DEFAULT_255_2_778
10
12.9393948
20
72.8565317
40
0.3247528
50
267.6813446
51
299.519676
0
ARC
8
DEFAULT_255_2_778
10
12.9834675
20
72.7620861
40
0.2210033
50
301.6418872
51
314.4220589
0
ARC
8
DEFAULT_255_2_778
10
12.9448751
20
72.7869053
40
0.265937
50
316.6182135
51
0.0408401
0
ARC
8
DEFAULT_255_2_778
10
12.7423071
20
72.8116736
40
0.4691492
50
356.9969009
51
0.0331197
0
ARC
8
DEFAULT_255_2_778
10
12.9587892
20
72.8277547
40
0.2531612
50
356.4195373
51
47.2126792
0
ARC
8
DEFAULT_255_2_778
10
12.93451
20
72.7712651
40
0.3117884
50
50.9925654
51
85.8768159
0
ARC
8
DEFAULT_255_2_778
10
12.8922758
20
72.5080192
40
0.5778555
50
83.5761314
51
89.4169261
0
LINE
8
DEFAULT_255_2_778
10
12.7542563
20
73.0858448
11
12.7542563
21
73.2419448
0
LINE
8
DEFAULT_255_2_778
10
12.7542563
20
73.2419448
11
12.8979563
21
73.2419448
0
LINE
8
DEFAULT_255_2_778
10
12.6531563
20
73.5067448
11
12.4618563
21
73.5067448
0
LINE
8
DEFAULT_255_2_778
10
12.4486563
20
72.7934448
11
12.6410563
21
72.7934448
0
LINE
8
DEFAULT_255_2_778
10
12.8981563
20
73.0858448
11
12.7545563
21
73.0858448
0
LINE
8
DEFAULT_255_2_778
10
12.7545563
20
73.0858448
11
12.7542563
21
73.0858448
0
ARC
8
DEFAULT_255_2_778
10
30.7053825
20
14.7924973
40
0.0287961
50
269.609202
51
322.2334808
0
ARC
8
DEFAULT_255_2_778
10
30.5613788
20
15.4435114
40
0.6948537
50
275.3835841
51
281.9442912
0
ARC
8
DEFAULT_255_2_778
10
30.2911709
20
17.9173935
40
3.1833891
50
273.8629804
51
276.0478962
0
ARC
8
DEFAULT_255_2_778
10
29.9785577
20
22.3277492
40
7.6047999
50
272.9184703
51
273.9742931
0
ARC
8
DEFAULT_255_2_778
10
29.6190283
20
29.3684362
40
14.6546605
50
272.0320358
51
272.9207666
0
ARC
8
DEFAULT_255_2_778
10
29.2356874
20
39.9997047
40
25.2928371
50
271.3769706
51
272.0459294
0
ARC
8
DEFAULT_255_2_778
10
28.9308239
20
52.519922
40
37.8167651
50
270.8014651
51
271.382895
0
ARC
8
DEFAULT_255_2_778
10
28.7766182
20
63.015248
40
48.313222
50
270.3906399
51
270.8102227
0
ARC
8
DEFAULT_255_2_778
10
28.7305214
20
69.4424752
40
54.7406141
50
269.997514
51
270.3930216
0
ARC
8
DEFAULT_255_2_778
10
1.7329495
20
80.8830259
40
5.1934526
50
89.998044
51
106.8441467
0
ARC
8
DEFAULT_255_2_778
10
1.7331217
20
80.8791995
40
5.1972788
50
88.1027888
51
89.9999438
0
ARC
8
DEFAULT_255_2_778
10
1.7330706
20
80.877979
40
5.1985004
50
84.5363008
51
88.102671
0
ARC
8
DEFAULT_255_2_778
10
2.2252666
20
34.6927232
40
39.8616381
50
89.9960046
51
90.5768302
0
ARC
8
DEFAULT_255_2_778
10
2.1763007
20
39.4607512
40
35.0933587
50
90.5752602
51
91.1152789
0
ARC
8
DEFAULT_255_2_778
10
2.0212038
20
47.082601
40
27.4699349
50
91.1012722
51
91.920085
0
ARC
8
DEFAULT_255_2_778
10
1.7189279
20
56.0723259
40
18.4751296
50
91.9172919
51
92.7754169
0
ARC
8
DEFAULT_255_2_778
10
1.3368862
20
63.8315742
40
10.7064855
50
92.7439433
51
94.0398046
0
ARC
8
DEFAULT_255_2_778
10
0.9193502
20
69.6713589
40
4.851798
50
93.97971
51
96.0390014
0
ARC
8
DEFAULT_255_2_778
10
0.5635931
20
72.9698637
40
1.5341857
50
95.7864588
51
100.1321788
0
ARC
8
DEFAULT_255_2_778
10
0.3234321
20
74.2681675
40
0.2140309
50
97.9851432
51
114.2097975
0
ARC
8
DEFAULT_255_2_778
10
0.2397857
20
74.4521134
40
0.0119921
50
110.1101058
51
168.2215971
0
ARC
8
DEFAULT_255_2_778
10
0.2508136
20
14.7930986
40
0.0287998
50
217.7640541
51
270.3835155
0
ARC
8
DEFAULT_255_2_778
10
0.394879
20
15.4440759
40
0.6948349
50
258.0498725
51
264.6108561
0
ARC
8
DEFAULT_255_2_778
10
0.6652708
20
17.9174659
40
3.1829011
50
263.9466609
51
266.1319292
0
ARC
8
DEFAULT_255_2_778
10
0.9781133
20
22.3254584
40
7.6019707
50
266.0206104
51
267.0768314
0
ARC
8
DEFAULT_255_2_778
10
1.3377776
20
29.3578545
40
14.643558
50
267.0746141
51
267.9640216
0
ARC
8
DEFAULT_255_2_778
10
1.7208984
20
39.96132
40
25.2539417
50
267.9500252
51
268.6200156
0
ARC
8
DEFAULT_255_2_778
10
2.0257936
20
52.4519264
40
37.7482684
50
268.61395
51
269.1964354
0
ARC
8
DEFAULT_255_2_778
10
2.1798505
20
62.9120859
40
48.2095604
50
269.1877068
51
269.6081919
0
ARC
8
DEFAULT_255_2_778
10
2.2256915
20
69.2878884
40
54.5855274
50
269.6058403
51
270.0024717
0
ARC
8
DEFAULT_255_2_778
10
29.223243
20
80.8830259
40
5.1934526
50
73.1558533
51
90.001956
0
ARC
8
DEFAULT_255_2_778
10
29.2230708
20
80.8791995
40
5.1972788
50
90.0000562
51
91.8972112
0
ARC
8
DEFAULT_255_2_778
10
29.2231219
20
80.877979
40
5.1985004
50
91.897329
51
95.4636992
0
ARC
8
DEFAULT_255_2_778
10
25.7487896
20
74.5040746
40
0.0325519
50
87.0568811
51
129.5863307
0
ARC
8
DEFAULT_255_2_778
10
25.871064
20
73.6883442
40
0.8567702
50
93.4109779
51
98.0920995
0
ARC
8
DEFAULT_255_2_778
10
26.0581439
20
70.9601418
40
3.5913532
50
91.8140778
51
93.8006825
0
ARC
8
DEFAULT_255_2_778
10
26.2035607
20
66.6509172
40
7.9030264
50
90.3837084
51
91.8788164
0
ARC
8
DEFAULT_255_2_778
10
26.2278026
20
64.4473714
40
10.1066898
50
89.9980519
51
90.4374763
0
ARC
8
DEFAULT_255_2_778
10
26.2217335
20
26.9215574
40
12.2193979
50
268.9106038
51
270.030069
0
ARC
8
DEFAULT_255_2_778
10
26.1006299
20
20.8388646
40
6.1355044
50
267.5485472
51
268.961359
0
ARC
8
DEFAULT_255_2_778
10
25.8942593
20
16.1883513
40
1.4804378
50
264.5563952
51
267.8297531
0
ARC
8
DEFAULT_255_2_778
10
25.751158
20
14.7631408
40
0.0486234
50
241.6197583
51
273.1337593
0
ARC
8
DEFAULT_255_2_778
10
15.6811458
20
79.6483266
40
0.0483806
50
13.7172862
51
39.033343
0
ARC
8
DEFAULT_255_2_778
10
15.0923931
20
79.2374778
40
0.7661953
50
35.1686965
51
41.0067641
0
ARC
8
DEFAULT_255_2_778
10
13.161131
20
77.6058415
40
3.2943784
50
40.3822264
51
42.3055478
0
ARC
8
DEFAULT_255_2_778
10
9.9220273
20
74.6649496
40
7.6693785
50
42.2666564
51
43.705732
0
ARC
8
DEFAULT_255_2_778
10
6.114258
20
71.0338242
40
12.9309522
50
43.678868
51
45.0305441
0
ARC
8
DEFAULT_255_2_778
10
15.7074029
20
74.5040746
40
0.0325519
50
50.4136693
51
92.9431189
0
ARC
8
DEFAULT_255_2_778
10
15.5851285
20
73.6883442
40
0.8567702
50
81.9079005
51
86.5890221
0
ARC
8
DEFAULT_255_2_778
10
15.3980486
20
70.9601418
40
3.5913532
50
86.1993175
51
88.1859222
0
ARC
8
DEFAULT_255_2_778
10
15.2526318
20
66.6509172
40
7.9030264
50
88.1211836
51
89.6162916
0
ARC
8
DEFAULT_255_2_778
10
15.2283899
20
64.4473714
40
10.1066898
50
89.5625237
51
90.0019481
0
ARC
8
DEFAULT_255_2_778
10
30.6959521
20
74.4338941
40
0.0380958
50
32.3188738
51
88.391713
0
ARC
8
DEFAULT_255_2_778
10
30.5273722
20
73.8043613
40
0.6888314
50
75.7421972
51
82.9010661
0
ARC
8
DEFAULT_255_2_778
10
30.2488143
20
71.8047768
40
2.7076712
50
82.2808825
51
84.928588
0
ARC
8
DEFAULT_255_2_778
10
29.9367568
20
68.4350902
40
6.0917653
50
84.8066498
51
86.1398637
0
ARC
8
DEFAULT_255_2_778
10
29.5844897
20
63.217316
40
11.3214173
50
86.1388439
51
87.289577
0
ARC
8
DEFAULT_255_2_778
10
29.213701
20
55.5015584
40
19.0460779
50
87.2730017
51
88.1548156
0
ARC
8
DEFAULT_255_2_778
10
28.9213144
20
46.5365431
40
28.0158594
50
88.1475133
51
88.9226645
0
ARC
8
DEFAULT_255_2_778
10
28.77409
20
39.07087
40
35.4829815
50
88.911637
51
89.4742438
0
ARC
8
DEFAULT_255_2_778
10
28.7304264
20
34.5362831
40
40.0177782
50
89.4713056
51
90.0032646
0
ARC
8
DEFAULT_255_2_778
10
2.228062
20
87.7588883
40
1.9999729
50
90.000451
51
135.0008677
0
ARC
8
DEFAULT_255_2_778
10
2.2280185
20
87.7588455
40
1.9999723
50
134.9991175
51
179.9995477
0
ARC
8
DEFAULT_255_2_778
10
28.7281751
20
87.7588461
40
1.9999712
50
0.0004326
51
45.0008894
0
ARC
8
DEFAULT_255_2_778
10
28.7281308
20
87.7588891
40
1.999972
50
44.9991231
51
89.9995579
0
ARC
8
DEFAULT_255_2_778
10
12.9915093
20
5.0194981
40
0.2499631
50
89.9915343
51
180.0084427
0
ARC
8
DEFAULT_255_2_778
10
22.6081619
20
5.0194769
40
0.2499844
50
359.9964126
51
90.0265126
0
LINE
8
DEFAULT_255_2_778
10
30.7281463
20
4.4627612
11
30.7281463
21
14.7748612
0
LINE
8
DEFAULT_255_2_778
10
28.7281463
20
14.7018612
11
28.7281463
21
4.2293612
0
LINE
8
DEFAULT_255_2_778
10
28.7281463
20
4.2293612
11
29.3726463
21
4.2407612
0
LINE
8
DEFAULT_255_2_778
10
29.3726463
20
4.2407612
11
29.7296463
21
4.2590612
0
LINE
8
DEFAULT_255_2_778
10
29.7296463
20
4.2590612
11
30.0497463
21
4.2849612
0
LINE
8
DEFAULT_255_2_778
10
30.0497463
20
4.2849612
11
30.3265463
21
4.3166612
0
LINE
8
DEFAULT_255_2_778
10
30.3265463
20
4.3166612
11
30.4754463
21
4.3423612
0
LINE
8
DEFAULT_255_2_778
10
30.4754463
20
4.3423612
11
30.6749463
21
4.3989612
0
LINE
8
DEFAULT_255_2_778
10
30.6749463
20
4.3989612
11
30.7278463
21
4.4307612
0
LINE
8
DEFAULT_255_2_778
10
30.7278463
20
4.4307612
11
30.7278463
21
4.4624612
0
LINE
8
DEFAULT_255_2_778
10
30.7278463
20
4.4624612
11
30.7278463
21
1.4967612
0
LINE
8
DEFAULT_255_2_778
10
30.7278463
20
1.4967612
11
30.6749463
21
1.2308612
0
LINE
8
DEFAULT_255_2_778
10
30.6749463
20
1.2308612
11
30.4754463
21
0.7501612
0
LINE
8
DEFAULT_255_2_778
10
30.4754463
20
0.7501612
11
30.3265463
21
0.5270612
0
LINE
8
DEFAULT_255_2_778
10
30.3265463
20
0.5270612
11
30.0497463
21
0.2505612
0
LINE
8
DEFAULT_255_2_778
10
30.0497463
20
0.2505612
11
29.9468463
21
0.1661612
0
LINE
8
DEFAULT_255_2_778
10
29.9468463
20
0.1661612
11
29.7293463
21
0.0211612
0
LINE
8
DEFAULT_255_2_778
10
29.7293463
20
0.0211612
11
29.6145463
21
-0.0402388
0
LINE
8
DEFAULT_255_2_778
10
29.6145463
20
-0.0402388
11
29.3724463
21
-0.1404388
0
LINE
8
DEFAULT_255_2_778
10
29.3724463
20
-0.1404388
11
29.2454463
21
-0.1788388
0
LINE
8
DEFAULT_255_2_778
10
29.2454463
20
-0.1788388
11
28.9898463
21
-0.2296388
0
LINE
8
DEFAULT_255_2_778
10
28.9898463
20
-0.2296388
11
28.8599463
21
-0.2426388
0
LINE
8
DEFAULT_255_2_778
10
28.8599463
20
-0.2426388
11
28.7279463
21
-0.2426388
0
LINE
8
DEFAULT_255_2_778
10
28.7279463
20
-0.2426388
11
28.7279463
21
4.2296612
0
LINE
8
DEFAULT_255_2_778
10
28.7279463
20
4.2296612
11
22.2281463
21
4.2296612
0
LINE
8
DEFAULT_255_2_778
10
22.2281463
20
4.2296612
11
22.2281463
21
4.7574612
0
LINE
8
DEFAULT_255_2_778
10
22.2281463
20
4.7574612
11
13.2280463
21
4.7574612
0
LINE
8
DEFAULT_255_2_778
10
13.2280463
20
4.7574612
11
13.2280463
21
4.2296612
0
LINE
8
DEFAULT_255_2_778
10
13.2280463
20
4.2296612
11
2.2280463
21
4.2296612
0
LINE
8
DEFAULT_255_2_778
10
2.2280463
20
4.2296612
11
2.2280463
21
-0.2426388
0
LINE
8
DEFAULT_255_2_778
10
2.2280463
20
-0.2426388
11
2.0960463
21
-0.2426388
0
LINE
8
DEFAULT_255_2_778
10
2.0960463
20
-0.2426388
11
1.9660463
21
-0.2296388
0
LINE
8
DEFAULT_255_2_778
10
1.9660463
20
-0.2296388
11
1.7105463
21
-0.1788388
0
LINE
8
DEFAULT_255_2_778
10
1.7105463
20
-0.1788388
11
1.5835463
21
-0.1404388
0
LINE
8
DEFAULT_255_2_778
10
1.5835463
20
-0.1404388
11
1.3414463
21
-0.0402388
0
LINE
8
DEFAULT_255_2_778
10
1.3414463
20
-0.0402388
11
1.2265463
21
0.0211612
0
LINE
8
DEFAULT_255_2_778
10
1.2265463
20
0.0211612
11
1.0090463
21
0.1661612
0
LINE
8
DEFAULT_255_2_778
10
1.0090463
20
0.1661612
11
0.9061463
21
0.2505612
0
LINE
8
DEFAULT_255_2_778
10
0.9061463
20
0.2505612
11
0.6294463
21
0.5270612
0
LINE
8
DEFAULT_255_2_778
10
0.6294463
20
0.5270612
11
0.4804463
21
0.7501612
0
LINE
8
DEFAULT_255_2_778
10
0.4804463
20
0.7501612
11
0.2809463
21
1.2308612
0
LINE
8
DEFAULT_255_2_778
10
0.2809463
20
1.2308612
11
0.2280463
21
1.4967612
0
LINE
8
DEFAULT_255_2_778
10
0.2280463
20
1.4967612
11
0.2280463
21
4.4624612
0
LINE
8
DEFAULT_255_2_778
10
13.2280463
20
4.2293612
11
13.2280463
21
-0.2428388
0
LINE
8
DEFAULT_255_2_778
10
13.2280463
20
-0.2428388
11
2.2280463
21
-0.2428388
0
LINE
8
DEFAULT_255_2_778
10
28.7279463
20
-0.2428388
11
22.2281463
21
-0.2428388
0
LINE
8
DEFAULT_255_2_778
10
22.2281463
20
-0.2428388
11
22.2281463
21
4.2296612
0
LINE
8
DEFAULT_255_2_778
10
28.7281463
20
89.7588612
11
28.7281463
21
86.0525612
0
LINE
8
DEFAULT_255_2_778
10
28.7281463
20
86.0525612
11
18.2279463
21
86.0525612
0
LINE
8
DEFAULT_255_2_778
10
18.2279463
20
86.0525612
11
18.2279463
21
84.7571612
0
LINE
8
DEFAULT_255_2_778
10
18.2279463
20
84.7571612
11
9.2281463
21
84.7571612
0
LINE
8
DEFAULT_255_2_778
10
9.2281463
20
84.7571612
11
9.2281463
21
86.0525612
0
LINE
8
DEFAULT_255_2_778
10
9.2281463
20
86.0525612
11
2.2280463
21
86.0525612
0
LINE
8
DEFAULT_255_2_778
10
2.2280463
20
86.0525612
11
2.2280463
21
89.7588612
0
LINE
8
DEFAULT_255_2_778
10
0.2280463
20
74.4542612
11
0.2280463
21
85.8536612
0
LINE
8
DEFAULT_255_2_778
10
2.2280463
20
86.0528612
11
2.2280463
21
74.5543612
0
LINE
8
DEFAULT_255_2_778
10
0.2280463
20
74.4545612
11
0.2280463
21
74.4545612
0
LINE
8
DEFAULT_255_2_778
10
0.2280463
20
74.4545612
11
0.2280463
21
14.7754612
0
LINE
8
DEFAULT_255_2_778
10
2.2280463
20
14.7023612
11
2.2280463
21
14.7023612
0
LINE
8
DEFAULT_255_2_778
10
2.2280463
20
14.7023612
11
2.2280463
21
4.2299612
0
LINE
8
DEFAULT_255_2_778
10
2.2280463
20
4.2299612
11
1.5835463
21
4.2412612
0
LINE
8
DEFAULT_255_2_778
10
1.5835463
20
4.2412612
11
1.2265463
21
4.2595612
0
LINE
8
DEFAULT_255_2_778
10
1.2265463
20
4.2595612
11
0.9064463
21
4.2854612
0
LINE
8
DEFAULT_255_2_778
10
0.9064463
20
4.2854612
11
0.6296463
21
4.3172612
0
LINE
8
DEFAULT_255_2_778
10
0.6296463
20
4.3172612
11
0.4807463
21
4.3428612
0
LINE
8
DEFAULT_255_2_778
10
0.4807463
20
4.3428612
11
0.2812463
21
4.3995612
0
LINE
8
DEFAULT_255_2_778
10
0.2812463
20
4.3995612
11
0.2283463
21
4.4312612
0
LINE
8
DEFAULT_255_2_778
10
0.2283463
20
4.4312612
11
0.2283463
21
14.7754612
0
LINE
8
DEFAULT_255_2_778
10
30.7281463
20
74.4542612
11
30.7281463
21
85.8536612
0
LINE
8
DEFAULT_255_2_778
10
28.7281463
20
86.0528612
11
28.7281463
21
74.5543612
0
LINE
8
DEFAULT_255_2_778
10
28.7281463
20
74.5543612
11
26.2281463
21
74.5543612
0
LINE
8
DEFAULT_255_2_778
10
26.2281463
20
74.5543612
11
26.2281463
21
80.2071612
0
LINE
8
DEFAULT_255_2_778
10
26.2281463
20
80.2071612
11
26.2032463
21
80.1822612
0
LINE
8
DEFAULT_255_2_778
10
26.2032463
20
80.1822612
11
25.7280463
21
79.6597612
0
LINE
8
DEFAULT_255_2_778
10
25.7280463
20
79.6597612
11
25.7280463
21
74.5291612
0
LINE
8
DEFAULT_255_2_778
10
25.7280463
20
74.5291612
11
25.7280463
21
74.5291612
0
LINE
8
DEFAULT_255_2_778
10
26.2281463
20
74.5540612
11
26.2281463
21
14.7021612
0
LINE
8
DEFAULT_255_2_778
10
26.2281463
20
14.7021612
11
26.2281463
21
14.7021612
0
LINE
8
DEFAULT_255_2_778
10
25.7280463
20
14.7203612
11
25.7280463
21
74.5291612
0
LINE
8
DEFAULT_255_2_778
10
15.2529463
20
80.1822612
11
15.2280463
21
80.2071612
0
LINE
8
DEFAULT_255_2_778
10
15.2280463
20
80.2071612
11
15.2280463
21
14.7021612
0
LINE
8
DEFAULT_255_2_778
10
15.2280463
20
14.7021612
11
15.7281463
21
14.7203612
0
LINE
8
DEFAULT_255_2_778
10
15.7281463
20
14.7203612
11
15.7281463
21
14.7203612
0
LINE
8
DEFAULT_255_2_778
10
15.7281463
20
14.7203612
11
15.7281463
21
74.5291612
0
LINE
8
DEFAULT_255_2_778
10
15.2280463
20
74.5540612
11
2.2280463
21
74.5540612
0
LINE
8
DEFAULT_255_2_778
10
2.2280463
20
74.5540612
11
2.2280463
21
14.7021612
0
LINE
8
DEFAULT_255_2_778
10
2.2280463
20
14.7021612
11
15.2280463
21
14.7021612
0
LINE
8
DEFAULT_255_2_778
10
15.2280463
20
14.7021612
11
15.2280463
21
8.1208612
0
LINE
8
DEFAULT_255_2_778
10
15.2280463
20
8.1208612
11
15.2463463
21
8.1391612
0
LINE
8
DEFAULT_255_2_778
10
15.2463463
20
8.1391612
11
15.7281463
21
8.6561612
0
LINE
8
DEFAULT_255_2_778
10
30.7281463
20
14.7751612
11
30.7281463
21
74.4542612
0
LINE
8
DEFAULT_255_2_778
10
28.7281463
20
74.5540612
11
28.7281463
21
14.7021612
0
LINE
8
DEFAULT_255_2_778
10
28.7281463
20
14.7021612
11
26.2281463
21
14.7021612
0
LINE
8
DEFAULT_255_2_778
10
26.2281463
20
14.7021612
11
26.2281463
21
8.1208612
0
LINE
8
DEFAULT_255_2_778
10
26.2281463
20
8.1208612
11
26.2098463
21
8.1391612
0
LINE
8
DEFAULT_255_2_778
10
26.2098463
20
8.1391612
11
25.7280463
21
8.6561612
0
LINE
8
DEFAULT_255_2_778
10
25.7280463
20
8.6561612
11
25.7280463
21
14.7203612
0
LINE
8
DEFAULT_255_2_778
10
9.2281463
20
86.0525612
11
9.2281463
21
89.7588612
0
LINE
8
DEFAULT_255_2_778
10
9.2281463
20
89.7588612
11
2.2280463
21
89.7588612
0
LINE
8
DEFAULT_255_2_778
10
0.2280463
20
87.7588612
11
0.2280463
21
85.8536612
0
LINE
8
DEFAULT_255_2_778
10
30.7281463
20
85.8536612
11
30.7281463
21
87.7588612
0
LINE
8
DEFAULT_255_2_778
10
28.7281463
20
89.7588612
11
18.2281463
21
89.7588612
0
LINE
8
DEFAULT_255_2_778
10
18.2281463
20
89.7588612
11
18.2281463
21
86.0525612
0
LINE
8
DEFAULT_255_2_778
10
22.2281463
20
3.6102612
11
22.2212463
21
3.6102612
0
LINE
8
DEFAULT_255_2_778
10
22.2212463
20
3.6102612
11
22.2212463
21
4.7561612
0
LINE
8
DEFAULT_255_2_778
10
22.2212463
20
4.7561612
11
13.2212463
21
4.7561612
0
LINE
8
DEFAULT_255_2_778
10
13.2212463
20
4.7561612
11
13.2212463
21
3.6102612
0
LINE
8
DEFAULT_255_2_778
10
13.2212463
20
3.6102612
11
1.7279463
21
3.6102612
0
LINE
8
DEFAULT_255_2_778
10
1.7279463
20
3.6102612
11
1.7279463
21
4.1103612
0
LINE
8
DEFAULT_255_2_778
10
1.7279463
20
4.1103612
11
12.7415463
21
4.1103612
0
LINE
8
DEFAULT_255_2_778
10
12.7415463
20
4.1103612
11
12.7415463
21
5.0194612
0
LINE
8
DEFAULT_255_2_778
10
12.9915463
20
5.2694612
11
22.6080463
21
5.2694612
0
LINE
8
DEFAULT_255_2_778
10
22.8581463
20
5.0194612
11
22.8581463
21
4.1103612
0
LINE
8
DEFAULT_255_2_778
10
22.8581463
20
4.1103612
11
29.2282463
21
4.1103612
0
LINE
8
DEFAULT_255_2_778
10
29.2282463
20
4.1103612
11
29.2282463
21
3.6102612
0
LINE
8
DEFAULT_255_2_778
10
29.2282463
20
3.6102612
11
22.2212463
21
3.6102612
0
LINE
8
DEFAULT_255_2_778
10
22.2212463
20
3.6102612
11
22.2212463
21
4.7561612
0
LINE
8
DEFAULT_255_2_778
10
22.2212463
20
4.7561612
11
13.2280463
21
4.7561612
0
ENDSEC
0
EOF