0
SECTION
2
HEADER
9
$MEASUREMENT
70
1
0
ENDSEC
0
SECTION
2
TABLES
0
TABLE
2
LTYPE
0
LTYPE
72
65
70
64
2
CONTINUOUS
3
______
73
0
40
0
0
ENDTAB
0
TABLE
2
LAYER
0
LAYER
2
DEFAULT_255_2_778
70
0
62
255
6
CONTINUOUS
0
ENDTAB
0
ENDSEC
0
SECTION
2
ENTITIES
0
ARC
8
DEFAULT_255_2_778
10
5.3703954
20
85.7507808
40
4.1138272
50
158.2961765
51
174.320262
0
ARC
8
DEFAULT_255_2_778
10
5.3795122
20
85.7396332
40
4.126426
50
106.7177042
51
158.1991776
0
ARC
8
DEFAULT_255_2_778
10
5.3711274
20
85.7522391
40
4.1119435
50
89.9644386
51
106.6563363
0
ARC
8
DEFAULT_255_2_778
10
5.3736177
20
85.6771116
40
4.1870702
50
88.433718
51
89.999154
0
ARC
8
DEFAULT_255_2_778
10
5.3741003
20
85.7127386
40
2.1515407
50
87.8167568
51
89.9986056
0
ARC
8
DEFAULT_255_2_778
10
5.3724009
20
85.7551395
40
2.1091404
50
89.9524124
51
115.7892257
0
ARC
8
DEFAULT_255_2_778
10
5.3753633
20
85.7463676
40
2.1183278
50
115.7581475
51
164.2824762
0
ARC
8
DEFAULT_255_2_778
10
5.3827872
20
85.7480534
40
2.1250205
50
164.3804549
51
174.3025049
0
ARC
8
DEFAULT_255_2_778
10
6.1164704
20
5.1290118
40
3.2821075
50
243.1681696
51
264.3556497
0
ARC
8
DEFAULT_255_2_778
10
6.1191078
20
5.1341499
40
3.2878829
50
197.8329652
51
243.1675719
0
ARC
8
DEFAULT_255_2_778
10
6.1251675
20
5.1330734
40
3.2933229
50
189.8777123
51
197.7828515
0
ARC
8
DEFAULT_255_2_778
10
6.1099394
20
5.1289437
40
5.2790168
50
188.6496915
51
203.9434537
0
ARC
8
DEFAULT_255_2_778
10
6.1219763
20
5.1398424
40
5.2944435
50
203.9983839
51
250.7500946
0
ARC
8
DEFAULT_255_2_778
10
6.1175397
20
5.1388413
40
5.2920371
50
250.79187
51
265.5416287
0
LINE
8
DEFAULT_255_2_778
10
31.8985645
20
4.5287175
11
66.3859645
21
4.5287175
0
LINE
8
DEFAULT_255_2_778
10
66.3859645
20
4.5287175
11
67.9255645
21
6.0122175
0
LINE
8
DEFAULT_255_2_778
10
67.9255645
20
6.0122175
11
67.9255645
21
43.1618175
0
LINE
8
DEFAULT_255_2_778
10
67.9255645
20
43.1618175
11
66.3859645
21
44.5284175
0
LINE
8
DEFAULT_255_2_778
10
66.3859645
20
44.5284175
11
63.8789645
21
44.5284175
0
LINE
8
DEFAULT_255_2_778
10
63.8789645
20
44.5284175
11
63.8789645
21
83.2118175
0
LINE
8
DEFAULT_255_2_778
10
63.8789645
20
83.2118175
11
61.6847645
21
85.5288175
0
LINE
8
DEFAULT_255_2_778
10
61.6847645
20
85.5288175
11
31.8985645
21
85.5288175
0
LINE
8
DEFAULT_255_2_778
10
25.1437645
20
5.3039175
11
31.8985645
21
5.3039175
0
LINE
8
DEFAULT_255_2_778
10
31.8985645
20
5.3039175
11
31.8985645
21
2.4972175
0
LINE
8
DEFAULT_255_2_778
10
31.8985645
20
2.4972175
11
25.1437645
21
2.4972175
0
LINE
8
DEFAULT_255_2_778
10
17.6380645
20
87.2859175
11
31.8985645
21
87.2859175
0
LINE
8
DEFAULT_255_2_778
10
31.8985645
20
87.2859175
11
31.8985645
21
84.4792175
0
LINE
8
DEFAULT_255_2_778
10
31.8985645
20
84.4792175
11
17.6380645
21
84.4792175
0
LINE
8
DEFAULT_255_2_778
10
0.1252645
20
14.8075175
11
0.1252645
21
74.6594175
0
LINE
8
DEFAULT_255_2_778
10
2.1268645
20
74.5597175
11
0.1252645
21
74.6594175
0
LINE
8
DEFAULT_255_2_778
10
0.1252645
20
74.6594175
11
1.2767645
21
86.1579175
0
LINE
8
DEFAULT_255_2_778
10
3.2682645
20
85.9587175
11
1.2767645
21
86.1579175
0
LINE
8
DEFAULT_255_2_778
10
17.6380645
20
87.8627175
11
17.6380645
21
89.8626175
0
LINE
8
DEFAULT_255_2_778
10
17.6380645
20
89.8626175
11
5.4880645
21
89.8626175
0
LINE
8
DEFAULT_255_2_778
10
5.4880645
20
89.8626175
11
5.4812645
21
89.3695175
0
LINE
8
DEFAULT_255_2_778
10
5.4812645
20
89.3695175
11
5.4772645
21
89.0930175
0
LINE
8
DEFAULT_255_2_778
10
5.4772645
20
89.0930175
11
5.4738645
21
88.8699175
0
LINE
8
DEFAULT_255_2_778
10
5.4738645
20
88.8699175
11
5.4658645
21
88.3889175
0
LINE
8
DEFAULT_255_2_778
10
5.4658645
20
88.3889175
11
5.4611645
21
88.1230175
0
LINE
8
DEFAULT_255_2_778
10
5.4611645
20
88.1230175
11
5.4560645
21
87.8627175
0
LINE
8
DEFAULT_255_2_778
10
5.7934645
20
1.8628175
11
25.1431645
21
1.8628175
0
LINE
8
DEFAULT_255_2_778
10
25.1431645
20
1.8628175
11
25.1431645
21
63.3628175
0
LINE
8
DEFAULT_255_2_778
10
25.1431645
20
63.3628175
11
17.6380645
21
70.3626175
0
LINE
8
DEFAULT_255_2_778
10
17.6380645
20
70.3626175
11
17.6380645
21
87.8627175
0
LINE
8
DEFAULT_255_2_778
10
17.6380645
20
87.8627175
11
5.4560645
21
87.8627175
0
LINE
8
DEFAULT_255_2_778
10
3.2682645
20
85.9590175
11
2.1268645
21
74.5597175
0
LINE
8
DEFAULT_255_2_778
10
2.1268645
20
74.5597175
11
2.1268645
21
14.8805175
0
LINE
8
DEFAULT_255_2_778
10
0.8906645
20
4.3350175
11
0.1252645
21
14.8075175
0
LINE
8
DEFAULT_255_2_778
10
0.1252645
20
14.8075175
11
2.1268645
21
14.8805175
0
LINE
8
DEFAULT_255_2_778
10
2.1268645
20
14.8805175
11
2.8806645
21
4.5684175
0
LINE
8
DEFAULT_255_2_778
10
25.1437645
20
1.8630175
11
25.1437645
21
-0.1369825
0
LINE
8
DEFAULT_255_2_778
10
25.1437645
20
-0.1369825
11
5.7061645
21
-0.1369825
0
LINE
8
DEFAULT_255_2_778
10
5.7061645
20
-0.1369825
11
5.7259645
21
0.3565175
0
LINE
8
DEFAULT_255_2_778
10
5.7259645
20
0.3565175
11
5.7373645
21
0.6330175
0
LINE
8
DEFAULT_255_2_778
10
5.7373645
20
0.6330175
11
5.7468645
21
0.8560175
0
LINE
8
DEFAULT_255_2_778
10
5.7468645
20
0.8560175
11
5.7682645
21
1.3368175
0
LINE
8
DEFAULT_255_2_778
10
5.7682645
20
1.3368175
11
5.7807645
21
1.6027175
0
LINE
8
DEFAULT_255_2_778
10
5.7807645
20
1.6027175
11
5.7936645
21
1.8628175
0
LINE
8
DEFAULT_255_2_778
10
2.8806645
20
4.5681175
11
2.6218645
21
4.5364175
0
LINE
8
DEFAULT_255_2_778
10
2.6218645
20
4.5364175
11
0.8909645
21
4.3350175
0
ENDSEC
0
EOF