0
SECTION
2
HEADER
9
$MEASUREMENT
70
1
0
ENDSEC
0
SECTION
2
TABLES
0
TABLE
2
LTYPE
0
LTYPE
72
65
70
64
2
CONTINUOUS
3
______
73
0
40
0
0
ENDTAB
0
TABLE
2
LAYER
0
LAYER
2
DEFAULT_255_2_778
70
0
62
255
6
CONTINUOUS
0
LAYER
2
DEFAULT_255_1_388
70
0
62
255
6
CONTINUOUS
0
ENDTAB
0
ENDSEC
0
SECTION
2
ENTITIES
0
ARC
8
DEFAULT_255_2_778
10
3.5700693
20
171.0552017
40
0.7914215
50
129.1312896
51
180.1450914
0
ARC
8
DEFAULT_255_2_778
10
3.5703345
20
171.0556888
40
0.7912112
50
89.854026
51
129.1684493
0
ARC
8
DEFAULT_255_2_778
10
25.7993937
20
171.0553754
40
0.7915249
50
39.4792447
51
90.147911
0
ARC
8
DEFAULT_255_2_778
10
25.7999935
20
171.055222
40
0.7911595
50
359.8533901
51
39.5154338
0
ARC
8
DEFAULT_255_2_778
10
25.7996693
20
-1.9863506
40
0.7914836
50
309.4761667
51
0.1482649
0
ARC
8
DEFAULT_255_2_778
10
25.799398
20
-1.9867816
40
0.7913235
50
269.8517415
51
309.511178
0
ARC
8
DEFAULT_255_2_778
10
3.570342
20
-1.9867235
40
0.7913815
50
219.1282118
51
270.1454017
0
ARC
8
DEFAULT_255_2_778
10
3.5700247
20
-1.986341
40
0.7913769
50
179.8524075
51
219.1641908
0
LINE
8
DEFAULT_255_2_778
10
3.5723503
20
171.8468976
11
25.7973503
21
171.8468976
0
LINE
8
DEFAULT_255_2_778
10
26.5911503
20
171.0531976
11
26.5911503
21
-1.9843024
0
LINE
8
DEFAULT_255_2_778
10
25.7973503
20
-2.7781024
11
3.5723503
21
-2.7781024
0
LINE
8
DEFAULT_255_2_778
10
2.7786503
20
-1.9843024
11
2.7786503
21
171.0531976
0
LINE
8
DEFAULT_255_1_388
10
10.5798389
20
-0.6398
11
10.2157024
21
-0.6398
0
LINE
8
DEFAULT_255_1_388
10
10.2157024
20
-0.6398
11
10.2157024
21
0.6757898
0
LINE
8
DEFAULT_255_1_388
10
10.2157024
20
0.6757898
11
10.5870674
21
0.6757898
0
LINE
8
DEFAULT_255_1_388
10
11.1671558
20
0.0622696
11
11.1671558
21
-0.0217619
0
LINE
8
DEFAULT_255_1_388
10
10.5915852
20
0.5330267
11
10.3891868
21
0.5330267
0
LINE
8
DEFAULT_255_1_388
10
10.3891868
20
0.5330267
11
10.3891868
21
-0.4979404
0
LINE
8
DEFAULT_255_1_388
10
10.3891868
20
-0.4979404
11
10.5717068
21
-0.4979404
0
LINE
8
DEFAULT_255_1_388
10
10.9954785
20
-0.0181477
11
10.9954785
21
0.0586553
0
ARC
8
DEFAULT_255_1_388
10
10.5914469
20
0.0159436
40
0.6598608
50
75.4100343
51
90.3802731
0
ARC
8
DEFAULT_255_1_388
10
10.6172714
20
0.1235691
40
0.5492049
50
60.1455157
51
75.1889627
0
ARC
8
DEFAULT_255_1_388
10
10.6351306
20
0.1546914
40
0.5133226
50
26.525419
51
60.1451222
0
ARC
8
DEFAULT_255_1_388
10
10.5091092
20
0.0878642
40
0.6559324
50
7.4029944
51
26.832209
0
ARC
8
DEFAULT_255_1_388
10
10.3297489
20
0.0599229
40
0.8374103
50
0.1605597
51
7.7176135
0
ARC
8
DEFAULT_255_1_388
10
10.3481889
20
-0.0260679
40
0.8189782
50
348.7289744
51
0.30125
0
ARC
8
DEFAULT_255_1_388
10
10.5345353
20
-0.0630844
40
0.628991
50
333.0706936
51
348.7181455
0
ARC
8
DEFAULT_255_1_388
10
10.6432981
20
-0.1221551
40
0.5052808
50
299.2531435
51
333.4571133
0
ARC
8
DEFAULT_255_1_388
10
10.6027012
20
-0.0450371
40
0.5924066
50
278.1072193
51
299.0340218
0
ARC
8
DEFAULT_255_1_388
10
10.5739061
20
0.1245979
40
0.7644209
50
270.4446841
51
278.4508355
0
ARC
8
DEFAULT_255_1_388
10
10.5762545
20
0.02003
40
0.5179903
50
269.4969684
51
284.0204874
0
ARC
8
DEFAULT_255_1_388
10
10.6162263
20
-0.1335585
40
0.3592968
50
283.7699076
51
318.1557121
0
ARC
8
DEFAULT_255_1_388
10
10.5782808
20
-0.1051601
40
0.4065308
50
318.7417595
51
343.687252
0
ARC
8
DEFAULT_255_1_388
10
10.3753387
20
-0.0417725
40
0.6191194
50
343.3324891
51
355.8548594
0
ARC
8
DEFAULT_255_1_388
10
10.1392424
20
-0.0193281
40
0.856237
50
355.4988754
51
0.0789913
0
ARC
8
DEFAULT_255_1_388
10
10.2273224
20
0.063408
40
0.7681709
50
359.6455047
51
9.8607559
0
ARC
8
DEFAULT_255_1_388
10
10.4928947
20
0.1113664
40
0.498312
50
9.6573037
51
26.1931522
0
ARC
8
DEFAULT_255_1_388
10
10.5973022
20
0.1598587
40
0.3832303
50
26.5777895
51
40.1533752
0
ARC
8
DEFAULT_255_1_388
10
10.6260687
20
0.182302
40
0.3467742
50
40.3839958
51
80.1430923
0
ARC
8
DEFAULT_255_1_388
10
10.5892942
20
0.0192486
40
0.5137832
50
79.2153636
51
89.7445174
0
LINE
8
DEFAULT_255_1_388
10
12.2478188
20
-0.5033618
11
12.2478188
21
-0.6398
0
LINE
8
DEFAULT_255_1_388
10
12.2478188
20
-0.6398
11
11.3858184
21
-0.6398
0
LINE
8
DEFAULT_255_1_388
10
11.3858184
20
-0.6398
11
11.3858184
21
-0.5196259
0
LINE
8
DEFAULT_255_1_388
10
11.3858184
20
-0.5196259
11
11.8412148
21
-0.0136298
0
LINE
8
DEFAULT_255_1_388
10
11.527678
20
0.2881607
11
11.3605186
21
0.2881607
0
LINE
8
DEFAULT_255_1_388
10
11.9397034
20
-0.121154
11
11.5873132
21
-0.5033618
0
LINE
8
DEFAULT_255_1_388
10
11.5873132
20
-0.5033618
11
12.2478188
21
-0.5033618
0
ARC
8
DEFAULT_255_1_388
10
10.3236208
20
1.3283983
40
2.0258655
50
318.5132526
51
320.7829045
0
ARC
8
DEFAULT_255_1_388
10
10.9184165
20
0.8442929
40
1.2589638
50
320.7372878
51
323.9739031
0
ARC
8
DEFAULT_255_1_388
10
11.3593097
20
0.5248554
40
0.7145141
50
323.8962701
51
328.64194
0
ARC
8
DEFAULT_255_1_388
10
11.5895354
20
0.3828545
40
0.4440242
50
328.8294576
51
331.7891185
0
ARC
8
DEFAULT_255_1_388
10
11.7017674
20
0.3249374
40
0.3177517
50
331.4254512
51
352.9365785
0
ARC
8
DEFAULT_255_1_388
10
11.7170674
20
0.321505
40
0.3021496
50
353.2257659
51
0.0166158
0
ARC
8
DEFAULT_255_1_388
10
11.7407435
20
0.3240894
40
0.2784847
50
359.486299
51
15.9343185
0
ARC
8
DEFAULT_255_1_388
10
11.7977702
20
0.3394269
40
0.2194403
50
16.1712913
51
43.5286088
0
ARC
8
DEFAULT_255_1_388
10
11.8064646
20
0.3481191
40
0.2071504
50
43.4417391
51
83.1661095
0
ARC
8
DEFAULT_255_1_388
10
11.7913807
20
0.2652316
40
0.2912888
50
82.160179
51
90.1505708
0
ARC
8
DEFAULT_255_1_388
10
11.7878289
20
0.2048279
40
0.3517025
50
89.5460741
51
102.5418361
0
ARC
8
DEFAULT_255_1_388
10
11.7605009
20
0.3207933
40
0.2325748
50
102.1738499
51
129.206123
0
ARC
8
DEFAULT_255_1_388
10
11.7516462
20
0.3347664
40
0.2161591
50
129.72865
51
135.753947
0
ARC
8
DEFAULT_255_1_388
10
11.7652944
20
0.3238728
40
0.2335433
50
136.1757367
51
166.3673339
0
ARC
8
DEFAULT_255_1_388
10
11.8785633
20
0.2935148
40
0.3507873
50
165.9090694
51
178.8684636
0
ARC
8
DEFAULT_255_1_388
10
11.9761404
20
0.2882263
40
0.4484624
50
178.4391136
51
180.0083808
0
ARC
8
DEFAULT_255_1_388
10
11.8182106
20
0.2926197
40
0.4577138
50
163.2878482
51
180.5581842
0
ARC
8
DEFAULT_255_1_388
10
11.7280147
20
0.3174393
40
0.3641968
50
133.4540601
51
162.947111
0
ARC
8
DEFAULT_255_1_388
10
11.7481029
20
0.2960789
40
0.3935189
50
100.7869829
51
133.4382499
0
ARC
8
DEFAULT_255_1_388
10
11.7872274
20
0.1218399
40
0.5720313
50
89.660664
51
101.3702276
0
ARC
8
DEFAULT_255_1_388
10
11.7946883
20
0.1287263
40
0.5651495
50
78.2172678
51
90.412935
0
ARC
8
DEFAULT_255_1_388
10
11.8346348
20
0.3114511
40
0.378122
50
55.9269121
51
78.4888449
0
ARC
8
DEFAULT_255_1_388
10
11.8567064
20
0.3495187
40
0.3342379
50
47.929771
51
55.4049217
0
ARC
8
DEFAULT_255_1_388
10
11.8681594
20
0.3611618
40
0.3179217
50
4.334829
51
48.0560205
0
ARC
8
DEFAULT_255_1_388
10
11.7449396
20
0.3420487
40
0.442341
50
359.9251713
51
5.5971671
0
ARC
8
DEFAULT_255_1_388
10
11.793155
20
0.3483728
40
0.3941854
50
337.8914027
51
358.9967534
0
ARC
8
DEFAULT_255_1_388
10
11.487912
20
0.4661295
40
0.7213271
50
326.9132501
51
338.3508308
0
ARC
8
DEFAULT_255_1_388
10
11.0395232
20
0.7535105
40
1.2538973
50
319.6471833
51
327.0959558
0
ARC
8
DEFAULT_255_1_388
10
10.608189
20
1.109305
40
1.8129975
50
317.2588228
51
319.9045804
0
LINE
8
DEFAULT_255_1_388
10
12.7899575
20
-0.0127263
11
12.7899575
21
-0.1491645
0
LINE
8
DEFAULT_255_1_388
10
12.7899575
20
-0.1491645
11
12.3490181
21
-0.1491645
0
LINE
8
DEFAULT_255_1_388
10
12.3490181
20
-0.1491645
11
12.3490181
21
-0.0127263
0
LINE
8
DEFAULT_255_1_388
10
12.3490181
20
-0.0127263
11
12.7899575
21
-0.0127263
0
LINE
8
DEFAULT_255_1_388
10
13.1784902
20
-0.0371225
11
13.1784902
21
0.0993157
0
LINE
8
DEFAULT_255_1_388
10
13.1784902
20
0.0993157
11
13.3040857
21
0.0993157
0
LINE
8
DEFAULT_255_1_388
10
13.0899409
20
0.3306282
11
12.9227815
21
0.3306282
0
LINE
8
DEFAULT_255_1_388
10
12.9110352
20
-0.2928313
11
13.0790981
21
-0.2928313
0
LINE
8
DEFAULT_255_1_388
10
13.3040857
20
-0.0371225
11
13.1784902
21
-0.0371225
0
ARC
8
DEFAULT_255_1_388
10
13.3008083
20
0.4809922
40
0.3816905
50
270.491971
51
281.8953028
0
ARC
8
DEFAULT_255_1_388
10
13.327951
20
0.3570199
40
0.2547877
50
281.6690378
51
301.2943765
0
ARC
8
DEFAULT_255_1_388
10
13.3470962
20
0.3219926
40
0.2149197
50
301.7834992
51
311.754567
0
ARC
8
DEFAULT_255_1_388
10
13.3574003
20
0.310565
40
0.1995326
50
311.7325027
51
354.2803031
0
ARC
8
DEFAULT_255_1_388
10
13.2756419
20
0.324628
40
0.2823461
50
353.0941646
51
0.1174696
0
ARC
8
DEFAULT_255_1_388
10
13.2237977
20
0.3299874
40
0.3342238
50
359.1804452
51
15.0452323
0
ARC
8
DEFAULT_255_1_388
10
13.3752035
20
0.3741546
40
0.1765747
50
13.957816
51
77.6713812
0
ARC
8
DEFAULT_255_1_388
10
13.3317271
20
0.2183464
40
0.3381982
50
76.111571
51
90.7028736
0
ARC
8
DEFAULT_255_1_388
10
13.3250683
20
0.249125
40
0.3074046
50
89.5321574
51
103.5319393
0
ARC
8
DEFAULT_255_1_388
10
13.3025067
20
0.3390443
40
0.2147041
50
103.2930114
51
133.5619756
0
ARC
8
DEFAULT_255_1_388
10
13.2975008
20
0.3457351
40
0.2064084
50
133.8349761
51
173.5343225
0
ARC
8
DEFAULT_255_1_388
10
13.3788666
20
0.3313144
40
0.2889266
50
172.5097183
51
180.1360699
0
ARC
8
DEFAULT_255_1_388
10
13.271843
20
0.335188
40
0.3490913
50
155.3483706
51
180.7484035
0
ARC
8
DEFAULT_255_1_388
10
13.2663405
20
0.3319519
40
0.3454798
50
131.5745177
51
154.4799474
0
ARC
8
DEFAULT_255_1_388
10
13.3015688
20
0.2963422
40
0.3955058
50
96.9874487
51
131.9690874
0
ARC
8
DEFAULT_255_1_388
10
13.3262581
20
0.1562407
40
0.537622
50
89.8592909
51
97.7827481
0
ARC
8
DEFAULT_255_1_388
10
13.331669
20
0.126736
40
0.5671399
50
78.3654493
51
90.4132586
0
ARC
8
DEFAULT_255_1_388
10
13.3719331
20
0.3133918
40
0.3762034
50
56.6229818
51
78.6387103
0
ARC
8
DEFAULT_255_1_388
10
13.396116
20
0.3556846
40
0.3275964
50
47.0254604
51
56.085558
0
ARC
8
DEFAULT_255_1_388
10
13.3983411
20
0.3601189
40
0.3228382
50
10.9207523
51
46.777927
0
ARC
8
DEFAULT_255_1_388
10
13.2449005
20
0.3246401
40
0.4802559
50
359.6364235
51
11.6087615
0
ARC
8
DEFAULT_255_1_388
10
13.4513171
20
0.3229404
40
0.273833
50
332.3549969
51
359.7179765
0
ARC
8
DEFAULT_255_1_388
10
13.3781571
20
0.3576285
40
0.3547505
50
325.2332381
51
332.8746682
0
ARC
8
DEFAULT_255_1_388
10
13.3953154
20
0.3456763
40
0.3338396
50
292.9803892
51
325.2391113
0
ARC
8
DEFAULT_255_1_388
10
13.364235
20
0.4061679
40
0.4016959
50
292.542178
51
293.6931461
0
ARC
8
DEFAULT_255_1_388
10
13.4085922
20
-0.3203964
40
0.372079
50
57.643292
51
72.8626085
0
ARC
8
DEFAULT_255_1_388
10
13.4484756
20
-0.2557727
40
0.2961455
50
36.7246661
51
57.4701329
0
ARC
8
DEFAULT_255_1_388
10
13.4471913
20
-0.254353
40
0.2963321
50
8.054535
51
36.3561529
0
ARC
8
DEFAULT_255_1_388
10
13.3501586
20
-0.2717927
40
0.3948682
50
359.8316595
51
8.5873361
0
ARC
8
DEFAULT_255_1_388
10
13.307906
20
-0.277203
40
0.4371398
50
343.9831631
51
0.557075
0
ARC
8
DEFAULT_255_1_388
10
13.4076109
20
-0.3045037
40
0.3337749
50
311.6358204
51
343.7652116
0
ARC
8
DEFAULT_255_1_388
10
13.3650363
20
-0.2565045
40
0.3979351
50
279.7829743
51
311.625622
0
ARC
8
DEFAULT_255_1_388
10
13.3311498
20
-0.0948358
40
0.5630417
50
269.7285092
51
280.3857694
0
ARC
8
DEFAULT_255_1_388
10
13.3241811
20
-0.0994759
40
0.5584119
50
256.6827433
51
270.4412869
0
ARC
8
DEFAULT_255_1_388
10
13.2860798
20
-0.2552302
40
0.3980715
50
229.4223821
51
256.8554507
0
ARC
8
DEFAULT_255_1_388
10
13.2394351
20
-0.3077317
40
0.3278564
50
181.8183354
51
229.6455015
0
ARC
8
DEFAULT_255_1_388
10
13.3563961
20
-0.2930175
40
0.4453611
50
179.9760419
51
183.2330638
0
ARC
8
DEFAULT_255_1_388
10
13.3370513
20
-0.2953219
40
0.2579652
50
179.4467996
51
196.2871626
0
ARC
8
DEFAULT_255_1_388
10
13.2821967
20
-0.3103291
40
0.2011057
50
196.5661293
51
227.7059371
0
ARC
8
DEFAULT_255_1_388
10
13.3006574
20
-0.2896845
40
0.2287994
50
227.7653015
51
257.8763321
0
ARC
8
DEFAULT_255_1_388
10
13.3259657
20
-0.1836039
40
0.3378385
50
257.4583525
51
270.4267406
0
ARC
8
DEFAULT_255_1_388
10
13.3310907
20
-0.150977
40
0.3704652
50
269.5965319
51
280.8788143
0
ARC
8
DEFAULT_255_1_388
10
13.3569135
20
-0.2799471
40
0.2389415
50
280.6347277
51
299.8594068
0
ARC
8
DEFAULT_255_1_388
10
13.3783904
20
-0.3207264
40
0.19289
50
300.3575552
51
314.5515667
0
ARC
8
DEFAULT_255_1_388
10
13.369058
20
-0.3138975
40
0.204312
50
315.0730962
51
345.0429362
0
ARC
8
DEFAULT_255_1_388
10
13.2652087
20
-0.2836461
40
0.31246
50
344.598526
51
357.9270698
0
ARC
8
DEFAULT_255_1_388
10
13.1642392
20
-0.2767295
40
0.4136265
50
357.4755098
51
0.0224936
0
ARC
8
DEFAULT_255_1_388
10
13.279527
20
-0.2739901
40
0.2983498
50
359.5051035
51
13.4236939
0
ARC
8
DEFAULT_255_1_388
10
13.377036
20
-0.2490363
40
0.1977186
50
12.9497905
51
48.7550905
0
ARC
8
DEFAULT_255_1_388
10
13.3565282
20
-0.2770627
40
0.2323321
50
49.509109
51
72.1832965
0
ARC
8
DEFAULT_255_1_388
10
13.316275
20
-0.3965368
40
0.358397
50
71.9008458
51
84.3555134
0
ARC
8
DEFAULT_255_1_388
10
13.2981145
20
-0.5497288
40
0.512641
50
84.019632
51
89.3326067
0
LINE
8
DEFAULT_255_1_388
10
14.836531
20
-0.5033618
11
14.836531
21
-0.6398
0
LINE
8
DEFAULT_255_1_388
10
14.836531
20
-0.6398
11
13.9745305
21
-0.6398
0
LINE
8
DEFAULT_255_1_388
10
13.9745305
20
-0.6398
11
13.9745305
21
-0.5196259
0
LINE
8
DEFAULT_255_1_388
10
13.9745305
20
-0.5196259
11
14.429927
21
-0.0136298
0
LINE
8
DEFAULT_255_1_388
10
14.1163901
20
0.2881607
11
13.9492307
21
0.2881607
0
LINE
8
DEFAULT_255_1_388
10
14.5284155
20
-0.121154
11
14.1760254
21
-0.5033618
0
LINE
8
DEFAULT_255_1_388
10
14.1760254
20
-0.5033618
11
14.836531
21
-0.5033618
0
ARC
8
DEFAULT_255_1_388
10
12.912333
20
1.3283983
40
2.0258655
50
318.5132526
51
320.7829045
0
ARC
8
DEFAULT_255_1_388
10
13.5071286
20
0.8442929
40
1.2589638
50
320.7372878
51
323.9739031
0
ARC
8
DEFAULT_255_1_388
10
13.9480218
20
0.5248554
40
0.7145141
50
323.8962701
51
328.64194
0
ARC
8
DEFAULT_255_1_388
10
14.1782476
20
0.3828545
40
0.4440242
50
328.8294576
51
331.7891185
0
ARC
8
DEFAULT_255_1_388
10
14.2904796
20
0.3249374
40
0.3177517
50
331.4254512
51
352.9365785
0
ARC
8
DEFAULT_255_1_388
10
14.3057796
20
0.321505
40
0.3021496
50
353.2257659
51
0.0166158
0
ARC
8
DEFAULT_255_1_388
10
14.3294556
20
0.3240894
40
0.2784847
50
359.486299
51
15.9343185
0
ARC
8
DEFAULT_255_1_388
10
14.3864823
20
0.3394269
40
0.2194403
50
16.1712913
51
43.5286088
0
ARC
8
DEFAULT_255_1_388
10
14.3951768
20
0.3481191
40
0.2071504
50
43.4417391
51
83.1661095
0
ARC
8
DEFAULT_255_1_388
10
14.3800929
20
0.2652316
40
0.2912888
50
82.160179
51
90.1505708
0
ARC
8
DEFAULT_255_1_388
10
14.3765411
20
0.2048279
40
0.3517025
50
89.5460741
51
102.5418361
0
ARC
8
DEFAULT_255_1_388
10
14.3492131
20
0.3207933
40
0.2325748
50
102.1738499
51
129.206123
0
ARC
8
DEFAULT_255_1_388
10
14.3403584
20
0.3347664
40
0.2161591
50
129.72865
51
135.753947
0
ARC
8
DEFAULT_255_1_388
10
14.3540066
20
0.3238728
40
0.2335433
50
136.1757367
51
166.3673339
0
ARC
8
DEFAULT_255_1_388
10
14.4672755
20
0.2935148
40
0.3507873
50
165.9090694
51
178.8684636
0
ARC
8
DEFAULT_255_1_388
10
14.5648526
20
0.2882263
40
0.4484624
50
178.4391136
51
180.0083808
0
ARC
8
DEFAULT_255_1_388
10
14.4069228
20
0.2926197
40
0.4577138
50
163.2878482
51
180.5581842
0
ARC
8
DEFAULT_255_1_388
10
14.3167269
20
0.3174393
40
0.3641968
50
133.4540601
51
162.947111
0
ARC
8
DEFAULT_255_1_388
10
14.336815
20
0.2960789
40
0.3935189
50
100.7869829
51
133.4382499
0
ARC
8
DEFAULT_255_1_388
10
14.3759395
20
0.1218399
40
0.5720313
50
89.660664
51
101.3702276
0
ARC
8
DEFAULT_255_1_388
10
14.3834004
20
0.1287263
40
0.5651495
50
78.2172678
51
90.412935
0
ARC
8
DEFAULT_255_1_388
10
14.423347
20
0.3114511
40
0.378122
50
55.9269121
51
78.4888449
0
ARC
8
DEFAULT_255_1_388
10
14.4454185
20
0.3495187
40
0.3342379
50
47.929771
51
55.4049217
0
ARC
8
DEFAULT_255_1_388
10
14.4568716
20
0.3611618
40
0.3179217
50
4.334829
51
48.0560205
0
ARC
8
DEFAULT_255_1_388
10
14.3336517
20
0.3420487
40
0.442341
50
359.9251713
51
5.5971671
0
ARC
8
DEFAULT_255_1_388
10
14.3818672
20
0.3483728
40
0.3941854
50
337.8914027
51
358.9967534
0
ARC
8
DEFAULT_255_1_388
10
14.0766242
20
0.4661295
40
0.7213271
50
326.9132501
51
338.3508308
0
ARC
8
DEFAULT_255_1_388
10
13.6282354
20
0.7535105
40
1.2538973
50
319.6471833
51
327.0959558
0
ARC
8
DEFAULT_255_1_388
10
13.1969012
20
1.109305
40
1.8129975
50
317.2588228
51
319.9045804
0
LINE
8
DEFAULT_255_1_388
10
15.9659866
20
0.6757898
11
15.9659866
21
0.5330267
0
LINE
8
DEFAULT_255_1_388
10
15.9659866
20
0.5330267
11
15.5431184
21
0.5330267
0
LINE
8
DEFAULT_255_1_388
10
15.5431184
20
0.5330267
11
15.5431184
21
-0.6398
0
LINE
8
DEFAULT_255_1_388
10
15.5431184
20
-0.6398
11
15.3705376
21
-0.6398
0
LINE
8
DEFAULT_255_1_388
10
15.3705376
20
-0.6398
11
15.3705376
21
0.5330267
0
LINE
8
DEFAULT_255_1_388
10
15.3705376
20
0.5330267
11
14.948573
21
0.5330267
0
LINE
8
DEFAULT_255_1_388
10
14.948573
20
0.5330267
11
14.948573
21
0.6757898
0
LINE
8
DEFAULT_255_1_388
10
14.948573
20
0.6757898
11
15.9659866
21
0.6757898
0
LINE
8
DEFAULT_255_1_388
10
16.525293
20
-0.6398
11
16.1611565
21
-0.6398
0
LINE
8
DEFAULT_255_1_388
10
16.1611565
20
-0.6398
11
16.1611565
21
0.6757898
0
LINE
8
DEFAULT_255_1_388
10
16.1611565
20
0.6757898
11
16.5325215
21
0.6757898
0
LINE
8
DEFAULT_255_1_388
10
17.1126099
20
0.0622696
11
17.1126099
21
-0.0217619
0
LINE
8
DEFAULT_255_1_388
10
16.5370393
20
0.5330267
11
16.3346409
21
0.5330267
0
LINE
8
DEFAULT_255_1_388
10
16.3346409
20
0.5330267
11
16.3346409
21
-0.4979404
0
LINE
8
DEFAULT_255_1_388
10
16.3346409
20
-0.4979404
11
16.5171609
21
-0.4979404
0
LINE
8
DEFAULT_255_1_388
10
16.9409326
20
-0.0181477
11
16.9409326
21
0.0586553
0
ARC
8
DEFAULT_255_1_388
10
16.536901
20
0.0159436
40
0.6598608
50
75.4100343
51
90.3802731
0
ARC
8
DEFAULT_255_1_388
10
16.5627255
20
0.1235691
40
0.5492049
50
60.1455157
51
75.1889627
0
ARC
8
DEFAULT_255_1_388
10
16.5805847
20
0.1546914
40
0.5133226
50
26.525419
51
60.1451222
0
ARC
8
DEFAULT_255_1_388
10
16.4545633
20
0.0878642
40
0.6559324
50
7.4029944
51
26.832209
0
ARC
8
DEFAULT_255_1_388
10
16.275203
20
0.0599229
40
0.8374103
50
0.1605597
51
7.7176135
0
ARC
8
DEFAULT_255_1_388
10
16.293643
20
-0.0260679
40
0.8189782
50
348.7289744
51
0.30125
0
ARC
8
DEFAULT_255_1_388
10
16.4799894
20
-0.0630844
40
0.628991
50
333.0706936
51
348.7181455
0
ARC
8
DEFAULT_255_1_388
10
16.5887522
20
-0.1221551
40
0.5052808
50
299.2531435
51
333.4571133
0
ARC
8
DEFAULT_255_1_388
10
16.5481553
20
-0.0450371
40
0.5924066
50
278.1072193
51
299.0340218
0
ARC
8
DEFAULT_255_1_388
10
16.5193602
20
0.1245979
40
0.7644209
50
270.4446841
51
278.4508355
0
ARC
8
DEFAULT_255_1_388
10
16.5217086
20
0.02003
40
0.5179903
50
269.4969684
51
284.0204874
0
ARC
8
DEFAULT_255_1_388
10
16.5616804
20
-0.1335585
40
0.3592968
50
283.7699076
51
318.1557121
0
ARC
8
DEFAULT_255_1_388
10
16.5237349
20
-0.1051601
40
0.4065308
50
318.7417595
51
343.687252
0
ARC
8
DEFAULT_255_1_388
10
16.3207928
20
-0.0417725
40
0.6191194
50
343.3324891
51
355.8548594
0
ARC
8
DEFAULT_255_1_388
10
16.0846965
20
-0.0193281
40
0.856237
50
355.4988754
51
0.0789913
0
ARC
8
DEFAULT_255_1_388
10
16.1727765
20
0.063408
40
0.7681709
50
359.6455047
51
9.8607559
0
ARC
8
DEFAULT_255_1_388
10
16.4383488
20
0.1113664
40
0.498312
50
9.6573037
51
26.1931522
0
ARC
8
DEFAULT_255_1_388
10
16.5427563
20
0.1598587
40
0.3832303
50
26.5777895
51
40.1533752
0
ARC
8
DEFAULT_255_1_388
10
16.5715228
20
0.182302
40
0.3467742
50
40.3839958
51
80.1430923
0
ARC
8
DEFAULT_255_1_388
10
16.5347483
20
0.0192486
40
0.5137832
50
79.2153636
51
89.7445174
0
LINE
8
DEFAULT_255_1_388
10
18.1932729
20
-0.5033618
11
18.1932729
21
-0.6398
0
LINE
8
DEFAULT_255_1_388
10
18.1932729
20
-0.6398
11
17.3312725
21
-0.6398
0
LINE
8
DEFAULT_255_1_388
10
17.3312725
20
-0.6398
11
17.3312725
21
-0.5196259
0
LINE
8
DEFAULT_255_1_388
10
17.3312725
20
-0.5196259
11
17.7866689
21
-0.0136298
0
LINE
8
DEFAULT_255_1_388
10
17.4731321
20
0.2881607
11
17.3059727
21
0.2881607
0
LINE
8
DEFAULT_255_1_388
10
17.8851575
20
-0.121154
11
17.5327673
21
-0.5033618
0
LINE
8
DEFAULT_255_1_388
10
17.5327673
20
-0.5033618
11
18.1932729
21
-0.5033618
0
ARC
8
DEFAULT_255_1_388
10
16.2690749
20
1.3283983
40
2.0258655
50
318.5132526
51
320.7829045
0
ARC
8
DEFAULT_255_1_388
10
16.8638706
20
0.8442929
40
1.2589638
50
320.7372878
51
323.9739031
0
ARC
8
DEFAULT_255_1_388
10
17.3047638
20
0.5248554
40
0.7145141
50
323.8962701
51
328.64194
0
ARC
8
DEFAULT_255_1_388
10
17.5349895
20
0.3828545
40
0.4440242
50
328.8294576
51
331.7891185
0
ARC
8
DEFAULT_255_1_388
10
17.6472215
20
0.3249374
40
0.3177517
50
331.4254512
51
352.9365785
0
ARC
8
DEFAULT_255_1_388
10
17.6625215
20
0.321505
40
0.3021496
50
353.2257659
51
0.0166158
0
ARC
8
DEFAULT_255_1_388
10
17.6861976
20
0.3240894
40
0.2784847
50
359.486299
51
15.9343185
0
ARC
8
DEFAULT_255_1_388
10
17.7432243
20
0.3394269
40
0.2194403
50
16.1712913
51
43.5286088
0
ARC
8
DEFAULT_255_1_388
10
17.7519187
20
0.3481191
40
0.2071504
50
43.4417391
51
83.1661095
0
ARC
8
DEFAULT_255_1_388
10
17.7368348
20
0.2652316
40
0.2912888
50
82.160179
51
90.1505708
0
ARC
8
DEFAULT_255_1_388
10
17.733283
20
0.2048279
40
0.3517025
50
89.5460741
51
102.5418361
0
ARC
8
DEFAULT_255_1_388
10
17.705955
20
0.3207933
40
0.2325748
50
102.1738499
51
129.206123
0
ARC
8
DEFAULT_255_1_388
10
17.6971003
20
0.3347664
40
0.2161591
50
129.72865
51
135.753947
0
ARC
8
DEFAULT_255_1_388
10
17.7107485
20
0.3238728
40
0.2335433
50
136.1757367
51
166.3673339
0
ARC
8
DEFAULT_255_1_388
10
17.8240174
20
0.2935148
40
0.3507873
50
165.9090694
51
178.8684636
0
ARC
8
DEFAULT_255_1_388
10
17.9215945
20
0.2882263
40
0.4484624
50
178.4391136
51
180.0083808
0
ARC
8
DEFAULT_255_1_388
10
17.7636647
20
0.2926197
40
0.4577138
50
163.2878482
51
180.5581842
0
ARC
8
DEFAULT_255_1_388
10
17.6734688
20
0.3174393
40
0.3641968
50
133.4540601
51
162.947111
0
ARC
8
DEFAULT_255_1_388
10
17.693557
20
0.2960789
40
0.3935189
50
100.7869829
51
133.4382499
0
ARC
8
DEFAULT_255_1_388
10
17.7326815
20
0.1218399
40
0.5720313
50
89.660664
51
101.3702276
0
ARC
8
DEFAULT_255_1_388
10
17.7401424
20
0.1287263
40
0.5651495
50
78.2172678
51
90.412935
0
ARC
8
DEFAULT_255_1_388
10
17.7800889
20
0.3114511
40
0.378122
50
55.9269121
51
78.4888449
0
ARC
8
DEFAULT_255_1_388
10
17.8021605
20
0.3495187
40
0.3342379
50
47.929771
51
55.4049217
0
ARC
8
DEFAULT_255_1_388
10
17.8136135
20
0.3611618
40
0.3179217
50
4.334829
51
48.0560205
0
ARC
8
DEFAULT_255_1_388
10
17.6903937
20
0.3420487
40
0.442341
50
359.9251713
51
5.5971671
0
ARC
8
DEFAULT_255_1_388
10
17.7386091
20
0.3483728
40
0.3941854
50
337.8914027
51
358.9967534
0
ARC
8
DEFAULT_255_1_388
10
17.4333661
20
0.4661295
40
0.7213271
50
326.9132501
51
338.3508308
0
ARC
8
DEFAULT_255_1_388
10
16.9849773
20
0.7535105
40
1.2538973
50
319.6471833
51
327.0959558
0
ARC
8
DEFAULT_255_1_388
10
16.5536431
20
1.109305
40
1.8129975
50
317.2588228
51
319.9045804
0
ARC
8
DEFAULT_255_2_778
10
20.2534188
20
168.2366525
40
0.3580657
50
89.9945037
51
180.0054963
0
ARC
8
DEFAULT_255_2_778
10
20.2534875
20
168.2366525
40
0.3580657
50
359.9945037
51
90.0054963
0
ARC
8
DEFAULT_255_2_778
10
20.2534875
20
168.2365838
40
0.3580657
50
269.9945037
51
0.0054963
0
ARC
8
DEFAULT_255_2_778
10
20.2534188
20
168.2365838
40
0.3580657
50
179.9945037
51
270.0054963
0
ARC
8
DEFAULT_255_2_778
10
22.9622406
20
167.968282
40
2.3282817
50
111.9150345
51
128.7655504
0
ARC
8
DEFAULT_255_2_778
10
22.8791007
20
168.100352
40
2.1733214
50
129.2366206
51
154.7721516
0
ARC
8
DEFAULT_255_2_778
10
23.480657
20
167.8045583
40
2.8435961
50
154.5467617
51
165.9285636
0
ARC
8
DEFAULT_255_2_778
10
23.9646902
20
167.6671212
40
3.3465569
50
165.6609748
51
166.525375
0
ARC
8
DEFAULT_255_2_778
10
21.5282291
20
168.8853171
40
1.414623
50
156.0627036
51
175.7189082
0
ARC
8
DEFAULT_255_2_778
10
22.1164502
20
168.631783
40
2.0551309
50
144.7505594
51
156.2560535
0
ARC
8
DEFAULT_255_2_778
10
22.8861799
20
168.0964863
40
2.9926766
50
137.345293
51
144.8863205
0
ARC
8
DEFAULT_255_2_778
10
23.8131446
20
167.2473407
40
4.2497776
50
131.6389266
51
137.393651
0
ARC
8
DEFAULT_255_2_778
10
24.5393492
20
166.4506248
40
5.3277326
50
130.1334351
51
131.7826198
0
LINE
8
DEFAULT_255_2_778
10
19.8953532
20
168.2366182
11
19.8953532
21
168.2366182
0
LINE
8
DEFAULT_255_2_778
10
21.1052532
20
170.5239182
11
22.0932532
21
170.1283182
0
LINE
8
DEFAULT_255_2_778
10
20.7102532
20
168.4469182
11
20.1175532
21
168.9909182
0
LINE
8
DEFAULT_255_2_778
10
21.1052532
20
170.5239182
11
21.1052532
21
170.5239182
0
ARC
8
DEFAULT_255_2_778
10
13.7594907
20
169.0601437
40
0.8717226
50
88.9281645
51
133.9885749
0
ARC
8
DEFAULT_255_2_778
10
13.7757454
20
168.8350604
40
1.0966534
50
88.9487005
51
89.9972984
0
ARC
8
DEFAULT_255_2_778
10
13.7953
20
169.1305011
40
0.8010283
50
72.1310318
51
89.9594908
0
ARC
8
DEFAULT_255_2_778
10
13.8705373
20
169.3875083
40
0.5333823
50
60.6505783
51
71.3519493
0
ARC
8
DEFAULT_255_2_778
10
13.9543387
20
169.5146349
40
0.3816498
50
20.3938858
51
62.2625554
0
ARC
8
DEFAULT_255_2_778
10
14.9704645
20
169.0266628
40
0.9050345
50
89.7568633
51
136.6758865
0
ARC
8
DEFAULT_255_2_778
10
14.9742773
20
168.9090709
40
1.0226182
50
88.9864436
51
89.9984426
0
ARC
8
DEFAULT_255_2_778
10
14.992248
20
169.148192
40
0.7833372
50
71.373585
51
89.9913488
0
ARC
8
DEFAULT_255_2_778
10
15.0841803
20
169.427042
40
0.489734
50
42.2193789
51
71.1458349
0
ARC
8
DEFAULT_255_2_778
10
15.0590908
20
169.4195658
40
0.5134635
50
8.5226311
51
40.9558105
0
ARC
8
DEFAULT_255_2_778
10
14.7367896
20
169.3543045
40
0.8420446
50
359.6942069
51
9.6641803
0
ARC
8
DEFAULT_255_2_778
10
14.4472507
20
169.3513277
40
1.1315727
50
355.5855084
51
359.923173
0
ARC
8
DEFAULT_255_2_778
10
14.2502845
20
169.3236289
40
0.7547163
50
352.4548626
51
359.7652122
0
ARC
8
DEFAULT_255_2_778
10
14.4078893
20
169.3207192
40
0.5971052
50
359.9824407
51
2.1700815
0
ARC
8
DEFAULT_255_2_778
10
14.8167551
20
169.3365752
40
0.1879327
50
2.0595693
51
88.944897
0
ARC
8
DEFAULT_255_2_778
10
14.7529878
20
169.0492725
40
0.4799353
50
81.9476992
51
88.9638763
0
ARC
8
DEFAULT_255_2_778
10
14.7641352
20
169.0431844
40
0.4859511
50
90.2910974
51
140.7094043
0
ARC
8
DEFAULT_255_2_778
10
14.950423
20
168.8503111
40
0.7529164
50
138.3264016
51
141.8088804
0
ARC
8
DEFAULT_255_2_778
10
13.0111845
20
169.3202289
40
0.7547163
50
352.4548626
51
359.7652122
0
ARC
8
DEFAULT_255_2_778
10
13.1687893
20
169.3173192
40
0.5971052
50
359.9824407
51
2.1700815
0
ARC
8
DEFAULT_255_2_778
10
13.5767327
20
169.3341775
40
0.1888212
50
1.7455696
51
88.6065628
0
ARC
8
DEFAULT_255_2_778
10
13.5151974
20
169.0578897
40
0.469731
50
81.9072271
51
88.8693446
0
ARC
8
DEFAULT_255_2_778
10
13.5126914
20
169.0178568
40
0.5098084
50
88.6765396
51
89.9981553
0
ARC
8
DEFAULT_255_2_778
10
13.5179114
20
169.0214569
40
0.5062351
50
90.5889431
51
134.9317856
0
ARC
8
DEFAULT_255_2_778
10
13.6708307
20
168.8310835
40
0.749469
50
132.9288129
51
135.7848647
0
LINE
8
DEFAULT_255_2_778
10
12.6682663
20
169.8974292
11
13.2005663
21
169.8990292
0
LINE
8
DEFAULT_255_2_778
10
13.2005663
20
169.8990292
11
13.1540663
21
169.6873292
0
LINE
8
DEFAULT_255_2_778
10
15.5754663
20
169.2642292
11
15.5715663
21
169.2214292
0
LINE
8
DEFAULT_255_2_778
10
15.5715663
20
169.2214292
11
15.3386663
21
168.0360292
0
LINE
8
DEFAULT_255_2_778
10
15.3386663
20
168.0360292
11
14.7655663
21
168.0360292
0
LINE
8
DEFAULT_255_2_778
10
14.7655663
20
168.0360292
11
14.9984663
21
169.2245292
0
LINE
8
DEFAULT_255_2_778
10
14.3586663
20
169.3158292
11
14.3525663
21
169.2764292
0
LINE
8
DEFAULT_255_2_778
10
14.3525663
20
169.2764292
11
14.0975663
21
168.0360292
0
LINE
8
DEFAULT_255_2_778
10
14.0975663
20
168.0360292
11
13.5265663
21
168.0360292
0
LINE
8
DEFAULT_255_2_778
10
13.5265663
20
168.0360292
11
13.7593663
21
169.2211292
0
LINE
8
DEFAULT_255_2_778
10
13.1336663
20
169.3537292
11
12.8603663
21
168.0360292
0
LINE
8
DEFAULT_255_2_778
10
12.8603663
20
168.0360292
11
12.2893663
21
168.0360292
0
LINE
8
DEFAULT_255_2_778
10
12.2893663
20
168.0360292
11
12.6679663
21
169.8971292
0
LINE
8
DEFAULT_255_2_778
10
12.6679663
20
169.8971292
11
12.6682663
21
169.8974292
0
ARC
8
DEFAULT_255_2_778
10
16.6200314
20
168.7468402
40
1.1831221
50
72.5008211
51
90.0103536
0
ARC
8
DEFAULT_255_2_778
10
16.6947546
20
169.0098399
40
0.9098586
50
60.3242318
51
72.0085714
0
ARC
8
DEFAULT_255_2_778
10
16.7751051
20
169.1303126
40
0.7654736
50
24.9543019
51
61.0852427
0
ARC
8
DEFAULT_255_2_778
10
16.6805787
20
169.0884465
40
0.8688408
50
359.4872778
51
24.8275177
0
ARC
8
DEFAULT_255_2_778
10
16.4736992
20
169.0820476
40
1.0756863
50
353.6171666
51
359.9267064
0
ARC
8
DEFAULT_255_2_778
10
16.4716416
20
169.0520267
40
1.0748142
50
309.833105
51
355.2199932
0
ARC
8
DEFAULT_255_2_778
10
16.4131023
20
169.1186469
40
1.1634726
50
274.0073872
51
309.9453537
0
ARC
8
DEFAULT_255_2_778
10
16.3618881
20
169.4871028
40
1.5348158
50
269.9462811
51
274.9533663
0
ARC
8
DEFAULT_255_2_778
10
16.3604833
20
169.6108871
40
1.6585995
50
269.1686307
51
269.9988202
0
ARC
8
DEFAULT_255_2_778
10
16.3366284
20
169.1233137
40
1.1708514
50
252.109196
51
269.9896888
0
ARC
8
DEFAULT_255_2_778
10
16.2647024
20
168.8739636
40
0.9114995
50
240.54759
51
251.5966758
0
ARC
8
DEFAULT_255_2_778
10
16.185195
20
168.7512089
40
0.7655666
50
205.2400495
51
241.211713
0
ARC
8
DEFAULT_255_2_778
10
16.2656131
20
168.7885634
40
0.8542357
50
179.5359208
51
205.2063167
0
ARC
8
DEFAULT_255_2_778
10
16.4526722
20
168.7941956
40
1.0412677
50
173.5392122
51
179.9291923
0
ARC
8
DEFAULT_255_2_778
10
16.6391822
20
168.7826758
40
1.2279263
50
153.4099026
51
173.9843619
0
ARC
8
DEFAULT_255_2_778
10
16.4795759
20
168.8504448
40
1.0549233
50
129.6863931
51
152.8211827
0
ARC
8
DEFAULT_255_2_778
10
16.5417015
20
168.7798495
40
1.1489256
50
92.7623759
51
129.8224215
0
ARC
8
DEFAULT_255_2_778
10
16.5842324
20
168.4364549
40
1.494196
50
89.9700369
51
93.7568045
0
ARC
8
DEFAULT_255_2_778
10
16.5849025
20
168.3348597
40
1.5957911
50
88.7355209
51
89.9960014
0
ARC
8
DEFAULT_255_2_778
10
16.440941
20
168.7268885
40
0.4286317
50
179.6425826
51
209.446387
0
ARC
8
DEFAULT_255_2_778
10
16.3397227
20
168.6797221
40
0.3174207
50
211.0145463
51
223.1431724
0
ARC
8
DEFAULT_255_2_778
10
16.3473644
20
168.6976914
40
0.3353769
50
224.4904912
51
268.822899
0
ARC
8
DEFAULT_255_2_778
10
16.3773318
20
168.9096578
40
0.5485121
50
266.1471365
51
268.8180779
0
ARC
8
DEFAULT_255_2_778
10
16.3834553
20
169.0392665
40
0.6782284
50
268.5267288
51
269.9955114
0
ARC
8
DEFAULT_255_2_778
10
16.3990244
20
168.8487446
40
0.4879566
50
268.1653241
51
325.4286401
0
ARC
8
DEFAULT_255_2_778
10
16.1704714
20
169.0153589
40
0.7707306
50
324.8706977
51
351.0886768
0
ARC
8
DEFAULT_255_2_778
10
15.7623203
20
169.094259
40
1.1862684
50
350.3775551
51
0.2885744
0
ARC
8
DEFAULT_255_2_778
10
15.4717207
20
169.0999545
40
1.4768528
50
0.0108339
51
1.7075744
0
ARC
8
DEFAULT_255_2_778
10
16.4937051
20
169.1348496
40
0.454304
50
1.1493477
51
31.2464652
0
ARC
8
DEFAULT_255_2_778
10
16.5878645
20
169.1815769
40
0.3496776
50
32.703807
51
41.7810929
0
ARC
8
DEFAULT_255_2_778
10
16.6096538
20
169.1909534
40
0.3272685
50
43.0987922
51
88.7571407
0
ARC
8
DEFAULT_255_2_778
10
16.5789566
20
168.9786359
40
0.5408314
50
85.992647
51
88.8704975
0
ARC
8
DEFAULT_255_2_778
10
16.5725658
20
168.8767668
40
0.6428217
50
88.4799611
51
89.9943311
0
ARC
8
DEFAULT_255_2_778
10
16.5615546
20
169.0300787
40
0.4896349
50
88.7039519
51
145.0513377
0
ARC
8
DEFAULT_255_2_778
10
16.7596375
20
168.8767936
40
0.7399051
50
144.1087108
51
170.2824956
0
ARC
8
DEFAULT_255_2_778
10
17.1861971
20
168.7896764
40
1.1751307
50
169.6063184
51
180.3528002
0
ARC
8
DEFAULT_255_2_778
10
17.5222698
20
168.7828441
40
1.5111813
50
180.0153016
51
182.009194
0
LINE
8
DEFAULT_255_2_778
10
16.6201176
20
169.9302623
11
16.6198176
21
169.9299623
0
LINE
8
DEFAULT_255_2_778
10
16.0120176
20
168.7298623
11
16.0123176
21
168.7295623
0
ARC
8
DEFAULT_255_2_778
10
18.587937
20
167.8080854
40
1.642039
50
81.2830361
51
86.628458
0
ARC
8
DEFAULT_255_2_778
10
18.6429757
20
168.6465313
40
0.8018272
50
87.0310432
51
89.8986713
0
ARC
8
DEFAULT_255_2_778
10
18.6242064
20
168.5578997
40
0.8906863
50
88.7012797
51
89.9954117
0
ARC
8
DEFAULT_255_2_778
10
18.6103452
20
168.8021623
40
0.6465738
50
88.765285
51
116.6201427
0
ARC
8
DEFAULT_255_2_778
10
18.5802548
20
168.8861694
40
0.5580924
50
117.7228833
51
138.7756782
0
ARC
8
DEFAULT_255_2_778
10
18.7590475
20
169.2523707
40
0.6980151
50
116.489914
51
143.0810972
0
ARC
8
DEFAULT_255_2_778
10
18.7053938
20
169.3324223
40
0.6025621
50
89.4580016
51
115.3188873
0
ARC
8
DEFAULT_255_2_778
10
18.6965205
20
168.9976885
40
0.9373821
50
77.9674605
51
89.1092017
0
ARC
8
DEFAULT_255_2_778
10
18.6028478
20
168.4671466
40
1.4759175
50
78.008513
51
78.7045202
0
LINE
8
DEFAULT_255_2_778
10
18.9094938
20
169.9111573
11
18.8367938
21
169.4311573
0
LINE
8
DEFAULT_255_2_778
10
18.1604938
20
169.2539573
11
17.9072938
21
168.0360573
0
LINE
8
DEFAULT_255_2_778
10
17.9072938
20
168.0360573
11
17.3362938
21
168.0360573
0
LINE
8
DEFAULT_255_2_778
10
17.3362938
20
168.0360573
11
17.7169938
21
169.8971573
0
LINE
8
DEFAULT_255_2_778
10
17.7169938
20
169.8971573
11
18.2535938
21
169.8987573
0
LINE
8
DEFAULT_255_2_778
10
18.2535938
20
169.8987573
11
18.2009938
21
169.6716573
0
LINE
8
DEFAULT_255_2_778
10
18.9094938
20
169.9108573
11
18.9094938
21
169.9111573
0
ARC
8
DEFAULT_255_2_778
10
19.1571667
20
169.122675
40
1.1701724
50
250.1393411
51
270.3226852
0
ARC
8
DEFAULT_255_2_778
10
19.1022051
20
168.9428343
40
0.9824012
50
242.0502734
51
249.5907868
0
ARC
8
DEFAULT_255_2_778
10
19.001531
20
168.7833015
40
0.794417
50
208.3292132
51
243.0715083
0
ARC
8
DEFAULT_255_2_778
10
18.9937252
20
168.7742929
40
0.7832826
50
179.5739013
51
208.0201199
0
ARC
8
DEFAULT_255_2_778
10
19.1404713
20
168.7793153
40
0.9300073
50
174.3657638
51
179.9505495
0
ARC
8
DEFAULT_255_2_778
10
19.3222378
20
168.82118
40
1.1074063
50
145.2485417
51
173.7769976
0
ARC
8
DEFAULT_255_2_778
10
19.3043239
20
168.8456177
40
1.0788028
50
116.4826416
51
145.7726174
0
ARC
8
DEFAULT_255_2_778
10
19.3348976
20
168.7759316
40
1.1548163
50
89.3335424
51
116.2986099
0
ARC
8
DEFAULT_255_2_778
10
19.3482483
20
168.5335133
40
1.3971563
50
88.7200635
51
89.9966493
0
ARC
8
DEFAULT_255_2_778
10
19.3739264
20
168.8179187
40
1.1124162
50
73.6937809
51
89.7151452
0
ARC
8
DEFAULT_255_2_778
10
19.4851962
20
169.1898827
40
0.7241771
50
40.439997
51
73.880282
0
ARC
8
DEFAULT_255_2_778
10
19.4514712
20
169.1679387
40
0.7640962
50
0.3370816
51
40.0519836
0
ARC
8
DEFAULT_255_2_778
10
19.2137457
20
169.144313
40
1.0022031
50
359.994028
51
1.6078833
0
ARC
8
DEFAULT_255_2_778
10
19.0846833
20
169.1464808
40
1.1312679
50
353.167063
51
359.8849147
0
ARC
8
DEFAULT_255_2_778
10
18.9406155
20
169.1612227
40
1.2760687
50
352.3939633
51
353.279462
0
ARC
8
DEFAULT_255_2_778
10
19.1535012
20
168.7226797
40
0.3608489
50
171.5634883
51
179.9015639
0
ARC
8
DEFAULT_255_2_778
10
19.1262943
20
168.7268702
40
0.3336607
50
180.6131262
51
227.843893
0
ARC
8
DEFAULT_255_2_778
10
19.2043051
20
168.9885151
40
0.5918171
50
239.3225098
51
268.8255118
0
ARC
8
DEFAULT_255_2_778
10
19.2271512
20
169.2219016
40
0.8258202
50
267.5725716
51
270.0162941
0
ARC
8
DEFAULT_255_2_778
10
19.2268973
20
169.3056346
40
0.9095533
50
270.0307885
51
273.2244191
0
ARC
8
DEFAULT_255_2_778
10
19.2542379
20
168.6452649
40
0.2488861
50
275.4917641
51
302.3582203
0
ARC
8
DEFAULT_255_2_778
10
19.3200418
20
168.5293063
40
0.115896
50
305.561706
51
314.7657745
0
ARC
8
DEFAULT_255_2_778
10
19.3095773
20
168.5621064
40
0.1473882
50
308.6632861
51
359.3837416
0
ARC
8
DEFAULT_255_2_778
10
17.807225
20
170.2847828
40
2.962762
50
318.8021847
51
324.4102292
0
ARC
8
DEFAULT_255_2_778
10
18.7925821
20
169.4164505
40
1.6494092
50
310.4033061
51
318.953359
0
ARC
8
DEFAULT_255_2_778
10
19.3188808
20
168.7898187
40
0.831118
50
295.9312381
51
310.7744109
0
ARC
8
DEFAULT_255_2_778
10
19.4407027
20
168.5609771
40
0.5721233
50
294.3678437
51
294.9811966
0
ARC
8
DEFAULT_255_2_778
10
19.1940828
20
169.3279614
40
1.3756016
50
269.5724547
51
290.5412856
0
ARC
8
DEFAULT_255_2_778
10
19.1838577
20
169.5462488
40
1.5938505
50
269.2881822
51
269.9985732
0
ARC
8
DEFAULT_255_2_778
10
19.3390649
20
168.9596819
40
0.5598634
50
88.7931239
51
89.9984438
0
ARC
8
DEFAULT_255_2_778
10
19.3326983
20
169.0565553
40
0.463034
50
89.2102909
51
125.5845733
0
ARC
8
DEFAULT_255_2_778
10
19.4008068
20
168.9848825
40
0.5611219
50
126.9818839
51
147.669232
0
ARC
8
DEFAULT_255_2_778
10
19.876359
20
168.6651894
40
1.1340353
50
146.870707
51
156.2884785
0
ARC
8
DEFAULT_255_2_778
10
19.2333366
20
169.2433392
40
0.4293753
50
349.7481736
51
359.8266598
0
ARC
8
DEFAULT_255_2_778
10
19.2961469
20
169.2425983
40
0.3665636
50
359.9127606
51
9.1392387
0
ARC
8
DEFAULT_255_2_778
10
19.4131569
20
169.2570587
40
0.2487794
50
10.1315408
51
54.8294252
0
ARC
8
DEFAULT_255_2_778
10
19.3593417
20
169.1612413
40
0.3582778
50
56.6210187
51
91.3472693
0
LINE
8
DEFAULT_255_2_778
10
18.2149569
20
168.8706211
11
18.2213569
21
168.9412211
0
LINE
8
DEFAULT_255_2_778
10
20.2054569
20
168.9923211
11
20.1723569
21
168.7756211
0
LINE
8
DEFAULT_255_2_778
10
20.1723569
20
168.7756211
11
18.7965569
21
168.7756211
0
LINE
8
DEFAULT_255_2_778
10
19.4569569
20
168.5605211
11
20.2165569
21
168.5605211
0
LINE
8
DEFAULT_255_2_778
10
18.8380569
20
169.1212211
11
19.6434569
21
169.1212211
0
LINE
8
DEFAULT_255_2_778
10
19.6434569
20
169.1212211
11
19.6558569
21
169.1669211
0
LINE
8
DEFAULT_255_2_778
10
11.4252281
20
169.7080177
11
12.8081281
21
168.8920177
0
LINE
8
DEFAULT_255_2_778
10
12.8081281
20
168.8920177
11
11.2770281
21
168.2986177
0
LINE
8
DEFAULT_255_2_778
10
11.2770281
20
168.2986177
11
11.5979281
21
169.0156177
0
LINE
8
DEFAULT_255_2_778
10
11.5979281
20
169.0156177
11
11.4252281
21
169.7080177
0
ARC
8
DEFAULT_255_2_778
10
7.8633492
20
169.4276349
40
1.734445
50
345.0500681
51
0.450213
0
ARC
8
DEFAULT_255_2_778
10
8.1424128
20
169.3634315
40
1.4482985
50
339.8011311
51
344.6559926
0
ARC
8
DEFAULT_255_2_778
10
8.2241959
20
169.3179595
40
1.3559213
50
318.9869254
51
340.4112117
0
ARC
8
DEFAULT_255_2_778
10
8.3403786
20
169.2300223
40
1.2105876
50
317.7755753
51
318.5188915
0
ARC
8
DEFAULT_255_2_778
10
8.3677776
20
169.2041224
40
1.1728926
50
293.4453171
51
317.8130059
0
ARC
8
DEFAULT_255_2_778
10
8.3381728
20
169.2823502
40
1.2564472
50
269.4376299
51
293.2645473
0
ARC
8
DEFAULT_255_2_778
10
8.6390116
20
169.4904305
40
1.0182316
50
68.112945
51
90.7974227
0
ARC
8
DEFAULT_255_2_778
10
8.6827218
20
169.6257759
40
0.8764035
50
66.6600337
51
67.4660887
0
ARC
8
DEFAULT_255_2_778
10
8.6950616
20
169.6375129
40
0.860764
50
41.8199578
51
67.1046866
0
ARC
8
DEFAULT_255_2_778
10
8.5939144
20
169.5612866
40
0.9870277
50
18.4442061
51
41.2024761
0
ARC
8
DEFAULT_255_2_778
10
8.2913394
20
169.4576986
40
1.3068358
50
359.9236227
51
18.5554774
0
ARC
8
DEFAULT_255_2_778
10
7.9767371
20
169.4412824
40
1.6215036
50
359.9993331
51
0.5185192
0
ARC
8
DEFAULT_255_2_778
10
8.1161265
20
169.4474191
40
1.1556879
50
359.3527282
51
15.3461488
0
ARC
8
DEFAULT_255_2_778
10
8.3555709
20
169.5025091
40
0.9102591
50
15.9909101
51
17.2384514
0
ARC
8
DEFAULT_255_2_778
10
8.5215656
20
169.5659942
40
0.7329962
50
16.3441173
51
39.0583428
0
ARC
8
DEFAULT_255_2_778
10
8.6385861
20
169.6515513
40
0.5882641
50
39.7694118
51
66.0014919
0
ARC
8
DEFAULT_255_2_778
10
8.6052911
20
169.5585083
40
0.6868457
50
66.6208799
51
90.9301944
0
ARC
8
DEFAULT_255_2_778
10
8.3674619
20
169.1535777
40
0.865983
50
269.2774049
51
294.6427005
0
ARC
8
DEFAULT_255_2_778
10
8.3809787
20
169.1055801
40
0.8167574
50
295.184769
51
321.1699914
0
ARC
8
DEFAULT_255_2_778
10
8.188821
20
169.2520326
40
1.0582969
50
321.5163412
51
341.7776814
0
ARC
8
DEFAULT_255_2_778
10
7.8940618
20
169.3675931
40
1.374523
50
341.044332
51
342.4824039
0
ARC
8
DEFAULT_255_2_778
10
7.7898077
20
169.3892334
40
1.4804949
50
342.8981919
51
356.6952858
0
ARC
8
DEFAULT_255_2_778
10
7.2862441
20
169.4329849
40
1.9857973
50
356.2725814
51
0.0484329
0
LINE
8
DEFAULT_255_2_778
10
8.3258407
20
168.0259635
11
7.2765407
21
168.0016635
0
LINE
8
DEFAULT_255_2_778
10
7.2765407
20
168.0016635
11
7.7858407
21
170.5085635
0
LINE
8
DEFAULT_255_2_778
10
7.7858407
20
170.5085635
11
8.6248407
21
170.5085635
0
LINE
8
DEFAULT_255_2_778
10
9.5982407
20
169.4412635
11
9.5977407
21
169.4412635
0
LINE
8
DEFAULT_255_2_778
10
8.5941407
20
170.2452635
11
7.9962407
21
170.2272635
0
LINE
8
DEFAULT_255_2_778
10
7.9962407
20
170.2272635
11
7.6363407
21
168.2490635
0
LINE
8
DEFAULT_255_2_778
10
7.6363407
20
168.2490635
11
8.3565407
21
168.2876635
0
LINE
8
DEFAULT_255_2_778
10
9.2720407
20
169.4346635
11
9.2717407
21
169.4343635
0
ARC
8
DEFAULT_255_2_778
10
10.302374
20
168.829919
40
0.5777251
50
269.3131992
51
298.9193317
0
ARC
8
DEFAULT_255_2_778
10
10.2422898
20
168.9345114
40
0.6983333
50
299.0845099
51
323.1838183
0
ARC
8
DEFAULT_255_2_778
10
10.0730419
20
169.0584915
40
0.9081244
50
323.3206017
51
342.9705556
0
ARC
8
DEFAULT_255_2_778
10
9.9076255
20
169.1159416
40
1.0831324
50
342.6274164
51
0.2324268
0
ARC
8
DEFAULT_255_2_778
10
10.2433391
20
169.1330185
40
0.7475175
50
359.0278167
51
16.1300251
0
ARC
8
DEFAULT_255_2_778
10
10.5672449
20
169.2261392
40
0.4104922
50
16.2042834
51
41.9480466
0
ARC
8
DEFAULT_255_2_778
10
10.5796118
20
169.2179262
40
0.4070383
50
43.9719544
51
85.3997935
0
ARC
8
DEFAULT_255_2_778
10
10.5322186
20
168.9422297
40
0.686108
50
83.300847
51
90.1477804
0
ARC
8
DEFAULT_255_2_778
10
10.5219616
20
169.0469474
40
0.58145
50
89.163628
51
118.6648078
0
ARC
8
DEFAULT_255_2_778
10
10.581079
20
168.9499564
40
0.6949321
50
119.1056578
51
143.2104754
0
ARC
8
DEFAULT_255_2_778
10
10.7542438
20
168.8229766
40
0.9096571
50
143.3373192
51
162.9538381
0
ARC
8
DEFAULT_255_2_778
10
10.9180519
20
168.7659321
40
1.0830106
50
162.6089297
51
180.2167337
0
ARC
8
DEFAULT_255_2_778
10
10.590132
20
168.7491465
40
0.7551896
50
179.037255
51
196.0102976
0
ARC
8
DEFAULT_255_2_778
10
10.2623689
20
168.6556213
40
0.4143448
50
196.0798237
51
221.5429745
0
ARC
8
DEFAULT_255_2_778
10
10.2435386
20
168.6572741
40
0.4015819
50
223.501568
51
264.945498
0
ARC
8
DEFAULT_255_2_778
10
10.2934062
20
168.937423
40
0.6854906
50
262.8561454
51
270.170743
0
ARC
8
DEFAULT_255_2_778
10
10.2496801
20
168.9951733
40
0.993603
50
251.4783364
51
270.6555979
0
ARC
8
DEFAULT_255_2_778
10
10.1671823
20
168.7494369
40
0.7343883
50
228.2272369
51
251.4910714
0
ARC
8
DEFAULT_255_2_778
10
10.1298392
20
168.6987077
40
0.671704
50
202.6960886
51
227.720176
0
ARC
8
DEFAULT_255_2_778
10
10.2495562
20
168.7440656
40
0.7996635
50
179.6456167
51
202.3846702
0
ARC
8
DEFAULT_255_2_778
10
10.5173927
20
168.7602351
40
1.0675438
50
179.9999853
51
180.6023814
0
ARC
8
DEFAULT_255_2_778
10
10.5536721
20
168.767223
40
1.1038452
50
157.230675
51
180.3627006
0
ARC
8
DEFAULT_255_2_778
10
10.5843324
20
168.7576196
40
1.135837
50
135.6908415
51
157.3825693
0
ARC
8
DEFAULT_255_2_778
10
10.5546282
20
168.784315
40
1.0959349
50
113.1058727
51
135.604761
0
ARC
8
DEFAULT_255_2_778
10
10.5551078
20
168.7885049
40
1.0922713
50
89.5047522
51
113.2152626
0
ARC
8
DEFAULT_255_2_778
10
10.5759287
20
168.8854295
40
0.9953709
50
71.5130801
51
90.6550541
0
ARC
8
DEFAULT_255_2_778
10
10.6573575
20
169.1312115
40
0.7364524
50
48.2602918
51
71.4580165
0
ARC
8
DEFAULT_255_2_778
10
10.6956984
20
169.1846961
40
0.6710546
50
22.5497085
51
47.6627683
0
ARC
8
DEFAULT_255_2_778
10
10.5670556
20
169.1353328
40
0.8088011
50
359.0650515
51
22.2845409
0
ARC
8
DEFAULT_255_2_778
10
10.2767028
20
169.1160709
40
1.0990629
50
337.1812514
51
0.316152
0
ARC
8
DEFAULT_255_2_778
10
10.2412655
20
169.1266512
40
1.135837
50
315.6908415
51
337.3825693
0
ARC
8
DEFAULT_255_2_778
10
10.2631229
20
169.1086107
40
1.1075969
50
293.2336194
51
315.5688359
0
ARC
8
DEFAULT_255_2_778
10
10.268874
20
169.0879991
40
1.0863919
50
269.5873092
51
293.383724
0
LINE
8
DEFAULT_255_2_778
10
10.295449
20
168.2519354
11
10.295449
21
168.2522354
0
LINE
8
DEFAULT_255_2_778
10
10.261049
20
168.0016354
11
10.261049
21
168.0016354
0
LINE
8
DEFAULT_255_1_388
10
11.371491
20
166.7018898
11
11.371491
21
165.3863
0
LINE
8
DEFAULT_255_1_388
10
11.371491
20
165.3863
11
11.1971031
21
165.3863
0
LINE
8
DEFAULT_255_1_388
10
11.1971031
20
165.3863
11
11.1971031
21
165.9943989
0
LINE
8
DEFAULT_255_1_388
10
11.1971031
20
165.9943989
11
10.5338868
21
165.9943989
0
LINE
8
DEFAULT_255_1_388
10
10.5338868
20
165.9943989
11
10.5338868
21
165.3863
0
LINE
8
DEFAULT_255_1_388
10
10.5338868
20
165.3863
11
10.3604024
21
165.3863
0
LINE
8
DEFAULT_255_1_388
10
10.3604024
20
165.3863
11
10.3604024
21
166.7018898
0
LINE
8
DEFAULT_255_1_388
10
10.3604024
20
166.7018898
11
10.5338868
21
166.7018898
0
LINE
8
DEFAULT_255_1_388
10
10.5338868
20
166.7018898
11
10.5338868
21
166.1362585
0
LINE
8
DEFAULT_255_1_388
10
10.5338868
20
166.1362585
11
11.1971031
21
166.1362585
0
LINE
8
DEFAULT_255_1_388
10
11.1971031
20
166.1362585
11
11.1971031
21
166.7018898
0
LINE
8
DEFAULT_255_1_388
10
11.1971031
20
166.7018898
11
11.371491
21
166.7018898
0
LINE
8
DEFAULT_255_1_388
10
12.4982359
20
165.5227382
11
12.4982359
21
165.3863
0
LINE
8
DEFAULT_255_1_388
10
12.4982359
20
165.3863
11
11.6362354
21
165.3863
0
LINE
8
DEFAULT_255_1_388
10
11.6362354
20
165.3863
11
11.6362354
21
165.5064741
0
LINE
8
DEFAULT_255_1_388
10
11.6362354
20
165.5064741
11
12.0916319
21
166.0124702
0
LINE
8
DEFAULT_255_1_388
10
11.778095
20
166.3142607
11
11.6109356
21
166.3142607
0
LINE
8
DEFAULT_255_1_388
10
12.1901204
20
165.904946
11
11.8377303
21
165.5227382
0
LINE
8
DEFAULT_255_1_388
10
11.8377303
20
165.5227382
11
12.4982359
21
165.5227382
0
ARC
8
DEFAULT_255_1_388
10
10.5740378
20
167.3544983
40
2.0258655
50
318.5132526
51
320.7829045
0
ARC
8
DEFAULT_255_1_388
10
11.1688335
20
166.8703929
40
1.2589638
50
320.7372878
51
323.9739031
0
ARC
8
DEFAULT_255_1_388
10
11.6097267
20
166.5509554
40
0.7145141
50
323.8962701
51
328.64194
0
ARC
8
DEFAULT_255_1_388
10
11.8399525
20
166.4089545
40
0.4440242
50
328.8294576
51
331.7891185
0
ARC
8
DEFAULT_255_1_388
10
11.9521845
20
166.3510374
40
0.3177517
50
331.4254512
51
352.9365785
0
ARC
8
DEFAULT_255_1_388
10
11.9674845
20
166.347605
40
0.3021496
50
353.2257659
51
0.0166158
0
ARC
8
DEFAULT_255_1_388
10
11.9911605
20
166.3501894
40
0.2784847
50
359.486299
51
15.9343185
0
ARC
8
DEFAULT_255_1_388
10
12.0481872
20
166.3655269
40
0.2194403
50
16.1712913
51
43.5286088
0
ARC
8
DEFAULT_255_1_388
10
12.0568817
20
166.3742191
40
0.2071504
50
43.4417391
51
83.1661095
0
ARC
8
DEFAULT_255_1_388
10
12.0417978
20
166.2913316
40
0.2912888
50
82.160179
51
90.1505708
0
ARC
8
DEFAULT_255_1_388
10
12.0382459
20
166.2309279
40
0.3517025
50
89.5460741
51
102.5418361
0
ARC
8
DEFAULT_255_1_388
10
12.0109179
20
166.3468933
40
0.2325748
50
102.1738499
51
129.206123
0
ARC
8
DEFAULT_255_1_388
10
12.0020633
20
166.3608664
40
0.2161591
50
129.72865
51
135.753947
0
ARC
8
DEFAULT_255_1_388
10
12.0157115
20
166.3499728
40
0.2335433
50
136.1757367
51
166.3673339
0
ARC
8
DEFAULT_255_1_388
10
12.1289803
20
166.3196148
40
0.3507873
50
165.9090694
51
178.8684636
0
ARC
8
DEFAULT_255_1_388
10
12.2265575
20
166.3143263
40
0.4484624
50
178.4391136
51
180.0083808
0
ARC
8
DEFAULT_255_1_388
10
12.0686276
20
166.3187197
40
0.4577138
50
163.2878482
51
180.5581842
0
ARC
8
DEFAULT_255_1_388
10
11.9784317
20
166.3435393
40
0.3641968
50
133.4540601
51
162.947111
0
ARC
8
DEFAULT_255_1_388
10
11.9985199
20
166.3221789
40
0.3935189
50
100.7869829
51
133.4382499
0
ARC
8
DEFAULT_255_1_388
10
12.0376444
20
166.1479399
40
0.5720313
50
89.660664
51
101.3702276
0
ARC
8
DEFAULT_255_1_388
10
12.0451053
20
166.1548263
40
0.5651495
50
78.2172678
51
90.412935
0
ARC
8
DEFAULT_255_1_388
10
12.0850519
20
166.3375511
40
0.378122
50
55.9269121
51
78.4888449
0
ARC
8
DEFAULT_255_1_388
10
12.1071234
20
166.3756187
40
0.3342379
50
47.929771
51
55.4049217
0
ARC
8
DEFAULT_255_1_388
10
12.1185764
20
166.3872618
40
0.3179217
50
4.334829
51
48.0560205
0
ARC
8
DEFAULT_255_1_388
10
11.9953566
20
166.3681487
40
0.442341
50
359.9251713
51
5.5971671
0
ARC
8
DEFAULT_255_1_388
10
12.0435721
20
166.3744728
40
0.3941854
50
337.8914027
51
358.9967534
0
ARC
8
DEFAULT_255_1_388
10
11.7383291
20
166.4922295
40
0.7213271
50
326.9132501
51
338.3508308
0
ARC
8
DEFAULT_255_1_388
10
11.2899403
20
166.7796105
40
1.2538973
50
319.6471833
51
327.0959558
0
ARC
8
DEFAULT_255_1_388
10
10.8586061
20
167.135405
40
1.8129975
50
317.2588228
51
319.9045804
0
LINE
8
DEFAULT_255_1_388
10
14.0496561
20
166.3214892
11
13.8752681
21
166.3214892
0
LINE
8
DEFAULT_255_1_388
10
13.0963956
20
165.7676042
11
13.2707835
21
165.7676042
0
ARC
8
DEFAULT_255_1_388
10
13.9493408
20
167.3278821
40
1.4087688
50
248.9196578
51
254.1442424
0
ARC
8
DEFAULT_255_1_388
10
13.7603288
20
166.8412805
40
0.8867498
50
241.6337352
51
249.0064643
0
ARC
8
DEFAULT_255_1_388
10
13.5883602
20
166.5261764
40
0.5277799
50
230.4982261
51
241.8087583
0
ARC
8
DEFAULT_255_1_388
10
13.5001373
20
166.4137686
40
0.3849419
50
227.4062979
51
229.9877433
0
ARC
8
DEFAULT_255_1_388
10
13.4452719
20
166.3602155
40
0.3084129
50
200.6782127
51
228.1765252
0
ARC
8
DEFAULT_255_1_388
10
13.4534088
20
166.3585277
40
0.315461
50
179.506278
51
199.8695278
0
ARC
8
DEFAULT_255_1_388
10
13.4523677
20
166.3668671
40
0.3144584
50
132.4834401
51
181.0242352
0
ARC
8
DEFAULT_255_1_388
10
13.5192881
20
166.3036788
40
0.4063094
50
129.2526113
51
133.4249077
0
ARC
8
DEFAULT_255_1_388
10
13.5358474
20
166.2788619
40
0.436014
50
101.9878945
51
128.8741833
0
ARC
8
DEFAULT_255_1_388
10
13.5806889
20
166.085236
40
0.6347415
50
89.5906376
51
102.3170567
0
ARC
8
DEFAULT_255_1_388
10
13.5886201
20
166.1210586
40
0.5989122
50
77.2359491
51
90.3248968
0
ARC
8
DEFAULT_255_1_388
10
13.6119132
20
166.2298554
40
0.4876594
50
63.8379856
51
77.0808925
0
ARC
8
DEFAULT_255_1_388
10
13.6431665
20
166.2880882
40
0.4216191
50
45.9863127
51
64.1608798
0
ARC
8
DEFAULT_255_1_388
10
13.6725059
20
166.321599
40
0.3771394
50
32.2747934
51
45.6544796
0
ARC
8
DEFAULT_255_1_388
10
13.6799865
20
166.3237426
40
0.3696765
50
359.6507495
51
32.6129943
0
ARC
8
DEFAULT_255_1_388
10
13.5739048
20
166.3242788
40
0.3013762
50
359.469654
51
14.983205
0
ARC
8
DEFAULT_255_1_388
10
13.65323
20
166.3455288
40
0.2192542
50
14.9781954
51
48.2004799
0
ARC
8
DEFAULT_255_1_388
10
13.6347411
20
166.3222937
40
0.2489048
50
48.5926661
51
74.1242559
0
ARC
8
DEFAULT_255_1_388
10
13.5972213
20
166.1984607
40
0.3782845
50
73.7889321
51
86.6653996
0
ARC
8
DEFAULT_255_1_388
10
13.5857028
20
166.0626955
40
0.5145025
50
86.2642725
51
90.0533288
0
ARC
8
DEFAULT_255_1_388
10
13.5825121
20
166.1071376
40
0.4700681
50
89.669455
51
99.2313411
0
ARC
8
DEFAULT_255_1_388
10
13.555228
20
166.2696401
40
0.3052945
50
99.0695987
51
113.7659242
0
ARC
8
DEFAULT_255_1_388
10
13.5244275
20
166.3422772
40
0.226407
50
114.0402885
51
127.9848946
0
ARC
8
DEFAULT_255_1_388
10
13.4973751
20
166.3755884
40
0.1835045
50
127.7287217
51
176.7106493
0
ARC
8
DEFAULT_255_1_388
10
13.5737416
20
166.364221
40
0.2604907
50
175.1780759
51
180.0581213
0
ARC
8
DEFAULT_255_1_388
10
13.478876
20
166.3628411
40
0.1656287
50
179.6140658
51
228.124674
0
ARC
8
DEFAULT_255_1_388
10
13.5286117
20
166.408894
40
0.2332038
50
226.5785315
51
230.8792476
0
ARC
8
DEFAULT_255_1_388
10
13.5815604
20
166.4791908
40
0.3211664
50
231.4636401
51
241.9261664
0
ARC
8
DEFAULT_255_1_388
10
13.7162387
20
166.7270349
40
0.6032345
50
241.7177136
51
248.3259138
0
ARC
8
DEFAULT_255_1_388
10
13.8720982
20
167.1131771
40
1.0196417
50
248.2007377
51
252.4527713
0
ARC
8
DEFAULT_255_1_388
10
14.0074509
20
167.5316092
40
1.4594143
50
252.3388938
51
254.347037
0
ARC
8
DEFAULT_255_1_388
10
13.1589809
20
164.4968095
40
1.6917621
50
71.0197462
51
74.4085467
0
ARC
8
DEFAULT_255_1_388
10
13.3496897
20
165.0473144
40
1.1091618
50
66.1845203
51
71.086519
0
ARC
8
DEFAULT_255_1_388
10
13.5247446
20
165.4414439
40
0.6779073
50
59.3537334
51
66.269255
0
ARC
8
DEFAULT_255_1_388
10
13.6247172
20
165.6105777
40
0.4814366
50
49.1021732
51
59.3294421
0
ARC
8
DEFAULT_255_1_388
10
13.716816
20
165.7155575
40
0.3417875
50
32.7924183
51
49.2503526
0
ARC
8
DEFAULT_255_1_388
10
13.7517774
20
165.7405311
40
0.2988789
50
31.121225
51
32.3977355
0
ARC
8
DEFAULT_255_1_388
10
13.7429952
20
165.7372728
40
0.3080861
50
8.1116803
51
30.7958224
0
ARC
8
DEFAULT_255_1_388
10
13.6518298
20
165.7217437
40
0.4005385
50
359.8390945
51
8.4707348
0
ARC
8
DEFAULT_255_1_388
10
13.7222346
20
165.7162751
40
0.3301608
50
337.4732479
51
0.7538283
0
ARC
8
DEFAULT_255_1_388
10
13.7423371
20
165.7140554
40
0.3107929
50
307.5917028
51
336.4313755
0
ARC
8
DEFAULT_255_1_388
10
13.6912428
20
165.7708509
40
0.3870096
50
307.6560665
51
308.4561779
0
ARC
8
DEFAULT_255_1_388
10
13.6646645
20
165.8116832
40
0.435591
50
284.3733666
51
307.1426212
0
ARC
8
DEFAULT_255_1_388
10
13.6089539
20
166.0166391
40
0.6479685
50
272.4384566
51
284.6464689
0
ARC
8
DEFAULT_255_1_388
10
13.5946924
20
166.2190434
40
0.8508149
50
269.9708517
51
272.8180721
0
ARC
8
DEFAULT_255_1_388
10
13.5898607
20
165.9898283
40
0.6216151
50
248.2707343
51
270.4054609
0
ARC
8
DEFAULT_255_1_388
10
13.5837478
20
165.9683673
40
0.5994203
50
246.1380358
51
248.054058
0
ARC
8
DEFAULT_255_1_388
10
13.5366621
20
165.8694705
40
0.4899388
50
233.1671897
51
246.4951656
0
ARC
8
DEFAULT_255_1_388
10
13.4743256
20
165.7853137
40
0.3852115
50
215.3403381
51
233.084328
0
ARC
8
DEFAULT_255_1_388
10
13.443662
20
165.7630093
40
0.3472969
50
179.2419235
51
215.2648426
0
ARC
8
DEFAULT_255_1_388
10
13.5300171
20
165.7645979
40
0.259251
50
179.3355796
51
199.1045873
0
ARC
8
DEFAULT_255_1_388
10
13.4926313
20
165.7548223
40
0.2207454
50
199.8830064
51
232.7061328
0
ARC
8
DEFAULT_255_1_388
10
13.5457587
20
165.8216456
40
0.306101
50
232.3736206
51
255.5136621
0
ARC
8
DEFAULT_255_1_388
10
13.5841093
20
165.9616177
40
0.4512213
50
255.2447928
51
267.5318292
0
ARC
8
DEFAULT_255_1_388
10
13.593956
20
166.1002709
40
0.5901825
50
267.1564563
51
270.0294721
0
ARC
8
DEFAULT_255_1_388
10
13.5970885
20
166.0503623
40
0.5402814
50
269.6999944
51
278.1662446
0
ARC
8
DEFAULT_255_1_388
10
13.6258913
20
165.8556974
40
0.3435003
50
278.0229022
51
290.6255326
0
ARC
8
DEFAULT_255_1_388
10
13.6650079
20
165.7513547
40
0.2320666
50
290.6616368
51
307.0374127
0
ARC
8
DEFAULT_255_1_388
10
13.6987979
20
165.709904
40
0.1786372
50
306.3942078
51
355.303191
0
ARC
8
DEFAULT_255_1_388
10
13.6412272
20
165.7185186
40
0.2367516
50
354.3662092
51
0.0709489
0
ARC
8
DEFAULT_255_1_388
10
13.6572141
20
165.7210561
40
0.2207761
50
359.4175379
51
16.1975911
0
ARC
8
DEFAULT_255_1_388
10
13.7084259
20
165.7350954
40
0.1676828
50
16.4721294
51
52.6261798
0
ARC
8
DEFAULT_255_1_388
10
13.6160766
20
165.6131606
40
0.3206412
50
52.7381828
51
62.4979144
0
ARC
8
DEFAULT_255_1_388
10
13.4602519
20
165.3199236
40
0.6527035
50
62.2517425
51
68.1219454
0
ARC
8
DEFAULT_255_1_388
10
13.2668007
20
164.8444951
40
1.1659797
50
68.006043
51
71.8055127
0
ARC
8
DEFAULT_255_1_388
10
13.0647915
20
164.2386723
40
1.8045908
50
71.718361
51
73.9260743
0
LINE
8
DEFAULT_255_1_388
10
14.2059727
20
165.8480214
11
14.2059727
21
165.8787426
0
LINE
8
DEFAULT_255_1_388
10
15.0354449
20
165.8968139
11
15.0354449
21
165.8272395
0
LINE
8
DEFAULT_255_1_388
10
15.0354449
20
165.8272395
11
14.3731321
21
165.8272395
0
LINE
8
DEFAULT_255_1_388
10
14.9206922
20
165.6365874
11
15.022795
21
165.5570737
0
LINE
8
DEFAULT_255_1_388
10
14.3785535
20
165.9645813
11
14.8682854
21
165.9645813
0
LINE
8
DEFAULT_255_1_388
10
14.8682854
20
165.9645813
11
14.8682854
21
165.9772312
0
ARC
8
DEFAULT_255_1_388
10
14.6491488
20
165.860521
40
0.4923176
50
252.326534
51
270.5809615
0
ARC
8
DEFAULT_255_1_388
10
14.6260953
20
165.777194
40
0.4059384
50
223.3000488
51
251.8562489
0
ARC
8
DEFAULT_255_1_388
10
14.6498733
20
165.8002898
40
0.4390832
50
190.9374369
51
223.3654369
0
ARC
8
DEFAULT_255_1_388
10
14.843941
20
165.8441598
40
0.63798
50
179.6531919
51
191.4988561
0
ARC
8
DEFAULT_255_1_388
10
14.8576437
20
165.8823571
40
0.6516811
50
167.4005523
51
180.3177836
0
ARC
8
DEFAULT_255_1_388
10
14.7393109
20
165.9073853
40
0.5307402
50
154.1835149
51
167.2508278
0
ARC
8
DEFAULT_255_1_388
10
14.66827
20
165.9447925
40
0.4505076
50
134.3150225
51
154.5315008
0
ARC
8
DEFAULT_255_1_388
10
14.6438035
20
165.966255
40
0.4180662
50
122.8617482
51
133.9707159
0
ARC
8
DEFAULT_255_1_388
10
14.6321642
20
165.9912882
40
0.3907416
50
89.8248474
51
123.4199325
0
ARC
8
DEFAULT_255_1_388
10
14.637794
20
165.9185352
40
0.4635141
50
74.7874349
51
90.5482648
0
ARC
8
DEFAULT_255_1_388
10
14.6708404
20
166.0405987
40
0.3370565
50
39.8178888
51
74.7634383
0
ARC
8
DEFAULT_255_1_388
10
14.6131646
20
165.9956356
40
0.4101553
50
16.8990848
51
39.4830125
0
ARC
8
DEFAULT_255_1_388
10
14.400026
20
165.9273711
40
0.6339427
50
4.9634768
51
17.2027767
0
ARC
8
DEFAULT_255_1_388
10
14.1279665
20
165.89866
40
0.9074803
50
359.8834402
51
5.2832409
0
ARC
8
DEFAULT_255_1_388
10
14.8072023
20
165.8346981
40
0.4341343
50
180.9844233
51
194.9402766
0
ARC
8
DEFAULT_255_1_388
10
14.6891189
20
165.802417
40
0.3117211
50
194.8030557
51
222.0412897
0
ARC
8
DEFAULT_255_1_388
10
14.6549061
20
165.7684715
40
0.2635903
50
221.541578
51
268.8616004
0
ARC
8
DEFAULT_255_1_388
10
14.6631181
20
165.844528
40
0.3398611
50
267.7321071
51
270.009808
0
ARC
8
DEFAULT_255_1_388
10
14.6651245
20
165.8672178
40
0.3625561
50
269.6921218
51
280.4122297
0
ARC
8
DEFAULT_255_1_388
10
14.6849656
20
165.7638767
40
0.2573323
50
280.2257165
51
298.633539
0
ARC
8
DEFAULT_255_1_388
10
14.697507
20
165.7374578
40
0.2281403
50
299.0485543
51
300.4624141
0
ARC
8
DEFAULT_255_1_388
10
14.621605
20
165.8639796
40
0.3756797
50
300.6578578
51
322.037749
0
ARC
8
DEFAULT_255_1_388
10
14.5845572
20
165.8963266
40
0.4247956
50
321.671786
51
322.3059078
0
ARC
8
DEFAULT_255_1_388
10
14.6869135
20
165.7669267
40
0.3960488
50
276.9729088
51
328.0035579
0
ARC
8
DEFAULT_255_1_388
10
14.6557605
20
165.9334609
40
0.5652345
50
269.8358003
51
278.0581296
0
ARC
8
DEFAULT_255_1_388
10
14.6301904
20
166.017282
40
0.2274263
50
89.2017936
51
117.2852353
0
ARC
8
DEFAULT_255_1_388
10
14.6361655
20
166.0125637
40
0.2343798
50
118.0546404
51
137.4544511
0
ARC
8
DEFAULT_255_1_388
10
14.6783299
20
165.9742556
40
0.2913471
50
137.5109688
51
158.8516701
0
ARC
8
DEFAULT_255_1_388
10
14.8063399
20
165.9225902
40
0.4293804
50
158.5845496
51
170.1719753
0
ARC
8
DEFAULT_255_1_388
10
14.9379735
20
165.8964519
40
0.5635533
50
169.8378964
51
173.0563877
0
ARC
8
DEFAULT_255_1_388
10
14.4095019
20
165.9539187
40
0.4593755
50
2.9089079
51
12.88469
0
ARC
8
DEFAULT_255_1_388
10
14.5636938
20
165.9902082
40
0.3009753
50
12.6957404
51
28.6405841
0
ARC
8
DEFAULT_255_1_388
10
14.6246435
20
166.0217577
40
0.232366
50
29.016559
51
41.1492981
0
ARC
8
DEFAULT_255_1_388
10
14.6474414
20
166.041608
40
0.2021373
50
41.1646967
51
85.001362
0
ARC
8
DEFAULT_255_1_388
10
14.6338418
20
165.9589775
40
0.2857091
50
83.728216
51
90.0968824
0
LINE
8
DEFAULT_255_1_388
10
15.7013719
20
166.3693781
11
15.7013719
21
166.213965
0
LINE
8
DEFAULT_255_1_388
10
15.3959671
20
166.0802375
11
15.3959671
21
165.3863
0
LINE
8
DEFAULT_255_1_388
10
15.3959671
20
165.3863
11
15.2288077
21
165.3863
0
LINE
8
DEFAULT_255_1_388
10
15.2288077
20
165.3863
11
15.2288077
21
166.3639567
0
LINE
8
DEFAULT_255_1_388
10
15.2288077
20
166.3639567
11
15.3914493
21
166.3639567
0
LINE
8
DEFAULT_255_1_388
10
15.3914493
20
166.3639567
11
15.39416
21
166.2510112
0
ARC
8
DEFAULT_255_1_388
10
15.6263879
20
165.7573068
40
0.4627735
50
80.6751522
51
86.893806
0
ARC
8
DEFAULT_255_1_388
10
15.6195708
20
165.6481103
40
0.5721798
50
86.8046851
51
90.0423898
0
ARC
8
DEFAULT_255_1_388
10
15.6154128
20
165.9248197
40
0.2954939
50
89.2758283
51
106.6212906
0
ARC
8
DEFAULT_255_1_388
10
15.5924153
20
166.0084009
40
0.2088351
50
107.1347109
51
157.6456887
0
ARC
8
DEFAULT_255_1_388
10
15.6692215
20
165.9656908
40
0.296292
50
155.6557383
51
157.256838
0
ARC
8
DEFAULT_255_1_388
10
15.6471829
20
166.0967472
40
0.296341
50
127.8167201
51
148.6300223
0
ARC
8
DEFAULT_255_1_388
10
15.6186576
20
166.1260066
40
0.2557782
50
91.3329934
51
126.7875218
0
ARC
8
DEFAULT_255_1_388
10
15.6271964
20
166.0456718
40
0.3363561
50
89.9858247
51
92.4688453
0
ARC
8
DEFAULT_255_1_388
10
15.6281457
20
166.0765114
40
0.3055179
50
85.3587643
51
90.1624243
0
ARC
8
DEFAULT_255_1_388
10
15.6376522
20
166.1894458
40
0.1921848
50
78.4019195
51
85.4592653
0
ARC
8
DEFAULT_255_1_388
10
15.6539583
20
166.2672142
40
0.1127267
50
67.7849217
51
78.573798
0
ARC
8
DEFAULT_255_1_388
10
15.6661217
20
166.2987374
40
0.0789473
50
63.4805074
51
67.3074739
0
LINE
8
DEFAULT_255_1_388
10
16.0365943
20
166.3639567
11
16.0365943
21
165.3863
0
LINE
8
DEFAULT_255_1_388
10
16.0365943
20
165.3863
11
15.8694349
21
165.3863
0
LINE
8
DEFAULT_255_1_388
10
15.8694349
20
165.3863
11
15.8694349
21
166.3639567
0
LINE
8
DEFAULT_255_1_388
10
15.8694349
20
166.3639567
11
16.0365943
21
166.3639567
0
ARC
8
DEFAULT_255_1_388
10
15.9659711
20
166.6243428
40
0.1100948
50
161.4148232
51
180.5532607
0
ARC
8
DEFAULT_255_1_388
10
15.9520021
20
166.6281875
40
0.0956324
50
138.1830164
51
160.9307633
0
ARC
8
DEFAULT_255_1_388
10
15.9396208
20
166.6389313
40
0.0792417
50
104.6371663
51
138.0036136
0
ARC
8
DEFAULT_255_1_388
10
15.9516747
20
166.5976963
40
0.1221906
50
92.0601206
51
105.2198859
0
ARC
8
DEFAULT_255_1_388
10
15.9543111
20
166.5588583
40
0.161103
50
89.9790681
51
92.5006086
0
ARC
8
DEFAULT_255_1_388
10
15.9554287
20
166.5844998
40
0.1354654
50
78.0234649
51
90.4478111
0
ARC
8
DEFAULT_255_1_388
10
15.9657871
20
166.6310203
40
0.0878096
50
55.0521508
51
78.336297
0
ARC
8
DEFAULT_255_1_388
10
15.9714406
20
166.6405168
40
0.0767913
50
42.0506198
51
54.4508489
0
ARC
8
DEFAULT_255_1_388
10
15.9562438
20
166.6265821
40
0.0974091
50
1.7493657
51
42.1498724
0
ARC
8
DEFAULT_255_1_388
10
15.9276344
20
166.6233166
40
0.1261276
50
359.9832635
51
2.8353994
0
ARC
8
DEFAULT_255_1_388
10
15.9462754
20
166.6222412
40
0.1074916
50
342.1062453
51
0.5535864
0
ARC
8
DEFAULT_255_1_388
10
15.9623178
20
166.6178197
40
0.0908695
50
316.7110111
51
341.6513114
0
ARC
8
DEFAULT_255_1_388
10
15.969861
20
166.6110607
40
0.0807447
50
285.4398289
51
316.5320129
0
ARC
8
DEFAULT_255_1_388
10
15.9574781
20
166.6522023
40
0.1237022
50
272.3543902
51
285.8951677
0
ARC
8
DEFAULT_255_1_388
10
15.9544491
20
166.6937742
40
0.1653687
50
269.9725761
51
272.8112722
0
ARC
8
DEFAULT_255_1_388
10
15.9533543
20
166.6686727
40
0.1402709
50
258.8433431
51
270.4148607
0
ARC
8
DEFAULT_255_1_388
10
15.9432323
20
166.6196739
40
0.0902407
50
238.54281
51
259.1289544
0
ARC
8
DEFAULT_255_1_388
10
15.9355644
20
166.6057694
40
0.0743817
50
222.5056676
51
237.9918132
0
ARC
8
DEFAULT_255_1_388
10
15.9499238
20
166.6188295
40
0.0937918
50
184.1070774
51
222.4604165
0
ARC
8
DEFAULT_255_1_388
10
15.9801651
20
166.6231538
40
0.1242838
50
179.9419581
51
185.0970785
0
LINE
8
DEFAULT_255_1_388
10
16.2615818
20
165.8480214
11
16.2615818
21
165.8787426
0
LINE
8
DEFAULT_255_1_388
10
17.091054
20
165.8968139
11
17.091054
21
165.8272395
0
LINE
8
DEFAULT_255_1_388
10
17.091054
20
165.8272395
11
16.4287413
21
165.8272395
0
LINE
8
DEFAULT_255_1_388
10
16.9763013
20
165.6365874
11
17.0784041
21
165.5570737
0
LINE
8
DEFAULT_255_1_388
10
16.4341626
20
165.9645813
11
16.9238946
21
165.9645813
0
LINE
8
DEFAULT_255_1_388
10
16.9238946
20
165.9645813
11
16.9238946
21
165.9772312
0
ARC
8
DEFAULT_255_1_388
10
16.7047579
20
165.860521
40
0.4923176
50
252.326534
51
270.5809615
0
ARC
8
DEFAULT_255_1_388
10
16.6817044
20
165.777194
40
0.4059384
50
223.3000488
51
251.8562489
0
ARC
8
DEFAULT_255_1_388
10
16.7054824
20
165.8002898
40
0.4390832
50
190.9374369
51
223.3654369
0
ARC
8
DEFAULT_255_1_388
10
16.8995502
20
165.8441598
40
0.63798
50
179.6531919
51
191.4988561
0
ARC
8
DEFAULT_255_1_388
10
16.9132529
20
165.8823571
40
0.6516811
50
167.4005523
51
180.3177836
0
ARC
8
DEFAULT_255_1_388
10
16.79492
20
165.9073853
40
0.5307402
50
154.1835149
51
167.2508278
0
ARC
8
DEFAULT_255_1_388
10
16.7238791
20
165.9447925
40
0.4505076
50
134.3150225
51
154.5315008
0
ARC
8
DEFAULT_255_1_388
10
16.6994126
20
165.966255
40
0.4180662
50
122.8617482
51
133.9707159
0
ARC
8
DEFAULT_255_1_388
10
16.6877733
20
165.9912882
40
0.3907416
50
89.8248474
51
123.4199325
0
ARC
8
DEFAULT_255_1_388
10
16.6934031
20
165.9185352
40
0.4635141
50
74.7874349
51
90.5482648
0
ARC
8
DEFAULT_255_1_388
10
16.7264495
20
166.0405987
40
0.3370565
50
39.8178888
51
74.7634383
0
ARC
8
DEFAULT_255_1_388
10
16.6687737
20
165.9956356
40
0.4101553
50
16.8990848
51
39.4830125
0
ARC
8
DEFAULT_255_1_388
10
16.4556352
20
165.9273711
40
0.6339427
50
4.9634768
51
17.2027767
0
ARC
8
DEFAULT_255_1_388
10
16.1835757
20
165.89866
40
0.9074803
50
359.8834402
51
5.2832409
0
ARC
8
DEFAULT_255_1_388
10
16.8628114
20
165.8346981
40
0.4341343
50
180.9844233
51
194.9402766
0
ARC
8
DEFAULT_255_1_388
10
16.744728
20
165.802417
40
0.3117211
50
194.8030557
51
222.0412897
0
ARC
8
DEFAULT_255_1_388
10
16.7105152
20
165.7684715
40
0.2635903
50
221.541578
51
268.8616004
0
ARC
8
DEFAULT_255_1_388
10
16.7187273
20
165.844528
40
0.3398611
50
267.7321071
51
270.009808
0
ARC
8
DEFAULT_255_1_388
10
16.7207336
20
165.8672178
40
0.3625561
50
269.6921218
51
280.4122297
0
ARC
8
DEFAULT_255_1_388
10
16.7405748
20
165.7638767
40
0.2573323
50
280.2257165
51
298.633539
0
ARC
8
DEFAULT_255_1_388
10
16.7531162
20
165.7374578
40
0.2281403
50
299.0485543
51
300.4624141
0
ARC
8
DEFAULT_255_1_388
10
16.6772142
20
165.8639796
40
0.3756797
50
300.6578578
51
322.037749
0
ARC
8
DEFAULT_255_1_388
10
16.6401663
20
165.8963266
40
0.4247956
50
321.671786
51
322.3059078
0
ARC
8
DEFAULT_255_1_388
10
16.7425226
20
165.7669267
40
0.3960488
50
276.9729088
51
328.0035579
0
ARC
8
DEFAULT_255_1_388
10
16.7113697
20
165.9334609
40
0.5652345
50
269.8358003
51
278.0581296
0
ARC
8
DEFAULT_255_1_388
10
16.6857996
20
166.017282
40
0.2274263
50
89.2017936
51
117.2852353
0
ARC
8
DEFAULT_255_1_388
10
16.6917746
20
166.0125637
40
0.2343798
50
118.0546404
51
137.4544511
0
ARC
8
DEFAULT_255_1_388
10
16.733939
20
165.9742556
40
0.2913471
50
137.5109688
51
158.8516701
0
ARC
8
DEFAULT_255_1_388
10
16.8619491
20
165.9225902
40
0.4293804
50
158.5845496
51
170.1719753
0
ARC
8
DEFAULT_255_1_388
10
16.9935826
20
165.8964519
40
0.5635533
50
169.8378964
51
173.0563877
0
ARC
8
DEFAULT_255_1_388
10
16.465111
20
165.9539187
40
0.4593755
50
2.9089079
51
12.88469
0
ARC
8
DEFAULT_255_1_388
10
16.6193029
20
165.9902082
40
0.3009753
50
12.6957404
51
28.6405841
0
ARC
8
DEFAULT_255_1_388
10
16.6802526
20
166.0217577
40
0.232366
50
29.016559
51
41.1492981
0
ARC
8
DEFAULT_255_1_388
10
16.7030505
20
166.041608
40
0.2021373
50
41.1646967
51
85.001362
0
ARC
8
DEFAULT_255_1_388
10
16.6894509
20
165.9589775
40
0.2857091
50
83.728216
51
90.0968824
0
LINE
8
DEFAULT_255_1_388
10
18.0117862
20
166.0766232
11
17.8437232
21
166.0766232
0
LINE
8
DEFAULT_255_1_388
10
17.2437564
20
165.687187
11
17.4109158
21
165.687187
0
ARC
8
DEFAULT_255_1_388
10
17.7100523
20
165.6472935
40
0.1436198
50
359.3335374
51
18.5869869
0
ARC
8
DEFAULT_255_1_388
10
17.7335262
20
165.6535015
40
0.1194022
50
19.3538149
51
54.6486387
0
ARC
8
DEFAULT_255_1_388
10
17.6768249
20
165.5753077
40
0.2159877
50
54.3821575
51
65.0627557
0
ARC
8
DEFAULT_255_1_388
10
17.5903597
20
165.3934032
40
0.4173927
50
64.8282172
51
71.4204388
0
ARC
8
DEFAULT_255_1_388
10
17.4888492
20
165.0955782
40
0.7320403
50
71.3166092
51
75.8005927
0
ARC
8
DEFAULT_255_1_388
10
17.3942378
20
164.7310881
40
1.108605
50
75.6810806
51
78.0063886
0
ARC
8
DEFAULT_255_1_388
10
17.8946967
20
167.091253
40
1.3040363
50
254.69024
51
258.0465557
0
ARC
8
DEFAULT_255_1_388
10
17.7778836
20
166.6682742
40
0.8652254
50
249.9010634
51
254.7555005
0
ARC
8
DEFAULT_255_1_388
10
17.6649888
20
166.361668
40
0.5384962
50
243.3097375
51
249.970939
0
ARC
8
DEFAULT_255_1_388
10
17.5942302
20
166.2205721
40
0.380652
50
234.4047808
51
243.2861752
0
ARC
8
DEFAULT_255_1_388
10
17.5241938
20
166.1238645
40
0.2612502
50
220.8665526
51
234.5497192
0
ARC
8
DEFAULT_255_1_388
10
17.4856936
20
166.0888203
40
0.2092097
50
214.3063391
51
220.5075055
0
ARC
8
DEFAULT_255_1_388
10
17.482805
20
166.0853577
40
0.2048755
50
186.9131438
51
213.9617385
0
ARC
8
DEFAULT_255_1_388
10
17.542644
20
166.0950431
40
0.2654563
50
179.8802037
51
187.4338578
0
ARC
8
DEFAULT_255_1_388
10
17.5252405
20
166.0973049
40
0.2480581
50
132.0053393
51
180.3942351
0
ARC
8
DEFAULT_255_1_388
10
17.5991318
20
166.0290997
40
0.3483116
50
129.2317021
51
133.5294826
0
ARC
8
DEFAULT_255_1_388
10
17.6051287
20
166.0185383
40
0.360291
50
100.440976
51
128.9081567
0
ARC
8
DEFAULT_255_1_388
10
17.6359404
20
165.8739357
40
0.5080996
50
89.6985063
51
100.9029043
0
ARC
8
DEFAULT_255_1_388
10
17.6423559
20
165.8558739
40
0.5261675
50
77.6967144
51
90.4074623
0
ARC
8
DEFAULT_255_1_388
10
17.6795911
20
166.0164503
40
0.3613511
50
50.7278431
51
78.0397473
0
ARC
8
DEFAULT_255_1_388
10
17.7295954
20
166.0747173
40
0.2845966
50
25.754382
51
51.0957456
0
ARC
8
DEFAULT_255_1_388
10
17.7297321
20
166.0803311
40
0.2820785
50
359.2468358
51
24.7393861
0
ARC
8
DEFAULT_255_1_388
10
17.6977209
20
166.0771204
40
0.1460032
50
359.8048924
51
45.1543866
0
ARC
8
DEFAULT_255_1_388
10
17.6518942
20
166.0379291
40
0.2061641
50
43.8053172
51
49.625485
0
ARC
8
DEFAULT_255_1_388
10
17.6528385
20
166.0380849
40
0.2054344
50
49.7979696
51
82.121802
0
ARC
8
DEFAULT_255_1_388
10
17.6394467
20
165.9653473
40
0.2793404
50
81.4458692
51
90.1707936
0
ARC
8
DEFAULT_255_1_388
10
17.6367044
20
165.9061478
40
0.3385438
50
89.6768097
51
99.1267111
0
ARC
8
DEFAULT_255_1_388
10
17.6174026
20
166.0224405
40
0.2206627
50
98.9679878
51
113.4573418
0
ARC
8
DEFAULT_255_1_388
10
17.5953707
20
166.0751193
40
0.1635691
50
113.7230234
51
127.4758155
0
ARC
8
DEFAULT_255_1_388
10
17.5764289
20
166.0976433
40
0.1341757
50
126.9086647
51
150.3160891
0
ARC
8
DEFAULT_255_1_388
10
17.571062
20
166.103368
40
0.1266992
50
151.363328
51
180.0701537
0
ARC
8
DEFAULT_255_1_388
10
17.6020841
20
166.101023
40
0.1577364
50
179.2045432
51
180.0012892
0
ARC
8
DEFAULT_255_1_388
10
17.5651952
20
166.0995515
40
0.1208564
50
179.3040542
51
198.4225767
0
ARC
8
DEFAULT_255_1_388
10
17.5436093
20
166.0939337
40
0.0986126
50
199.2893055
51
238.6036855
0
ARC
8
DEFAULT_255_1_388
10
17.6114187
20
166.2003752
40
0.2248082
50
237.9844191
51
246.8751643
0
ARC
8
DEFAULT_255_1_388
10
17.7079047
20
166.4210861
40
0.4656832
50
246.6226408
51
251.8174794
0
ARC
8
DEFAULT_255_1_388
10
17.8239514
20
166.7695909
40
0.8329993
50
251.7140983
51
255.0775146
0
ARC
8
DEFAULT_255_1_388
10
17.9589038
20
167.2722708
40
1.3534786
50
255.0370864
51
257.4701577
0
ARC
8
DEFAULT_255_1_388
10
17.3841583
20
164.6828535
40
1.298957
50
73.6835762
51
77.5015749
0
ARC
8
DEFAULT_255_1_388
10
17.5066497
20
165.0990699
40
0.8650912
50
68.7042835
51
73.7249997
0
ARC
8
DEFAULT_255_1_388
10
17.6082061
20
165.3607853
40
0.584363
50
63.5907059
51
68.6622978
0
ARC
8
DEFAULT_255_1_388
10
17.6949802
20
165.5338157
40
0.3907955
50
54.7106507
51
63.7018033
0
ARC
8
DEFAULT_255_1_388
10
17.765219
20
165.6319287
40
0.2701345
50
41.0624597
51
54.8488532
0
ARC
8
DEFAULT_255_1_388
10
17.8035968
20
165.6671439
40
0.2180695
50
34.4952722
51
40.7097584
0
ARC
8
DEFAULT_255_1_388
10
17.8088934
20
165.6726204
40
0.2106083
50
9.3761233
51
34.0834046
0
ARC
8
DEFAULT_255_1_388
10
17.7354062
20
165.6585174
40
0.2854177
50
359.7695264
51
9.7660556
0
ARC
8
DEFAULT_255_1_388
10
17.7576355
20
165.6536841
40
0.2632121
50
335.8653103
51
0.8022272
0
ARC
8
DEFAULT_255_1_388
10
17.7660761
20
165.6551951
40
0.2561728
50
307.7357819
51
334.7849324
0
ARC
8
DEFAULT_255_1_388
10
17.7215402
20
165.7051553
40
0.3229737
50
307.0217048
51
308.5596894
0
ARC
8
DEFAULT_255_1_388
10
17.6919986
20
165.7493063
40
0.3760237
50
282.9361285
51
306.5649033
0
ARC
8
DEFAULT_255_1_388
10
17.6513048
20
165.9143871
40
0.5460314
50
271.1026197
51
283.2199962
0
ARC
8
DEFAULT_255_1_388
10
17.6441237
20
166.0544744
40
0.6862456
50
269.9926344
51
271.4770056
0
ARC
8
DEFAULT_255_1_388
10
17.6411807
20
165.9327633
40
0.5645418
50
259.0723633
51
270.2897324
0
ARC
8
DEFAULT_255_1_388
10
17.6173031
20
165.8070887
40
0.4366198
50
245.4965026
51
259.0225745
0
ARC
8
DEFAULT_255_1_388
10
17.5860248
20
165.7416491
40
0.3641037
50
228.9686619
51
245.7042678
0
ARC
8
DEFAULT_255_1_388
10
17.5561523
20
165.7048573
40
0.3167435
50
214.4015391
51
228.6759028
0
ARC
8
DEFAULT_255_1_388
10
17.523602
20
165.6870429
40
0.2798456
50
179.9704983
51
215.1574389
0
ARC
8
DEFAULT_255_1_388
10
17.6024232
20
165.6953148
40
0.1916798
50
182.430239
51
203.0329751
0
ARC
8
DEFAULT_255_1_388
10
17.5816828
20
165.6889675
40
0.1701248
50
203.7987464
51
232.5483345
0
ARC
8
DEFAULT_255_1_388
10
17.6127913
20
165.7285049
40
0.2204299
50
232.3784541
51
256.3934343
0
ARC
8
DEFAULT_255_1_388
10
17.638706
20
165.8286359
40
0.3238512
50
256.1048329
51
268.4627478
0
ARC
8
DEFAULT_255_1_388
10
17.6439479
20
165.9190297
40
0.4143627
50
268.0734924
51
270.0121004
0
ARC
8
DEFAULT_255_1_388
10
17.6460197
20
165.8876191
40
0.3829573
50
269.7031202
51
278.8338867
0
ARC
8
DEFAULT_255_1_388
10
17.6665062
20
165.7604553
40
0.2541568
50
278.6727378
51
292.82331
0
ARC
8
DEFAULT_255_1_388
10
17.6890608
20
165.7040546
40
0.1934264
50
293.1457581
51
303.6656964
0
ARC
8
DEFAULT_255_1_388
10
17.7188682
20
165.6617159
40
0.1416713
50
303.1245849
51
321.7434683
0
ARC
8
DEFAULT_255_1_388
10
17.7397763
20
165.643378
40
0.1139081
50
322.4747616
51
1.1293039
0
LINE
8
DEFAULT_255_2_778
10
19.9765417
20
155.9718479
11
18.6536417
21
155.9718479
0
LINE
8
DEFAULT_255_2_778
10
18.6536417
20
155.9718479
11
18.6536417
21
83.2114479
0
LINE
8
DEFAULT_255_2_778
10
18.6536417
20
77.9197479
11
18.6536417
21
5.1593479
0
LINE
8
DEFAULT_255_2_778
10
18.6536417
20
5.1593479
11
19.9765417
21
5.1593479
0
LINE
8
DEFAULT_255_2_778
10
17.3307834
20
83.2114333
11
19.9765834
21
83.2114333
0
LINE
8
DEFAULT_255_2_778
10
19.9765834
20
83.2114333
11
19.9765834
21
77.9197333
0
LINE
8
DEFAULT_255_2_778
10
19.9765834
20
77.9197333
11
17.3307834
21
77.9197333
0
LINE
8
DEFAULT_255_2_778
10
17.3307834
20
77.9197333
11
17.3307834
21
83.2114333
0
LINE
8
DEFAULT_255_2_778
10
18.1245
20
78.4489666
11
18.1245
21
82.6822666
0
LINE
8
DEFAULT_255_2_778
10
17.8599167
20
81.888575
11
18.1245167
21
82.682275
0
LINE
8
DEFAULT_255_2_778
10
18.1245167
20
82.682275
11
18.3891167
21
81.888575
0
LINE
8
DEFAULT_255_2_778
10
18.3891167
20
81.888575
11
17.8599167
21
81.888575
0
LINE
8
DEFAULT_255_2_778
10
19.1828
20
82.6822666
11
19.1828
21
78.4489666
0
LINE
8
DEFAULT_255_2_778
10
18.9182167
20
79.242675
11
19.1828167
21
78.448975
0
LINE
8
DEFAULT_255_2_778
10
19.1828167
20
78.448975
11
19.4474167
21
79.242675
0
LINE
8
DEFAULT_255_2_778
10
19.4474167
20
79.242675
11
18.9182167
21
79.242675
0
LINE
8
DEFAULT_255_2_778
10
9.3932417
20
155.9718479
11
10.7161417
21
155.9718479
0
LINE
8
DEFAULT_255_2_778
10
10.7161417
20
155.9718479
11
10.7161417
21
83.2114479
0
LINE
8
DEFAULT_255_2_778
10
10.7161417
20
77.9197479
11
10.7161417
21
5.1593479
0
LINE
8
DEFAULT_255_2_778
10
10.7161417
20
5.1593479
11
9.3932417
21
5.1593479
0
LINE
8
DEFAULT_255_2_778
10
9.3932834
20
83.2114333
11
12.0390834
21
83.2114333
0
LINE
8
DEFAULT_255_2_778
10
12.0390834
20
83.2114333
11
12.0390834
21
77.9197333
0
LINE
8
DEFAULT_255_2_778
10
12.0390834
20
77.9197333
11
9.3932834
21
77.9197333
0
LINE
8
DEFAULT_255_2_778
10
9.3932834
20
77.9197333
11
9.3932834
21
83.2114333
0
LINE
8
DEFAULT_255_2_778
10
10.187
20
78.4489666
11
10.187
21
82.6822666
0
LINE
8
DEFAULT_255_2_778
10
9.9224167
20
81.888575
11
10.1870167
21
82.682275
0
LINE
8
DEFAULT_255_2_778
10
10.1870167
20
82.682275
11
10.4516167
21
81.888575
0
LINE
8
DEFAULT_255_2_778
10
10.4516167
20
81.888575
11
9.9224167
21
81.888575
0
LINE
8
DEFAULT_255_2_778
10
11.2453
20
82.6822666
11
11.2453
21
78.4489666
0
LINE
8
DEFAULT_255_2_778
10
10.9807167
20
79.242675
11
11.2453167
21
78.448975
0
LINE
8
DEFAULT_255_2_778
10
11.2453167
20
78.448975
11
11.5099167
21
79.242675
0
LINE
8
DEFAULT_255_2_778
10
11.5099167
20
79.242675
11
10.9807167
21
79.242675
0
LINE
8
DEFAULT_255_1_388
10
4.1879448
20
164.7174898
11
4.5620205
21
163.6323089
0
LINE
8
DEFAULT_255_1_388
10
4.5620205
20
163.6323089
11
4.9379033
21
164.7174898
0
LINE
8
DEFAULT_255_1_388
10
4.9379033
20
164.7174898
11
5.1276518
21
164.7174898
0
LINE
8
DEFAULT_255_1_388
10
5.1276518
20
164.7174898
11
4.639727
21
163.4019
0
LINE
8
DEFAULT_255_1_388
10
4.639727
20
163.4019
11
4.486121
21
163.4019
0
LINE
8
DEFAULT_255_1_388
10
4.486121
20
163.4019
11
3.9990998
21
164.7174898
0
LINE
8
DEFAULT_255_1_388
10
3.9990998
20
164.7174898
11
4.1879448
21
164.7174898
0
LINE
8
DEFAULT_255_1_388
10
5.7565327
20
164.4915987
11
5.7565327
21
164.1075838
0
LINE
8
DEFAULT_255_1_388
10
5.7565327
20
164.1075838
11
6.1233798
21
164.1075838
0
LINE
8
DEFAULT_255_1_388
10
6.1233798
20
164.1075838
11
6.1233798
21
163.9494601
0
LINE
8
DEFAULT_255_1_388
10
6.1233798
20
163.9494601
11
5.7565327
21
163.9494601
0
LINE
8
DEFAULT_255_1_388
10
5.7565327
20
163.9494601
11
5.7565327
21
163.5338204
0
LINE
8
DEFAULT_255_1_388
10
5.7565327
20
163.5338204
11
5.5884697
21
163.5338204
0
LINE
8
DEFAULT_255_1_388
10
5.5884697
20
163.5338204
11
5.5884697
21
163.9494601
0
LINE
8
DEFAULT_255_1_388
10
5.5884697
20
163.9494601
11
5.2216225
21
163.9494601
0
LINE
8
DEFAULT_255_1_388
10
5.2216225
20
163.9494601
11
5.2216225
21
164.1075838
0
LINE
8
DEFAULT_255_1_388
10
5.2216225
20
164.1075838
11
5.5884697
21
164.1075838
0
LINE
8
DEFAULT_255_1_388
10
5.5884697
20
164.1075838
11
5.5884697
21
164.4915987
0
LINE
8
DEFAULT_255_1_388
10
5.5884697
20
164.4915987
11
5.7565327
21
164.4915987
0
LINE
8
DEFAULT_255_1_388
10
4.795232
20
5.0693468
11
4.9696199
21
5.0693468
0
LINE
8
DEFAULT_255_1_388
10
3.9567242
20
5.2482525
11
3.9567242
21
5.3747516
0
LINE
8
DEFAULT_255_1_388
10
4.9696199
20
5.5446217
11
4.795232
21
5.5446217
0
LINE
8
DEFAULT_255_1_388
10
4.1311121
20
5.3702337
11
4.1311121
21
5.2428312
0
ARC
8
DEFAULT_255_1_388
10
4.3530433
20
5.1365329
40
0.6202263
50
340.1774904
51
353.7812217
0
ARC
8
DEFAULT_255_1_388
10
4.5298286
20
5.0706893
40
0.4315926
50
311.4560052
51
340.4420756
0
ARC
8
DEFAULT_255_1_388
10
4.5260826
20
5.0831665
40
0.4434573
50
282.4332229
51
310.7514507
0
ARC
8
DEFAULT_255_1_388
10
4.4766644
20
5.2873703
40
0.6535262
50
269.9358869
51
282.8096729
0
ARC
8
DEFAULT_255_1_388
10
4.4708583
20
5.4386329
40
0.8048043
50
269.9995752
51
270.3612856
0
ARC
8
DEFAULT_255_1_388
10
4.4649073
20
5.1587781
40
0.5249831
50
250.7885263
51
270.6488451
0
ARC
8
DEFAULT_255_1_388
10
4.4459898
20
5.0870853
40
0.4510942
50
219.3628377
51
250.0611024
0
ARC
8
DEFAULT_255_1_388
10
4.5392772
20
5.1663653
40
0.5735046
50
193.5480293
51
219.5755675
0
ARC
8
DEFAULT_255_1_388
10
4.8060981
20
5.235652
40
0.849146
50
181.1220183
51
193.8754971
0
ARC
8
DEFAULT_255_1_388
10
5.0384214
20
5.2480914
40
1.0816971
50
179.9914644
51
181.5398227
0
ARC
8
DEFAULT_255_1_388
10
4.8307525
20
5.3789586
40
0.8740384
50
169.5837606
51
180.275782
0
ARC
8
DEFAULT_255_1_388
10
4.6240873
20
5.4171439
40
0.6638751
50
155.0367033
51
169.6002779
0
ARC
8
DEFAULT_255_1_388
10
4.4963331
20
5.4787336
40
0.5220662
50
136.7831557
51
155.2472983
0
ARC
8
DEFAULT_255_1_388
10
4.4525122
20
5.5159577
40
0.4646502
50
121.7633063
51
136.4281161
0
ARC
8
DEFAULT_255_1_388
10
4.4676962
20
5.4879049
40
0.4964979
50
95.6460018
51
121.5489589
0
ARC
8
DEFAULT_255_1_388
10
4.4853936
20
5.3631704
40
0.6223912
50
89.9245727
51
96.1375919
0
ARC
8
DEFAULT_255_1_388
10
4.4910641
20
5.3765721
40
0.6090084
50
76.6779212
51
90.456405
0
ARC
8
DEFAULT_255_1_388
10
4.5353454
20
5.555506
40
0.42469
50
47.4858803
51
76.9287069
0
ARC
8
DEFAULT_255_1_388
10
4.5188068
20
5.5442623
40
0.4441778
50
16.5424081
51
46.8934505
0
ARC
8
DEFAULT_255_1_388
10
4.3379118
20
5.4848265
40
0.6345318
50
5.4072971
51
17.0363711
0
ARC
8
DEFAULT_255_1_388
10
4.1760843
20
5.4588304
40
0.6250632
50
7.8888693
51
15.9242022
0
ARC
8
DEFAULT_255_1_388
10
4.3995828
20
5.5237309
40
0.3923364
50
15.7650676
51
27.9410069
0
ARC
8
DEFAULT_255_1_388
10
4.5237997
20
5.5902317
40
0.2514401
50
27.8167196
51
46.4007942
0
ARC
8
DEFAULT_255_1_388
10
4.5293839
20
5.5895882
40
0.2480958
50
47.4372362
51
75.0695672
0
ARC
8
DEFAULT_255_1_388
10
4.4946675
20
5.4687277
40
0.3738281
50
74.7009379
51
87.8124314
0
ARC
8
DEFAULT_255_1_388
10
4.4864292
20
5.3503659
40
0.4924321
50
87.3802571
51
90.0251599
0
ARC
8
DEFAULT_255_1_388
10
4.4820939
20
5.4823997
40
0.3604218
50
89.3451886
51
108.5744412
0
ARC
8
DEFAULT_255_1_388
10
4.4666931
20
5.5401836
40
0.3007661
50
109.2998307
51
143.3037387
0
ARC
8
DEFAULT_255_1_388
10
4.5524221
20
5.4742584
40
0.4089031
50
143.075267
51
163.1918576
0
ARC
8
DEFAULT_255_1_388
10
4.7720055
20
5.4049652
40
0.6391492
50
162.9375929
51
174.6208776
0
ARC
8
DEFAULT_255_1_388
10
5.0674437
20
5.3725711
40
0.9363344
50
174.342123
51
180.1430283
0
ARC
8
DEFAULT_255_1_388
10
4.9626978
20
5.2382117
40
0.8315986
50
179.6817261
51
189.150555
0
ARC
8
DEFAULT_255_1_388
10
4.6813727
20
5.1913559
40
0.5464044
50
188.9911061
51
203.5772363
0
ARC
8
DEFAULT_255_1_388
10
4.5599019
20
5.1409539
40
0.4149206
50
203.9075402
51
215.1312435
0
ARC
8
DEFAULT_255_1_388
10
4.4560817
20
5.0604907
40
0.2837747
50
213.9071511
51
263.8848919
0
ARC
8
DEFAULT_255_1_388
10
4.470181
20
5.1487519
40
0.3730641
50
263.1757928
51
270.1031044
0
ARC
8
DEFAULT_255_1_388
10
4.473789
20
5.2890511
40
0.5133712
50
269.6722503
51
279.0606936
0
ARC
8
DEFAULT_255_1_388
10
4.5038045
20
5.107615
40
0.3294739
50
278.8749101
51
293.6349581
0
ARC
8
DEFAULT_255_1_388
10
4.5398249
20
5.0230251
40
0.2375405
50
293.8553806
51
310.0518171
0
ARC
8
DEFAULT_255_1_388
10
4.5403758
20
5.0160021
40
0.2318463
50
311.0644687
51
332.0111037
0
ARC
8
DEFAULT_255_1_388
10
4.4062431
20
5.0899702
40
0.3850112
50
331.6586806
51
343.2877423
0
ARC
8
DEFAULT_255_1_388
10
4.1741896
20
5.1612806
40
0.6277712
50
343.1446576
51
351.0103568
0
ARC
8
DEFAULT_255_1_388
10
4.010922
20
5.1912873
40
0.7937327
50
350.71248
51
351.1626997
0
LINE
8
DEFAULT_255_1_388
10
5.3924881
20
5.9674898
11
5.3924881
21
4.6519
0
LINE
8
DEFAULT_255_1_388
10
5.3924881
20
4.6519
11
5.2190037
21
4.6519
0
LINE
8
DEFAULT_255_1_388
10
5.2190037
20
4.6519
11
5.2190037
21
5.9674898
0
LINE
8
DEFAULT_255_1_388
10
5.2190037
20
5.9674898
11
5.3924881
21
5.9674898
0
LINE
8
DEFAULT_255_1_388
10
5.8957735
20
5.9674898
11
5.8957735
21
4.6519
0
LINE
8
DEFAULT_255_1_388
10
5.8957735
20
4.6519
11
5.7222891
21
4.6519
0
LINE
8
DEFAULT_255_1_388
10
5.7222891
20
4.6519
11
5.7222891
21
5.9674898
0
LINE
8
DEFAULT_255_1_388
10
5.7222891
20
5.9674898
11
5.8957735
21
5.9674898
0
LINE
8
DEFAULT_255_1_388
10
4.795232
20
13.0068468
11
4.9696199
21
13.0068468
0
LINE
8
DEFAULT_255_1_388
10
3.9567242
20
13.1857525
11
3.9567242
21
13.3122516
0
LINE
8
DEFAULT_255_1_388
10
4.9696199
20
13.4821217
11
4.795232
21
13.4821217
0
LINE
8
DEFAULT_255_1_388
10
4.1311121
20
13.3077337
11
4.1311121
21
13.1803312
0
ARC
8
DEFAULT_255_1_388
10
4.3530433
20
13.0740329
40
0.6202263
50
340.1774904
51
353.7812217
0
ARC
8
DEFAULT_255_1_388
10
4.5298286
20
13.0081893
40
0.4315926
50
311.4560052
51
340.4420756
0
ARC
8
DEFAULT_255_1_388
10
4.5260826
20
13.0206665
40
0.4434573
50
282.4332229
51
310.7514507
0
ARC
8
DEFAULT_255_1_388
10
4.4766644
20
13.2248703
40
0.6535262
50
269.9358869
51
282.8096729
0
ARC
8
DEFAULT_255_1_388
10
4.4708583
20
13.3761329
40
0.8048043
50
269.9995752
51
270.3612856
0
ARC
8
DEFAULT_255_1_388
10
4.4649073
20
13.0962781
40
0.5249831
50
250.7885263
51
270.6488451
0
ARC
8
DEFAULT_255_1_388
10
4.4459898
20
13.0245853
40
0.4510942
50
219.3628377
51
250.0611024
0
ARC
8
DEFAULT_255_1_388
10
4.5392772
20
13.1038653
40
0.5735046
50
193.5480293
51
219.5755675
0
ARC
8
DEFAULT_255_1_388
10
4.8060981
20
13.173152
40
0.849146
50
181.1220183
51
193.8754971
0
ARC
8
DEFAULT_255_1_388
10
5.0384214
20
13.1855914
40
1.0816971
50
179.9914644
51
181.5398227
0
ARC
8
DEFAULT_255_1_388
10
4.8307525
20
13.3164586
40
0.8740384
50
169.5837606
51
180.275782
0
ARC
8
DEFAULT_255_1_388
10
4.6240873
20
13.3546439
40
0.6638751
50
155.0367033
51
169.6002779
0
ARC
8
DEFAULT_255_1_388
10
4.4963331
20
13.4162336
40
0.5220662
50
136.7831557
51
155.2472983
0
ARC
8
DEFAULT_255_1_388
10
4.4525122
20
13.4534577
40
0.4646502
50
121.7633063
51
136.4281161
0
ARC
8
DEFAULT_255_1_388
10
4.4676962
20
13.4254049
40
0.4964979
50
95.6460018
51
121.5489589
0
ARC
8
DEFAULT_255_1_388
10
4.4853936
20
13.3006704
40
0.6223912
50
89.9245727
51
96.1375919
0
ARC
8
DEFAULT_255_1_388
10
4.4910641
20
13.3140721
40
0.6090084
50
76.6779212
51
90.456405
0
ARC
8
DEFAULT_255_1_388
10
4.5353454
20
13.493006
40
0.42469
50
47.4858803
51
76.9287069
0
ARC
8
DEFAULT_255_1_388
10
4.5188068
20
13.4817623
40
0.4441778
50
16.5424081
51
46.8934505
0
ARC
8
DEFAULT_255_1_388
10
4.3379118
20
13.4223265
40
0.6345318
50
5.4072971
51
17.0363711
0
ARC
8
DEFAULT_255_1_388
10
4.1760843
20
13.3963304
40
0.6250632
50
7.8888693
51
15.9242022
0
ARC
8
DEFAULT_255_1_388
10
4.3995828
20
13.4612309
40
0.3923364
50
15.7650676
51
27.9410069
0
ARC
8
DEFAULT_255_1_388
10
4.5237997
20
13.5277317
40
0.2514401
50
27.8167196
51
46.4007942
0
ARC
8
DEFAULT_255_1_388
10
4.5293839
20
13.5270882
40
0.2480958
50
47.4372362
51
75.0695672
0
ARC
8
DEFAULT_255_1_388
10
4.4946675
20
13.4062277
40
0.3738281
50
74.7009379
51
87.8124314
0
ARC
8
DEFAULT_255_1_388
10
4.4864292
20
13.2878659
40
0.4924321
50
87.3802571
51
90.0251599
0
ARC
8
DEFAULT_255_1_388
10
4.4820939
20
13.4198997
40
0.3604218
50
89.3451886
51
108.5744412
0
ARC
8
DEFAULT_255_1_388
10
4.4666931
20
13.4776836
40
0.3007661
50
109.2998307
51
143.3037387
0
ARC
8
DEFAULT_255_1_388
10
4.5524221
20
13.4117584
40
0.4089031
50
143.075267
51
163.1918576
0
ARC
8
DEFAULT_255_1_388
10
4.7720055
20
13.3424652
40
0.6391492
50
162.9375929
51
174.6208776
0
ARC
8
DEFAULT_255_1_388
10
5.0674437
20
13.3100711
40
0.9363344
50
174.342123
51
180.1430283
0
ARC
8
DEFAULT_255_1_388
10
4.9626978
20
13.1757117
40
0.8315986
50
179.6817261
51
189.150555
0
ARC
8
DEFAULT_255_1_388
10
4.6813727
20
13.1288559
40
0.5464044
50
188.9911061
51
203.5772363
0
ARC
8
DEFAULT_255_1_388
10
4.5599019
20
13.0784539
40
0.4149206
50
203.9075402
51
215.1312435
0
ARC
8
DEFAULT_255_1_388
10
4.4560817
20
12.9979907
40
0.2837747
50
213.9071511
51
263.8848919
0
ARC
8
DEFAULT_255_1_388
10
4.470181
20
13.0862519
40
0.3730641
50
263.1757928
51
270.1031044
0
ARC
8
DEFAULT_255_1_388
10
4.473789
20
13.2265511
40
0.5133712
50
269.6722503
51
279.0606936
0
ARC
8
DEFAULT_255_1_388
10
4.5038045
20
13.045115
40
0.3294739
50
278.8749101
51
293.6349581
0
ARC
8
DEFAULT_255_1_388
10
4.5398249
20
12.9605251
40
0.2375405
50
293.8553806
51
310.0518171
0
ARC
8
DEFAULT_255_1_388
10
4.5403758
20
12.9535021
40
0.2318463
50
311.0644687
51
332.0111037
0
ARC
8
DEFAULT_255_1_388
10
4.4062431
20
13.0274702
40
0.3850112
50
331.6586806
51
343.2877423
0
ARC
8
DEFAULT_255_1_388
10
4.1741896
20
13.0987806
40
0.6277712
50
343.1446576
51
351.0103568
0
ARC
8
DEFAULT_255_1_388
10
4.010922
20
13.1287873
40
0.7937327
50
350.71248
51
351.1626997
0
LINE
8
DEFAULT_255_1_388
10
5.3924881
20
13.9049898
11
5.3924881
21
12.5894
0
LINE
8
DEFAULT_255_1_388
10
5.3924881
20
12.5894
11
5.2190037
21
12.5894
0
LINE
8
DEFAULT_255_1_388
10
5.2190037
20
12.5894
11
5.2190037
21
13.9049898
0
LINE
8
DEFAULT_255_1_388
10
5.2190037
20
13.9049898
11
5.3924881
21
13.9049898
0
LINE
8
DEFAULT_255_1_388
10
5.8957735
20
13.9049898
11
5.8957735
21
12.5894
0
LINE
8
DEFAULT_255_1_388
10
5.8957735
20
12.5894
11
5.7222891
21
12.5894
0
LINE
8
DEFAULT_255_1_388
10
5.7222891
20
12.5894
11
5.7222891
21
13.9049898
0
LINE
8
DEFAULT_255_1_388
10
5.7222891
20
13.9049898
11
5.8957735
21
13.9049898
0
LINE
8
DEFAULT_255_1_388
10
4.4551024
20
20.5269
11
3.9988024
21
20.5269
0
LINE
8
DEFAULT_255_1_388
10
3.9988024
20
20.5269
11
3.9988024
21
21.8424898
0
LINE
8
DEFAULT_255_1_388
10
3.9988024
20
21.8424898
11
4.4288991
21
21.8424898
0
LINE
8
DEFAULT_255_1_388
10
4.4614274
20
21.1422274
11
4.1722868
21
21.1422274
0
LINE
8
DEFAULT_255_1_388
10
4.1722868
20
21.1422274
11
4.1722868
21
20.6687596
0
LINE
8
DEFAULT_255_1_388
10
4.1722868
20
20.6687596
11
4.4587167
21
20.6687596
0
LINE
8
DEFAULT_255_1_388
10
4.1722868
20
21.6997267
11
4.1722868
21
21.2813763
0
LINE
8
DEFAULT_255_1_388
10
4.1722868
20
21.2813763
11
4.4343205
21
21.2813763
0
LINE
8
DEFAULT_255_1_388
10
4.4288991
20
21.6997267
11
4.1722868
21
21.6997267
0
ARC
8
DEFAULT_255_1_388
10
4.4331411
20
21.0136824
40
0.8288183
50
82.1256322
51
90.2932506
0
ARC
8
DEFAULT_255_1_388
10
4.4768986
20
21.319459
40
0.5199321
50
69.9044202
51
82.2857574
0
ARC
8
DEFAULT_255_1_388
10
4.5410979
20
21.4929993
40
0.3348993
50
51.1840204
51
70.018125
0
ARC
8
DEFAULT_255_1_388
10
4.5697811
20
21.5346945
40
0.2844579
50
12.1018086
51
50.421322
0
ARC
8
DEFAULT_255_1_388
10
4.4140682
20
21.4955937
40
0.4449429
50
359.5252354
51
12.8212369
0
ARC
8
DEFAULT_255_1_388
10
4.5918112
20
21.4877943
40
0.2672162
50
323.4907456
51
0.8818258
0
ARC
8
DEFAULT_255_1_388
10
4.5447525
20
21.5241523
40
0.3266736
50
298.6824053
51
323.2758285
0
ARC
8
DEFAULT_255_1_388
10
4.5040816
20
21.5917509
40
0.4055105
50
293.1994739
51
299.139634
0
ARC
8
DEFAULT_255_1_388
10
4.5797766
20
20.9071651
40
0.3229926
50
54.0009997
51
74.9168635
0
ARC
8
DEFAULT_255_1_388
10
4.5928693
20
20.9293511
40
0.2973581
50
36.3578854
51
53.5293172
0
ARC
8
DEFAULT_255_1_388
10
4.5786061
20
20.919185
40
0.3148715
50
4.8189348
51
36.3090187
0
ARC
8
DEFAULT_255_1_388
10
4.4909085
20
20.9068383
40
0.4033265
50
359.9373213
51
5.5201284
0
ARC
8
DEFAULT_255_1_388
10
4.4544415
20
20.9022733
40
0.4398126
50
344.7479357
51
0.5372278
0
ARC
8
DEFAULT_255_1_388
10
4.5659314
20
20.8722205
40
0.3243441
50
311.1785587
51
344.6887681
0
ARC
8
DEFAULT_255_1_388
10
4.5330857
20
20.9131084
40
0.3767511
50
286.0417804
51
310.8440924
0
ARC
8
DEFAULT_255_1_388
10
4.4760266
20
21.0983885
40
0.5705957
50
274.1044074
51
286.4070149
0
ARC
8
DEFAULT_255_1_388
10
4.4561482
20
21.3101901
40
0.7832907
50
269.9235077
51
274.4458593
0
ARC
8
DEFAULT_255_1_388
10
4.46132
20
21.0470462
40
0.3782955
50
269.6057074
51
281.3740795
0
ARC
8
DEFAULT_255_1_388
10
4.4872698
20
20.9240569
40
0.2526069
50
281.105298
51
302.5134029
0
ARC
8
DEFAULT_255_1_388
10
4.5038086
20
20.8943944
40
0.2187131
50
303.0365425
51
311.8818034
0
ARC
8
DEFAULT_255_1_388
10
4.5118263
20
20.8848602
40
0.2062624
50
311.9916937
51
351.7143773
0
ARC
8
DEFAULT_255_1_388
10
4.4199288
20
20.9034271
40
0.2999202
50
350.7343295
51
0.2221526
0
ARC
8
DEFAULT_255_1_388
10
4.4078376
20
20.909787
40
0.3120525
50
359.045729
51
17.2295312
0
ARC
8
DEFAULT_255_1_388
10
4.5247406
20
20.9445155
40
0.1901144
50
17.6685208
51
78.9940245
0
ARC
8
DEFAULT_255_1_388
10
4.4665767
20
20.7357011
40
0.4065575
50
76.565218
51
90.7103392
0
LINE
8
DEFAULT_255_1_388
10
4.4615364
20
21.1422274
11
4.4614274
21
21.1422274
0
ARC
8
DEFAULT_255_1_388
10
4.4368593
20
21.6509949
40
0.3696273
50
269.6064514
51
281.4533785
0
ARC
8
DEFAULT_255_1_388
10
4.4619234
20
21.5327283
40
0.2487412
50
281.2044438
51
302.5143998
0
ARC
8
DEFAULT_255_1_388
10
4.4773488
20
21.5049576
40
0.2170405
50
303.0211308
51
309.8378766
0
ARC
8
DEFAULT_255_1_388
10
4.4979605
20
21.4818486
40
0.1860946
50
309.5229446
51
356.9509628
0
ARC
8
DEFAULT_255_1_388
10
4.4233731
20
21.4925831
40
0.2612347
50
355.4699226
51
0.0498632
0
ARC
8
DEFAULT_255_1_388
10
4.3919404
20
21.4950789
40
0.2926762
50
359.5558955
51
11.2092924
0
ARC
8
DEFAULT_255_1_388
10
4.4996372
20
21.5173667
40
0.1827036
50
10.9185717
51
31.322519
0
ARC
8
DEFAULT_255_1_388
10
4.531792
20
21.5352571
40
0.1459418
50
31.8850633
51
52.1415586
0
ARC
8
DEFAULT_255_1_388
10
4.5009349
20
21.4916674
40
0.1993088
50
52.8283418
51
71.9850132
0
ARC
8
DEFAULT_255_1_388
10
4.458651
20
21.3672158
40
0.3307407
50
71.686634
51
82.8453416
0
ARC
8
DEFAULT_255_1_388
10
4.4317157
20
21.1636892
40
0.536039
50
82.6981895
51
90.1730083
0
ARC
8
DEFAULT_255_1_388
10
4.4291989
20
21.2515836
40
0.4481429
50
89.8851568
51
90.0383283
0
LINE
8
DEFAULT_255_1_388
10
5.9568266
20
21.8424898
11
5.9568266
21
21.7485191
0
LINE
8
DEFAULT_255_1_388
10
5.9568266
20
21.7485191
11
5.4119772
21
20.5269
0
LINE
8
DEFAULT_255_1_388
10
5.4119772
20
20.5269
11
5.2366857
21
20.5269
0
LINE
8
DEFAULT_255_1_388
10
5.2366857
20
20.5269
11
5.7797279
21
21.705148
0
LINE
8
DEFAULT_255_1_388
10
5.7797279
20
21.705148
11
5.0677191
21
21.705148
0
LINE
8
DEFAULT_255_1_388
10
5.0677191
20
21.705148
11
5.0677191
21
21.8424898
0
LINE
8
DEFAULT_255_1_388
10
5.0677191
20
21.8424898
11
5.9568266
21
21.8424898
0
LINE
8
DEFAULT_255_1_388
10
4.4551024
20
28.4644
11
3.9988024
21
28.4644
0
LINE
8
DEFAULT_255_1_388
10
3.9988024
20
28.4644
11
3.9988024
21
29.7799898
0
LINE
8
DEFAULT_255_1_388
10
3.9988024
20
29.7799898
11
4.4288991
21
29.7799898
0
LINE
8
DEFAULT_255_1_388
10
4.4614274
20
29.0797274
11
4.1722868
21
29.0797274
0
LINE
8
DEFAULT_255_1_388
10
4.1722868
20
29.0797274
11
4.1722868
21
28.6062596
0
LINE
8
DEFAULT_255_1_388
10
4.1722868
20
28.6062596
11
4.4587167
21
28.6062596
0
LINE
8
DEFAULT_255_1_388
10
4.1722868
20
29.6372267
11
4.1722868
21
29.2188763
0
LINE
8
DEFAULT_255_1_388
10
4.1722868
20
29.2188763
11
4.4343205
21
29.2188763
0
LINE
8
DEFAULT_255_1_388
10
4.4288991
20
29.6372267
11
4.1722868
21
29.6372267
0
ARC
8
DEFAULT_255_1_388
10
4.4331411
20
28.9511824
40
0.8288183
50
82.1256322
51
90.2932506
0
ARC
8
DEFAULT_255_1_388
10
4.4768986
20
29.256959
40
0.5199321
50
69.9044202
51
82.2857574
0
ARC
8
DEFAULT_255_1_388
10
4.5410979
20
29.4304993
40
0.3348993
50
51.1840204
51
70.018125
0
ARC
8
DEFAULT_255_1_388
10
4.5697811
20
29.4721945
40
0.2844579
50
12.1018086
51
50.421322
0
ARC
8
DEFAULT_255_1_388
10
4.4140682
20
29.4330937
40
0.4449429
50
359.5252354
51
12.8212369
0
ARC
8
DEFAULT_255_1_388
10
4.5918112
20
29.4252943
40
0.2672162
50
323.4907456
51
0.8818258
0
ARC
8
DEFAULT_255_1_388
10
4.5447525
20
29.4616523
40
0.3266736
50
298.6824053
51
323.2758285
0
ARC
8
DEFAULT_255_1_388
10
4.5040816
20
29.5292509
40
0.4055105
50
293.1994739
51
299.139634
0
ARC
8
DEFAULT_255_1_388
10
4.5797766
20
28.8446651
40
0.3229926
50
54.0009997
51
74.9168635
0
ARC
8
DEFAULT_255_1_388
10
4.5928693
20
28.8668511
40
0.2973581
50
36.3578854
51
53.5293172
0
ARC
8
DEFAULT_255_1_388
10
4.5786061
20
28.856685
40
0.3148715
50
4.8189348
51
36.3090187
0
ARC
8
DEFAULT_255_1_388
10
4.4909085
20
28.8443383
40
0.4033265
50
359.9373213
51
5.5201284
0
ARC
8
DEFAULT_255_1_388
10
4.4544415
20
28.8397733
40
0.4398126
50
344.7479357
51
0.5372278
0
ARC
8
DEFAULT_255_1_388
10
4.5659314
20
28.8097205
40
0.3243441
50
311.1785587
51
344.6887681
0
ARC
8
DEFAULT_255_1_388
10
4.5330857
20
28.8506084
40
0.3767511
50
286.0417804
51
310.8440924
0
ARC
8
DEFAULT_255_1_388
10
4.4760266
20
29.0358885
40
0.5705957
50
274.1044074
51
286.4070149
0
ARC
8
DEFAULT_255_1_388
10
4.4561482
20
29.2476901
40
0.7832907
50
269.9235077
51
274.4458593
0
ARC
8
DEFAULT_255_1_388
10
4.46132
20
28.9845462
40
0.3782955
50
269.6057074
51
281.3740795
0
ARC
8
DEFAULT_255_1_388
10
4.4872698
20
28.8615569
40
0.2526069
50
281.105298
51
302.5134029
0
ARC
8
DEFAULT_255_1_388
10
4.5038086
20
28.8318944
40
0.2187131
50
303.0365425
51
311.8818034
0
ARC
8
DEFAULT_255_1_388
10
4.5118263
20
28.8223602
40
0.2062624
50
311.9916937
51
351.7143773
0
ARC
8
DEFAULT_255_1_388
10
4.4199288
20
28.8409271
40
0.2999202
50
350.7343295
51
0.2221526
0
ARC
8
DEFAULT_255_1_388
10
4.4078376
20
28.847287
40
0.3120525
50
359.045729
51
17.2295312
0
ARC
8
DEFAULT_255_1_388
10
4.5247406
20
28.8820155
40
0.1901144
50
17.6685208
51
78.9940245
0
ARC
8
DEFAULT_255_1_388
10
4.4665767
20
28.6732011
40
0.4065575
50
76.565218
51
90.7103392
0
LINE
8
DEFAULT_255_1_388
10
4.4615364
20
29.0797274
11
4.4614274
21
29.0797274
0
ARC
8
DEFAULT_255_1_388
10
4.4368593
20
29.5884949
40
0.3696273
50
269.6064514
51
281.4533785
0
ARC
8
DEFAULT_255_1_388
10
4.4619234
20
29.4702283
40
0.2487412
50
281.2044438
51
302.5143998
0
ARC
8
DEFAULT_255_1_388
10
4.4773488
20
29.4424576
40
0.2170405
50
303.0211308
51
309.8378766
0
ARC
8
DEFAULT_255_1_388
10
4.4979605
20
29.4193486
40
0.1860946
50
309.5229446
51
356.9509628
0
ARC
8
DEFAULT_255_1_388
10
4.4233731
20
29.4300831
40
0.2612347
50
355.4699226
51
0.0498632
0
ARC
8
DEFAULT_255_1_388
10
4.3919404
20
29.4325789
40
0.2926762
50
359.5558955
51
11.2092924
0
ARC
8
DEFAULT_255_1_388
10
4.4996372
20
29.4548667
40
0.1827036
50
10.9185717
51
31.322519
0
ARC
8
DEFAULT_255_1_388
10
4.531792
20
29.4727571
40
0.1459418
50
31.8850633
51
52.1415586
0
ARC
8
DEFAULT_255_1_388
10
4.5009349
20
29.4291674
40
0.1993088
50
52.8283418
51
71.9850132
0
ARC
8
DEFAULT_255_1_388
10
4.458651
20
29.3047158
40
0.3307407
50
71.686634
51
82.8453416
0
ARC
8
DEFAULT_255_1_388
10
4.4317157
20
29.1011892
40
0.536039
50
82.6981895
51
90.1730083
0
ARC
8
DEFAULT_255_1_388
10
4.4291989
20
29.1890836
40
0.4481429
50
89.8851568
51
90.0383283
0
LINE
8
DEFAULT_255_1_388
10
5.7336461
20
29.7808934
11
5.7634638
21
29.7808934
0
LINE
8
DEFAULT_255_1_388
10
5.7634638
20
29.7808934
11
5.7634638
21
29.6390338
0
LINE
8
DEFAULT_255_1_388
10
5.7634638
20
29.6390338
11
5.7327426
21
29.6390338
0
LINE
8
DEFAULT_255_1_388
10
5.1174152
20
28.9649747
11
5.1174152
21
29.0291278
0
LINE
8
DEFAULT_255_1_388
10
5.2854782
20
29.0074422
11
5.2854782
21
28.9459999
0
ARC
8
DEFAULT_255_1_388
10
5.7386317
20
29.0767826
40
0.562282
50
90.6001079
51
104.5146616
0
ARC
8
DEFAULT_255_1_388
10
5.6949277
20
29.23931
40
0.3939917
50
104.2855758
51
133.8630124
0
ARC
8
DEFAULT_255_1_388
10
5.713353
20
29.2271243
40
0.4155734
50
134.5304124
51
161.6210222
0
ARC
8
DEFAULT_255_1_388
10
5.8993462
20
29.1615421
40
0.6127682
50
161.2850533
51
174.2074364
0
ARC
8
DEFAULT_255_1_388
10
6.0583029
20
29.1396437
40
0.7731446
50
173.7817938
51
174.9251711
0
ARC
8
DEFAULT_255_1_388
10
5.5457222
20
28.984127
40
0.3412588
50
95.8332067
51
138.995412
0
ARC
8
DEFAULT_255_1_388
10
5.5708502
20
28.8402695
40
0.4870358
50
89.8755506
51
97.0540979
0
ARC
8
DEFAULT_255_1_388
10
5.5761892
20
28.9342841
40
0.3930432
50
71.6407016
51
90.6240821
0
ARC
8
DEFAULT_255_1_388
10
5.5931285
20
28.9966433
40
0.3285421
50
39.6368051
51
71.0190743
0
ARC
8
DEFAULT_255_1_388
10
5.5215193
20
28.9347586
40
0.4231706
50
10.6588054
51
39.9044509
0
ARC
8
DEFAULT_255_1_388
10
5.3473738
20
28.8969223
40
0.60133
50
359.6827842
51
11.1326896
0
ARC
8
DEFAULT_255_1_388
10
5.3429074
20
28.8889715
40
0.6058047
50
347.2485908
51
0.4371098
0
ARC
8
DEFAULT_255_1_388
10
5.5304859
20
28.8438379
40
0.4128987
50
318.1408565
51
347.6118497
0
ARC
8
DEFAULT_255_1_388
10
5.5670456
20
28.8137903
40
0.3656244
50
275.6342406
51
317.824739
0
ARC
8
DEFAULT_255_1_388
10
5.5421977
20
28.9599827
40
0.513655
50
269.8872513
51
276.7916069
0
ARC
8
DEFAULT_255_1_388
10
5.536017
20
28.8446181
40
0.398323
50
246.9139443
51
270.7436787
0
ARC
8
DEFAULT_255_1_388
10
5.5367366
20
28.8286044
40
0.3839368
50
218.1665534
51
245.8780431
0
ARC
8
DEFAULT_255_1_388
10
5.6356738
20
28.9113903
40
0.5128958
50
191.4115343
51
218.6077624
0
ARC
8
DEFAULT_255_1_388
10
5.8537054
20
28.9602777
40
0.7363054
50
179.6344971
51
191.7836758
0
ARC
8
DEFAULT_255_1_388
10
6.4816928
20
29.0366495
40
1.3642984
50
171.4523743
51
180.3158856
0
ARC
8
DEFAULT_255_1_388
10
5.9872656
20
29.1135895
40
0.8639311
50
157.9802296
51
171.6246761
0
ARC
8
DEFAULT_255_1_388
10
5.7382006
20
29.2129038
40
0.5958004
50
141.4299236
51
157.8541251
0
ARC
8
DEFAULT_255_1_388
10
5.666009
20
29.2639746
40
0.5075416
50
102.871586
51
140.8564533
0
ARC
8
DEFAULT_255_1_388
10
5.7388642
20
28.9894943
40
0.7914163
50
90.377773
51
103.5868422
0
ARC
8
DEFAULT_255_1_388
10
5.5433163
20
28.9214543
40
0.2667015
50
89.8751238
51
126.2072139
0
ARC
8
DEFAULT_255_1_388
10
5.5484634
20
28.9040847
40
0.2838229
50
124.9742447
51
144.8960197
0
ARC
8
DEFAULT_255_1_388
10
5.5286879
20
28.9201981
40
0.2583845
50
145.2974778
51
160.2660922
0
ARC
8
DEFAULT_255_1_388
10
5.8743368
20
28.9424151
40
0.5888695
50
179.6512124
51
190.285571
0
ARC
8
DEFAULT_255_1_388
10
5.6837847
20
28.9064968
40
0.3949683
50
190.0944895
51
207.5099647
0
ARC
8
DEFAULT_255_1_388
10
5.6201429
20
28.8762177
40
0.3245464
50
207.9585471
51
216.325377
0
ARC
8
DEFAULT_255_1_388
10
5.5819066
20
28.8447712
40
0.2751259
50
215.7661336
51
232.5457193
0
ARC
8
DEFAULT_255_1_388
10
5.5388182
20
28.7900273
40
0.2054668
50
232.8005815
51
270.6605497
0
ARC
8
DEFAULT_255_1_388
10
5.5439606
20
28.8309853
40
0.2464268
50
269.3550767
51
288.474612
0
ARC
8
DEFAULT_255_1_388
10
5.5544113
20
28.7916721
40
0.2058436
50
289.1831976
51
322.9685307
0
ARC
8
DEFAULT_255_1_388
10
5.4856215
20
28.8459279
40
0.2934408
50
322.6007085
51
346.5183319
0
ARC
8
DEFAULT_255_1_388
10
5.3553971
20
28.8791434
40
0.4278249
50
346.2584622
51
358.7739592
0
ARC
8
DEFAULT_255_1_388
10
5.2402546
20
28.8853829
40
0.5430876
50
358.3757628
51
0.0082477
0
ARC
8
DEFAULT_255_1_388
10
5.3259365
20
28.8884856
40
0.4574157
50
359.6211417
51
11.28403
0
ARC
8
DEFAULT_255_1_388
10
5.4695971
20
28.9184535
40
0.3106708
50
11.0483152
51
31.8145585
0
ARC
8
DEFAULT_255_1_388
10
5.5043676
20
28.9373045
40
0.2711963
50
32.3028554
51
38.0820598
0
ARC
8
DEFAULT_255_1_388
10
5.5516909
20
28.9801717
40
0.2075566
50
36.8249851
51
85.741667
0
ARC
8
DEFAULT_255_1_388
10
5.5441322
20
28.9238065
40
0.2643487
50
85.0150021
51
90.050843
0
LINE
8
DEFAULT_255_1_388
10
4.4551024
20
36.4019
11
3.9988024
21
36.4019
0
LINE
8
DEFAULT_255_1_388
10
3.9988024
20
36.4019
11
3.9988024
21
37.7174898
0
LINE
8
DEFAULT_255_1_388
10
3.9988024
20
37.7174898
11
4.4288991
21
37.7174898
0
LINE
8
DEFAULT_255_1_388
10
4.4614274
20
37.0172274
11
4.1722868
21
37.0172274
0
LINE
8
DEFAULT_255_1_388
10
4.1722868
20
37.0172274
11
4.1722868
21
36.5437596
0
LINE
8
DEFAULT_255_1_388
10
4.1722868
20
36.5437596
11
4.4587167
21
36.5437596
0
LINE
8
DEFAULT_255_1_388
10
4.1722868
20
37.5747267
11
4.1722868
21
37.1563763
0
LINE
8
DEFAULT_255_1_388
10
4.1722868
20
37.1563763
11
4.4343205
21
37.1563763
0
LINE
8
DEFAULT_255_1_388
10
4.4288991
20
37.5747267
11
4.1722868
21
37.5747267
0
ARC
8
DEFAULT_255_1_388
10
4.4331411
20
36.8886824
40
0.8288183
50
82.1256322
51
90.2932506
0
ARC
8
DEFAULT_255_1_388
10
4.4768986
20
37.194459
40
0.5199321
50
69.9044202
51
82.2857574
0
ARC
8
DEFAULT_255_1_388
10
4.5410979
20
37.3679993
40
0.3348993
50
51.1840204
51
70.018125
0
ARC
8
DEFAULT_255_1_388
10
4.5697811
20
37.4096945
40
0.2844579
50
12.1018086
51
50.421322
0
ARC
8
DEFAULT_255_1_388
10
4.4140682
20
37.3705937
40
0.4449429
50
359.5252354
51
12.8212369
0
ARC
8
DEFAULT_255_1_388
10
4.5918112
20
37.3627943
40
0.2672162
50
323.4907456
51
0.8818258
0
ARC
8
DEFAULT_255_1_388
10
4.5447525
20
37.3991523
40
0.3266736
50
298.6824053
51
323.2758285
0
ARC
8
DEFAULT_255_1_388
10
4.5040816
20
37.4667509
40
0.4055105
50
293.1994739
51
299.139634
0
ARC
8
DEFAULT_255_1_388
10
4.5797766
20
36.7821651
40
0.3229926
50
54.0009997
51
74.9168635
0
ARC
8
DEFAULT_255_1_388
10
4.5928693
20
36.8043511
40
0.2973581
50
36.3578854
51
53.5293172
0
ARC
8
DEFAULT_255_1_388
10
4.5786061
20
36.794185
40
0.3148715
50
4.8189348
51
36.3090187
0
ARC
8
DEFAULT_255_1_388
10
4.4909085
20
36.7818383
40
0.4033265
50
359.9373213
51
5.5201284
0
ARC
8
DEFAULT_255_1_388
10
4.4544415
20
36.7772733
40
0.4398126
50
344.7479357
51
0.5372278
0
ARC
8
DEFAULT_255_1_388
10
4.5659314
20
36.7472205
40
0.3243441
50
311.1785587
51
344.6887681
0
ARC
8
DEFAULT_255_1_388
10
4.5330857
20
36.7881084
40
0.3767511
50
286.0417804
51
310.8440924
0
ARC
8
DEFAULT_255_1_388
10
4.4760266
20
36.9733885
40
0.5705957
50
274.1044074
51
286.4070149
0
ARC
8
DEFAULT_255_1_388
10
4.4561482
20
37.1851901
40
0.7832907
50
269.9235077
51
274.4458593
0
ARC
8
DEFAULT_255_1_388
10
4.46132
20
36.9220462
40
0.3782955
50
269.6057074
51
281.3740795
0
ARC
8
DEFAULT_255_1_388
10
4.4872698
20
36.7990569
40
0.2526069
50
281.105298
51
302.5134029
0
ARC
8
DEFAULT_255_1_388
10
4.5038086
20
36.7693944
40
0.2187131
50
303.0365425
51
311.8818034
0
ARC
8
DEFAULT_255_1_388
10
4.5118263
20
36.7598602
40
0.2062624
50
311.9916937
51
351.7143773
0
ARC
8
DEFAULT_255_1_388
10
4.4199288
20
36.7784271
40
0.2999202
50
350.7343295
51
0.2221526
0
ARC
8
DEFAULT_255_1_388
10
4.4078376
20
36.784787
40
0.3120525
50
359.045729
51
17.2295312
0
ARC
8
DEFAULT_255_1_388
10
4.5247406
20
36.8195155
40
0.1901144
50
17.6685208
51
78.9940245
0
ARC
8
DEFAULT_255_1_388
10
4.4665767
20
36.6107011
40
0.4065575
50
76.565218
51
90.7103392
0
LINE
8
DEFAULT_255_1_388
10
4.4615364
20
37.0172274
11
4.4614274
21
37.0172274
0
ARC
8
DEFAULT_255_1_388
10
4.4368593
20
37.5259949
40
0.3696273
50
269.6064514
51
281.4533785
0
ARC
8
DEFAULT_255_1_388
10
4.4619234
20
37.4077283
40
0.2487412
50
281.2044438
51
302.5143998
0
ARC
8
DEFAULT_255_1_388
10
4.4773488
20
37.3799576
40
0.2170405
50
303.0211308
51
309.8378766
0
ARC
8
DEFAULT_255_1_388
10
4.4979605
20
37.3568486
40
0.1860946
50
309.5229446
51
356.9509628
0
ARC
8
DEFAULT_255_1_388
10
4.4233731
20
37.3675831
40
0.2612347
50
355.4699226
51
0.0498632
0
ARC
8
DEFAULT_255_1_388
10
4.3919404
20
37.3700789
40
0.2926762
50
359.5558955
51
11.2092924
0
ARC
8
DEFAULT_255_1_388
10
4.4996372
20
37.3923667
40
0.1827036
50
10.9185717
51
31.322519
0
ARC
8
DEFAULT_255_1_388
10
4.531792
20
37.4102571
40
0.1459418
50
31.8850633
51
52.1415586
0
ARC
8
DEFAULT_255_1_388
10
4.5009349
20
37.3666674
40
0.1993088
50
52.8283418
51
71.9850132
0
ARC
8
DEFAULT_255_1_388
10
4.458651
20
37.2422158
40
0.3307407
50
71.686634
51
82.8453416
0
ARC
8
DEFAULT_255_1_388
10
4.4317157
20
37.0386892
40
0.536039
50
82.6981895
51
90.1730083
0
ARC
8
DEFAULT_255_1_388
10
4.4291989
20
37.1265836
40
0.4481429
50
89.8851568
51
90.0383283
0
LINE
8
DEFAULT_255_1_388
10
5.3180065
20
37.0271666
11
5.184279
21
37.0615021
0
LINE
8
DEFAULT_255_1_388
10
5.184279
20
37.0615021
11
5.2511427
21
37.7174898
0
LINE
8
DEFAULT_255_1_388
10
5.2511427
20
37.7174898
11
5.9252018
21
37.7174898
0
LINE
8
DEFAULT_255_1_388
10
5.9252018
20
37.7174898
11
5.9252018
21
37.5629803
0
LINE
8
DEFAULT_255_1_388
10
5.9252018
20
37.5629803
11
5.3930023
21
37.5629803
0
LINE
8
DEFAULT_255_1_388
10
5.3930023
20
37.5629803
11
5.3532455
21
37.2042652
0
LINE
8
DEFAULT_255_1_388
10
5.1372936
20
36.7479652
11
5.2954174
21
36.7479652
0
LINE
8
DEFAULT_255_1_388
10
5.3622812
20
37.0633092
11
5.3180065
21
37.0271666
0
ARC
8
DEFAULT_255_1_388
10
5.5619069
20
36.8465241
40
0.4141476
50
93.7181681
51
120.253934
0
ARC
8
DEFAULT_255_1_388
10
5.5725121
20
36.7556284
40
0.5055616
50
89.9660471
51
94.2495185
0
ARC
8
DEFAULT_255_1_388
10
5.5770943
20
36.8219154
40
0.4392953
50
73.8045384
51
90.5585736
0
ARC
8
DEFAULT_255_1_388
10
5.60352
20
36.918452
40
0.3392225
50
41.3071072
51
73.543002
0
ARC
8
DEFAULT_255_1_388
10
5.556702
20
36.8781461
40
0.4009977
50
13.5075837
51
41.2174839
0
ARC
8
DEFAULT_255_1_388
10
5.3720118
20
36.8297907
40
0.5918864
50
1.1330171
51
13.8830737
0
ARC
8
DEFAULT_255_1_388
10
5.2123764
20
36.8212522
40
0.7516787
50
359.9925091
51
1.5431298
0
ARC
8
DEFAULT_255_1_388
10
5.3568378
20
36.8166027
40
0.6072343
50
347.8572712
51
0.4294349
0
ARC
8
DEFAULT_255_1_388
10
5.5537513
20
36.7719898
40
0.4053482
50
323.6727442
51
348.1674594
0
ARC
8
DEFAULT_255_1_388
10
5.5868478
20
36.7518175
40
0.3667495
50
316.8171818
51
323.1486802
0
ARC
8
DEFAULT_255_1_388
10
5.5937601
20
36.7476612
40
0.358869
50
281.839603
51
316.5458142
0
ARC
8
DEFAULT_255_1_388
10
5.5514889
20
36.9226363
40
0.5388223
50
269.5770964
51
282.4214641
0
ARC
8
DEFAULT_255_1_388
10
5.543481
20
36.898593
40
0.5147801
50
256.2425863
51
270.4486481
0
ARC
8
DEFAULT_255_1_388
10
5.5098337
20
36.7636124
40
0.3756708
50
228.9024379
51
256.33135
0
ARC
8
DEFAULT_255_1_388
10
5.5015318
20
36.7505054
40
0.360344
50
193.7536029
51
228.5272638
0
ARC
8
DEFAULT_255_1_388
10
5.6407883
20
36.7913463
40
0.5053599
50
184.9244437
51
194.4976052
0
ARC
8
DEFAULT_255_1_388
10
5.6624524
20
36.7953722
40
0.3700839
50
187.3596909
51
198.6733728
0
ARC
8
DEFAULT_255_1_388
10
5.5443767
20
36.7544373
40
0.2451195
50
198.4453795
51
217.7945479
0
ARC
8
DEFAULT_255_1_388
10
5.511094
20
36.7308563
40
0.2043754
50
218.2887146
51
228.5613203
0
ARC
8
DEFAULT_255_1_388
10
5.5220947
20
36.7456902
40
0.2227819
50
228.9652423
51
258.1237049
0
ARC
8
DEFAULT_255_1_388
10
5.5452384
20
36.8447964
40
0.3245374
50
257.7260585
51
270.4013717
0
ARC
8
DEFAULT_255_1_388
10
5.5502882
20
36.7947255
40
0.2744726
50
269.4204315
51
286.420998
0
ARC
8
DEFAULT_255_1_388
10
5.5669938
20
36.7340705
40
0.2115721
50
286.7250065
51
320.6004665
0
ARC
8
DEFAULT_255_1_388
10
5.5238853
20
36.7690527
40
0.2670878
50
320.6712228
51
344.5440474
0
ARC
8
DEFAULT_255_1_388
10
5.3937567
20
36.8072394
40
0.4026927
50
344.241448
51
356.735803
0
ARC
8
DEFAULT_255_1_388
10
5.2533874
20
36.8188656
40
0.5435085
50
356.3547471
51
0.0507222
0
ARC
8
DEFAULT_255_1_388
10
5.403614
20
36.8223812
40
0.3932934
50
359.5579289
51
12.9534322
0
ARC
8
DEFAULT_255_1_388
10
5.5222979
20
36.8511586
40
0.2711827
50
12.6489751
51
41.608121
0
ARC
8
DEFAULT_255_1_388
10
5.5482139
20
36.8731946
40
0.2371737
50
41.7851122
51
85.9892156
0
ARC
8
DEFAULT_255_1_388
10
5.534345
20
36.7816738
40
0.3295244
50
84.6965848
51
90.0672125
0
ARC
8
DEFAULT_255_1_388
10
5.5317017
20
36.7065118
40
0.4046926
50
89.6804991
51
99.161352
0
ARC
8
DEFAULT_255_1_388
10
5.5086026
20
36.8445848
40
0.2647044
50
98.9836248
51
113.8905702
0
ARC
8
DEFAULT_255_1_388
10
5.4827701
20
36.9055118
40
0.1985386
50
114.195234
51
127.3641866
0
LINE
8
DEFAULT_255_1_388
10
4.5874024
20
44.3394
11
4.1311024
21
44.3394
0
LINE
8
DEFAULT_255_1_388
10
4.1311024
20
44.3394
11
4.1311024
21
45.6549898
0
LINE
8
DEFAULT_255_1_388
10
4.1311024
20
45.6549898
11
4.5611991
21
45.6549898
0
LINE
8
DEFAULT_255_1_388
10
4.5937274
20
44.9547274
11
4.3045868
21
44.9547274
0
LINE
8
DEFAULT_255_1_388
10
4.3045868
20
44.9547274
11
4.3045868
21
44.4812596
0
LINE
8
DEFAULT_255_1_388
10
4.3045868
20
44.4812596
11
4.5910167
21
44.4812596
0
LINE
8
DEFAULT_255_1_388
10
4.3045868
20
45.5122267
11
4.3045868
21
45.0938763
0
LINE
8
DEFAULT_255_1_388
10
4.3045868
20
45.0938763
11
4.5666205
21
45.0938763
0
LINE
8
DEFAULT_255_1_388
10
4.5611991
20
45.5122267
11
4.3045868
21
45.5122267
0
ARC
8
DEFAULT_255_1_388
10
4.5654411
20
44.8261824
40
0.8288183
50
82.1256322
51
90.2932506
0
ARC
8
DEFAULT_255_1_388
10
4.6091986
20
45.131959
40
0.5199321
50
69.9044202
51
82.2857574
0
ARC
8
DEFAULT_255_1_388
10
4.6733979
20
45.3054993
40
0.3348993
50
51.1840204
51
70.018125
0
ARC
8
DEFAULT_255_1_388
10
4.7020811
20
45.3471945
40
0.2844579
50
12.1018086
51
50.421322
0
ARC
8
DEFAULT_255_1_388
10
4.5463682
20
45.3080937
40
0.4449429
50
359.5252354
51
12.8212369
0
ARC
8
DEFAULT_255_1_388
10
4.7241112
20
45.3002943
40
0.2672162
50
323.4907456
51
0.8818258
0
ARC
8
DEFAULT_255_1_388
10
4.6770525
20
45.3366523
40
0.3266736
50
298.6824053
51
323.2758285
0
ARC
8
DEFAULT_255_1_388
10
4.6363816
20
45.4042509
40
0.4055105
50
293.1994739
51
299.139634
0
ARC
8
DEFAULT_255_1_388
10
4.7120766
20
44.7196651
40
0.3229926
50
54.0009997
51
74.9168635
0
ARC
8
DEFAULT_255_1_388
10
4.7251693
20
44.7418511
40
0.2973581
50
36.3578854
51
53.5293172
0
ARC
8
DEFAULT_255_1_388
10
4.7109061
20
44.731685
40
0.3148715
50
4.8189348
51
36.3090187
0
ARC
8
DEFAULT_255_1_388
10
4.6232085
20
44.7193383
40
0.4033265
50
359.9373213
51
5.5201284
0
ARC
8
DEFAULT_255_1_388
10
4.5867415
20
44.7147733
40
0.4398126
50
344.7479357
51
0.5372278
0
ARC
8
DEFAULT_255_1_388
10
4.6982314
20
44.6847205
40
0.3243441
50
311.1785587
51
344.6887681
0
ARC
8
DEFAULT_255_1_388
10
4.6653857
20
44.7256084
40
0.3767511
50
286.0417804
51
310.8440924
0
ARC
8
DEFAULT_255_1_388
10
4.6083266
20
44.9108885
40
0.5705957
50
274.1044074
51
286.4070149
0
ARC
8
DEFAULT_255_1_388
10
4.5884482
20
45.1226901
40
0.7832907
50
269.9235077
51
274.4458593
0
ARC
8
DEFAULT_255_1_388
10
4.59362
20
44.8595462
40
0.3782955
50
269.6057074
51
281.3740795
0
ARC
8
DEFAULT_255_1_388
10
4.6195698
20
44.7365569
40
0.2526069
50
281.105298
51
302.5134029
0
ARC
8
DEFAULT_255_1_388
10
4.6361086
20
44.7068944
40
0.2187131
50
303.0365425
51
311.8818034
0
ARC
8
DEFAULT_255_1_388
10
4.6441263
20
44.6973602
40
0.2062624
50
311.9916937
51
351.7143773
0
ARC
8
DEFAULT_255_1_388
10
4.5522288
20
44.7159271
40
0.2999202
50
350.7343295
51
0.2221526
0
ARC
8
DEFAULT_255_1_388
10
4.5401376
20
44.722287
40
0.3120525
50
359.045729
51
17.2295312
0
ARC
8
DEFAULT_255_1_388
10
4.6570406
20
44.7570155
40
0.1901144
50
17.6685208
51
78.9940245
0
ARC
8
DEFAULT_255_1_388
10
4.5988767
20
44.5482011
40
0.4065575
50
76.565218
51
90.7103392
0
LINE
8
DEFAULT_255_1_388
10
4.5938364
20
44.9547274
11
4.5937274
21
44.9547274
0
ARC
8
DEFAULT_255_1_388
10
4.5691593
20
45.4634949
40
0.3696273
50
269.6064514
51
281.4533785
0
ARC
8
DEFAULT_255_1_388
10
4.5942234
20
45.3452283
40
0.2487412
50
281.2044438
51
302.5143998
0
ARC
8
DEFAULT_255_1_388
10
4.6096488
20
45.3174576
40
0.2170405
50
303.0211308
51
309.8378766
0
ARC
8
DEFAULT_255_1_388
10
4.6302605
20
45.2943486
40
0.1860946
50
309.5229446
51
356.9509628
0
ARC
8
DEFAULT_255_1_388
10
4.5556731
20
45.3050831
40
0.2612347
50
355.4699226
51
0.0498632
0
ARC
8
DEFAULT_255_1_388
10
4.5242404
20
45.3075789
40
0.2926762
50
359.5558955
51
11.2092924
0
ARC
8
DEFAULT_255_1_388
10
4.6319372
20
45.3298667
40
0.1827036
50
10.9185717
51
31.322519
0
ARC
8
DEFAULT_255_1_388
10
4.664092
20
45.3477571
40
0.1459418
50
31.8850633
51
52.1415586
0
ARC
8
DEFAULT_255_1_388
10
4.6332349
20
45.3041674
40
0.1993088
50
52.8283418
51
71.9850132
0
ARC
8
DEFAULT_255_1_388
10
4.590951
20
45.1797158
40
0.3307407
50
71.686634
51
82.8453416
0
ARC
8
DEFAULT_255_1_388
10
4.5640157
20
44.9761892
40
0.536039
50
82.6981895
51
90.1730083
0
ARC
8
DEFAULT_255_1_388
10
4.5614989
20
45.0640836
40
0.4481429
50
89.8851568
51
90.0383283
0
LINE
8
DEFAULT_255_1_388
10
5.9454598
20
45.6549898
11
5.9454598
21
44.781243
0
LINE
8
DEFAULT_255_1_388
10
5.9454598
20
44.781243
11
6.1279798
21
44.781243
0
LINE
8
DEFAULT_255_1_388
10
6.1279798
20
44.781243
11
6.1279798
21
44.6448048
0
LINE
8
DEFAULT_255_1_388
10
6.1279798
20
44.6448048
11
5.9454598
21
44.6448048
0
LINE
8
DEFAULT_255_1_388
10
5.9454598
20
44.6448048
11
5.9454598
21
44.3394
0
LINE
8
DEFAULT_255_1_388
10
5.9454598
20
44.3394
11
5.7773968
21
44.3394
0
LINE
8
DEFAULT_255_1_388
10
5.7773968
20
44.3394
11
5.7773968
21
44.6448048
0
LINE
8
DEFAULT_255_1_388
10
5.7773968
20
44.6448048
11
5.1783336
21
44.6448048
0
LINE
8
DEFAULT_255_1_388
10
5.1783336
20
44.6448048
11
5.1783336
21
44.7432933
0
LINE
8
DEFAULT_255_1_388
10
5.1783336
20
44.7432933
11
5.7674576
21
45.6549898
0
LINE
8
DEFAULT_255_1_388
10
5.7674576
20
45.6549898
11
5.9454598
21
45.6549898
0
LINE
8
DEFAULT_255_1_388
10
5.7575184
20
45.3902455
11
5.3680821
21
44.781243
0
LINE
8
DEFAULT_255_1_388
10
5.3680821
20
44.781243
11
5.7773968
21
44.781243
0
LINE
8
DEFAULT_255_1_388
10
5.7773968
20
44.781243
11
5.7773968
21
45.426388
0
LINE
8
DEFAULT_255_1_388
10
5.7773968
20
45.426388
11
5.7575184
21
45.3902455
0
LINE
8
DEFAULT_255_1_388
10
4.4551024
20
52.2769
11
3.9988024
21
52.2769
0
LINE
8
DEFAULT_255_1_388
10
3.9988024
20
52.2769
11
3.9988024
21
53.5924898
0
LINE
8
DEFAULT_255_1_388
10
3.9988024
20
53.5924898
11
4.4288991
21
53.5924898
0
LINE
8
DEFAULT_255_1_388
10
4.4614274
20
52.8922274
11
4.1722868
21
52.8922274
0
LINE
8
DEFAULT_255_1_388
10
4.1722868
20
52.8922274
11
4.1722868
21
52.4187596
0
LINE
8
DEFAULT_255_1_388
10
4.1722868
20
52.4187596
11
4.4587167
21
52.4187596
0
LINE
8
DEFAULT_255_1_388
10
4.1722868
20
53.4497267
11
4.1722868
21
53.0313763
0
LINE
8
DEFAULT_255_1_388
10
4.1722868
20
53.0313763
11
4.4343205
21
53.0313763
0
LINE
8
DEFAULT_255_1_388
10
4.4288991
20
53.4497267
11
4.1722868
21
53.4497267
0
ARC
8
DEFAULT_255_1_388
10
4.4331411
20
52.7636824
40
0.8288183
50
82.1256322
51
90.2932506
0
ARC
8
DEFAULT_255_1_388
10
4.4768986
20
53.069459
40
0.5199321
50
69.9044202
51
82.2857574
0
ARC
8
DEFAULT_255_1_388
10
4.5410979
20
53.2429993
40
0.3348993
50
51.1840204
51
70.018125
0
ARC
8
DEFAULT_255_1_388
10
4.5697811
20
53.2846945
40
0.2844579
50
12.1018086
51
50.421322
0
ARC
8
DEFAULT_255_1_388
10
4.4140682
20
53.2455937
40
0.4449429
50
359.5252354
51
12.8212369
0
ARC
8
DEFAULT_255_1_388
10
4.5918112
20
53.2377943
40
0.2672162
50
323.4907456
51
0.8818258
0
ARC
8
DEFAULT_255_1_388
10
4.5447525
20
53.2741523
40
0.3266736
50
298.6824053
51
323.2758285
0
ARC
8
DEFAULT_255_1_388
10
4.5040816
20
53.3417509
40
0.4055105
50
293.1994739
51
299.139634
0
ARC
8
DEFAULT_255_1_388
10
4.5797766
20
52.6571651
40
0.3229926
50
54.0009997
51
74.9168635
0
ARC
8
DEFAULT_255_1_388
10
4.5928693
20
52.6793511
40
0.2973581
50
36.3578854
51
53.5293172
0
ARC
8
DEFAULT_255_1_388
10
4.5786061
20
52.669185
40
0.3148715
50
4.8189348
51
36.3090187
0
ARC
8
DEFAULT_255_1_388
10
4.4909085
20
52.6568383
40
0.4033265
50
359.9373213
51
5.5201284
0
ARC
8
DEFAULT_255_1_388
10
4.4544415
20
52.6522733
40
0.4398126
50
344.7479357
51
0.5372278
0
ARC
8
DEFAULT_255_1_388
10
4.5659314
20
52.6222205
40
0.3243441
50
311.1785587
51
344.6887681
0
ARC
8
DEFAULT_255_1_388
10
4.5330857
20
52.6631084
40
0.3767511
50
286.0417804
51
310.8440924
0
ARC
8
DEFAULT_255_1_388
10
4.4760266
20
52.8483885
40
0.5705957
50
274.1044074
51
286.4070149
0
ARC
8
DEFAULT_255_1_388
10
4.4561482
20
53.0601901
40
0.7832907
50
269.9235077
51
274.4458593
0
ARC
8
DEFAULT_255_1_388
10
4.46132
20
52.7970462
40
0.3782955
50
269.6057074
51
281.3740795
0
ARC
8
DEFAULT_255_1_388
10
4.4872698
20
52.6740569
40
0.2526069
50
281.105298
51
302.5134029
0
ARC
8
DEFAULT_255_1_388
10
4.5038086
20
52.6443944
40
0.2187131
50
303.0365425
51
311.8818034
0
ARC
8
DEFAULT_255_1_388
10
4.5118263
20
52.6348602
40
0.2062624
50
311.9916937
51
351.7143773
0
ARC
8
DEFAULT_255_1_388
10
4.4199288
20
52.6534271
40
0.2999202
50
350.7343295
51
0.2221526
0
ARC
8
DEFAULT_255_1_388
10
4.4078376
20
52.659787
40
0.3120525
50
359.045729
51
17.2295312
0
ARC
8
DEFAULT_255_1_388
10
4.5247406
20
52.6945155
40
0.1901144
50
17.6685208
51
78.9940245
0
ARC
8
DEFAULT_255_1_388
10
4.4665767
20
52.4857011
40
0.4065575
50
76.565218
51
90.7103392
0
LINE
8
DEFAULT_255_1_388
10
4.4615364
20
52.8922274
11
4.4614274
21
52.8922274
0
ARC
8
DEFAULT_255_1_388
10
4.4368593
20
53.4009949
40
0.3696273
50
269.6064514
51
281.4533785
0
ARC
8
DEFAULT_255_1_388
10
4.4619234
20
53.2827283
40
0.2487412
50
281.2044438
51
302.5143998
0
ARC
8
DEFAULT_255_1_388
10
4.4773488
20
53.2549576
40
0.2170405
50
303.0211308
51
309.8378766
0
ARC
8
DEFAULT_255_1_388
10
4.4979605
20
53.2318486
40
0.1860946
50
309.5229446
51
356.9509628
0
ARC
8
DEFAULT_255_1_388
10
4.4233731
20
53.2425831
40
0.2612347
50
355.4699226
51
0.0498632
0
ARC
8
DEFAULT_255_1_388
10
4.3919404
20
53.2450789
40
0.2926762
50
359.5558955
51
11.2092924
0
ARC
8
DEFAULT_255_1_388
10
4.4996372
20
53.2673667
40
0.1827036
50
10.9185717
51
31.322519
0
ARC
8
DEFAULT_255_1_388
10
4.531792
20
53.2852571
40
0.1459418
50
31.8850633
51
52.1415586
0
ARC
8
DEFAULT_255_1_388
10
4.5009349
20
53.2416674
40
0.1993088
50
52.8283418
51
71.9850132
0
ARC
8
DEFAULT_255_1_388
10
4.458651
20
53.1172158
40
0.3307407
50
71.686634
51
82.8453416
0
ARC
8
DEFAULT_255_1_388
10
4.4317157
20
52.9136892
40
0.536039
50
82.6981895
51
90.1730083
0
ARC
8
DEFAULT_255_1_388
10
4.4291989
20
53.0015836
40
0.4481429
50
89.8851568
51
90.0383283
0
LINE
8
DEFAULT_255_1_388
10
5.3505348
20
52.8795775
11
5.3505348
21
53.0160157
0
LINE
8
DEFAULT_255_1_388
10
5.3505348
20
53.0160157
11
5.4761303
21
53.0160157
0
LINE
8
DEFAULT_255_1_388
10
5.2619855
20
53.2473282
11
5.0948261
21
53.2473282
0
LINE
8
DEFAULT_255_1_388
10
5.0830797
20
52.6238688
11
5.2511427
21
52.6238688
0
LINE
8
DEFAULT_255_1_388
10
5.4761303
20
52.8795775
11
5.3505348
21
52.8795775
0
ARC
8
DEFAULT_255_1_388
10
5.4728529
20
53.3976922
40
0.3816905
50
270.491971
51
281.8953028
0
ARC
8
DEFAULT_255_1_388
10
5.4999956
20
53.2737199
40
0.2547877
50
281.6690378
51
301.2943765
0
ARC
8
DEFAULT_255_1_388
10
5.5191407
20
53.2386926
40
0.2149197
50
301.7834992
51
311.754567
0
ARC
8
DEFAULT_255_1_388
10
5.5294449
20
53.227265
40
0.1995326
50
311.7325027
51
354.2803031
0
ARC
8
DEFAULT_255_1_388
10
5.4476865
20
53.241328
40
0.2823461
50
353.0941646
51
0.1174696
0
ARC
8
DEFAULT_255_1_388
10
5.3958423
20
53.2466874
40
0.3342238
50
359.1804452
51
15.0452323
0
ARC
8
DEFAULT_255_1_388
10
5.5472481
20
53.2908546
40
0.1765747
50
13.957816
51
77.6713812
0
ARC
8
DEFAULT_255_1_388
10
5.5037717
20
53.1350464
40
0.3381982
50
76.111571
51
90.7028736
0
ARC
8
DEFAULT_255_1_388
10
5.4971129
20
53.165825
40
0.3074046
50
89.5321574
51
103.5319393
0
ARC
8
DEFAULT_255_1_388
10
5.4745513
20
53.2557443
40
0.2147041
50
103.2930114
51
133.5619756
0
ARC
8
DEFAULT_255_1_388
10
5.4695454
20
53.2624351
40
0.2064084
50
133.8349761
51
173.5343225
0
ARC
8
DEFAULT_255_1_388
10
5.5509112
20
53.2480144
40
0.2889266
50
172.5097183
51
180.1360699
0
ARC
8
DEFAULT_255_1_388
10
5.4438876
20
53.251888
40
0.3490913
50
155.3483706
51
180.7484035
0
ARC
8
DEFAULT_255_1_388
10
5.4383851
20
53.2486519
40
0.3454798
50
131.5745177
51
154.4799474
0
ARC
8
DEFAULT_255_1_388
10
5.4736134
20
53.2130422
40
0.3955058
50
96.9874487
51
131.9690874
0
ARC
8
DEFAULT_255_1_388
10
5.4983026
20
53.0729407
40
0.537622
50
89.8592909
51
97.7827481
0
ARC
8
DEFAULT_255_1_388
10
5.5037135
20
53.043436
40
0.5671399
50
78.3654493
51
90.4132586
0
ARC
8
DEFAULT_255_1_388
10
5.5439777
20
53.2300918
40
0.3762034
50
56.6229818
51
78.6387103
0
ARC
8
DEFAULT_255_1_388
10
5.5681606
20
53.2723846
40
0.3275964
50
47.0254604
51
56.085558
0
ARC
8
DEFAULT_255_1_388
10
5.5703857
20
53.2768189
40
0.3228382
50
10.9207523
51
46.777927
0
ARC
8
DEFAULT_255_1_388
10
5.4169451
20
53.2413401
40
0.4802559
50
359.6364235
51
11.6087615
0
ARC
8
DEFAULT_255_1_388
10
5.6233616
20
53.2396404
40
0.273833
50
332.3549969
51
359.7179765
0
ARC
8
DEFAULT_255_1_388
10
5.5502017
20
53.2743285
40
0.3547505
50
325.2332381
51
332.8746682
0
ARC
8
DEFAULT_255_1_388
10
5.56736
20
53.2623763
40
0.3338396
50
292.9803892
51
325.2391113
0
ARC
8
DEFAULT_255_1_388
10
5.5362796
20
53.3228679
40
0.4016959
50
292.542178
51
293.6931461
0
ARC
8
DEFAULT_255_1_388
10
5.5806368
20
52.5963036
40
0.372079
50
57.643292
51
72.8626085
0
ARC
8
DEFAULT_255_1_388
10
5.6205202
20
52.6609273
40
0.2961455
50
36.7246661
51
57.4701329
0
ARC
8
DEFAULT_255_1_388
10
5.6192359
20
52.662347
40
0.2963321
50
8.054535
51
36.3561529
0
ARC
8
DEFAULT_255_1_388
10
5.5222032
20
52.6449073
40
0.3948682
50
359.8316595
51
8.5873361
0
ARC
8
DEFAULT_255_1_388
10
5.4799506
20
52.639497
40
0.4371398
50
343.9831631
51
0.557075
0
ARC
8
DEFAULT_255_1_388
10
5.5796555
20
52.6121963
40
0.3337749
50
311.6358204
51
343.7652116
0
ARC
8
DEFAULT_255_1_388
10
5.5370809
20
52.6601955
40
0.3979351
50
279.7829743
51
311.625622
0
ARC
8
DEFAULT_255_1_388
10
5.5031944
20
52.8218642
40
0.5630417
50
269.7285092
51
280.3857694
0
ARC
8
DEFAULT_255_1_388
10
5.4962257
20
52.8172241
40
0.5584119
50
256.6827433
51
270.4412869
0
ARC
8
DEFAULT_255_1_388
10
5.4581244
20
52.6614698
40
0.3980715
50
229.4223821
51
256.8554507
0
ARC
8
DEFAULT_255_1_388
10
5.4114797
20
52.6089683
40
0.3278564
50
181.8183354
51
229.6455015
0
ARC
8
DEFAULT_255_1_388
10
5.5284407
20
52.6236825
40
0.4453611
50
179.9760419
51
183.2330638
0
ARC
8
DEFAULT_255_1_388
10
5.5090959
20
52.6213781
40
0.2579652
50
179.4467996
51
196.2871626
0
ARC
8
DEFAULT_255_1_388
10
5.4542413
20
52.6063709
40
0.2011057
50
196.5661293
51
227.7059371
0
ARC
8
DEFAULT_255_1_388
10
5.472702
20
52.6270155
40
0.2287994
50
227.7653015
51
257.8763321
0
ARC
8
DEFAULT_255_1_388
10
5.4980103
20
52.7330961
40
0.3378385
50
257.4583525
51
270.4267406
0
ARC
8
DEFAULT_255_1_388
10
5.5031353
20
52.765723
40
0.3704652
50
269.5965319
51
280.8788143
0
ARC
8
DEFAULT_255_1_388
10
5.5289581
20
52.6367529
40
0.2389415
50
280.6347277
51
299.8594068
0
ARC
8
DEFAULT_255_1_388
10
5.550435
20
52.5959736
40
0.19289
50
300.3575552
51
314.5515667
0
ARC
8
DEFAULT_255_1_388
10
5.5411026
20
52.6028025
40
0.204312
50
315.0730962
51
345.0429362
0
ARC
8
DEFAULT_255_1_388
10
5.4372533
20
52.6330539
40
0.31246
50
344.598526
51
357.9270698
0
ARC
8
DEFAULT_255_1_388
10
5.3362838
20
52.6399705
40
0.4136265
50
357.4755098
51
0.0224936
0
ARC
8
DEFAULT_255_1_388
10
5.4515716
20
52.6427099
40
0.2983498
50
359.5051035
51
13.4236939
0
ARC
8
DEFAULT_255_1_388
10
5.5490806
20
52.6676637
40
0.1977186
50
12.9497905
51
48.7550905
0
ARC
8
DEFAULT_255_1_388
10
5.5285728
20
52.6396373
40
0.2323321
50
49.509109
51
72.1832965
0
ARC
8
DEFAULT_255_1_388
10
5.4883196
20
52.5201632
40
0.358397
50
71.9008458
51
84.3555134
0
ARC
8
DEFAULT_255_1_388
10
5.4701591
20
52.3669712
40
0.512641
50
84.019632
51
89.3326067
0
LINE
8
DEFAULT_255_1_388
10
4.4551024
20
60.2144
11
3.9988024
21
60.2144
0
LINE
8
DEFAULT_255_1_388
10
3.9988024
20
60.2144
11
3.9988024
21
61.5299898
0
LINE
8
DEFAULT_255_1_388
10
3.9988024
20
61.5299898
11
4.4288991
21
61.5299898
0
LINE
8
DEFAULT_255_1_388
10
4.4614274
20
60.8297274
11
4.1722868
21
60.8297274
0
LINE
8
DEFAULT_255_1_388
10
4.1722868
20
60.8297274
11
4.1722868
21
60.3562596
0
LINE
8
DEFAULT_255_1_388
10
4.1722868
20
60.3562596
11
4.4587167
21
60.3562596
0
LINE
8
DEFAULT_255_1_388
10
4.1722868
20
61.3872267
11
4.1722868
21
60.9688763
0
LINE
8
DEFAULT_255_1_388
10
4.1722868
20
60.9688763
11
4.4343205
21
60.9688763
0
LINE
8
DEFAULT_255_1_388
10
4.4288991
20
61.3872267
11
4.1722868
21
61.3872267
0
ARC
8
DEFAULT_255_1_388
10
4.4331411
20
60.7011824
40
0.8288183
50
82.1256322
51
90.2932506
0
ARC
8
DEFAULT_255_1_388
10
4.4768986
20
61.006959
40
0.5199321
50
69.9044202
51
82.2857574
0
ARC
8
DEFAULT_255_1_388
10
4.5410979
20
61.1804993
40
0.3348993
50
51.1840204
51
70.018125
0
ARC
8
DEFAULT_255_1_388
10
4.5697811
20
61.2221945
40
0.2844579
50
12.1018086
51
50.421322
0
ARC
8
DEFAULT_255_1_388
10
4.4140682
20
61.1830937
40
0.4449429
50
359.5252354
51
12.8212369
0
ARC
8
DEFAULT_255_1_388
10
4.5918112
20
61.1752943
40
0.2672162
50
323.4907456
51
0.8818258
0
ARC
8
DEFAULT_255_1_388
10
4.5447525
20
61.2116523
40
0.3266736
50
298.6824053
51
323.2758285
0
ARC
8
DEFAULT_255_1_388
10
4.5040816
20
61.2792509
40
0.4055105
50
293.1994739
51
299.139634
0
ARC
8
DEFAULT_255_1_388
10
4.5797766
20
60.5946651
40
0.3229926
50
54.0009997
51
74.9168635
0
ARC
8
DEFAULT_255_1_388
10
4.5928693
20
60.6168511
40
0.2973581
50
36.3578854
51
53.5293172
0
ARC
8
DEFAULT_255_1_388
10
4.5786061
20
60.606685
40
0.3148715
50
4.8189348
51
36.3090187
0
ARC
8
DEFAULT_255_1_388
10
4.4909085
20
60.5943383
40
0.4033265
50
359.9373213
51
5.5201284
0
ARC
8
DEFAULT_255_1_388
10
4.4544415
20
60.5897733
40
0.4398126
50
344.7479357
51
0.5372278
0
ARC
8
DEFAULT_255_1_388
10
4.5659314
20
60.5597205
40
0.3243441
50
311.1785587
51
344.6887681
0
ARC
8
DEFAULT_255_1_388
10
4.5330857
20
60.6006084
40
0.3767511
50
286.0417804
51
310.8440924
0
ARC
8
DEFAULT_255_1_388
10
4.4760266
20
60.7858885
40
0.5705957
50
274.1044074
51
286.4070149
0
ARC
8
DEFAULT_255_1_388
10
4.4561482
20
60.9976901
40
0.7832907
50
269.9235077
51
274.4458593
0
ARC
8
DEFAULT_255_1_388
10
4.46132
20
60.7345462
40
0.3782955
50
269.6057074
51
281.3740795
0
ARC
8
DEFAULT_255_1_388
10
4.4872698
20
60.6115569
40
0.2526069
50
281.105298
51
302.5134029
0
ARC
8
DEFAULT_255_1_388
10
4.5038086
20
60.5818944
40
0.2187131
50
303.0365425
51
311.8818034
0
ARC
8
DEFAULT_255_1_388
10
4.5118263
20
60.5723602
40
0.2062624
50
311.9916937
51
351.7143773
0
ARC
8
DEFAULT_255_1_388
10
4.4199288
20
60.5909271
40
0.2999202
50
350.7343295
51
0.2221526
0
ARC
8
DEFAULT_255_1_388
10
4.4078376
20
60.597287
40
0.3120525
50
359.045729
51
17.2295312
0
ARC
8
DEFAULT_255_1_388
10
4.5247406
20
60.6320155
40
0.1901144
50
17.6685208
51
78.9940245
0
ARC
8
DEFAULT_255_1_388
10
4.4665767
20
60.4232011
40
0.4065575
50
76.565218
51
90.7103392
0
LINE
8
DEFAULT_255_1_388
10
4.4615364
20
60.8297274
11
4.4614274
21
60.8297274
0
ARC
8
DEFAULT_255_1_388
10
4.4368593
20
61.3384949
40
0.3696273
50
269.6064514
51
281.4533785
0
ARC
8
DEFAULT_255_1_388
10
4.4619234
20
61.2202283
40
0.2487412
50
281.2044438
51
302.5143998
0
ARC
8
DEFAULT_255_1_388
10
4.4773488
20
61.1924576
40
0.2170405
50
303.0211308
51
309.8378766
0
ARC
8
DEFAULT_255_1_388
10
4.4979605
20
61.1693486
40
0.1860946
50
309.5229446
51
356.9509628
0
ARC
8
DEFAULT_255_1_388
10
4.4233731
20
61.1800831
40
0.2612347
50
355.4699226
51
0.0498632
0
ARC
8
DEFAULT_255_1_388
10
4.3919404
20
61.1825789
40
0.2926762
50
359.5558955
51
11.2092924
0
ARC
8
DEFAULT_255_1_388
10
4.4996372
20
61.2048667
40
0.1827036
50
10.9185717
51
31.322519
0
ARC
8
DEFAULT_255_1_388
10
4.531792
20
61.2227571
40
0.1459418
50
31.8850633
51
52.1415586
0
ARC
8
DEFAULT_255_1_388
10
4.5009349
20
61.1791674
40
0.1993088
50
52.8283418
51
71.9850132
0
ARC
8
DEFAULT_255_1_388
10
4.458651
20
61.0547158
40
0.3307407
50
71.686634
51
82.8453416
0
ARC
8
DEFAULT_255_1_388
10
4.4317157
20
60.8511892
40
0.536039
50
82.6981895
51
90.1730083
0
ARC
8
DEFAULT_255_1_388
10
4.4291989
20
60.9390836
40
0.4481429
50
89.8851568
51
90.0383283
0
LINE
8
DEFAULT_255_1_388
10
5.9694765
20
60.3508382
11
5.9694765
21
60.2144
0
LINE
8
DEFAULT_255_1_388
10
5.9694765
20
60.2144
11
5.107476
21
60.2144
0
LINE
8
DEFAULT_255_1_388
10
5.107476
20
60.2144
11
5.107476
21
60.3345741
0
LINE
8
DEFAULT_255_1_388
10
5.107476
20
60.3345741
11
5.5628725
21
60.8405702
0
LINE
8
DEFAULT_255_1_388
10
5.2493356
20
61.1423607
11
5.0821762
21
61.1423607
0
LINE
8
DEFAULT_255_1_388
10
5.661361
20
60.733046
11
5.3089708
21
60.3508382
0
LINE
8
DEFAULT_255_1_388
10
5.3089708
20
60.3508382
11
5.9694765
21
60.3508382
0
ARC
8
DEFAULT_255_1_388
10
4.0452784
20
62.1825983
40
2.0258655
50
318.5132526
51
320.7829045
0
ARC
8
DEFAULT_255_1_388
10
4.6400741
20
61.6984929
40
1.2589638
50
320.7372878
51
323.9739031
0
ARC
8
DEFAULT_255_1_388
10
5.0809673
20
61.3790554
40
0.7145141
50
323.8962701
51
328.64194
0
ARC
8
DEFAULT_255_1_388
10
5.311193
20
61.2370545
40
0.4440242
50
328.8294576
51
331.7891185
0
ARC
8
DEFAULT_255_1_388
10
5.423425
20
61.1791374
40
0.3177517
50
331.4254512
51
352.9365785
0
ARC
8
DEFAULT_255_1_388
10
5.438725
20
61.175705
40
0.3021496
50
353.2257659
51
0.0166158
0
ARC
8
DEFAULT_255_1_388
10
5.4624011
20
61.1782894
40
0.2784847
50
359.486299
51
15.9343185
0
ARC
8
DEFAULT_255_1_388
10
5.5194278
20
61.1936269
40
0.2194403
50
16.1712913
51
43.5286088
0
ARC
8
DEFAULT_255_1_388
10
5.5281222
20
61.2023191
40
0.2071504
50
43.4417391
51
83.1661095
0
ARC
8
DEFAULT_255_1_388
10
5.5130383
20
61.1194316
40
0.2912888
50
82.160179
51
90.1505708
0
ARC
8
DEFAULT_255_1_388
10
5.5094865
20
61.0590279
40
0.3517025
50
89.5460741
51
102.5418361
0
ARC
8
DEFAULT_255_1_388
10
5.4821585
20
61.1749933
40
0.2325748
50
102.1738499
51
129.206123
0
ARC
8
DEFAULT_255_1_388
10
5.4733038
20
61.1889664
40
0.2161591
50
129.72865
51
135.753947
0
ARC
8
DEFAULT_255_1_388
10
5.4869521
20
61.1780728
40
0.2335433
50
136.1757367
51
166.3673339
0
ARC
8
DEFAULT_255_1_388
10
5.6002209
20
61.1477148
40
0.3507873
50
165.9090694
51
178.8684636
0
ARC
8
DEFAULT_255_1_388
10
5.6977981
20
61.1424263
40
0.4484624
50
178.4391136
51
180.0083808
0
ARC
8
DEFAULT_255_1_388
10
5.5398682
20
61.1468197
40
0.4577138
50
163.2878482
51
180.5581842
0
ARC
8
DEFAULT_255_1_388
10
5.4496723
20
61.1716393
40
0.3641968
50
133.4540601
51
162.947111
0
ARC
8
DEFAULT_255_1_388
10
5.4697605
20
61.1502789
40
0.3935189
50
100.7869829
51
133.4382499
0
ARC
8
DEFAULT_255_1_388
10
5.508885
20
60.9760399
40
0.5720313
50
89.660664
51
101.3702276
0
ARC
8
DEFAULT_255_1_388
10
5.5163459
20
60.9829263
40
0.5651495
50
78.2172678
51
90.412935
0
ARC
8
DEFAULT_255_1_388
10
5.5562925
20
61.1656511
40
0.378122
50
55.9269121
51
78.4888449
0
ARC
8
DEFAULT_255_1_388
10
5.578364
20
61.2037187
40
0.3342379
50
47.929771
51
55.4049217
0
ARC
8
DEFAULT_255_1_388
10
5.589817
20
61.2153618
40
0.3179217
50
4.334829
51
48.0560205
0
ARC
8
DEFAULT_255_1_388
10
5.4665972
20
61.1962487
40
0.442341
50
359.9251713
51
5.5971671
0
ARC
8
DEFAULT_255_1_388
10
5.5148126
20
61.2025728
40
0.3941854
50
337.8914027
51
358.9967534
0
ARC
8
DEFAULT_255_1_388
10
5.2095697
20
61.3203295
40
0.7213271
50
326.9132501
51
338.3508308
0
ARC
8
DEFAULT_255_1_388
10
4.7611808
20
61.6077105
40
1.2538973
50
319.6471833
51
327.0959558
0
ARC
8
DEFAULT_255_1_388
10
4.3298467
20
61.963505
40
1.8129975
50
317.2588228
51
319.9045804
0
LINE
8
DEFAULT_255_1_388
10
4.4470024
20
68.1519
11
3.9907024
21
68.1519
0
LINE
8
DEFAULT_255_1_388
10
3.9907024
20
68.1519
11
3.9907024
21
69.4674898
0
LINE
8
DEFAULT_255_1_388
10
3.9907024
20
69.4674898
11
4.4207991
21
69.4674898
0
LINE
8
DEFAULT_255_1_388
10
4.4533274
20
68.7672274
11
4.1641868
21
68.7672274
0
LINE
8
DEFAULT_255_1_388
10
4.1641868
20
68.7672274
11
4.1641868
21
68.2937596
0
LINE
8
DEFAULT_255_1_388
10
4.1641868
20
68.2937596
11
4.4506167
21
68.2937596
0
LINE
8
DEFAULT_255_1_388
10
4.1641868
20
69.3247267
11
4.1641868
21
68.9063763
0
LINE
8
DEFAULT_255_1_388
10
4.1641868
20
68.9063763
11
4.4262205
21
68.9063763
0
LINE
8
DEFAULT_255_1_388
10
4.4207991
20
69.3247267
11
4.1641868
21
69.3247267
0
ARC
8
DEFAULT_255_1_388
10
4.4250411
20
68.6386824
40
0.8288183
50
82.1256322
51
90.2932506
0
ARC
8
DEFAULT_255_1_388
10
4.4687986
20
68.944459
40
0.5199321
50
69.9044202
51
82.2857574
0
ARC
8
DEFAULT_255_1_388
10
4.5329979
20
69.1179993
40
0.3348993
50
51.1840204
51
70.018125
0
ARC
8
DEFAULT_255_1_388
10
4.5616811
20
69.1596945
40
0.2844579
50
12.1018086
51
50.421322
0
ARC
8
DEFAULT_255_1_388
10
4.4059682
20
69.1205937
40
0.4449429
50
359.5252354
51
12.8212369
0
ARC
8
DEFAULT_255_1_388
10
4.5837112
20
69.1127943
40
0.2672162
50
323.4907456
51
0.8818258
0
ARC
8
DEFAULT_255_1_388
10
4.5366525
20
69.1491523
40
0.3266736
50
298.6824053
51
323.2758285
0
ARC
8
DEFAULT_255_1_388
10
4.4959816
20
69.2167509
40
0.4055105
50
293.1994739
51
299.139634
0
ARC
8
DEFAULT_255_1_388
10
4.5716766
20
68.5321651
40
0.3229926
50
54.0009997
51
74.9168635
0
ARC
8
DEFAULT_255_1_388
10
4.5847693
20
68.5543511
40
0.2973581
50
36.3578854
51
53.5293172
0
ARC
8
DEFAULT_255_1_388
10
4.5705061
20
68.544185
40
0.3148715
50
4.8189348
51
36.3090187
0
ARC
8
DEFAULT_255_1_388
10
4.4828085
20
68.5318383
40
0.4033265
50
359.9373213
51
5.5201284
0
ARC
8
DEFAULT_255_1_388
10
4.4463415
20
68.5272733
40
0.4398126
50
344.7479357
51
0.5372278
0
ARC
8
DEFAULT_255_1_388
10
4.5578314
20
68.4972205
40
0.3243441
50
311.1785587
51
344.6887681
0
ARC
8
DEFAULT_255_1_388
10
4.5249857
20
68.5381084
40
0.3767511
50
286.0417804
51
310.8440924
0
ARC
8
DEFAULT_255_1_388
10
4.4679266
20
68.7233885
40
0.5705957
50
274.1044074
51
286.4070149
0
ARC
8
DEFAULT_255_1_388
10
4.4480482
20
68.9351901
40
0.7832907
50
269.9235077
51
274.4458593
0
ARC
8
DEFAULT_255_1_388
10
4.45322
20
68.6720462
40
0.3782955
50
269.6057074
51
281.3740795
0
ARC
8
DEFAULT_255_1_388
10
4.4791698
20
68.5490569
40
0.2526069
50
281.105298
51
302.5134029
0
ARC
8
DEFAULT_255_1_388
10
4.4957086
20
68.5193944
40
0.2187131
50
303.0365425
51
311.8818034
0
ARC
8
DEFAULT_255_1_388
10
4.5037263
20
68.5098602
40
0.2062624
50
311.9916937
51
351.7143773
0
ARC
8
DEFAULT_255_1_388
10
4.4118288
20
68.5284271
40
0.2999202
50
350.7343295
51
0.2221526
0
ARC
8
DEFAULT_255_1_388
10
4.3997376
20
68.534787
40
0.3120525
50
359.045729
51
17.2295312
0
ARC
8
DEFAULT_255_1_388
10
4.5166406
20
68.5695155
40
0.1901144
50
17.6685208
51
78.9940245
0
ARC
8
DEFAULT_255_1_388
10
4.4584767
20
68.3607011
40
0.4065575
50
76.565218
51
90.7103392
0
LINE
8
DEFAULT_255_1_388
10
4.4534364
20
68.7672274
11
4.4533274
21
68.7672274
0
ARC
8
DEFAULT_255_1_388
10
4.4287593
20
69.2759949
40
0.3696273
50
269.6064514
51
281.4533785
0
ARC
8
DEFAULT_255_1_388
10
4.4538234
20
69.1577283
40
0.2487412
50
281.2044438
51
302.5143998
0
ARC
8
DEFAULT_255_1_388
10
4.4692488
20
69.1299576
40
0.2170405
50
303.0211308
51
309.8378766
0
ARC
8
DEFAULT_255_1_388
10
4.4898605
20
69.1068486
40
0.1860946
50
309.5229446
51
356.9509628
0
ARC
8
DEFAULT_255_1_388
10
4.4152731
20
69.1175831
40
0.2612347
50
355.4699226
51
0.0498632
0
ARC
8
DEFAULT_255_1_388
10
4.3838404
20
69.1200789
40
0.2926762
50
359.5558955
51
11.2092924
0
ARC
8
DEFAULT_255_1_388
10
4.4915372
20
69.1423667
40
0.1827036
50
10.9185717
51
31.322519
0
ARC
8
DEFAULT_255_1_388
10
4.523692
20
69.1602571
40
0.1459418
50
31.8850633
51
52.1415586
0
ARC
8
DEFAULT_255_1_388
10
4.4928349
20
69.1166674
40
0.1993088
50
52.8283418
51
71.9850132
0
ARC
8
DEFAULT_255_1_388
10
4.450551
20
68.9922158
40
0.3307407
50
71.686634
51
82.8453416
0
ARC
8
DEFAULT_255_1_388
10
4.4236157
20
68.7886892
40
0.536039
50
82.6981895
51
90.1730083
0
ARC
8
DEFAULT_255_1_388
10
4.4210989
20
68.8765836
40
0.4481429
50
89.8851568
51
90.0383283
0
LINE
8
DEFAULT_255_1_388
10
5.6487432
20
69.4738148
11
5.6487432
21
68.1519
0
LINE
8
DEFAULT_255_1_388
10
5.6487432
20
68.1519
11
5.4806802
21
68.1519
0
LINE
8
DEFAULT_255_1_388
10
5.4806802
20
68.1519
11
5.4806802
21
69.265995
0
LINE
8
DEFAULT_255_1_388
10
5.4806802
20
69.265995
11
5.1436506
21
69.1422066
0
LINE
8
DEFAULT_255_1_388
10
5.1436506
20
69.1422066
11
5.1436506
21
69.2940055
0
LINE
8
DEFAULT_255_1_388
10
5.1436506
20
69.2940055
11
5.6225398
21
69.4738148
0
LINE
8
DEFAULT_255_1_388
10
5.6225398
20
69.4738148
11
5.6487432
21
69.4738148
0
LINE
8
DEFAULT_255_1_388
10
4.4551024
20
76.0894
11
3.9988024
21
76.0894
0
LINE
8
DEFAULT_255_1_388
10
3.9988024
20
76.0894
11
3.9988024
21
77.4049898
0
LINE
8
DEFAULT_255_1_388
10
3.9988024
20
77.4049898
11
4.4288991
21
77.4049898
0
LINE
8
DEFAULT_255_1_388
10
4.4614274
20
76.7047274
11
4.1722868
21
76.7047274
0
LINE
8
DEFAULT_255_1_388
10
4.1722868
20
76.7047274
11
4.1722868
21
76.2312596
0
LINE
8
DEFAULT_255_1_388
10
4.1722868
20
76.2312596
11
4.4587167
21
76.2312596
0
LINE
8
DEFAULT_255_1_388
10
4.1722868
20
77.2622267
11
4.1722868
21
76.8438763
0
LINE
8
DEFAULT_255_1_388
10
4.1722868
20
76.8438763
11
4.4343205
21
76.8438763
0
LINE
8
DEFAULT_255_1_388
10
4.4288991
20
77.2622267
11
4.1722868
21
77.2622267
0
ARC
8
DEFAULT_255_1_388
10
4.4331411
20
76.5761824
40
0.8288183
50
82.1256322
51
90.2932506
0
ARC
8
DEFAULT_255_1_388
10
4.4768986
20
76.881959
40
0.5199321
50
69.9044202
51
82.2857574
0
ARC
8
DEFAULT_255_1_388
10
4.5410979
20
77.0554993
40
0.3348993
50
51.1840204
51
70.018125
0
ARC
8
DEFAULT_255_1_388
10
4.5697811
20
77.0971945
40
0.2844579
50
12.1018086
51
50.421322
0
ARC
8
DEFAULT_255_1_388
10
4.4140682
20
77.0580937
40
0.4449429
50
359.5252354
51
12.8212369
0
ARC
8
DEFAULT_255_1_388
10
4.5918112
20
77.0502943
40
0.2672162
50
323.4907456
51
0.8818258
0
ARC
8
DEFAULT_255_1_388
10
4.5447525
20
77.0866523
40
0.3266736
50
298.6824053
51
323.2758285
0
ARC
8
DEFAULT_255_1_388
10
4.5040816
20
77.1542509
40
0.4055105
50
293.1994739
51
299.139634
0
ARC
8
DEFAULT_255_1_388
10
4.5797766
20
76.4696651
40
0.3229926
50
54.0009997
51
74.9168635
0
ARC
8
DEFAULT_255_1_388
10
4.5928693
20
76.4918511
40
0.2973581
50
36.3578854
51
53.5293172
0
ARC
8
DEFAULT_255_1_388
10
4.5786061
20
76.481685
40
0.3148715
50
4.8189348
51
36.3090187
0
ARC
8
DEFAULT_255_1_388
10
4.4909085
20
76.4693383
40
0.4033265
50
359.9373213
51
5.5201284
0
ARC
8
DEFAULT_255_1_388
10
4.4544415
20
76.4647733
40
0.4398126
50
344.7479357
51
0.5372278
0
ARC
8
DEFAULT_255_1_388
10
4.5659314
20
76.4347205
40
0.3243441
50
311.1785587
51
344.6887681
0
ARC
8
DEFAULT_255_1_388
10
4.5330857
20
76.4756084
40
0.3767511
50
286.0417804
51
310.8440924
0
ARC
8
DEFAULT_255_1_388
10
4.4760266
20
76.6608885
40
0.5705957
50
274.1044074
51
286.4070149
0
ARC
8
DEFAULT_255_1_388
10
4.4561482
20
76.8726901
40
0.7832907
50
269.9235077
51
274.4458593
0
ARC
8
DEFAULT_255_1_388
10
4.46132
20
76.6095462
40
0.3782955
50
269.6057074
51
281.3740795
0
ARC
8
DEFAULT_255_1_388
10
4.4872698
20
76.4865569
40
0.2526069
50
281.105298
51
302.5134029
0
ARC
8
DEFAULT_255_1_388
10
4.5038086
20
76.4568944
40
0.2187131
50
303.0365425
51
311.8818034
0
ARC
8
DEFAULT_255_1_388
10
4.5118263
20
76.4473602
40
0.2062624
50
311.9916937
51
351.7143773
0
ARC
8
DEFAULT_255_1_388
10
4.4199288
20
76.4659271
40
0.2999202
50
350.7343295
51
0.2221526
0
ARC
8
DEFAULT_255_1_388
10
4.4078376
20
76.472287
40
0.3120525
50
359.045729
51
17.2295312
0
ARC
8
DEFAULT_255_1_388
10
4.5247406
20
76.5070155
40
0.1901144
50
17.6685208
51
78.9940245
0
ARC
8
DEFAULT_255_1_388
10
4.4665767
20
76.2982011
40
0.4065575
50
76.565218
51
90.7103392
0
LINE
8
DEFAULT_255_1_388
10
4.4615364
20
76.7047274
11
4.4614274
21
76.7047274
0
ARC
8
DEFAULT_255_1_388
10
4.4368593
20
77.2134949
40
0.3696273
50
269.6064514
51
281.4533785
0
ARC
8
DEFAULT_255_1_388
10
4.4619234
20
77.0952283
40
0.2487412
50
281.2044438
51
302.5143998
0
ARC
8
DEFAULT_255_1_388
10
4.4773488
20
77.0674576
40
0.2170405
50
303.0211308
51
309.8378766
0
ARC
8
DEFAULT_255_1_388
10
4.4979605
20
77.0443486
40
0.1860946
50
309.5229446
51
356.9509628
0
ARC
8
DEFAULT_255_1_388
10
4.4233731
20
77.0550831
40
0.2612347
50
355.4699226
51
0.0498632
0
ARC
8
DEFAULT_255_1_388
10
4.3919404
20
77.0575789
40
0.2926762
50
359.5558955
51
11.2092924
0
ARC
8
DEFAULT_255_1_388
10
4.4996372
20
77.0798667
40
0.1827036
50
10.9185717
51
31.322519
0
ARC
8
DEFAULT_255_1_388
10
4.531792
20
77.0977571
40
0.1459418
50
31.8850633
51
52.1415586
0
ARC
8
DEFAULT_255_1_388
10
4.5009349
20
77.0541674
40
0.1993088
50
52.8283418
51
71.9850132
0
ARC
8
DEFAULT_255_1_388
10
4.458651
20
76.9297158
40
0.3307407
50
71.686634
51
82.8453416
0
ARC
8
DEFAULT_255_1_388
10
4.4317157
20
76.7261892
40
0.536039
50
82.6981895
51
90.1730083
0
ARC
8
DEFAULT_255_1_388
10
4.4291989
20
76.8140836
40
0.4481429
50
89.8851568
51
90.0383283
0
LINE
8
DEFAULT_255_1_388
10
5.9324303
20
76.867369
11
5.9324303
21
76.6505135
0
LINE
8
DEFAULT_255_1_388
10
5.1020546
20
76.6279244
11
5.1020546
21
76.8511048
0
LINE
8
DEFAULT_255_1_388
10
5.7652709
20
76.6053353
11
5.7652709
21
76.8791153
0
LINE
8
DEFAULT_255_1_388
10
5.269214
20
76.8917652
11
5.269214
21
76.6243102
0
ARC
8
DEFAULT_255_1_388
10
4.5546637
20
76.6450118
40
1.3777776
50
353.8440855
51
0.2287917
0
ARC
8
DEFAULT_255_1_388
10
5.0765655
20
76.5867414
40
0.852639
50
344.4934746
51
353.9763743
0
ARC
8
DEFAULT_255_1_388
10
5.4132462
20
76.4910191
40
0.5026273
50
329.2803599
51
344.7473406
0
ARC
8
DEFAULT_255_1_388
10
5.5247958
20
76.4298038
40
0.3754848
50
324.9361395
51
328.6153007
0
ARC
8
DEFAULT_255_1_388
10
5.5673607
20
76.4000586
40
0.3235566
50
280.5801797
51
324.9173226
0
ARC
8
DEFAULT_255_1_388
10
5.5222236
20
76.5880236
40
0.5167077
50
269.5979457
51
281.6732777
0
ARC
8
DEFAULT_255_1_388
10
5.5141139
20
76.5745113
40
0.5032026
50
256.6228565
51
270.5105488
0
ARC
8
DEFAULT_255_1_388
10
5.4688882
20
76.4003345
40
0.3233092
50
215.8618351
51
257.2787793
0
ARC
8
DEFAULT_255_1_388
10
5.5837589
20
76.4774106
40
0.4615831
50
197.9695203
51
215.2622745
0
ARC
8
DEFAULT_255_1_388
10
5.8633265
20
76.5717641
40
0.7566307
50
187.8816486
51
198.2346584
0
ARC
8
DEFAULT_255_1_388
10
6.3086503
20
76.6360453
40
1.2065653
50
180.8977266
51
188.0054894
0
ARC
8
DEFAULT_255_1_388
10
6.6136717
20
76.64754
40
1.5117443
50
180.7434591
51
181.152202
0
ARC
8
DEFAULT_255_1_388
10
6.4461713
20
76.8565371
40
1.3441277
50
173.7674302
51
180.2315596
0
ARC
8
DEFAULT_255_1_388
10
5.9379582
20
76.9139779
40
0.8326847
50
164.3058537
51
173.9000553
0
ARC
8
DEFAULT_255_1_388
10
5.6103582
20
77.0083652
40
0.4917711
50
148.7922028
51
164.5682288
0
ARC
8
DEFAULT_255_1_388
10
5.5034319
20
77.0680457
40
0.3694204
50
144.5883979
51
148.1161588
0
ARC
8
DEFAULT_255_1_388
10
5.4647064
20
77.0950667
40
0.322202
50
101.6440149
51
144.5142619
0
ARC
8
DEFAULT_255_1_388
10
5.5125257
20
76.9050337
40
0.5180451
50
89.528284
51
102.5820197
0
ARC
8
DEFAULT_255_1_388
10
5.5214249
20
76.9006376
40
0.5224441
50
77.0437914
51
90.508231
0
ARC
8
DEFAULT_255_1_388
10
5.5666502
20
77.0854272
40
0.3322297
50
48.2777708
51
77.4996087
0
ARC
8
DEFAULT_255_1_388
10
5.5748242
20
77.0999557
40
0.315966
50
36.3141586
51
47.6307332
0
ARC
8
DEFAULT_255_1_388
10
5.4770964
20
77.0341159
40
0.4337313
50
18.2931065
51
35.6770203
0
ARC
8
DEFAULT_255_1_388
10
5.1909805
20
76.9359107
40
0.7362203
50
8.0246996
51
18.5605636
0
ARC
8
DEFAULT_255_1_388
10
4.7226161
20
76.8667432
40
1.2096583
50
1.127539
51
8.1718423
0
ARC
8
DEFAULT_255_1_388
10
4.3577294
20
76.8524374
40
1.5747719
50
0.5432713
51
1.38669
0
ARC
8
DEFAULT_255_1_388
10
4.5634673
20
76.8831163
40
1.2018103
50
359.8092569
51
4.9408001
0
ARC
8
DEFAULT_255_1_388
10
5.0371254
20
76.92539
40
0.7262727
50
4.8364937
51
12.2906017
0
ARC
8
DEFAULT_255_1_388
10
5.3470719
20
76.9944485
40
0.4087324
50
12.0806994
51
23.8171225
0
ARC
8
DEFAULT_255_1_388
10
5.4791115
20
77.0503508
40
0.2653719
50
24.2874621
51
31.3934353
0
ARC
8
DEFAULT_255_1_388
10
5.5381551
20
77.0889822
40
0.1948607
50
30.7407708
51
82.4658033
0
ARC
8
DEFAULT_255_1_388
10
5.5179212
20
76.9896017
40
0.2961198
50
81.1057101
51
90.2187368
0
ARC
8
DEFAULT_255_1_388
10
5.5139023
20
77.0186421
40
0.2670929
50
89.380395
51
105.6763916
0
ARC
8
DEFAULT_255_1_388
10
5.4932745
20
77.093632
40
0.1893189
50
105.7980655
51
149.7387869
0
ARC
8
DEFAULT_255_1_388
10
5.6129886
20
77.0216719
40
0.3289892
50
149.4208441
51
163.628295
0
ARC
8
DEFAULT_255_1_388
10
5.8482115
20
76.9499345
40
0.5749004
50
163.3764549
51
172.141138
0
ARC
8
DEFAULT_255_1_388
10
6.2194837
20
76.8967582
40
0.9499585
50
172.0258462
51
178.0705453
0
ARC
8
DEFAULT_255_1_388
10
6.5616389
20
76.8805682
40
1.2924734
50
177.8639301
51
179.5036263
0
ARC
8
DEFAULT_255_1_388
10
6.4397408
20
76.6202151
40
1.170534
50
179.7995545
51
185.246089
0
ARC
8
DEFAULT_255_1_388
10
5.9849001
20
76.5771404
40
0.7136613
50
185.1411911
51
193.0082205
0
ARC
8
DEFAULT_255_1_388
10
5.6875262
20
76.5068441
40
0.4080987
50
192.7897338
51
205.2507384
0
ARC
8
DEFAULT_255_1_388
10
5.5697472
20
76.4542538
40
0.2791522
50
205.8001921
51
211.2545876
0
ARC
8
DEFAULT_255_1_388
10
5.5109011
20
76.4148132
40
0.2084074
50
210.3789935
51
238.4007996
0
ARC
8
DEFAULT_255_1_388
10
5.5087097
20
76.4200786
40
0.2117943
50
239.6521916
51
265.9793852
0
ARC
8
DEFAULT_255_1_388
10
5.5182946
20
76.4957358
40
0.2879689
50
265.1324455
51
270.0603288
0
ARC
8
DEFAULT_255_1_388
10
5.5215323
20
76.4592418
40
0.2514919
50
269.3314378
51
287.2180039
0
ARC
8
DEFAULT_255_1_388
10
5.5370405
20
76.4026291
40
0.1928357
50
287.7957942
51
329.0808983
0
ARC
8
DEFAULT_255_1_388
10
5.4293162
20
76.4698651
40
0.319808
50
328.6635261
51
343.3325043
0
ARC
8
DEFAULT_255_1_388
10
5.1848621
20
76.5460195
40
0.5758408
50
343.0498092
51
351.9392499
0
ARC
8
DEFAULT_255_1_388
10
4.7947942
20
76.6035205
40
0.9701202
50
351.8071632
51
357.7957897
0
ARC
8
DEFAULT_255_1_388
10
4.4313419
20
76.6223724
40
1.3340376
50
357.5870923
51
359.2682493
0
LINE
8
DEFAULT_255_1_388
10
4.794932
20
84.4443468
11
4.9693199
21
84.4443468
0
LINE
8
DEFAULT_255_1_388
10
3.9564242
20
84.6232525
11
3.9564242
21
84.7497516
0
LINE
8
DEFAULT_255_1_388
10
4.9693199
20
84.9196217
11
4.794932
21
84.9196217
0
LINE
8
DEFAULT_255_1_388
10
4.1308121
20
84.7452337
11
4.1308121
21
84.6178312
0
ARC
8
DEFAULT_255_1_388
10
4.3527433
20
84.5115329
40
0.6202263
50
340.1774904
51
353.7812217
0
ARC
8
DEFAULT_255_1_388
10
4.5295286
20
84.4456893
40
0.4315926
50
311.4560052
51
340.4420756
0
ARC
8
DEFAULT_255_1_388
10
4.5257826
20
84.4581665
40
0.4434573
50
282.4332229
51
310.7514507
0
ARC
8
DEFAULT_255_1_388
10
4.4763644
20
84.6623703
40
0.6535262
50
269.9358869
51
282.8096729
0
ARC
8
DEFAULT_255_1_388
10
4.4705583
20
84.8136329
40
0.8048043
50
269.9995752
51
270.3612856
0
ARC
8
DEFAULT_255_1_388
10
4.4646073
20
84.5337781
40
0.5249831
50
250.7885263
51
270.6488451
0
ARC
8
DEFAULT_255_1_388
10
4.4456898
20
84.4620853
40
0.4510942
50
219.3628377
51
250.0611024
0
ARC
8
DEFAULT_255_1_388
10
4.5389772
20
84.5413653
40
0.5735046
50
193.5480293
51
219.5755675
0
ARC
8
DEFAULT_255_1_388
10
4.8057981
20
84.610652
40
0.849146
50
181.1220183
51
193.8754971
0
ARC
8
DEFAULT_255_1_388
10
5.0381214
20
84.6230914
40
1.0816971
50
179.9914644
51
181.5398227
0
ARC
8
DEFAULT_255_1_388
10
4.8304525
20
84.7539586
40
0.8740384
50
169.5837606
51
180.275782
0
ARC
8
DEFAULT_255_1_388
10
4.6237873
20
84.7921439
40
0.6638751
50
155.0367033
51
169.6002779
0
ARC
8
DEFAULT_255_1_388
10
4.4960331
20
84.8537336
40
0.5220662
50
136.7831557
51
155.2472983
0
ARC
8
DEFAULT_255_1_388
10
4.4522122
20
84.8909577
40
0.4646502
50
121.7633063
51
136.4281161
0
ARC
8
DEFAULT_255_1_388
10
4.4673962
20
84.8629049
40
0.4964979
50
95.6460018
51
121.5489589
0
ARC
8
DEFAULT_255_1_388
10
4.4850936
20
84.7381704
40
0.6223912
50
89.9245727
51
96.1375919
0
ARC
8
DEFAULT_255_1_388
10
4.4907641
20
84.7515721
40
0.6090084
50
76.6779212
51
90.456405
0
ARC
8
DEFAULT_255_1_388
10
4.5350454
20
84.930506
40
0.42469
50
47.4858803
51
76.9287069
0
ARC
8
DEFAULT_255_1_388
10
4.5185068
20
84.9192623
40
0.4441778
50
16.5424081
51
46.8934505
0
ARC
8
DEFAULT_255_1_388
10
4.3376118
20
84.8598265
40
0.6345318
50
5.4072971
51
17.0363711
0
ARC
8
DEFAULT_255_1_388
10
4.1757843
20
84.8338304
40
0.6250632
50
7.8888693
51
15.9242022
0
ARC
8
DEFAULT_255_1_388
10
4.3992828
20
84.8987309
40
0.3923364
50
15.7650676
51
27.9410069
0
ARC
8
DEFAULT_255_1_388
10
4.5234997
20
84.9652317
40
0.2514401
50
27.8167196
51
46.4007942
0
ARC
8
DEFAULT_255_1_388
10
4.5290839
20
84.9645882
40
0.2480958
50
47.4372362
51
75.0695672
0
ARC
8
DEFAULT_255_1_388
10
4.4943675
20
84.8437277
40
0.3738281
50
74.7009379
51
87.8124314
0
ARC
8
DEFAULT_255_1_388
10
4.4861292
20
84.7253659
40
0.4924321
50
87.3802571
51
90.0251599
0
ARC
8
DEFAULT_255_1_388
10
4.4817939
20
84.8573997
40
0.3604218
50
89.3451886
51
108.5744412
0
ARC
8
DEFAULT_255_1_388
10
4.4663931
20
84.9151836
40
0.3007661
50
109.2998307
51
143.3037387
0
ARC
8
DEFAULT_255_1_388
10
4.5521221
20
84.8492584
40
0.4089031
50
143.075267
51
163.1918576
0
ARC
8
DEFAULT_255_1_388
10
4.7717055
20
84.7799652
40
0.6391492
50
162.9375929
51
174.6208776
0
ARC
8
DEFAULT_255_1_388
10
5.0671437
20
84.7475711
40
0.9363344
50
174.342123
51
180.1430283
0
ARC
8
DEFAULT_255_1_388
10
4.9623978
20
84.6132117
40
0.8315986
50
179.6817261
51
189.150555
0
ARC
8
DEFAULT_255_1_388
10
4.6810727
20
84.5663559
40
0.5464044
50
188.9911061
51
203.5772363
0
ARC
8
DEFAULT_255_1_388
10
4.5596019
20
84.5159539
40
0.4149206
50
203.9075402
51
215.1312435
0
ARC
8
DEFAULT_255_1_388
10
4.4557817
20
84.4354907
40
0.2837747
50
213.9071511
51
263.8848919
0
ARC
8
DEFAULT_255_1_388
10
4.469881
20
84.5237519
40
0.3730641
50
263.1757928
51
270.1031044
0
ARC
8
DEFAULT_255_1_388
10
4.473489
20
84.6640511
40
0.5133712
50
269.6722503
51
279.0606936
0
ARC
8
DEFAULT_255_1_388
10
4.5035045
20
84.482615
40
0.3294739
50
278.8749101
51
293.6349581
0
ARC
8
DEFAULT_255_1_388
10
4.5395249
20
84.3980251
40
0.2375405
50
293.8553806
51
310.0518171
0
ARC
8
DEFAULT_255_1_388
10
4.5400758
20
84.3910021
40
0.2318463
50
311.0644687
51
332.0111037
0
ARC
8
DEFAULT_255_1_388
10
4.4059431
20
84.4649702
40
0.3850112
50
331.6586806
51
343.2877423
0
ARC
8
DEFAULT_255_1_388
10
4.1738896
20
84.5362806
40
0.6277712
50
343.1446576
51
351.0103568
0
ARC
8
DEFAULT_255_1_388
10
4.010622
20
84.5662873
40
0.7937327
50
350.71248
51
351.1626997
0
LINE
8
DEFAULT_255_1_388
10
5.3921881
20
85.3424898
11
5.3921881
21
84.0269
0
LINE
8
DEFAULT_255_1_388
10
5.3921881
20
84.0269
11
5.2187037
21
84.0269
0
LINE
8
DEFAULT_255_1_388
10
5.2187037
20
84.0269
11
5.2187037
21
85.3424898
0
LINE
8
DEFAULT_255_1_388
10
5.2187037
20
85.3424898
11
5.3921881
21
85.3424898
0
LINE
8
DEFAULT_255_1_388
10
4.794932
20
92.3818468
11
4.9693199
21
92.3818468
0
LINE
8
DEFAULT_255_1_388
10
3.9564242
20
92.5607525
11
3.9564242
21
92.6872516
0
LINE
8
DEFAULT_255_1_388
10
4.9693199
20
92.8571217
11
4.794932
21
92.8571217
0
LINE
8
DEFAULT_255_1_388
10
4.1308121
20
92.6827337
11
4.1308121
21
92.5553312
0
ARC
8
DEFAULT_255_1_388
10
4.3527433
20
92.4490329
40
0.6202263
50
340.1774904
51
353.7812217
0
ARC
8
DEFAULT_255_1_388
10
4.5295286
20
92.3831893
40
0.4315926
50
311.4560052
51
340.4420756
0
ARC
8
DEFAULT_255_1_388
10
4.5257826
20
92.3956665
40
0.4434573
50
282.4332229
51
310.7514507
0
ARC
8
DEFAULT_255_1_388
10
4.4763644
20
92.5998703
40
0.6535262
50
269.9358869
51
282.8096729
0
ARC
8
DEFAULT_255_1_388
10
4.4705583
20
92.7511329
40
0.8048043
50
269.9995752
51
270.3612856
0
ARC
8
DEFAULT_255_1_388
10
4.4646073
20
92.4712781
40
0.5249831
50
250.7885263
51
270.6488451
0
ARC
8
DEFAULT_255_1_388
10
4.4456898
20
92.3995853
40
0.4510942
50
219.3628377
51
250.0611024
0
ARC
8
DEFAULT_255_1_388
10
4.5389772
20
92.4788653
40
0.5735046
50
193.5480293
51
219.5755675
0
ARC
8
DEFAULT_255_1_388
10
4.8057981
20
92.548152
40
0.849146
50
181.1220183
51
193.8754971
0
ARC
8
DEFAULT_255_1_388
10
5.0381214
20
92.5605914
40
1.0816971
50
179.9914644
51
181.5398227
0
ARC
8
DEFAULT_255_1_388
10
4.8304525
20
92.6914586
40
0.8740384
50
169.5837606
51
180.275782
0
ARC
8
DEFAULT_255_1_388
10
4.6237873
20
92.7296439
40
0.6638751
50
155.0367033
51
169.6002779
0
ARC
8
DEFAULT_255_1_388
10
4.4960331
20
92.7912336
40
0.5220662
50
136.7831557
51
155.2472983
0
ARC
8
DEFAULT_255_1_388
10
4.4522122
20
92.8284577
40
0.4646502
50
121.7633063
51
136.4281161
0
ARC
8
DEFAULT_255_1_388
10
4.4673962
20
92.8004049
40
0.4964979
50
95.6460018
51
121.5489589
0
ARC
8
DEFAULT_255_1_388
10
4.4850936
20
92.6756704
40
0.6223912
50
89.9245727
51
96.1375919
0
ARC
8
DEFAULT_255_1_388
10
4.4907641
20
92.6890721
40
0.6090084
50
76.6779212
51
90.456405
0
ARC
8
DEFAULT_255_1_388
10
4.5350454
20
92.868006
40
0.42469
50
47.4858803
51
76.9287069
0
ARC
8
DEFAULT_255_1_388
10
4.5185068
20
92.8567623
40
0.4441778
50
16.5424081
51
46.8934505
0
ARC
8
DEFAULT_255_1_388
10
4.3376118
20
92.7973265
40
0.6345318
50
5.4072971
51
17.0363711
0
ARC
8
DEFAULT_255_1_388
10
4.1757843
20
92.7713304
40
0.6250632
50
7.8888693
51
15.9242022
0
ARC
8
DEFAULT_255_1_388
10
4.3992828
20
92.8362309
40
0.3923364
50
15.7650676
51
27.9410069
0
ARC
8
DEFAULT_255_1_388
10
4.5234997
20
92.9027317
40
0.2514401
50
27.8167196
51
46.4007942
0
ARC
8
DEFAULT_255_1_388
10
4.5290839
20
92.9020882
40
0.2480958
50
47.4372362
51
75.0695672
0
ARC
8
DEFAULT_255_1_388
10
4.4943675
20
92.7812277
40
0.3738281
50
74.7009379
51
87.8124314
0
ARC
8
DEFAULT_255_1_388
10
4.4861292
20
92.6628659
40
0.4924321
50
87.3802571
51
90.0251599
0
ARC
8
DEFAULT_255_1_388
10
4.4817939
20
92.7948997
40
0.3604218
50
89.3451886
51
108.5744412
0
ARC
8
DEFAULT_255_1_388
10
4.4663931
20
92.8526836
40
0.3007661
50
109.2998307
51
143.3037387
0
ARC
8
DEFAULT_255_1_388
10
4.5521221
20
92.7867584
40
0.4089031
50
143.075267
51
163.1918576
0
ARC
8
DEFAULT_255_1_388
10
4.7717055
20
92.7174652
40
0.6391492
50
162.9375929
51
174.6208776
0
ARC
8
DEFAULT_255_1_388
10
5.0671437
20
92.6850711
40
0.9363344
50
174.342123
51
180.1430283
0
ARC
8
DEFAULT_255_1_388
10
4.9623978
20
92.5507117
40
0.8315986
50
179.6817261
51
189.150555
0
ARC
8
DEFAULT_255_1_388
10
4.6810727
20
92.5038559
40
0.5464044
50
188.9911061
51
203.5772363
0
ARC
8
DEFAULT_255_1_388
10
4.5596019
20
92.4534539
40
0.4149206
50
203.9075402
51
215.1312435
0
ARC
8
DEFAULT_255_1_388
10
4.4557817
20
92.3729907
40
0.2837747
50
213.9071511
51
263.8848919
0
ARC
8
DEFAULT_255_1_388
10
4.469881
20
92.4612519
40
0.3730641
50
263.1757928
51
270.1031044
0
ARC
8
DEFAULT_255_1_388
10
4.473489
20
92.6015511
40
0.5133712
50
269.6722503
51
279.0606936
0
ARC
8
DEFAULT_255_1_388
10
4.5035045
20
92.420115
40
0.3294739
50
278.8749101
51
293.6349581
0
ARC
8
DEFAULT_255_1_388
10
4.5395249
20
92.3355251
40
0.2375405
50
293.8553806
51
310.0518171
0
ARC
8
DEFAULT_255_1_388
10
4.5400758
20
92.3285021
40
0.2318463
50
311.0644687
51
332.0111037
0
ARC
8
DEFAULT_255_1_388
10
4.4059431
20
92.4024702
40
0.3850112
50
331.6586806
51
343.2877423
0
ARC
8
DEFAULT_255_1_388
10
4.1738896
20
92.4737806
40
0.6277712
50
343.1446576
51
351.0103568
0
ARC
8
DEFAULT_255_1_388
10
4.010622
20
92.5037873
40
0.7937327
50
350.71248
51
351.1626997
0
LINE
8
DEFAULT_255_1_388
10
5.3921881
20
93.2799898
11
5.3921881
21
91.9644
0
LINE
8
DEFAULT_255_1_388
10
5.3921881
20
91.9644
11
5.2187037
21
91.9644
0
LINE
8
DEFAULT_255_1_388
10
5.2187037
20
91.9644
11
5.2187037
21
93.2799898
0
LINE
8
DEFAULT_255_1_388
10
5.2187037
20
93.2799898
11
5.3921881
21
93.2799898
0
LINE
8
DEFAULT_255_1_388
10
4.9831637
20
99.9019
11
4.8575682
21
100.2452545
0
LINE
8
DEFAULT_255_1_388
10
4.8575682
20
100.2452545
11
4.3063939
21
100.2452545
0
LINE
8
DEFAULT_255_1_388
10
4.3063939
20
100.2452545
11
4.1826056
21
99.9019
0
LINE
8
DEFAULT_255_1_388
10
4.1826056
20
99.9019
11
4.0036998
21
99.9019
0
LINE
8
DEFAULT_255_1_388
10
4.0036998
20
99.9019
11
4.5060816
21
101.2174898
0
LINE
8
DEFAULT_255_1_388
10
4.5060816
20
101.2174898
11
4.6578805
21
101.2174898
0
LINE
8
DEFAULT_255_1_388
10
4.6578805
20
101.2174898
11
5.1611659
21
99.9019
0
LINE
8
DEFAULT_255_1_388
10
5.1611659
20
99.9019
11
4.9831637
21
99.9019
0
LINE
8
DEFAULT_255_1_388
10
4.5819811
20
101.0033451
11
4.3588006
21
100.3880177
0
LINE
8
DEFAULT_255_1_388
10
4.3588006
20
100.3880177
11
4.806065
21
100.3880177
0
LINE
8
DEFAULT_255_1_388
10
4.806065
20
100.3880177
11
4.5819811
21
101.0033451
0
LINE
8
DEFAULT_255_1_388
10
6.144244
20
101.2174898
11
6.144244
21
101.1235191
0
LINE
8
DEFAULT_255_1_388
10
6.144244
20
101.1235191
11
5.5993946
21
99.9019
0
LINE
8
DEFAULT_255_1_388
10
5.5993946
20
99.9019
11
5.4241031
21
99.9019
0
LINE
8
DEFAULT_255_1_388
10
5.4241031
20
99.9019
11
5.9671454
21
101.080148
0
LINE
8
DEFAULT_255_1_388
10
5.9671454
20
101.080148
11
5.2551366
21
101.080148
0
LINE
8
DEFAULT_255_1_388
10
5.2551366
20
101.080148
11
5.2551366
21
101.2174898
0
LINE
8
DEFAULT_255_1_388
10
5.2551366
20
101.2174898
11
6.144244
21
101.2174898
0
LINE
8
DEFAULT_255_1_388
10
4.9831637
20
107.8394
11
4.8575682
21
108.1827545
0
LINE
8
DEFAULT_255_1_388
10
4.8575682
20
108.1827545
11
4.3063939
21
108.1827545
0
LINE
8
DEFAULT_255_1_388
10
4.3063939
20
108.1827545
11
4.1826056
21
107.8394
0
LINE
8
DEFAULT_255_1_388
10
4.1826056
20
107.8394
11
4.0036998
21
107.8394
0
LINE
8
DEFAULT_255_1_388
10
4.0036998
20
107.8394
11
4.5060816
21
109.1549898
0
LINE
8
DEFAULT_255_1_388
10
4.5060816
20
109.1549898
11
4.6578805
21
109.1549898
0
LINE
8
DEFAULT_255_1_388
10
4.6578805
20
109.1549898
11
5.1611659
21
107.8394
0
LINE
8
DEFAULT_255_1_388
10
5.1611659
20
107.8394
11
4.9831637
21
107.8394
0
LINE
8
DEFAULT_255_1_388
10
4.5819811
20
108.9408451
11
4.3588006
21
108.3255177
0
LINE
8
DEFAULT_255_1_388
10
4.3588006
20
108.3255177
11
4.806065
21
108.3255177
0
LINE
8
DEFAULT_255_1_388
10
4.806065
20
108.3255177
11
4.5819811
21
108.9408451
0
LINE
8
DEFAULT_255_1_388
10
5.9210636
20
109.1558934
11
5.9508812
21
109.1558934
0
LINE
8
DEFAULT_255_1_388
10
5.9508812
20
109.1558934
11
5.9508812
21
109.0140338
0
LINE
8
DEFAULT_255_1_388
10
5.9508812
20
109.0140338
11
5.92016
21
109.0140338
0
LINE
8
DEFAULT_255_1_388
10
5.3048326
20
108.3399747
11
5.3048326
21
108.4041278
0
LINE
8
DEFAULT_255_1_388
10
5.4728956
20
108.3824422
11
5.4728956
21
108.3209999
0
ARC
8
DEFAULT_255_1_388
10
5.9260492
20
108.4517826
40
0.562282
50
90.6001079
51
104.5146616
0
ARC
8
DEFAULT_255_1_388
10
5.8823451
20
108.61431
40
0.3939917
50
104.2855758
51
133.8630124
0
ARC
8
DEFAULT_255_1_388
10
5.9007704
20
108.6021243
40
0.4155734
50
134.5304124
51
161.6210222
0
ARC
8
DEFAULT_255_1_388
10
6.0867636
20
108.5365421
40
0.6127682
50
161.2850533
51
174.2074364
0
ARC
8
DEFAULT_255_1_388
10
6.2457203
20
108.5146437
40
0.7731446
50
173.7817938
51
174.9251711
0
ARC
8
DEFAULT_255_1_388
10
5.7331396
20
108.359127
40
0.3412588
50
95.8332067
51
138.995412
0
ARC
8
DEFAULT_255_1_388
10
5.7582677
20
108.2152695
40
0.4870358
50
89.8755506
51
97.0540979
0
ARC
8
DEFAULT_255_1_388
10
5.7636066
20
108.3092841
40
0.3930432
50
71.6407016
51
90.6240821
0
ARC
8
DEFAULT_255_1_388
10
5.7805459
20
108.3716433
40
0.3285421
50
39.6368051
51
71.0190743
0
ARC
8
DEFAULT_255_1_388
10
5.7089367
20
108.3097586
40
0.4231706
50
10.6588054
51
39.9044509
0
ARC
8
DEFAULT_255_1_388
10
5.5347912
20
108.2719223
40
0.60133
50
359.6827842
51
11.1326896
0
ARC
8
DEFAULT_255_1_388
10
5.5303248
20
108.2639715
40
0.6058047
50
347.2485908
51
0.4371098
0
ARC
8
DEFAULT_255_1_388
10
5.7179034
20
108.2188379
40
0.4128987
50
318.1408565
51
347.6118497
0
ARC
8
DEFAULT_255_1_388
10
5.754463
20
108.1887903
40
0.3656244
50
275.6342406
51
317.824739
0
ARC
8
DEFAULT_255_1_388
10
5.7296151
20
108.3349827
40
0.513655
50
269.8872513
51
276.7916069
0
ARC
8
DEFAULT_255_1_388
10
5.7234344
20
108.2196181
40
0.398323
50
246.9139443
51
270.7436787
0
ARC
8
DEFAULT_255_1_388
10
5.724154
20
108.2036044
40
0.3839368
50
218.1665534
51
245.8780431
0
ARC
8
DEFAULT_255_1_388
10
5.8230912
20
108.2863903
40
0.5128958
50
191.4115343
51
218.6077624
0
ARC
8
DEFAULT_255_1_388
10
6.0411228
20
108.3352777
40
0.7363054
50
179.6344971
51
191.7836758
0
ARC
8
DEFAULT_255_1_388
10
6.6691103
20
108.4116495
40
1.3642984
50
171.4523743
51
180.3158856
0
ARC
8
DEFAULT_255_1_388
10
6.174683
20
108.4885895
40
0.8639311
50
157.9802296
51
171.6246761
0
ARC
8
DEFAULT_255_1_388
10
5.925618
20
108.5879038
40
0.5958004
50
141.4299236
51
157.8541251
0
ARC
8
DEFAULT_255_1_388
10
5.8534264
20
108.6389746
40
0.5075416
50
102.871586
51
140.8564533
0
ARC
8
DEFAULT_255_1_388
10
5.9262816
20
108.3644943
40
0.7914163
50
90.377773
51
103.5868422
0
ARC
8
DEFAULT_255_1_388
10
5.7307338
20
108.2964543
40
0.2667015
50
89.8751238
51
126.2072139
0
ARC
8
DEFAULT_255_1_388
10
5.7358809
20
108.2790847
40
0.2838229
50
124.9742447
51
144.8960197
0
ARC
8
DEFAULT_255_1_388
10
5.7161054
20
108.2951981
40
0.2583845
50
145.2974778
51
160.2660922
0
ARC
8
DEFAULT_255_1_388
10
6.0617542
20
108.3174151
40
0.5888695
50
179.6512124
51
190.285571
0
ARC
8
DEFAULT_255_1_388
10
5.8712022
20
108.2814968
40
0.3949683
50
190.0944895
51
207.5099647
0
ARC
8
DEFAULT_255_1_388
10
5.8075603
20
108.2512177
40
0.3245464
50
207.9585471
51
216.325377
0
ARC
8
DEFAULT_255_1_388
10
5.7693241
20
108.2197712
40
0.2751259
50
215.7661336
51
232.5457193
0
ARC
8
DEFAULT_255_1_388
10
5.7262356
20
108.1650273
40
0.2054668
50
232.8005815
51
270.6605497
0
ARC
8
DEFAULT_255_1_388
10
5.7313781
20
108.2059853
40
0.2464268
50
269.3550767
51
288.474612
0
ARC
8
DEFAULT_255_1_388
10
5.7418288
20
108.1666721
40
0.2058436
50
289.1831976
51
322.9685307
0
ARC
8
DEFAULT_255_1_388
10
5.6730389
20
108.2209279
40
0.2934408
50
322.6007085
51
346.5183319
0
ARC
8
DEFAULT_255_1_388
10
5.5428145
20
108.2541434
40
0.4278249
50
346.2584622
51
358.7739592
0
ARC
8
DEFAULT_255_1_388
10
5.4276721
20
108.2603829
40
0.5430876
50
358.3757628
51
0.0082477
0
ARC
8
DEFAULT_255_1_388
10
5.5133539
20
108.2634856
40
0.4574157
50
359.6211417
51
11.28403
0
ARC
8
DEFAULT_255_1_388
10
5.6570145
20
108.2934535
40
0.3106708
50
11.0483152
51
31.8145585
0
ARC
8
DEFAULT_255_1_388
10
5.6917851
20
108.3123045
40
0.2711963
50
32.3028554
51
38.0820598
0
ARC
8
DEFAULT_255_1_388
10
5.7391084
20
108.3551717
40
0.2075566
50
36.8249851
51
85.741667
0
ARC
8
DEFAULT_255_1_388
10
5.7315496
20
108.2988065
40
0.2643487
50
85.0150021
51
90.050843
0
LINE
8
DEFAULT_255_1_388
10
4.9831637
20
115.7769
11
4.8575682
21
116.1202545
0
LINE
8
DEFAULT_255_1_388
10
4.8575682
20
116.1202545
11
4.3063939
21
116.1202545
0
LINE
8
DEFAULT_255_1_388
10
4.3063939
20
116.1202545
11
4.1826056
21
115.7769
0
LINE
8
DEFAULT_255_1_388
10
4.1826056
20
115.7769
11
4.0036998
21
115.7769
0
LINE
8
DEFAULT_255_1_388
10
4.0036998
20
115.7769
11
4.5060816
21
117.0924898
0
LINE
8
DEFAULT_255_1_388
10
4.5060816
20
117.0924898
11
4.6578805
21
117.0924898
0
LINE
8
DEFAULT_255_1_388
10
4.6578805
20
117.0924898
11
5.1611659
21
115.7769
0
LINE
8
DEFAULT_255_1_388
10
5.1611659
20
115.7769
11
4.9831637
21
115.7769
0
LINE
8
DEFAULT_255_1_388
10
4.5819811
20
116.8783451
11
4.3588006
21
116.2630177
0
LINE
8
DEFAULT_255_1_388
10
4.3588006
20
116.2630177
11
4.806065
21
116.2630177
0
LINE
8
DEFAULT_255_1_388
10
4.806065
20
116.2630177
11
4.5819811
21
116.8783451
0
LINE
8
DEFAULT_255_1_388
10
5.5054239
20
116.4021666
11
5.3716964
21
116.4365021
0
LINE
8
DEFAULT_255_1_388
10
5.3716964
20
116.4365021
11
5.4385602
21
117.0924898
0
LINE
8
DEFAULT_255_1_388
10
5.4385602
20
117.0924898
11
6.1126192
21
117.0924898
0
LINE
8
DEFAULT_255_1_388
10
6.1126192
20
117.0924898
11
6.1126192
21
116.9379803
0
LINE
8
DEFAULT_255_1_388
10
6.1126192
20
116.9379803
11
5.5804198
21
116.9379803
0
LINE
8
DEFAULT_255_1_388
10
5.5804198
20
116.9379803
11
5.5406629
21
116.5792652
0
LINE
8
DEFAULT_255_1_388
10
5.324711
20
116.1229652
11
5.4828348
21
116.1229652
0
LINE
8
DEFAULT_255_1_388
10
5.5496986
20
116.4383092
11
5.5054239
21
116.4021666
0
ARC
8
DEFAULT_255_1_388
10
5.7493243
20
116.2215241
40
0.4141476
50
93.7181681
51
120.253934
0
ARC
8
DEFAULT_255_1_388
10
5.7599295
20
116.1306284
40
0.5055616
50
89.9660471
51
94.2495185
0
ARC
8
DEFAULT_255_1_388
10
5.7645117
20
116.1969154
40
0.4392953
50
73.8045384
51
90.5585736
0
ARC
8
DEFAULT_255_1_388
10
5.7909375
20
116.293452
40
0.3392225
50
41.3071072
51
73.543002
0
ARC
8
DEFAULT_255_1_388
10
5.7441195
20
116.2531461
40
0.4009977
50
13.5075837
51
41.2174839
0
ARC
8
DEFAULT_255_1_388
10
5.5594292
20
116.2047907
40
0.5918864
50
1.1330171
51
13.8830737
0
ARC
8
DEFAULT_255_1_388
10
5.3997938
20
116.1962522
40
0.7516787
50
359.9925091
51
1.5431298
0
ARC
8
DEFAULT_255_1_388
10
5.5442553
20
116.1916027
40
0.6072343
50
347.8572712
51
0.4294349
0
ARC
8
DEFAULT_255_1_388
10
5.7411688
20
116.1469898
40
0.4053482
50
323.6727442
51
348.1674594
0
ARC
8
DEFAULT_255_1_388
10
5.7742652
20
116.1268175
40
0.3667495
50
316.8171818
51
323.1486802
0
ARC
8
DEFAULT_255_1_388
10
5.7811776
20
116.1226612
40
0.358869
50
281.839603
51
316.5458142
0
ARC
8
DEFAULT_255_1_388
10
5.7389063
20
116.2976363
40
0.5388223
50
269.5770964
51
282.4214641
0
ARC
8
DEFAULT_255_1_388
10
5.7308984
20
116.273593
40
0.5147801
50
256.2425863
51
270.4486481
0
ARC
8
DEFAULT_255_1_388
10
5.6972512
20
116.1386124
40
0.3756708
50
228.9024379
51
256.33135
0
ARC
8
DEFAULT_255_1_388
10
5.6889492
20
116.1255054
40
0.360344
50
193.7536029
51
228.5272638
0
ARC
8
DEFAULT_255_1_388
10
5.8282057
20
116.1663463
40
0.5053599
50
184.9244437
51
194.4976052
0
ARC
8
DEFAULT_255_1_388
10
5.8498698
20
116.1703722
40
0.3700839
50
187.3596909
51
198.6733728
0
ARC
8
DEFAULT_255_1_388
10
5.7317942
20
116.1294373
40
0.2451195
50
198.4453795
51
217.7945479
0
ARC
8
DEFAULT_255_1_388
10
5.6985114
20
116.1058563
40
0.2043754
50
218.2887146
51
228.5613203
0
ARC
8
DEFAULT_255_1_388
10
5.7095121
20
116.1206902
40
0.2227819
50
228.9652423
51
258.1237049
0
ARC
8
DEFAULT_255_1_388
10
5.7326558
20
116.2197964
40
0.3245374
50
257.7260585
51
270.4013717
0
ARC
8
DEFAULT_255_1_388
10
5.7377056
20
116.1697255
40
0.2744726
50
269.4204315
51
286.420998
0
ARC
8
DEFAULT_255_1_388
10
5.7544112
20
116.1090705
40
0.2115721
50
286.7250065
51
320.6004665
0
ARC
8
DEFAULT_255_1_388
10
5.7113028
20
116.1440527
40
0.2670878
50
320.6712228
51
344.5440474
0
ARC
8
DEFAULT_255_1_388
10
5.5811742
20
116.1822394
40
0.4026927
50
344.241448
51
356.735803
0
ARC
8
DEFAULT_255_1_388
10
5.4408049
20
116.1938656
40
0.5435085
50
356.3547471
51
0.0507222
0
ARC
8
DEFAULT_255_1_388
10
5.5910314
20
116.1973812
40
0.3932934
50
359.5579289
51
12.9534322
0
ARC
8
DEFAULT_255_1_388
10
5.7097154
20
116.2261586
40
0.2711827
50
12.6489751
51
41.608121
0
ARC
8
DEFAULT_255_1_388
10
5.7356314
20
116.2481946
40
0.2371737
50
41.7851122
51
85.9892156
0
ARC
8
DEFAULT_255_1_388
10
5.7217624
20
116.1566738
40
0.3295244
50
84.6965848
51
90.0672125
0
ARC
8
DEFAULT_255_1_388
10
5.7191191
20
116.0815118
40
0.4046926
50
89.6804991
51
99.161352
0
ARC
8
DEFAULT_255_1_388
10
5.6960201
20
116.2195848
40
0.2647044
50
98.9836248
51
113.8905702
0
ARC
8
DEFAULT_255_1_388
10
5.6701875
20
116.2805118
40
0.1985386
50
114.195234
51
127.3641866
0
LINE
8
DEFAULT_255_1_388
10
5.1154637
20
123.7144
11
4.9898682
21
124.0577545
0
LINE
8
DEFAULT_255_1_388
10
4.9898682
20
124.0577545
11
4.4386939
21
124.0577545
0
LINE
8
DEFAULT_255_1_388
10
4.4386939
20
124.0577545
11
4.3149056
21
123.7144
0
LINE
8
DEFAULT_255_1_388
10
4.3149056
20
123.7144
11
4.1359998
21
123.7144
0
LINE
8
DEFAULT_255_1_388
10
4.1359998
20
123.7144
11
4.6383816
21
125.0299898
0
LINE
8
DEFAULT_255_1_388
10
4.6383816
20
125.0299898
11
4.7901805
21
125.0299898
0
LINE
8
DEFAULT_255_1_388
10
4.7901805
20
125.0299898
11
5.2934659
21
123.7144
0
LINE
8
DEFAULT_255_1_388
10
5.2934659
20
123.7144
11
5.1154637
21
123.7144
0
LINE
8
DEFAULT_255_1_388
10
4.7142811
20
124.8158451
11
4.4911006
21
124.2005177
0
LINE
8
DEFAULT_255_1_388
10
4.4911006
20
124.2005177
11
4.938365
21
124.2005177
0
LINE
8
DEFAULT_255_1_388
10
4.938365
20
124.2005177
11
4.7142811
21
124.8158451
0
LINE
8
DEFAULT_255_1_388
10
6.1328772
20
125.0299898
11
6.1328772
21
124.156243
0
LINE
8
DEFAULT_255_1_388
10
6.1328772
20
124.156243
11
6.3153973
21
124.156243
0
LINE
8
DEFAULT_255_1_388
10
6.3153973
20
124.156243
11
6.3153973
21
124.0198048
0
LINE
8
DEFAULT_255_1_388
10
6.3153973
20
124.0198048
11
6.1328772
21
124.0198048
0
LINE
8
DEFAULT_255_1_388
10
6.1328772
20
124.0198048
11
6.1328772
21
123.7144
0
LINE
8
DEFAULT_255_1_388
10
6.1328772
20
123.7144
11
5.9648143
21
123.7144
0
LINE
8
DEFAULT_255_1_388
10
5.9648143
20
123.7144
11
5.9648143
21
124.0198048
0
LINE
8
DEFAULT_255_1_388
10
5.9648143
20
124.0198048
11
5.365751
21
124.0198048
0
LINE
8
DEFAULT_255_1_388
10
5.365751
20
124.0198048
11
5.365751
21
124.1182933
0
LINE
8
DEFAULT_255_1_388
10
5.365751
20
124.1182933
11
5.954875
21
125.0299898
0
LINE
8
DEFAULT_255_1_388
10
5.954875
20
125.0299898
11
6.1328772
21
125.0299898
0
LINE
8
DEFAULT_255_1_388
10
5.9449358
20
124.7652455
11
5.5554996
21
124.156243
0
LINE
8
DEFAULT_255_1_388
10
5.5554996
20
124.156243
11
5.9648143
21
124.156243
0
LINE
8
DEFAULT_255_1_388
10
5.9648143
20
124.156243
11
5.9648143
21
124.801388
0
LINE
8
DEFAULT_255_1_388
10
5.9648143
20
124.801388
11
5.9449358
21
124.7652455
0
LINE
8
DEFAULT_255_1_388
10
4.9831637
20
131.6519
11
4.8575682
21
131.9952545
0
LINE
8
DEFAULT_255_1_388
10
4.8575682
20
131.9952545
11
4.3063939
21
131.9952545
0
LINE
8
DEFAULT_255_1_388
10
4.3063939
20
131.9952545
11
4.1826056
21
131.6519
0
LINE
8
DEFAULT_255_1_388
10
4.1826056
20
131.6519
11
4.0036998
21
131.6519
0
LINE
8
DEFAULT_255_1_388
10
4.0036998
20
131.6519
11
4.5060816
21
132.9674898
0
LINE
8
DEFAULT_255_1_388
10
4.5060816
20
132.9674898
11
4.6578805
21
132.9674898
0
LINE
8
DEFAULT_255_1_388
10
4.6578805
20
132.9674898
11
5.1611659
21
131.6519
0
LINE
8
DEFAULT_255_1_388
10
5.1611659
20
131.6519
11
4.9831637
21
131.6519
0
LINE
8
DEFAULT_255_1_388
10
4.5819811
20
132.7533451
11
4.3588006
21
132.1380177
0
LINE
8
DEFAULT_255_1_388
10
4.3588006
20
132.1380177
11
4.806065
21
132.1380177
0
LINE
8
DEFAULT_255_1_388
10
4.806065
20
132.1380177
11
4.5819811
21
132.7533451
0
LINE
8
DEFAULT_255_1_388
10
5.5379522
20
132.2545775
11
5.5379522
21
132.3910157
0
LINE
8
DEFAULT_255_1_388
10
5.5379522
20
132.3910157
11
5.6635477
21
132.3910157
0
LINE
8
DEFAULT_255_1_388
10
5.4494029
20
132.6223282
11
5.2822435
21
132.6223282
0
LINE
8
DEFAULT_255_1_388
10
5.2704972
20
131.9988688
11
5.4385602
21
131.9988688
0
LINE
8
DEFAULT_255_1_388
10
5.6635477
20
132.2545775
11
5.5379522
21
132.2545775
0
ARC
8
DEFAULT_255_1_388
10
5.6602704
20
132.7726922
40
0.3816905
50
270.491971
51
281.8953028
0
ARC
8
DEFAULT_255_1_388
10
5.6874131
20
132.6487199
40
0.2547877
50
281.6690378
51
301.2943765
0
ARC
8
DEFAULT_255_1_388
10
5.7065582
20
132.6136926
40
0.2149197
50
301.7834992
51
311.754567
0
ARC
8
DEFAULT_255_1_388
10
5.7168623
20
132.602265
40
0.1995326
50
311.7325027
51
354.2803031
0
ARC
8
DEFAULT_255_1_388
10
5.6351039
20
132.616328
40
0.2823461
50
353.0941646
51
0.1174696
0
ARC
8
DEFAULT_255_1_388
10
5.5832597
20
132.6216874
40
0.3342238
50
359.1804452
51
15.0452323
0
ARC
8
DEFAULT_255_1_388
10
5.7346655
20
132.6658546
40
0.1765747
50
13.957816
51
77.6713812
0
ARC
8
DEFAULT_255_1_388
10
5.6911891
20
132.5100464
40
0.3381982
50
76.111571
51
90.7028736
0
ARC
8
DEFAULT_255_1_388
10
5.6845303
20
132.540825
40
0.3074046
50
89.5321574
51
103.5319393
0
ARC
8
DEFAULT_255_1_388
10
5.6619687
20
132.6307443
40
0.2147041
50
103.2930114
51
133.5619756
0
ARC
8
DEFAULT_255_1_388
10
5.6569628
20
132.6374351
40
0.2064084
50
133.8349761
51
173.5343225
0
ARC
8
DEFAULT_255_1_388
10
5.7383286
20
132.6230144
40
0.2889266
50
172.5097183
51
180.1360699
0
ARC
8
DEFAULT_255_1_388
10
5.631305
20
132.626888
40
0.3490913
50
155.3483706
51
180.7484035
0
ARC
8
DEFAULT_255_1_388
10
5.6258026
20
132.6236519
40
0.3454798
50
131.5745177
51
154.4799474
0
ARC
8
DEFAULT_255_1_388
10
5.6610308
20
132.5880422
40
0.3955058
50
96.9874487
51
131.9690874
0
ARC
8
DEFAULT_255_1_388
10
5.6857201
20
132.4479407
40
0.537622
50
89.8592909
51
97.7827481
0
ARC
8
DEFAULT_255_1_388
10
5.691131
20
132.418436
40
0.5671399
50
78.3654493
51
90.4132586
0
ARC
8
DEFAULT_255_1_388
10
5.7313951
20
132.6050918
40
0.3762034
50
56.6229818
51
78.6387103
0
ARC
8
DEFAULT_255_1_388
10
5.755578
20
132.6473846
40
0.3275964
50
47.0254604
51
56.085558
0
ARC
8
DEFAULT_255_1_388
10
5.7578031
20
132.6518189
40
0.3228382
50
10.9207523
51
46.777927
0
ARC
8
DEFAULT_255_1_388
10
5.6043625
20
132.6163401
40
0.4802559
50
359.6364235
51
11.6087615
0
ARC
8
DEFAULT_255_1_388
10
5.8107791
20
132.6146404
40
0.273833
50
332.3549969
51
359.7179765
0
ARC
8
DEFAULT_255_1_388
10
5.7376191
20
132.6493285
40
0.3547505
50
325.2332381
51
332.8746682
0
ARC
8
DEFAULT_255_1_388
10
5.7547774
20
132.6373763
40
0.3338396
50
292.9803892
51
325.2391113
0
ARC
8
DEFAULT_255_1_388
10
5.723697
20
132.6978679
40
0.4016959
50
292.542178
51
293.6931461
0
ARC
8
DEFAULT_255_1_388
10
5.7680542
20
131.9713036
40
0.372079
50
57.643292
51
72.8626085
0
ARC
8
DEFAULT_255_1_388
10
5.8079377
20
132.0359273
40
0.2961455
50
36.7246661
51
57.4701329
0
ARC
8
DEFAULT_255_1_388
10
5.8066533
20
132.037347
40
0.2963321
50
8.054535
51
36.3561529
0
ARC
8
DEFAULT_255_1_388
10
5.7096206
20
132.0199073
40
0.3948682
50
359.8316595
51
8.5873361
0
ARC
8
DEFAULT_255_1_388
10
5.667368
20
132.014497
40
0.4371398
50
343.9831631
51
0.557075
0
ARC
8
DEFAULT_255_1_388
10
5.767073
20
131.9871963
40
0.3337749
50
311.6358204
51
343.7652116
0
ARC
8
DEFAULT_255_1_388
10
5.7244983
20
132.0351955
40
0.3979351
50
279.7829743
51
311.625622
0
ARC
8
DEFAULT_255_1_388
10
5.6906119
20
132.1968642
40
0.5630417
50
269.7285092
51
280.3857694
0
ARC
8
DEFAULT_255_1_388
10
5.6836431
20
132.1922241
40
0.5584119
50
256.6827433
51
270.4412869
0
ARC
8
DEFAULT_255_1_388
10
5.6455418
20
132.0364698
40
0.3980715
50
229.4223821
51
256.8554507
0
ARC
8
DEFAULT_255_1_388
10
5.5988971
20
131.9839683
40
0.3278564
50
181.8183354
51
229.6455015
0
ARC
8
DEFAULT_255_1_388
10
5.7158581
20
131.9986825
40
0.4453611
50
179.9760419
51
183.2330638
0
ARC
8
DEFAULT_255_1_388
10
5.6965133
20
131.9963781
40
0.2579652
50
179.4467996
51
196.2871626
0
ARC
8
DEFAULT_255_1_388
10
5.6416587
20
131.9813709
40
0.2011057
50
196.5661293
51
227.7059371
0
ARC
8
DEFAULT_255_1_388
10
5.6601194
20
132.0020155
40
0.2287994
50
227.7653015
51
257.8763321
0
ARC
8
DEFAULT_255_1_388
10
5.6854277
20
132.1080961
40
0.3378385
50
257.4583525
51
270.4267406
0
ARC
8
DEFAULT_255_1_388
10
5.6905527
20
132.140723
40
0.3704652
50
269.5965319
51
280.8788143
0
ARC
8
DEFAULT_255_1_388
10
5.7163755
20
132.0117529
40
0.2389415
50
280.6347277
51
299.8594068
0
ARC
8
DEFAULT_255_1_388
10
5.7378525
20
131.9709736
40
0.19289
50
300.3575552
51
314.5515667
0
ARC
8
DEFAULT_255_1_388
10
5.72852
20
131.9778025
40
0.204312
50
315.0730962
51
345.0429362
0
ARC
8
DEFAULT_255_1_388
10
5.6246708
20
132.0080539
40
0.31246
50
344.598526
51
357.9270698
0
ARC
8
DEFAULT_255_1_388
10
5.5237013
20
132.0149705
40
0.4136265
50
357.4755098
51
0.0224936
0
ARC
8
DEFAULT_255_1_388
10
5.638989
20
132.0177099
40
0.2983498
50
359.5051035
51
13.4236939
0
ARC
8
DEFAULT_255_1_388
10
5.736498
20
132.0426637
40
0.1977186
50
12.9497905
51
48.7550905
0
ARC
8
DEFAULT_255_1_388
10
5.7159902
20
132.0146373
40
0.2323321
50
49.509109
51
72.1832965
0
ARC
8
DEFAULT_255_1_388
10
5.675737
20
131.8951632
40
0.358397
50
71.9008458
51
84.3555134
0
ARC
8
DEFAULT_255_1_388
10
5.6575765
20
131.7419712
40
0.512641
50
84.019632
51
89.3326067
0
LINE
8
DEFAULT_255_1_388
10
4.9831637
20
139.5894
11
4.8575682
21
139.9327545
0
LINE
8
DEFAULT_255_1_388
10
4.8575682
20
139.9327545
11
4.3063939
21
139.9327545
0
LINE
8
DEFAULT_255_1_388
10
4.3063939
20
139.9327545
11
4.1826056
21
139.5894
0
LINE
8
DEFAULT_255_1_388
10
4.1826056
20
139.5894
11
4.0036998
21
139.5894
0
LINE
8
DEFAULT_255_1_388
10
4.0036998
20
139.5894
11
4.5060816
21
140.9049898
0
LINE
8
DEFAULT_255_1_388
10
4.5060816
20
140.9049898
11
4.6578805
21
140.9049898
0
LINE
8
DEFAULT_255_1_388
10
4.6578805
20
140.9049898
11
5.1611659
21
139.5894
0
LINE
8
DEFAULT_255_1_388
10
5.1611659
20
139.5894
11
4.9831637
21
139.5894
0
LINE
8
DEFAULT_255_1_388
10
4.5819811
20
140.6908451
11
4.3588006
21
140.0755177
0
LINE
8
DEFAULT_255_1_388
10
4.3588006
20
140.0755177
11
4.806065
21
140.0755177
0
LINE
8
DEFAULT_255_1_388
10
4.806065
20
140.0755177
11
4.5819811
21
140.6908451
0
LINE
8
DEFAULT_255_1_388
10
6.1568939
20
139.7258382
11
6.1568939
21
139.5894
0
LINE
8
DEFAULT_255_1_388
10
6.1568939
20
139.5894
11
5.2948934
21
139.5894
0
LINE
8
DEFAULT_255_1_388
10
5.2948934
20
139.5894
11
5.2948934
21
139.7095741
0
LINE
8
DEFAULT_255_1_388
10
5.2948934
20
139.7095741
11
5.7502899
21
140.2155702
0
LINE
8
DEFAULT_255_1_388
10
5.436753
20
140.5173607
11
5.2695936
21
140.5173607
0
LINE
8
DEFAULT_255_1_388
10
5.8487784
20
140.108046
11
5.4963883
21
139.7258382
0
LINE
8
DEFAULT_255_1_388
10
5.4963883
20
139.7258382
11
6.1568939
21
139.7258382
0
ARC
8
DEFAULT_255_1_388
10
4.2326958
20
141.5575983
40
2.0258655
50
318.5132526
51
320.7829045
0
ARC
8
DEFAULT_255_1_388
10
4.8274915
20
141.0734929
40
1.2589638
50
320.7372878
51
323.9739031
0
ARC
8
DEFAULT_255_1_388
10
5.2683847
20
140.7540554
40
0.7145141
50
323.8962701
51
328.64194
0
ARC
8
DEFAULT_255_1_388
10
5.4986105
20
140.6120545
40
0.4440242
50
328.8294576
51
331.7891185
0
ARC
8
DEFAULT_255_1_388
10
5.6108425
20
140.5541374
40
0.3177517
50
331.4254512
51
352.9365785
0
ARC
8
DEFAULT_255_1_388
10
5.6261425
20
140.550705
40
0.3021496
50
353.2257659
51
0.0166158
0
ARC
8
DEFAULT_255_1_388
10
5.6498185
20
140.5532894
40
0.2784847
50
359.486299
51
15.9343185
0
ARC
8
DEFAULT_255_1_388
10
5.7068452
20
140.5686269
40
0.2194403
50
16.1712913
51
43.5286088
0
ARC
8
DEFAULT_255_1_388
10
5.7155397
20
140.5773191
40
0.2071504
50
43.4417391
51
83.1661095
0
ARC
8
DEFAULT_255_1_388
10
5.7004558
20
140.4944316
40
0.2912888
50
82.160179
51
90.1505708
0
ARC
8
DEFAULT_255_1_388
10
5.6969039
20
140.4340279
40
0.3517025
50
89.5460741
51
102.5418361
0
ARC
8
DEFAULT_255_1_388
10
5.6695759
20
140.5499933
40
0.2325748
50
102.1738499
51
129.206123
0
ARC
8
DEFAULT_255_1_388
10
5.6607213
20
140.5639664
40
0.2161591
50
129.72865
51
135.753947
0
ARC
8
DEFAULT_255_1_388
10
5.6743695
20
140.5530728
40
0.2335433
50
136.1757367
51
166.3673339
0
ARC
8
DEFAULT_255_1_388
10
5.7876383
20
140.5227148
40
0.3507873
50
165.9090694
51
178.8684636
0
ARC
8
DEFAULT_255_1_388
10
5.8852155
20
140.5174263
40
0.4484624
50
178.4391136
51
180.0083808
0
ARC
8
DEFAULT_255_1_388
10
5.7272856
20
140.5218197
40
0.4577138
50
163.2878482
51
180.5581842
0
ARC
8
DEFAULT_255_1_388
10
5.6370898
20
140.5466393
40
0.3641968
50
133.4540601
51
162.947111
0
ARC
8
DEFAULT_255_1_388
10
5.6571779
20
140.5252789
40
0.3935189
50
100.7869829
51
133.4382499
0
ARC
8
DEFAULT_255_1_388
10
5.6963024
20
140.3510399
40
0.5720313
50
89.660664
51
101.3702276
0
ARC
8
DEFAULT_255_1_388
10
5.7037633
20
140.3579263
40
0.5651495
50
78.2172678
51
90.412935
0
ARC
8
DEFAULT_255_1_388
10
5.7437099
20
140.5406511
40
0.378122
50
55.9269121
51
78.4888449
0
ARC
8
DEFAULT_255_1_388
10
5.7657814
20
140.5787187
40
0.3342379
50
47.929771
51
55.4049217
0
ARC
8
DEFAULT_255_1_388
10
5.7772344
20
140.5903618
40
0.3179217
50
4.334829
51
48.0560205
0
ARC
8
DEFAULT_255_1_388
10
5.6540146
20
140.5712487
40
0.442341
50
359.9251713
51
5.5971671
0
ARC
8
DEFAULT_255_1_388
10
5.7022301
20
140.5775728
40
0.3941854
50
337.8914027
51
358.9967534
0
ARC
8
DEFAULT_255_1_388
10
5.3969871
20
140.6953295
40
0.7213271
50
326.9132501
51
338.3508308
0
ARC
8
DEFAULT_255_1_388
10
4.9485983
20
140.9827105
40
1.2538973
50
319.6471833
51
327.0959558
0
ARC
8
DEFAULT_255_1_388
10
4.5172641
20
141.338505
40
1.8129975
50
317.2588228
51
319.9045804
0
LINE
8
DEFAULT_255_1_388
10
4.9743637
20
147.5269
11
4.8487682
21
147.8702545
0
LINE
8
DEFAULT_255_1_388
10
4.8487682
20
147.8702545
11
4.2975939
21
147.8702545
0
LINE
8
DEFAULT_255_1_388
10
4.2975939
20
147.8702545
11
4.1738056
21
147.5269
0
LINE
8
DEFAULT_255_1_388
10
4.1738056
20
147.5269
11
3.9948998
21
147.5269
0
LINE
8
DEFAULT_255_1_388
10
3.9948998
20
147.5269
11
4.4972816
21
148.8424898
0
LINE
8
DEFAULT_255_1_388
10
4.4972816
20
148.8424898
11
4.6490805
21
148.8424898
0
LINE
8
DEFAULT_255_1_388
10
4.6490805
20
148.8424898
11
5.1523659
21
147.5269
0
LINE
8
DEFAULT_255_1_388
10
5.1523659
20
147.5269
11
4.9743637
21
147.5269
0
LINE
8
DEFAULT_255_1_388
10
4.5731811
20
148.6283451
11
4.3500006
21
148.0130177
0
LINE
8
DEFAULT_255_1_388
10
4.3500006
20
148.0130177
11
4.797265
21
148.0130177
0
LINE
8
DEFAULT_255_1_388
10
4.797265
20
148.0130177
11
4.5731811
21
148.6283451
0
LINE
8
DEFAULT_255_1_388
10
5.8354606
20
148.8488148
11
5.8354606
21
147.5269
0
LINE
8
DEFAULT_255_1_388
10
5.8354606
20
147.5269
11
5.6673976
21
147.5269
0
LINE
8
DEFAULT_255_1_388
10
5.6673976
20
147.5269
11
5.6673976
21
148.640995
0
LINE
8
DEFAULT_255_1_388
10
5.6673976
20
148.640995
11
5.3303681
21
148.5172066
0
LINE
8
DEFAULT_255_1_388
10
5.3303681
20
148.5172066
11
5.3303681
21
148.6690055
0
LINE
8
DEFAULT_255_1_388
10
5.3303681
20
148.6690055
11
5.8092572
21
148.8488148
0
LINE
8
DEFAULT_255_1_388
10
5.8092572
20
148.8488148
11
5.8354606
21
148.8488148
0
LINE
8
DEFAULT_255_1_388
10
4.9831637
20
155.4644
11
4.8575682
21
155.8077545
0
LINE
8
DEFAULT_255_1_388
10
4.8575682
20
155.8077545
11
4.3063939
21
155.8077545
0
LINE
8
DEFAULT_255_1_388
10
4.3063939
20
155.8077545
11
4.1826056
21
155.4644
0
LINE
8
DEFAULT_255_1_388
10
4.1826056
20
155.4644
11
4.0036998
21
155.4644
0
LINE
8
DEFAULT_255_1_388
10
4.0036998
20
155.4644
11
4.5060816
21
156.7799898
0
LINE
8
DEFAULT_255_1_388
10
4.5060816
20
156.7799898
11
4.6578805
21
156.7799898
0
LINE
8
DEFAULT_255_1_388
10
4.6578805
20
156.7799898
11
5.1611659
21
155.4644
0
LINE
8
DEFAULT_255_1_388
10
5.1611659
20
155.4644
11
4.9831637
21
155.4644
0
LINE
8
DEFAULT_255_1_388
10
4.5819811
20
156.5658451
11
4.3588006
21
155.9505177
0
LINE
8
DEFAULT_255_1_388
10
4.3588006
20
155.9505177
11
4.806065
21
155.9505177
0
LINE
8
DEFAULT_255_1_388
10
4.806065
20
155.9505177
11
4.5819811
21
156.5658451
0
LINE
8
DEFAULT_255_1_388
10
6.1198478
20
156.242369
11
6.1198478
21
156.0255135
0
LINE
8
DEFAULT_255_1_388
10
5.289472
20
156.0029244
11
5.289472
21
156.2261048
0
LINE
8
DEFAULT_255_1_388
10
5.9526883
20
155.9803353
11
5.9526883
21
156.2541153
0
LINE
8
DEFAULT_255_1_388
10
5.4566314
20
156.2667652
11
5.4566314
21
155.9993102
0
ARC
8
DEFAULT_255_1_388
10
4.7420812
20
156.0200118
40
1.3777776
50
353.8440855
51
0.2287917
0
ARC
8
DEFAULT_255_1_388
10
5.2639829
20
155.9617414
40
0.852639
50
344.4934746
51
353.9763743
0
ARC
8
DEFAULT_255_1_388
10
5.6006636
20
155.8660191
40
0.5026273
50
329.2803599
51
344.7473406
0
ARC
8
DEFAULT_255_1_388
10
5.7122132
20
155.8048038
40
0.3754848
50
324.9361395
51
328.6153007
0
ARC
8
DEFAULT_255_1_388
10
5.7547782
20
155.7750586
40
0.3235566
50
280.5801797
51
324.9173226
0
ARC
8
DEFAULT_255_1_388
10
5.709641
20
155.9630236
40
0.5167077
50
269.5979457
51
281.6732777
0
ARC
8
DEFAULT_255_1_388
10
5.7015314
20
155.9495113
40
0.5032026
50
256.6228565
51
270.5105488
0
ARC
8
DEFAULT_255_1_388
10
5.6563057
20
155.7753345
40
0.3233092
50
215.8618351
51
257.2787793
0
ARC
8
DEFAULT_255_1_388
10
5.7711764
20
155.8524106
40
0.4615831
50
197.9695203
51
215.2622745
0
ARC
8
DEFAULT_255_1_388
10
6.0507439
20
155.9467641
40
0.7566307
50
187.8816486
51
198.2346584
0
ARC
8
DEFAULT_255_1_388
10
6.4960677
20
156.0110453
40
1.2065653
50
180.8977266
51
188.0054894
0
ARC
8
DEFAULT_255_1_388
10
6.8010891
20
156.02254
40
1.5117443
50
180.7434591
51
181.152202
0
ARC
8
DEFAULT_255_1_388
10
6.6335887
20
156.2315371
40
1.3441277
50
173.7674302
51
180.2315596
0
ARC
8
DEFAULT_255_1_388
10
6.1253756
20
156.2889779
40
0.8326847
50
164.3058537
51
173.9000553
0
ARC
8
DEFAULT_255_1_388
10
5.7977756
20
156.3833652
40
0.4917711
50
148.7922028
51
164.5682288
0
ARC
8
DEFAULT_255_1_388
10
5.6908493
20
156.4430457
40
0.3694204
50
144.5883979
51
148.1161588
0
ARC
8
DEFAULT_255_1_388
10
5.6521239
20
156.4700667
40
0.322202
50
101.6440149
51
144.5142619
0
ARC
8
DEFAULT_255_1_388
10
5.6999431
20
156.2800337
40
0.5180451
50
89.528284
51
102.5820197
0
ARC
8
DEFAULT_255_1_388
10
5.7088423
20
156.2756376
40
0.5224441
50
77.0437914
51
90.508231
0
ARC
8
DEFAULT_255_1_388
10
5.7540677
20
156.4604272
40
0.3322297
50
48.2777708
51
77.4996087
0
ARC
8
DEFAULT_255_1_388
10
5.7622416
20
156.4749557
40
0.315966
50
36.3141586
51
47.6307332
0
ARC
8
DEFAULT_255_1_388
10
5.6645139
20
156.4091159
40
0.4337313
50
18.2931065
51
35.6770203
0
ARC
8
DEFAULT_255_1_388
10
5.378398
20
156.3109107
40
0.7362203
50
8.0246996
51
18.5605636
0
ARC
8
DEFAULT_255_1_388
10
4.9100335
20
156.2417432
40
1.2096583
50
1.127539
51
8.1718423
0
ARC
8
DEFAULT_255_1_388
10
4.5451468
20
156.2274374
40
1.5747719
50
0.5432713
51
1.38669
0
ARC
8
DEFAULT_255_1_388
10
4.7508847
20
156.2581163
40
1.2018103
50
359.8092569
51
4.9408001
0
ARC
8
DEFAULT_255_1_388
10
5.2245428
20
156.30039
40
0.7262727
50
4.8364937
51
12.2906017
0
ARC
8
DEFAULT_255_1_388
10
5.5344893
20
156.3694485
40
0.4087324
50
12.0806994
51
23.8171225
0
ARC
8
DEFAULT_255_1_388
10
5.6665289
20
156.4253508
40
0.2653719
50
24.2874621
51
31.3934353
0
ARC
8
DEFAULT_255_1_388
10
5.7255725
20
156.4639822
40
0.1948607
50
30.7407708
51
82.4658033
0
ARC
8
DEFAULT_255_1_388
10
5.7053386
20
156.3646017
40
0.2961198
50
81.1057101
51
90.2187368
0
ARC
8
DEFAULT_255_1_388
10
5.7013198
20
156.3936421
40
0.2670929
50
89.380395
51
105.6763916
0
ARC
8
DEFAULT_255_1_388
10
5.680692
20
156.468632
40
0.1893189
50
105.7980655
51
149.7387869
0
ARC
8
DEFAULT_255_1_388
10
5.800406
20
156.3966719
40
0.3289892
50
149.4208441
51
163.628295
0
ARC
8
DEFAULT_255_1_388
10
6.035629
20
156.3249345
40
0.5749004
50
163.3764549
51
172.141138
0
ARC
8
DEFAULT_255_1_388
10
6.4069011
20
156.2717582
40
0.9499585
50
172.0258462
51
178.0705453
0
ARC
8
DEFAULT_255_1_388
10
6.7490564
20
156.2555682
40
1.2924734
50
177.8639301
51
179.5036263
0
ARC
8
DEFAULT_255_1_388
10
6.6271582
20
155.9952151
40
1.170534
50
179.7995545
51
185.246089
0
ARC
8
DEFAULT_255_1_388
10
6.1723176
20
155.9521404
40
0.7136613
50
185.1411911
51
193.0082205
0
ARC
8
DEFAULT_255_1_388
10
5.8749436
20
155.8818441
40
0.4080987
50
192.7897338
51
205.2507384
0
ARC
8
DEFAULT_255_1_388
10
5.7571646
20
155.8292538
40
0.2791522
50
205.8001921
51
211.2545876
0
ARC
8
DEFAULT_255_1_388
10
5.6983185
20
155.7898132
40
0.2084074
50
210.3789935
51
238.4007996
0
ARC
8
DEFAULT_255_1_388
10
5.6961271
20
155.7950786
40
0.2117943
50
239.6521916
51
265.9793852
0
ARC
8
DEFAULT_255_1_388
10
5.705712
20
155.8707358
40
0.2879689
50
265.1324455
51
270.0603288
0
ARC
8
DEFAULT_255_1_388
10
5.7089497
20
155.8342418
40
0.2514919
50
269.3314378
51
287.2180039
0
ARC
8
DEFAULT_255_1_388
10
5.7244579
20
155.7776291
40
0.1928357
50
287.7957942
51
329.0808983
0
ARC
8
DEFAULT_255_1_388
10
5.6167337
20
155.8448651
40
0.319808
50
328.6635261
51
343.3325043
0
ARC
8
DEFAULT_255_1_388
10
5.3722795
20
155.9210195
40
0.5758408
50
343.0498092
51
351.9392499
0
ARC
8
DEFAULT_255_1_388
10
4.9822117
20
155.9785205
40
0.9701202
50
351.8071632
51
357.7957897
0
ARC
8
DEFAULT_255_1_388
10
4.6187594
20
155.9973724
40
1.3340376
50
357.5870923
51
359.2682493
0
LINE
8
DEFAULT_255_1_388
10
21.7524342
20
164.0569842
11
21.7524342
21
163.5744808
0
LINE
8
DEFAULT_255_1_388
10
20.7386349
20
163.9964454
11
20.7386349
21
164.1111981
0
LINE
8
DEFAULT_255_1_388
10
21.7524342
20
164.3316678
11
21.5789498
21
164.3316678
0
LINE
8
DEFAULT_255_1_388
10
20.9130228
20
164.1157159
11
20.9130228
21
164.0081917
0
LINE
8
DEFAULT_255_1_388
10
21.5798534
20
163.6205626
11
21.5798534
21
163.9160282
0
LINE
8
DEFAULT_255_1_388
10
21.5798534
20
163.9160282
11
21.2753521
21
163.9160282
0
LINE
8
DEFAULT_255_1_388
10
21.2753521
20
163.9160282
11
21.2753521
21
164.0569842
0
LINE
8
DEFAULT_255_1_388
10
21.2753521
20
164.0569842
11
21.7524342
21
164.0569842
0
ARC
8
DEFAULT_255_1_388
10
21.4338942
20
163.7987284
40
0.3895571
50
295.8437277
51
324.8549962
0
ARC
8
DEFAULT_255_1_388
10
21.3871325
20
163.8833619
40
0.4861381
50
291.5691164
51
296.4556269
0
ARC
8
DEFAULT_255_1_388
10
21.3296327
20
164.0369801
40
0.6501442
50
278.6622213
51
291.3047061
0
ARC
8
DEFAULT_255_1_388
10
21.2914359
20
164.2786557
40
0.8948168
50
270.0200506
51
278.7494673
0
ARC
8
DEFAULT_255_1_388
10
21.2870563
20
164.4632453
40
1.0794166
50
270.0022372
51
270.2490917
0
ARC
8
DEFAULT_255_1_388
10
21.2828456
20
163.9673827
40
0.5835695
50
253.5785313
51
270.4175629
0
ARC
8
DEFAULT_255_1_388
10
21.2633452
20
163.8918625
40
0.5056241
50
238.8203954
51
253.2788387
0
ARC
8
DEFAULT_255_1_388
10
21.2611367
20
163.8861224
40
0.4995712
50
206.7883476
51
238.696262
0
ARC
8
DEFAULT_255_1_388
10
21.3486763
20
163.9385847
40
0.6014056
50
206.1137778
51
207.4912776
0
ARC
8
DEFAULT_255_1_388
10
21.4153599
20
163.9669284
40
0.6737692
50
188.6922336
51
205.782076
0
ARC
8
DEFAULT_255_1_388
10
21.6241958
20
164.0024455
40
0.8855812
50
180.3881972
51
188.9218085
0
ARC
8
DEFAULT_255_1_388
10
21.7623116
20
164.1175622
40
1.0236965
50
170.2024645
51
180.3561986
0
ARC
8
DEFAULT_255_1_388
10
21.4064266
20
164.1812101
40
0.6621746
50
154.2856519
51
170.3893388
0
ARC
8
DEFAULT_255_1_388
10
21.262223
20
164.2472192
40
0.5036209
50
139.8400879
51
153.9334639
0
ARC
8
DEFAULT_255_1_388
10
21.2218133
20
164.2795716
40
0.4518751
50
98.4190017
51
139.6707015
0
ARC
8
DEFAULT_255_1_388
10
21.2645101
20
164.0719755
40
0.6635912
50
89.7660128
51
99.4415389
0
ARC
8
DEFAULT_255_1_388
10
21.2718497
20
164.0793517
40
0.6562258
50
78.0552044
51
90.4042252
0
ARC
8
DEFAULT_255_1_388
10
21.3173561
20
164.2839661
40
0.4466287
50
54.6380186
51
78.3338577
0
ARC
8
DEFAULT_255_1_388
10
21.3387859
20
164.3200444
40
0.4048184
50
50.0313964
51
54.1562739
0
ARC
8
DEFAULT_255_1_388
10
21.3266753
20
164.3091798
40
0.4209308
50
18.1092229
51
49.7179911
0
ARC
8
DEFAULT_255_1_388
10
21.1627833
20
164.2491399
40
0.5953982
50
7.967396
51
18.698492
0
ARC
8
DEFAULT_255_1_388
10
21.1797094
20
164.2630236
40
0.4050986
50
9.7558763
51
27.3214087
0
ARC
8
DEFAULT_255_1_388
10
21.3065559
20
164.3264087
40
0.2633168
50
27.736147
51
84.5257861
0
ARC
8
DEFAULT_255_1_388
10
21.2696968
20
164.1414988
40
0.4513019
50
82.1064239
51
90.1997295
0
ARC
8
DEFAULT_255_1_388
10
21.2640985
20
164.1986501
40
0.3941684
50
89.4148952
51
105.5824837
0
ARC
8
DEFAULT_255_1_388
10
21.2351865
20
164.3039043
40
0.2850167
50
105.6678541
51
144.2649156
0
ARC
8
DEFAULT_255_1_388
10
21.3356758
20
164.2324024
40
0.4083468
50
144.3560675
51
162.8564185
0
ARC
8
DEFAULT_255_1_388
10
21.57012
20
164.1571083
40
0.6545749
50
162.6076338
51
173.6779811
0
ARC
8
DEFAULT_255_1_388
10
21.9145315
20
164.1152422
40
1.0015089
50
173.4670996
51
179.9729015
0
ARC
8
DEFAULT_255_1_388
10
21.6998186
20
164.0034636
40
0.78681
50
179.6556955
51
190.007958
0
ARC
8
DEFAULT_255_1_388
10
21.4392468
20
163.955666
40
0.5218997
50
189.8117884
51
206.6795375
0
ARC
8
DEFAULT_255_1_388
10
21.3441914
20
163.9113514
40
0.4170788
50
207.1031171
51
217.7074698
0
ARC
8
DEFAULT_255_1_388
10
21.2728344
20
163.8492596
40
0.3226945
50
216.7345117
51
265.6812141
0
ARC
8
DEFAULT_255_1_388
10
21.2875486
20
163.951003
40
0.4253149
50
264.7367524
51
270.0610826
0
ARC
8
DEFAULT_255_1_388
10
21.2901672
20
164.2705173
40
0.7448321
50
269.8334494
51
276.0538364
0
ARC
8
DEFAULT_255_1_388
10
21.3134534
20
164.0565924
40
0.5296446
50
275.9894423
51
284.4615914
0
ARC
8
DEFAULT_255_1_388
10
21.3356047
20
163.963357
40
0.4338353
50
284.7038488
51
286.4938196
0
ARC
8
DEFAULT_255_1_388
10
21.3815196
20
163.8154371
40
0.2789738
50
286.0770429
51
304.2629628
0
ARC
8
DEFAULT_255_1_388
10
21.3965354
20
163.790868
40
0.2502188
50
304.5886247
51
317.1074126
0
LINE
8
DEFAULT_255_1_388
10
23.0526634
20
164.7174898
11
23.0526634
21
163.4019
0
LINE
8
DEFAULT_255_1_388
10
23.0526634
20
163.4019
11
22.8782755
21
163.4019
0
LINE
8
DEFAULT_255_1_388
10
22.8782755
20
163.4019
11
22.2159627
21
164.4156993
0
LINE
8
DEFAULT_255_1_388
10
22.2159627
20
164.4156993
11
22.2159627
21
163.4019
0
LINE
8
DEFAULT_255_1_388
10
22.2159627
20
163.4019
11
22.0415748
21
163.4019
0
LINE
8
DEFAULT_255_1_388
10
22.0415748
20
163.4019
11
22.0415748
21
164.7174898
0
LINE
8
DEFAULT_255_1_388
10
22.0415748
20
164.7174898
11
22.2159627
21
164.7174898
0
LINE
8
DEFAULT_255_1_388
10
22.2159627
20
164.7174898
11
22.8800826
21
163.6991727
0
LINE
8
DEFAULT_255_1_388
10
22.8800826
20
163.6991727
11
22.8800826
21
164.7174898
0
LINE
8
DEFAULT_255_1_388
10
22.8800826
20
164.7174898
11
23.0526634
21
164.7174898
0
LINE
8
DEFAULT_255_1_388
10
23.7249154
20
163.4019
11
23.3607789
21
163.4019
0
LINE
8
DEFAULT_255_1_388
10
23.3607789
20
163.4019
11
23.3607789
21
164.7174898
0
LINE
8
DEFAULT_255_1_388
10
23.3607789
20
164.7174898
11
23.7321439
21
164.7174898
0
LINE
8
DEFAULT_255_1_388
10
24.3122323
20
164.1039696
11
24.3122323
21
164.0199381
0
LINE
8
DEFAULT_255_1_388
10
23.7366617
20
164.5747267
11
23.5342633
21
164.5747267
0
LINE
8
DEFAULT_255_1_388
10
23.5342633
20
164.5747267
11
23.5342633
21
163.5437596
0
LINE
8
DEFAULT_255_1_388
10
23.5342633
20
163.5437596
11
23.7167833
21
163.5437596
0
LINE
8
DEFAULT_255_1_388
10
24.140555
20
164.0235523
11
24.140555
21
164.1003553
0
ARC
8
DEFAULT_255_1_388
10
23.7365234
20
164.0576436
40
0.6598608
50
75.4100343
51
90.3802731
0
ARC
8
DEFAULT_255_1_388
10
23.7623479
20
164.1652691
40
0.5492049
50
60.1455157
51
75.1889627
0
ARC
8
DEFAULT_255_1_388
10
23.7802071
20
164.1963914
40
0.5133226
50
26.525419
51
60.1451222
0
ARC
8
DEFAULT_255_1_388
10
23.6541857
20
164.1295642
40
0.6559324
50
7.4029944
51
26.832209
0
ARC
8
DEFAULT_255_1_388
10
23.4748254
20
164.1016229
40
0.8374103
50
0.1605597
51
7.7176135
0
ARC
8
DEFAULT_255_1_388
10
23.4932654
20
164.0156321
40
0.8189782
50
348.7289744
51
0.30125
0
ARC
8
DEFAULT_255_1_388
10
23.6796118
20
163.9786156
40
0.628991
50
333.0706936
51
348.7181455
0
ARC
8
DEFAULT_255_1_388
10
23.7883747
20
163.9195449
40
0.5052808
50
299.2531435
51
333.4571133
0
ARC
8
DEFAULT_255_1_388
10
23.7477777
20
163.9966629
40
0.5924066
50
278.1072193
51
299.0340218
0
ARC
8
DEFAULT_255_1_388
10
23.7189826
20
164.1662979
40
0.7644209
50
270.4446841
51
278.4508355
0
ARC
8
DEFAULT_255_1_388
10
23.721331
20
164.06173
40
0.5179903
50
269.4969684
51
284.0204874
0
ARC
8
DEFAULT_255_1_388
10
23.7613028
20
163.9081415
40
0.3592968
50
283.7699076
51
318.1557121
0
ARC
8
DEFAULT_255_1_388
10
23.7233573
20
163.9365399
40
0.4065308
50
318.7417595
51
343.687252
0
ARC
8
DEFAULT_255_1_388
10
23.5204152
20
163.9999275
40
0.6191194
50
343.3324891
51
355.8548594
0
ARC
8
DEFAULT_255_1_388
10
23.284319
20
164.0223719
40
0.856237
50
355.4988754
51
0.0789913
0
ARC
8
DEFAULT_255_1_388
10
23.3723989
20
164.105108
40
0.7681709
50
359.6455047
51
9.8607559
0
ARC
8
DEFAULT_255_1_388
10
23.6379712
20
164.1530664
40
0.498312
50
9.6573037
51
26.1931522
0
ARC
8
DEFAULT_255_1_388
10
23.7423787
20
164.2015587
40
0.3832303
50
26.5777895
51
40.1533752
0
ARC
8
DEFAULT_255_1_388
10
23.7711452
20
164.224002
40
0.3467742
50
40.3839958
51
80.1430923
0
ARC
8
DEFAULT_255_1_388
10
23.7343708
20
164.0609486
40
0.5137832
50
79.2153636
51
89.7445174
0
LINE
8
DEFAULT_255_1_388
10
22.462032
20
5.0693468
11
22.6364199
21
5.0693468
0
LINE
8
DEFAULT_255_1_388
10
21.6235242
20
5.2482525
11
21.6235242
21
5.3747516
0
LINE
8
DEFAULT_255_1_388
10
22.6364199
20
5.5446217
11
22.462032
21
5.5446217
0
LINE
8
DEFAULT_255_1_388
10
21.7979121
20
5.3702337
11
21.7979121
21
5.2428312
0
ARC
8
DEFAULT_255_1_388
10
22.0198433
20
5.1365329
40
0.6202263
50
340.1774904
51
353.7812217
0
ARC
8
DEFAULT_255_1_388
10
22.1966286
20
5.0706893
40
0.4315926
50
311.4560052
51
340.4420756
0
ARC
8
DEFAULT_255_1_388
10
22.1928826
20
5.0831665
40
0.4434573
50
282.4332229
51
310.7514507
0
ARC
8
DEFAULT_255_1_388
10
22.1434644
20
5.2873703
40
0.6535262
50
269.9358869
51
282.8096729
0
ARC
8
DEFAULT_255_1_388
10
22.1376583
20
5.4386329
40
0.8048043
50
269.9995752
51
270.3612856
0
ARC
8
DEFAULT_255_1_388
10
22.1317073
20
5.1587781
40
0.5249831
50
250.7885263
51
270.6488451
0
ARC
8
DEFAULT_255_1_388
10
22.1127898
20
5.0870853
40
0.4510942
50
219.3628377
51
250.0611024
0
ARC
8
DEFAULT_255_1_388
10
22.2060772
20
5.1663653
40
0.5735046
50
193.5480293
51
219.5755675
0
ARC
8
DEFAULT_255_1_388
10
22.4728981
20
5.235652
40
0.849146
50
181.1220183
51
193.8754971
0
ARC
8
DEFAULT_255_1_388
10
22.7052214
20
5.2480914
40
1.0816971
50
179.9914644
51
181.5398227
0
ARC
8
DEFAULT_255_1_388
10
22.4975525
20
5.3789586
40
0.8740384
50
169.5837606
51
180.275782
0
ARC
8
DEFAULT_255_1_388
10
22.2908873
20
5.4171439
40
0.6638751
50
155.0367033
51
169.6002779
0
ARC
8
DEFAULT_255_1_388
10
22.1631331
20
5.4787336
40
0.5220662
50
136.7831557
51
155.2472983
0
ARC
8
DEFAULT_255_1_388
10
22.1193122
20
5.5159577
40
0.4646502
50
121.7633063
51
136.4281161
0
ARC
8
DEFAULT_255_1_388
10
22.1344962
20
5.4879049
40
0.4964979
50
95.6460018
51
121.5489589
0
ARC
8
DEFAULT_255_1_388
10
22.1521936
20
5.3631704
40
0.6223912
50
89.9245727
51
96.1375919
0
ARC
8
DEFAULT_255_1_388
10
22.1578641
20
5.3765721
40
0.6090084
50
76.6779212
51
90.456405
0
ARC
8
DEFAULT_255_1_388
10
22.2021454
20
5.555506
40
0.42469
50
47.4858803
51
76.9287069
0
ARC
8
DEFAULT_255_1_388
10
22.1856068
20
5.5442623
40
0.4441778
50
16.5424081
51
46.8934505
0
ARC
8
DEFAULT_255_1_388
10
22.0047118
20
5.4848265
40
0.6345318
50
5.4072971
51
17.0363711
0
ARC
8
DEFAULT_255_1_388
10
21.8428843
20
5.4588304
40
0.6250632
50
7.8888693
51
15.9242022
0
ARC
8
DEFAULT_255_1_388
10
22.0663828
20
5.5237309
40
0.3923364
50
15.7650676
51
27.9410069
0
ARC
8
DEFAULT_255_1_388
10
22.1905997
20
5.5902317
40
0.2514401
50
27.8167196
51
46.4007942
0
ARC
8
DEFAULT_255_1_388
10
22.1961839
20
5.5895882
40
0.2480958
50
47.4372362
51
75.0695672
0
ARC
8
DEFAULT_255_1_388
10
22.1614675
20
5.4687277
40
0.3738281
50
74.7009379
51
87.8124314
0
ARC
8
DEFAULT_255_1_388
10
22.1532292
20
5.3503659
40
0.4924321
50
87.3802571
51
90.0251599
0
ARC
8
DEFAULT_255_1_388
10
22.1488939
20
5.4823997
40
0.3604218
50
89.3451886
51
108.5744412
0
ARC
8
DEFAULT_255_1_388
10
22.1334931
20
5.5401836
40
0.3007661
50
109.2998307
51
143.3037387
0
ARC
8
DEFAULT_255_1_388
10
22.2192221
20
5.4742584
40
0.4089031
50
143.075267
51
163.1918576
0
ARC
8
DEFAULT_255_1_388
10
22.4388055
20
5.4049652
40
0.6391492
50
162.9375929
51
174.6208776
0
ARC
8
DEFAULT_255_1_388
10
22.7342437
20
5.3725711
40
0.9363344
50
174.342123
51
180.1430283
0
ARC
8
DEFAULT_255_1_388
10
22.6294978
20
5.2382117
40
0.8315986
50
179.6817261
51
189.150555
0
ARC
8
DEFAULT_255_1_388
10
22.3481727
20
5.1913559
40
0.5464044
50
188.9911061
51
203.5772363
0
ARC
8
DEFAULT_255_1_388
10
22.2267019
20
5.1409539
40
0.4149206
50
203.9075402
51
215.1312435
0
ARC
8
DEFAULT_255_1_388
10
22.1228817
20
5.0604907
40
0.2837747
50
213.9071511
51
263.8848919
0
ARC
8
DEFAULT_255_1_388
10
22.136981
20
5.1487519
40
0.3730641
50
263.1757928
51
270.1031044
0
ARC
8
DEFAULT_255_1_388
10
22.140589
20
5.2890511
40
0.5133712
50
269.6722503
51
279.0606936
0
ARC
8
DEFAULT_255_1_388
10
22.1706045
20
5.107615
40
0.3294739
50
278.8749101
51
293.6349581
0
ARC
8
DEFAULT_255_1_388
10
22.2066249
20
5.0230251
40
0.2375405
50
293.8553806
51
310.0518171
0
ARC
8
DEFAULT_255_1_388
10
22.2071758
20
5.0160021
40
0.2318463
50
311.0644687
51
332.0111037
0
ARC
8
DEFAULT_255_1_388
10
22.0730431
20
5.0899702
40
0.3850112
50
331.6586806
51
343.2877423
0
ARC
8
DEFAULT_255_1_388
10
21.8409896
20
5.1612806
40
0.6277712
50
343.1446576
51
351.0103568
0
ARC
8
DEFAULT_255_1_388
10
21.677722
20
5.1912873
40
0.7937327
50
350.71248
51
351.1626997
0
LINE
8
DEFAULT_255_1_388
10
23.0592881
20
5.9674898
11
23.0592881
21
4.6519
0
LINE
8
DEFAULT_255_1_388
10
23.0592881
20
4.6519
11
22.8858037
21
4.6519
0
LINE
8
DEFAULT_255_1_388
10
22.8858037
20
4.6519
11
22.8858037
21
5.9674898
0
LINE
8
DEFAULT_255_1_388
10
22.8858037
20
5.9674898
11
23.0592881
21
5.9674898
0
LINE
8
DEFAULT_255_1_388
10
23.4378816
20
5.9674898
11
23.8119573
21
4.8823089
0
LINE
8
DEFAULT_255_1_388
10
23.8119573
20
4.8823089
11
24.1878401
21
5.9674898
0
LINE
8
DEFAULT_255_1_388
10
24.1878401
20
5.9674898
11
24.3775886
21
5.9674898
0
LINE
8
DEFAULT_255_1_388
10
24.3775886
20
5.9674898
11
23.8896638
21
4.6519
0
LINE
8
DEFAULT_255_1_388
10
23.8896638
20
4.6519
11
23.7360579
21
4.6519
0
LINE
8
DEFAULT_255_1_388
10
23.7360579
20
4.6519
11
23.2490366
21
5.9674898
0
LINE
8
DEFAULT_255_1_388
10
23.2490366
20
5.9674898
11
23.4378816
21
5.9674898
0
LINE
8
DEFAULT_255_1_388
10
22.462032
20
13.0068468
11
22.6364199
21
13.0068468
0
LINE
8
DEFAULT_255_1_388
10
21.6235242
20
13.1857525
11
21.6235242
21
13.3122516
0
LINE
8
DEFAULT_255_1_388
10
22.6364199
20
13.4821217
11
22.462032
21
13.4821217
0
LINE
8
DEFAULT_255_1_388
10
21.7979121
20
13.3077337
11
21.7979121
21
13.1803312
0
ARC
8
DEFAULT_255_1_388
10
22.0198433
20
13.0740329
40
0.6202263
50
340.1774904
51
353.7812217
0
ARC
8
DEFAULT_255_1_388
10
22.1966286
20
13.0081893
40
0.4315926
50
311.4560052
51
340.4420756
0
ARC
8
DEFAULT_255_1_388
10
22.1928826
20
13.0206665
40
0.4434573
50
282.4332229
51
310.7514507
0
ARC
8
DEFAULT_255_1_388
10
22.1434644
20
13.2248703
40
0.6535262
50
269.9358869
51
282.8096729
0
ARC
8
DEFAULT_255_1_388
10
22.1376583
20
13.3761329
40
0.8048043
50
269.9995752
51
270.3612856
0
ARC
8
DEFAULT_255_1_388
10
22.1317073
20
13.0962781
40
0.5249831
50
250.7885263
51
270.6488451
0
ARC
8
DEFAULT_255_1_388
10
22.1127898
20
13.0245853
40
0.4510942
50
219.3628377
51
250.0611024
0
ARC
8
DEFAULT_255_1_388
10
22.2060772
20
13.1038653
40
0.5735046
50
193.5480293
51
219.5755675
0
ARC
8
DEFAULT_255_1_388
10
22.4728981
20
13.173152
40
0.849146
50
181.1220183
51
193.8754971
0
ARC
8
DEFAULT_255_1_388
10
22.7052214
20
13.1855914
40
1.0816971
50
179.9914644
51
181.5398227
0
ARC
8
DEFAULT_255_1_388
10
22.4975525
20
13.3164586
40
0.8740384
50
169.5837606
51
180.275782
0
ARC
8
DEFAULT_255_1_388
10
22.2908873
20
13.3546439
40
0.6638751
50
155.0367033
51
169.6002779
0
ARC
8
DEFAULT_255_1_388
10
22.1631331
20
13.4162336
40
0.5220662
50
136.7831557
51
155.2472983
0
ARC
8
DEFAULT_255_1_388
10
22.1193122
20
13.4534577
40
0.4646502
50
121.7633063
51
136.4281161
0
ARC
8
DEFAULT_255_1_388
10
22.1344962
20
13.4254049
40
0.4964979
50
95.6460018
51
121.5489589
0
ARC
8
DEFAULT_255_1_388
10
22.1521936
20
13.3006704
40
0.6223912
50
89.9245727
51
96.1375919
0
ARC
8
DEFAULT_255_1_388
10
22.1578641
20
13.3140721
40
0.6090084
50
76.6779212
51
90.456405
0
ARC
8
DEFAULT_255_1_388
10
22.2021454
20
13.493006
40
0.42469
50
47.4858803
51
76.9287069
0
ARC
8
DEFAULT_255_1_388
10
22.1856068
20
13.4817623
40
0.4441778
50
16.5424081
51
46.8934505
0
ARC
8
DEFAULT_255_1_388
10
22.0047118
20
13.4223265
40
0.6345318
50
5.4072971
51
17.0363711
0
ARC
8
DEFAULT_255_1_388
10
21.8428843
20
13.3963304
40
0.6250632
50
7.8888693
51
15.9242022
0
ARC
8
DEFAULT_255_1_388
10
22.0663828
20
13.4612309
40
0.3923364
50
15.7650676
51
27.9410069
0
ARC
8
DEFAULT_255_1_388
10
22.1905997
20
13.5277317
40
0.2514401
50
27.8167196
51
46.4007942
0
ARC
8
DEFAULT_255_1_388
10
22.1961839
20
13.5270882
40
0.2480958
50
47.4372362
51
75.0695672
0
ARC
8
DEFAULT_255_1_388
10
22.1614675
20
13.4062277
40
0.3738281
50
74.7009379
51
87.8124314
0
ARC
8
DEFAULT_255_1_388
10
22.1532292
20
13.2878659
40
0.4924321
50
87.3802571
51
90.0251599
0
ARC
8
DEFAULT_255_1_388
10
22.1488939
20
13.4198997
40
0.3604218
50
89.3451886
51
108.5744412
0
ARC
8
DEFAULT_255_1_388
10
22.1334931
20
13.4776836
40
0.3007661
50
109.2998307
51
143.3037387
0
ARC
8
DEFAULT_255_1_388
10
22.2192221
20
13.4117584
40
0.4089031
50
143.075267
51
163.1918576
0
ARC
8
DEFAULT_255_1_388
10
22.4388055
20
13.3424652
40
0.6391492
50
162.9375929
51
174.6208776
0
ARC
8
DEFAULT_255_1_388
10
22.7342437
20
13.3100711
40
0.9363344
50
174.342123
51
180.1430283
0
ARC
8
DEFAULT_255_1_388
10
22.6294978
20
13.1757117
40
0.8315986
50
179.6817261
51
189.150555
0
ARC
8
DEFAULT_255_1_388
10
22.3481727
20
13.1288559
40
0.5464044
50
188.9911061
51
203.5772363
0
ARC
8
DEFAULT_255_1_388
10
22.2267019
20
13.0784539
40
0.4149206
50
203.9075402
51
215.1312435
0
ARC
8
DEFAULT_255_1_388
10
22.1228817
20
12.9979907
40
0.2837747
50
213.9071511
51
263.8848919
0
ARC
8
DEFAULT_255_1_388
10
22.136981
20
13.0862519
40
0.3730641
50
263.1757928
51
270.1031044
0
ARC
8
DEFAULT_255_1_388
10
22.140589
20
13.2265511
40
0.5133712
50
269.6722503
51
279.0606936
0
ARC
8
DEFAULT_255_1_388
10
22.1706045
20
13.045115
40
0.3294739
50
278.8749101
51
293.6349581
0
ARC
8
DEFAULT_255_1_388
10
22.2066249
20
12.9605251
40
0.2375405
50
293.8553806
51
310.0518171
0
ARC
8
DEFAULT_255_1_388
10
22.2071758
20
12.9535021
40
0.2318463
50
311.0644687
51
332.0111037
0
ARC
8
DEFAULT_255_1_388
10
22.0730431
20
13.0274702
40
0.3850112
50
331.6586806
51
343.2877423
0
ARC
8
DEFAULT_255_1_388
10
21.8409896
20
13.0987806
40
0.6277712
50
343.1446576
51
351.0103568
0
ARC
8
DEFAULT_255_1_388
10
21.677722
20
13.1287873
40
0.7937327
50
350.71248
51
351.1626997
0
LINE
8
DEFAULT_255_1_388
10
23.0592881
20
13.9049898
11
23.0592881
21
12.5894
0
LINE
8
DEFAULT_255_1_388
10
23.0592881
20
12.5894
11
22.8858037
21
12.5894
0
LINE
8
DEFAULT_255_1_388
10
22.8858037
20
12.5894
11
22.8858037
21
13.9049898
0
LINE
8
DEFAULT_255_1_388
10
22.8858037
20
13.9049898
11
23.0592881
21
13.9049898
0
LINE
8
DEFAULT_255_1_388
10
23.4378816
20
13.9049898
11
23.8119573
21
12.8198089
0
LINE
8
DEFAULT_255_1_388
10
23.8119573
20
12.8198089
11
24.1878401
21
13.9049898
0
LINE
8
DEFAULT_255_1_388
10
24.1878401
20
13.9049898
11
24.3775886
21
13.9049898
0
LINE
8
DEFAULT_255_1_388
10
24.3775886
20
13.9049898
11
23.8896638
21
12.5894
0
LINE
8
DEFAULT_255_1_388
10
23.8896638
20
12.5894
11
23.7360579
21
12.5894
0
LINE
8
DEFAULT_255_1_388
10
23.7360579
20
12.5894
11
23.2490366
21
13.9049898
0
LINE
8
DEFAULT_255_1_388
10
23.2490366
20
13.9049898
11
23.4378816
21
13.9049898
0
LINE
8
DEFAULT_255_1_388
10
22.7294389
20
20.5269
11
22.3653024
21
20.5269
0
LINE
8
DEFAULT_255_1_388
10
22.3653024
20
20.5269
11
22.3653024
21
21.8424898
0
LINE
8
DEFAULT_255_1_388
10
22.3653024
20
21.8424898
11
22.7366674
21
21.8424898
0
LINE
8
DEFAULT_255_1_388
10
23.3167558
20
21.2289696
11
23.3167558
21
21.1449381
0
LINE
8
DEFAULT_255_1_388
10
22.7411852
20
21.6997267
11
22.5387868
21
21.6997267
0
LINE
8
DEFAULT_255_1_388
10
22.5387868
20
21.6997267
11
22.5387868
21
20.6687596
0
LINE
8
DEFAULT_255_1_388
10
22.5387868
20
20.6687596
11
22.7213068
21
20.6687596
0
LINE
8
DEFAULT_255_1_388
10
23.1450785
20
21.1485523
11
23.1450785
21
21.2253553
0
ARC
8
DEFAULT_255_1_388
10
22.7410469
20
21.1826436
40
0.6598608
50
75.4100343
51
90.3802731
0
ARC
8
DEFAULT_255_1_388
10
22.7668714
20
21.2902691
40
0.5492049
50
60.1455157
51
75.1889627
0
ARC
8
DEFAULT_255_1_388
10
22.7847306
20
21.3213914
40
0.5133226
50
26.525419
51
60.1451222
0
ARC
8
DEFAULT_255_1_388
10
22.6587092
20
21.2545642
40
0.6559324
50
7.4029944
51
26.832209
0
ARC
8
DEFAULT_255_1_388
10
22.4793489
20
21.2266229
40
0.8374103
50
0.1605597
51
7.7176135
0
ARC
8
DEFAULT_255_1_388
10
22.4977889
20
21.1406321
40
0.8189782
50
348.7289744
51
0.30125
0
ARC
8
DEFAULT_255_1_388
10
22.6841353
20
21.1036156
40
0.628991
50
333.0706936
51
348.7181455
0
ARC
8
DEFAULT_255_1_388
10
22.7928981
20
21.0445449
40
0.5052808
50
299.2531435
51
333.4571133
0
ARC
8
DEFAULT_255_1_388
10
22.7523012
20
21.1216629
40
0.5924066
50
278.1072193
51
299.0340218
0
ARC
8
DEFAULT_255_1_388
10
22.7235061
20
21.2912979
40
0.7644209
50
270.4446841
51
278.4508355
0
ARC
8
DEFAULT_255_1_388
10
22.7258545
20
21.18673
40
0.5179903
50
269.4969684
51
284.0204874
0
ARC
8
DEFAULT_255_1_388
10
22.7658263
20
21.0331415
40
0.3592968
50
283.7699076
51
318.1557121
0
ARC
8
DEFAULT_255_1_388
10
22.7278808
20
21.0615399
40
0.4065308
50
318.7417595
51
343.687252
0
ARC
8
DEFAULT_255_1_388
10
22.5249387
20
21.1249275
40
0.6191194
50
343.3324891
51
355.8548594
0
ARC
8
DEFAULT_255_1_388
10
22.2888424
20
21.1473719
40
0.856237
50
355.4988754
51
0.0789913
0
ARC
8
DEFAULT_255_1_388
10
22.3769224
20
21.230108
40
0.7681709
50
359.6455047
51
9.8607559
0
ARC
8
DEFAULT_255_1_388
10
22.6424947
20
21.2780664
40
0.498312
50
9.6573037
51
26.1931522
0
ARC
8
DEFAULT_255_1_388
10
22.7469022
20
21.3265587
40
0.3832303
50
26.5777895
51
40.1533752
0
ARC
8
DEFAULT_255_1_388
10
22.7756687
20
21.349002
40
0.3467742
50
40.3839958
51
80.1430923
0
ARC
8
DEFAULT_255_1_388
10
22.7388942
20
21.1859486
40
0.5137832
50
79.2153636
51
89.7445174
0
LINE
8
DEFAULT_255_1_388
10
24.3847689
20
21.8424898
11
24.3847689
21
21.7485191
0
LINE
8
DEFAULT_255_1_388
10
24.3847689
20
21.7485191
11
23.8399196
21
20.5269
0
LINE
8
DEFAULT_255_1_388
10
23.8399196
20
20.5269
11
23.6646281
21
20.5269
0
LINE
8
DEFAULT_255_1_388
10
23.6646281
20
20.5269
11
24.2076703
21
21.705148
0
LINE
8
DEFAULT_255_1_388
10
24.2076703
20
21.705148
11
23.4956615
21
21.705148
0
LINE
8
DEFAULT_255_1_388
10
23.4956615
20
21.705148
11
23.4956615
21
21.8424898
0
LINE
8
DEFAULT_255_1_388
10
23.4956615
20
21.8424898
11
24.3847689
21
21.8424898
0
LINE
8
DEFAULT_255_1_388
10
22.7294389
20
28.4644
11
22.3653024
21
28.4644
0
LINE
8
DEFAULT_255_1_388
10
22.3653024
20
28.4644
11
22.3653024
21
29.7799898
0
LINE
8
DEFAULT_255_1_388
10
22.3653024
20
29.7799898
11
22.7366674
21
29.7799898
0
LINE
8
DEFAULT_255_1_388
10
23.3167558
20
29.1664696
11
23.3167558
21
29.0824381
0
LINE
8
DEFAULT_255_1_388
10
22.7411852
20
29.6372267
11
22.5387868
21
29.6372267
0
LINE
8
DEFAULT_255_1_388
10
22.5387868
20
29.6372267
11
22.5387868
21
28.6062596
0
LINE
8
DEFAULT_255_1_388
10
22.5387868
20
28.6062596
11
22.7213068
21
28.6062596
0
LINE
8
DEFAULT_255_1_388
10
23.1450785
20
29.0860523
11
23.1450785
21
29.1628553
0
ARC
8
DEFAULT_255_1_388
10
22.7410469
20
29.1201436
40
0.6598608
50
75.4100343
51
90.3802731
0
ARC
8
DEFAULT_255_1_388
10
22.7668714
20
29.2277691
40
0.5492049
50
60.1455157
51
75.1889627
0
ARC
8
DEFAULT_255_1_388
10
22.7847306
20
29.2588914
40
0.5133226
50
26.525419
51
60.1451222
0
ARC
8
DEFAULT_255_1_388
10
22.6587092
20
29.1920642
40
0.6559324
50
7.4029944
51
26.832209
0
ARC
8
DEFAULT_255_1_388
10
22.4793489
20
29.1641229
40
0.8374103
50
0.1605597
51
7.7176135
0
ARC
8
DEFAULT_255_1_388
10
22.4977889
20
29.0781321
40
0.8189782
50
348.7289744
51
0.30125
0
ARC
8
DEFAULT_255_1_388
10
22.6841353
20
29.0411156
40
0.628991
50
333.0706936
51
348.7181455
0
ARC
8
DEFAULT_255_1_388
10
22.7928981
20
28.9820449
40
0.5052808
50
299.2531435
51
333.4571133
0
ARC
8
DEFAULT_255_1_388
10
22.7523012
20
29.0591629
40
0.5924066
50
278.1072193
51
299.0340218
0
ARC
8
DEFAULT_255_1_388
10
22.7235061
20
29.2287979
40
0.7644209
50
270.4446841
51
278.4508355
0
ARC
8
DEFAULT_255_1_388
10
22.7258545
20
29.12423
40
0.5179903
50
269.4969684
51
284.0204874
0
ARC
8
DEFAULT_255_1_388
10
22.7658263
20
28.9706415
40
0.3592968
50
283.7699076
51
318.1557121
0
ARC
8
DEFAULT_255_1_388
10
22.7278808
20
28.9990399
40
0.4065308
50
318.7417595
51
343.687252
0
ARC
8
DEFAULT_255_1_388
10
22.5249387
20
29.0624275
40
0.6191194
50
343.3324891
51
355.8548594
0
ARC
8
DEFAULT_255_1_388
10
22.2888424
20
29.0848719
40
0.856237
50
355.4988754
51
0.0789913
0
ARC
8
DEFAULT_255_1_388
10
22.3769224
20
29.167608
40
0.7681709
50
359.6455047
51
9.8607559
0
ARC
8
DEFAULT_255_1_388
10
22.6424947
20
29.2155664
40
0.498312
50
9.6573037
51
26.1931522
0
ARC
8
DEFAULT_255_1_388
10
22.7469022
20
29.2640587
40
0.3832303
50
26.5777895
51
40.1533752
0
ARC
8
DEFAULT_255_1_388
10
22.7756687
20
29.286502
40
0.3467742
50
40.3839958
51
80.1430923
0
ARC
8
DEFAULT_255_1_388
10
22.7388942
20
29.1234486
40
0.5137832
50
79.2153636
51
89.7445174
0
LINE
8
DEFAULT_255_1_388
10
24.1615885
20
29.7808934
11
24.1914062
21
29.7808934
0
LINE
8
DEFAULT_255_1_388
10
24.1914062
20
29.7808934
11
24.1914062
21
29.6390338
0
LINE
8
DEFAULT_255_1_388
10
24.1914062
20
29.6390338
11
24.160685
21
29.6390338
0
LINE
8
DEFAULT_255_1_388
10
23.5453576
20
28.9649747
11
23.5453576
21
29.0291278
0
LINE
8
DEFAULT_255_1_388
10
23.7134206
20
29.0074422
11
23.7134206
21
28.9459999
0
ARC
8
DEFAULT_255_1_388
10
24.1665741
20
29.0767826
40
0.562282
50
90.6001079
51
104.5146616
0
ARC
8
DEFAULT_255_1_388
10
24.1228701
20
29.23931
40
0.3939917
50
104.2855758
51
133.8630124
0
ARC
8
DEFAULT_255_1_388
10
24.1412953
20
29.2271243
40
0.4155734
50
134.5304124
51
161.6210222
0
ARC
8
DEFAULT_255_1_388
10
24.3272886
20
29.1615421
40
0.6127682
50
161.2850533
51
174.2074364
0
ARC
8
DEFAULT_255_1_388
10
24.4862452
20
29.1396437
40
0.7731446
50
173.7817938
51
174.9251711
0
ARC
8
DEFAULT_255_1_388
10
23.9736646
20
28.984127
40
0.3412588
50
95.8332067
51
138.995412
0
ARC
8
DEFAULT_255_1_388
10
23.9987926
20
28.8402695
40
0.4870358
50
89.8755506
51
97.0540979
0
ARC
8
DEFAULT_255_1_388
10
24.0041315
20
28.9342841
40
0.3930432
50
71.6407016
51
90.6240821
0
ARC
8
DEFAULT_255_1_388
10
24.0210709
20
28.9966433
40
0.3285421
50
39.6368051
51
71.0190743
0
ARC
8
DEFAULT_255_1_388
10
23.9494616
20
28.9347586
40
0.4231706
50
10.6588054
51
39.9044509
0
ARC
8
DEFAULT_255_1_388
10
23.7753162
20
28.8969223
40
0.60133
50
359.6827842
51
11.1326896
0
ARC
8
DEFAULT_255_1_388
10
23.7708498
20
28.8889715
40
0.6058047
50
347.2485908
51
0.4371098
0
ARC
8
DEFAULT_255_1_388
10
23.9584283
20
28.8438379
40
0.4128987
50
318.1408565
51
347.6118497
0
ARC
8
DEFAULT_255_1_388
10
23.994988
20
28.8137903
40
0.3656244
50
275.6342406
51
317.824739
0
ARC
8
DEFAULT_255_1_388
10
23.9701401
20
28.9599827
40
0.513655
50
269.8872513
51
276.7916069
0
ARC
8
DEFAULT_255_1_388
10
23.9639594
20
28.8446181
40
0.398323
50
246.9139443
51
270.7436787
0
ARC
8
DEFAULT_255_1_388
10
23.9646789
20
28.8286044
40
0.3839368
50
218.1665534
51
245.8780431
0
ARC
8
DEFAULT_255_1_388
10
24.0636162
20
28.9113903
40
0.5128958
50
191.4115343
51
218.6077624
0
ARC
8
DEFAULT_255_1_388
10
24.2816478
20
28.9602777
40
0.7363054
50
179.6344971
51
191.7836758
0
ARC
8
DEFAULT_255_1_388
10
24.9096352
20
29.0366495
40
1.3642984
50
171.4523743
51
180.3158856
0
ARC
8
DEFAULT_255_1_388
10
24.4152079
20
29.1135895
40
0.8639311
50
157.9802296
51
171.6246761
0
ARC
8
DEFAULT_255_1_388
10
24.166143
20
29.2129038
40
0.5958004
50
141.4299236
51
157.8541251
0
ARC
8
DEFAULT_255_1_388
10
24.0939513
20
29.2639746
40
0.5075416
50
102.871586
51
140.8564533
0
ARC
8
DEFAULT_255_1_388
10
24.1668066
20
28.9894943
40
0.7914163
50
90.377773
51
103.5868422
0
ARC
8
DEFAULT_255_1_388
10
23.9712587
20
28.9214543
40
0.2667015
50
89.8751238
51
126.2072139
0
ARC
8
DEFAULT_255_1_388
10
23.9764058
20
28.9040847
40
0.2838229
50
124.9742447
51
144.8960197
0
ARC
8
DEFAULT_255_1_388
10
23.9566303
20
28.9201981
40
0.2583845
50
145.2974778
51
160.2660922
0
ARC
8
DEFAULT_255_1_388
10
24.3022792
20
28.9424151
40
0.5888695
50
179.6512124
51
190.285571
0
ARC
8
DEFAULT_255_1_388
10
24.1117271
20
28.9064968
40
0.3949683
50
190.0944895
51
207.5099647
0
ARC
8
DEFAULT_255_1_388
10
24.0480853
20
28.8762177
40
0.3245464
50
207.9585471
51
216.325377
0
ARC
8
DEFAULT_255_1_388
10
24.009849
20
28.8447712
40
0.2751259
50
215.7661336
51
232.5457193
0
ARC
8
DEFAULT_255_1_388
10
23.9667606
20
28.7900273
40
0.2054668
50
232.8005815
51
270.6605497
0
ARC
8
DEFAULT_255_1_388
10
23.971903
20
28.8309853
40
0.2464268
50
269.3550767
51
288.474612
0
ARC
8
DEFAULT_255_1_388
10
23.9823537
20
28.7916721
40
0.2058436
50
289.1831976
51
322.9685307
0
ARC
8
DEFAULT_255_1_388
10
23.9135639
20
28.8459279
40
0.2934408
50
322.6007085
51
346.5183319
0
ARC
8
DEFAULT_255_1_388
10
23.7833395
20
28.8791434
40
0.4278249
50
346.2584622
51
358.7739592
0
ARC
8
DEFAULT_255_1_388
10
23.668197
20
28.8853829
40
0.5430876
50
358.3757628
51
0.0082477
0
ARC
8
DEFAULT_255_1_388
10
23.7538789
20
28.8884856
40
0.4574157
50
359.6211417
51
11.28403
0
ARC
8
DEFAULT_255_1_388
10
23.8975395
20
28.9184535
40
0.3106708
50
11.0483152
51
31.8145585
0
ARC
8
DEFAULT_255_1_388
10
23.93231
20
28.9373045
40
0.2711963
50
32.3028554
51
38.0820598
0
ARC
8
DEFAULT_255_1_388
10
23.9796333
20
28.9801717
40
0.2075566
50
36.8249851
51
85.741667
0
ARC
8
DEFAULT_255_1_388
10
23.9720746
20
28.9238065
40
0.2643487
50
85.0150021
51
90.050843
0
LINE
8
DEFAULT_255_1_388
10
22.7294389
20
36.4019
11
22.3653024
21
36.4019
0
LINE
8
DEFAULT_255_1_388
10
22.3653024
20
36.4019
11
22.3653024
21
37.7174898
0
LINE
8
DEFAULT_255_1_388
10
22.3653024
20
37.7174898
11
22.7366674
21
37.7174898
0
LINE
8
DEFAULT_255_1_388
10
23.3167558
20
37.1039696
11
23.3167558
21
37.0199381
0
LINE
8
DEFAULT_255_1_388
10
22.7411852
20
37.5747267
11
22.5387868
21
37.5747267
0
LINE
8
DEFAULT_255_1_388
10
22.5387868
20
37.5747267
11
22.5387868
21
36.5437596
0
LINE
8
DEFAULT_255_1_388
10
22.5387868
20
36.5437596
11
22.7213068
21
36.5437596
0
LINE
8
DEFAULT_255_1_388
10
23.1450785
20
37.0235523
11
23.1450785
21
37.1003553
0
ARC
8
DEFAULT_255_1_388
10
22.7410469
20
37.0576436
40
0.6598608
50
75.4100343
51
90.3802731
0
ARC
8
DEFAULT_255_1_388
10
22.7668714
20
37.1652691
40
0.5492049
50
60.1455157
51
75.1889627
0
ARC
8
DEFAULT_255_1_388
10
22.7847306
20
37.1963914
40
0.5133226
50
26.525419
51
60.1451222
0
ARC
8
DEFAULT_255_1_388
10
22.6587092
20
37.1295642
40
0.6559324
50
7.4029944
51
26.832209
0
ARC
8
DEFAULT_255_1_388
10
22.4793489
20
37.1016229
40
0.8374103
50
0.1605597
51
7.7176135
0
ARC
8
DEFAULT_255_1_388
10
22.4977889
20
37.0156321
40
0.8189782
50
348.7289744
51
0.30125
0
ARC
8
DEFAULT_255_1_388
10
22.6841353
20
36.9786156
40
0.628991
50
333.0706936
51
348.7181455
0
ARC
8
DEFAULT_255_1_388
10
22.7928981
20
36.9195449
40
0.5052808
50
299.2531435
51
333.4571133
0
ARC
8
DEFAULT_255_1_388
10
22.7523012
20
36.9966629
40
0.5924066
50
278.1072193
51
299.0340218
0
ARC
8
DEFAULT_255_1_388
10
22.7235061
20
37.1662979
40
0.7644209
50
270.4446841
51
278.4508355
0
ARC
8
DEFAULT_255_1_388
10
22.7258545
20
37.06173
40
0.5179903
50
269.4969684
51
284.0204874
0
ARC
8
DEFAULT_255_1_388
10
22.7658263
20
36.9081415
40
0.3592968
50
283.7699076
51
318.1557121
0
ARC
8
DEFAULT_255_1_388
10
22.7278808
20
36.9365399
40
0.4065308
50
318.7417595
51
343.687252
0
ARC
8
DEFAULT_255_1_388
10
22.5249387
20
36.9999275
40
0.6191194
50
343.3324891
51
355.8548594
0
ARC
8
DEFAULT_255_1_388
10
22.2888424
20
37.0223719
40
0.856237
50
355.4988754
51
0.0789913
0
ARC
8
DEFAULT_255_1_388
10
22.3769224
20
37.105108
40
0.7681709
50
359.6455047
51
9.8607559
0
ARC
8
DEFAULT_255_1_388
10
22.6424947
20
37.1530664
40
0.498312
50
9.6573037
51
26.1931522
0
ARC
8
DEFAULT_255_1_388
10
22.7469022
20
37.2015587
40
0.3832303
50
26.5777895
51
40.1533752
0
ARC
8
DEFAULT_255_1_388
10
22.7756687
20
37.224002
40
0.3467742
50
40.3839958
51
80.1430923
0
ARC
8
DEFAULT_255_1_388
10
22.7388942
20
37.0609486
40
0.5137832
50
79.2153636
51
89.7445174
0
LINE
8
DEFAULT_255_1_388
10
23.7459489
20
37.0271666
11
23.6122213
21
37.0615021
0
LINE
8
DEFAULT_255_1_388
10
23.6122213
20
37.0615021
11
23.6790851
21
37.7174898
0
LINE
8
DEFAULT_255_1_388
10
23.6790851
20
37.7174898
11
24.3531442
21
37.7174898
0
LINE
8
DEFAULT_255_1_388
10
24.3531442
20
37.7174898
11
24.3531442
21
37.5629803
0
LINE
8
DEFAULT_255_1_388
10
24.3531442
20
37.5629803
11
23.8209447
21
37.5629803
0
LINE
8
DEFAULT_255_1_388
10
23.8209447
20
37.5629803
11
23.7811879
21
37.2042652
0
LINE
8
DEFAULT_255_1_388
10
23.565236
20
36.7479652
11
23.7233598
21
36.7479652
0
LINE
8
DEFAULT_255_1_388
10
23.7902235
20
37.0633092
11
23.7459489
21
37.0271666
0
ARC
8
DEFAULT_255_1_388
10
23.9898492
20
36.8465241
40
0.4141476
50
93.7181681
51
120.253934
0
ARC
8
DEFAULT_255_1_388
10
24.0004545
20
36.7556284
40
0.5055616
50
89.9660471
51
94.2495185
0
ARC
8
DEFAULT_255_1_388
10
24.0050367
20
36.8219154
40
0.4392953
50
73.8045384
51
90.5585736
0
ARC
8
DEFAULT_255_1_388
10
24.0314624
20
36.918452
40
0.3392225
50
41.3071072
51
73.543002
0
ARC
8
DEFAULT_255_1_388
10
23.9846444
20
36.8781461
40
0.4009977
50
13.5075837
51
41.2174839
0
ARC
8
DEFAULT_255_1_388
10
23.7999542
20
36.8297907
40
0.5918864
50
1.1330171
51
13.8830737
0
ARC
8
DEFAULT_255_1_388
10
23.6403187
20
36.8212522
40
0.7516787
50
359.9925091
51
1.5431298
0
ARC
8
DEFAULT_255_1_388
10
23.7847802
20
36.8166027
40
0.6072343
50
347.8572712
51
0.4294349
0
ARC
8
DEFAULT_255_1_388
10
23.9816937
20
36.7719898
40
0.4053482
50
323.6727442
51
348.1674594
0
ARC
8
DEFAULT_255_1_388
10
24.0147902
20
36.7518175
40
0.3667495
50
316.8171818
51
323.1486802
0
ARC
8
DEFAULT_255_1_388
10
24.0217025
20
36.7476612
40
0.358869
50
281.839603
51
316.5458142
0
ARC
8
DEFAULT_255_1_388
10
23.9794313
20
36.9226363
40
0.5388223
50
269.5770964
51
282.4214641
0
ARC
8
DEFAULT_255_1_388
10
23.9714234
20
36.898593
40
0.5147801
50
256.2425863
51
270.4486481
0
ARC
8
DEFAULT_255_1_388
10
23.9377761
20
36.7636124
40
0.3756708
50
228.9024379
51
256.33135
0
ARC
8
DEFAULT_255_1_388
10
23.9294742
20
36.7505054
40
0.360344
50
193.7536029
51
228.5272638
0
ARC
8
DEFAULT_255_1_388
10
24.0687307
20
36.7913463
40
0.5053599
50
184.9244437
51
194.4976052
0
ARC
8
DEFAULT_255_1_388
10
24.0903948
20
36.7953722
40
0.3700839
50
187.3596909
51
198.6733728
0
ARC
8
DEFAULT_255_1_388
10
23.9723191
20
36.7544373
40
0.2451195
50
198.4453795
51
217.7945479
0
ARC
8
DEFAULT_255_1_388
10
23.9390364
20
36.7308563
40
0.2043754
50
218.2887146
51
228.5613203
0
ARC
8
DEFAULT_255_1_388
10
23.9500371
20
36.7456902
40
0.2227819
50
228.9652423
51
258.1237049
0
ARC
8
DEFAULT_255_1_388
10
23.9731808
20
36.8447964
40
0.3245374
50
257.7260585
51
270.4013717
0
ARC
8
DEFAULT_255_1_388
10
23.9782306
20
36.7947255
40
0.2744726
50
269.4204315
51
286.420998
0
ARC
8
DEFAULT_255_1_388
10
23.9949362
20
36.7340705
40
0.2115721
50
286.7250065
51
320.6004665
0
ARC
8
DEFAULT_255_1_388
10
23.9518277
20
36.7690527
40
0.2670878
50
320.6712228
51
344.5440474
0
ARC
8
DEFAULT_255_1_388
10
23.8216991
20
36.8072394
40
0.4026927
50
344.241448
51
356.735803
0
ARC
8
DEFAULT_255_1_388
10
23.6813298
20
36.8188656
40
0.5435085
50
356.3547471
51
0.0507222
0
ARC
8
DEFAULT_255_1_388
10
23.8315563
20
36.8223812
40
0.3932934
50
359.5579289
51
12.9534322
0
ARC
8
DEFAULT_255_1_388
10
23.9502403
20
36.8511586
40
0.2711827
50
12.6489751
51
41.608121
0
ARC
8
DEFAULT_255_1_388
10
23.9761563
20
36.8731946
40
0.2371737
50
41.7851122
51
85.9892156
0
ARC
8
DEFAULT_255_1_388
10
23.9622873
20
36.7816738
40
0.3295244
50
84.6965848
51
90.0672125
0
ARC
8
DEFAULT_255_1_388
10
23.9596441
20
36.7065118
40
0.4046926
50
89.6804991
51
99.161352
0
ARC
8
DEFAULT_255_1_388
10
23.936545
20
36.8445848
40
0.2647044
50
98.9836248
51
113.8905702
0
ARC
8
DEFAULT_255_1_388
10
23.9107125
20
36.9055118
40
0.1985386
50
114.195234
51
127.3641866
0
LINE
8
DEFAULT_255_1_388
10
22.5971389
20
44.3394
11
22.2330024
21
44.3394
0
LINE
8
DEFAULT_255_1_388
10
22.2330024
20
44.3394
11
22.2330024
21
45.6549898
0
LINE
8
DEFAULT_255_1_388
10
22.2330024
20
45.6549898
11
22.6043674
21
45.6549898
0
LINE
8
DEFAULT_255_1_388
10
23.1844558
20
45.0414696
11
23.1844558
21
44.9574381
0
LINE
8
DEFAULT_255_1_388
10
22.6088852
20
45.5122267
11
22.4064868
21
45.5122267
0
LINE
8
DEFAULT_255_1_388
10
22.4064868
20
45.5122267
11
22.4064868
21
44.4812596
0
LINE
8
DEFAULT_255_1_388
10
22.4064868
20
44.4812596
11
22.5890068
21
44.4812596
0
LINE
8
DEFAULT_255_1_388
10
23.0127785
20
44.9610523
11
23.0127785
21
45.0378553
0
ARC
8
DEFAULT_255_1_388
10
22.6087469
20
44.9951436
40
0.6598608
50
75.4100343
51
90.3802731
0
ARC
8
DEFAULT_255_1_388
10
22.6345714
20
45.1027691
40
0.5492049
50
60.1455157
51
75.1889627
0
ARC
8
DEFAULT_255_1_388
10
22.6524306
20
45.1338914
40
0.5133226
50
26.525419
51
60.1451222
0
ARC
8
DEFAULT_255_1_388
10
22.5264092
20
45.0670642
40
0.6559324
50
7.4029944
51
26.832209
0
ARC
8
DEFAULT_255_1_388
10
22.3470489
20
45.0391229
40
0.8374103
50
0.1605597
51
7.7176135
0
ARC
8
DEFAULT_255_1_388
10
22.3654889
20
44.9531321
40
0.8189782
50
348.7289744
51
0.30125
0
ARC
8
DEFAULT_255_1_388
10
22.5518353
20
44.9161156
40
0.628991
50
333.0706936
51
348.7181455
0
ARC
8
DEFAULT_255_1_388
10
22.6605981
20
44.8570449
40
0.5052808
50
299.2531435
51
333.4571133
0
ARC
8
DEFAULT_255_1_388
10
22.6200012
20
44.9341629
40
0.5924066
50
278.1072193
51
299.0340218
0
ARC
8
DEFAULT_255_1_388
10
22.5912061
20
45.1037979
40
0.7644209
50
270.4446841
51
278.4508355
0
ARC
8
DEFAULT_255_1_388
10
22.5935545
20
44.99923
40
0.5179903
50
269.4969684
51
284.0204874
0
ARC
8
DEFAULT_255_1_388
10
22.6335263
20
44.8456415
40
0.3592968
50
283.7699076
51
318.1557121
0
ARC
8
DEFAULT_255_1_388
10
22.5955808
20
44.8740399
40
0.4065308
50
318.7417595
51
343.687252
0
ARC
8
DEFAULT_255_1_388
10
22.3926387
20
44.9374275
40
0.6191194
50
343.3324891
51
355.8548594
0
ARC
8
DEFAULT_255_1_388
10
22.1565424
20
44.9598719
40
0.856237
50
355.4988754
51
0.0789913
0
ARC
8
DEFAULT_255_1_388
10
22.2446224
20
45.042608
40
0.7681709
50
359.6455047
51
9.8607559
0
ARC
8
DEFAULT_255_1_388
10
22.5101947
20
45.0905664
40
0.498312
50
9.6573037
51
26.1931522
0
ARC
8
DEFAULT_255_1_388
10
22.6146022
20
45.1390587
40
0.3832303
50
26.5777895
51
40.1533752
0
ARC
8
DEFAULT_255_1_388
10
22.6433687
20
45.161502
40
0.3467742
50
40.3839958
51
80.1430923
0
ARC
8
DEFAULT_255_1_388
10
22.6065942
20
44.9984486
40
0.5137832
50
79.2153636
51
89.7445174
0
LINE
8
DEFAULT_255_1_388
10
24.1088022
20
45.6549898
11
24.1088022
21
44.781243
0
LINE
8
DEFAULT_255_1_388
10
24.1088022
20
44.781243
11
24.2913222
21
44.781243
0
LINE
8
DEFAULT_255_1_388
10
24.2913222
20
44.781243
11
24.2913222
21
44.6448048
0
LINE
8
DEFAULT_255_1_388
10
24.2913222
20
44.6448048
11
24.1088022
21
44.6448048
0
LINE
8
DEFAULT_255_1_388
10
24.1088022
20
44.6448048
11
24.1088022
21
44.3394
0
LINE
8
DEFAULT_255_1_388
10
24.1088022
20
44.3394
11
23.9407392
21
44.3394
0
LINE
8
DEFAULT_255_1_388
10
23.9407392
20
44.3394
11
23.9407392
21
44.6448048
0
LINE
8
DEFAULT_255_1_388
10
23.9407392
20
44.6448048
11
23.341676
21
44.6448048
0
LINE
8
DEFAULT_255_1_388
10
23.341676
20
44.6448048
11
23.341676
21
44.7432933
0
LINE
8
DEFAULT_255_1_388
10
23.341676
20
44.7432933
11
23.9308
21
45.6549898
0
LINE
8
DEFAULT_255_1_388
10
23.9308
20
45.6549898
11
24.1088022
21
45.6549898
0
LINE
8
DEFAULT_255_1_388
10
23.9208608
20
45.3902455
11
23.5314245
21
44.781243
0
LINE
8
DEFAULT_255_1_388
10
23.5314245
20
44.781243
11
23.9407392
21
44.781243
0
LINE
8
DEFAULT_255_1_388
10
23.9407392
20
44.781243
11
23.9407392
21
45.426388
0
LINE
8
DEFAULT_255_1_388
10
23.9407392
20
45.426388
11
23.9208608
21
45.3902455
0
LINE
8
DEFAULT_255_1_388
10
22.7294389
20
52.2769
11
22.3653024
21
52.2769
0
LINE
8
DEFAULT_255_1_388
10
22.3653024
20
52.2769
11
22.3653024
21
53.5924898
0
LINE
8
DEFAULT_255_1_388
10
22.3653024
20
53.5924898
11
22.7366674
21
53.5924898
0
LINE
8
DEFAULT_255_1_388
10
23.3167558
20
52.9789696
11
23.3167558
21
52.8949381
0
LINE
8
DEFAULT_255_1_388
10
22.7411852
20
53.4497267
11
22.5387868
21
53.4497267
0
LINE
8
DEFAULT_255_1_388
10
22.5387868
20
53.4497267
11
22.5387868
21
52.4187596
0
LINE
8
DEFAULT_255_1_388
10
22.5387868
20
52.4187596
11
22.7213068
21
52.4187596
0
LINE
8
DEFAULT_255_1_388
10
23.1450785
20
52.8985523
11
23.1450785
21
52.9753553
0
ARC
8
DEFAULT_255_1_388
10
22.7410469
20
52.9326436
40
0.6598608
50
75.4100343
51
90.3802731
0
ARC
8
DEFAULT_255_1_388
10
22.7668714
20
53.0402691
40
0.5492049
50
60.1455157
51
75.1889627
0
ARC
8
DEFAULT_255_1_388
10
22.7847306
20
53.0713914
40
0.5133226
50
26.525419
51
60.1451222
0
ARC
8
DEFAULT_255_1_388
10
22.6587092
20
53.0045642
40
0.6559324
50
7.4029944
51
26.832209
0
ARC
8
DEFAULT_255_1_388
10
22.4793489
20
52.9766229
40
0.8374103
50
0.1605597
51
7.7176135
0
ARC
8
DEFAULT_255_1_388
10
22.4977889
20
52.8906321
40
0.8189782
50
348.7289744
51
0.30125
0
ARC
8
DEFAULT_255_1_388
10
22.6841353
20
52.8536156
40
0.628991
50
333.0706936
51
348.7181455
0
ARC
8
DEFAULT_255_1_388
10
22.7928981
20
52.7945449
40
0.5052808
50
299.2531435
51
333.4571133
0
ARC
8
DEFAULT_255_1_388
10
22.7523012
20
52.8716629
40
0.5924066
50
278.1072193
51
299.0340218
0
ARC
8
DEFAULT_255_1_388
10
22.7235061
20
53.0412979
40
0.7644209
50
270.4446841
51
278.4508355
0
ARC
8
DEFAULT_255_1_388
10
22.7258545
20
52.93673
40
0.5179903
50
269.4969684
51
284.0204874
0
ARC
8
DEFAULT_255_1_388
10
22.7658263
20
52.7831415
40
0.3592968
50
283.7699076
51
318.1557121
0
ARC
8
DEFAULT_255_1_388
10
22.7278808
20
52.8115399
40
0.4065308
50
318.7417595
51
343.687252
0
ARC
8
DEFAULT_255_1_388
10
22.5249387
20
52.8749275
40
0.6191194
50
343.3324891
51
355.8548594
0
ARC
8
DEFAULT_255_1_388
10
22.2888424
20
52.8973719
40
0.856237
50
355.4988754
51
0.0789913
0
ARC
8
DEFAULT_255_1_388
10
22.3769224
20
52.980108
40
0.7681709
50
359.6455047
51
9.8607559
0
ARC
8
DEFAULT_255_1_388
10
22.6424947
20
53.0280664
40
0.498312
50
9.6573037
51
26.1931522
0
ARC
8
DEFAULT_255_1_388
10
22.7469022
20
53.0765587
40
0.3832303
50
26.5777895
51
40.1533752
0
ARC
8
DEFAULT_255_1_388
10
22.7756687
20
53.099002
40
0.3467742
50
40.3839958
51
80.1430923
0
ARC
8
DEFAULT_255_1_388
10
22.7388942
20
52.9359486
40
0.5137832
50
79.2153636
51
89.7445174
0
LINE
8
DEFAULT_255_1_388
10
23.7784772
20
52.8795775
11
23.7784772
21
53.0160157
0
LINE
8
DEFAULT_255_1_388
10
23.7784772
20
53.0160157
11
23.9040727
21
53.0160157
0
LINE
8
DEFAULT_255_1_388
10
23.6899279
20
53.2473282
11
23.5227685
21
53.2473282
0
LINE
8
DEFAULT_255_1_388
10
23.5110221
20
52.6238688
11
23.6790851
21
52.6238688
0
LINE
8
DEFAULT_255_1_388
10
23.9040727
20
52.8795775
11
23.7784772
21
52.8795775
0
ARC
8
DEFAULT_255_1_388
10
23.9007953
20
53.3976922
40
0.3816905
50
270.491971
51
281.8953028
0
ARC
8
DEFAULT_255_1_388
10
23.927938
20
53.2737199
40
0.2547877
50
281.6690378
51
301.2943765
0
ARC
8
DEFAULT_255_1_388
10
23.9470831
20
53.2386926
40
0.2149197
50
301.7834992
51
311.754567
0
ARC
8
DEFAULT_255_1_388
10
23.9573873
20
53.227265
40
0.1995326
50
311.7325027
51
354.2803031
0
ARC
8
DEFAULT_255_1_388
10
23.8756289
20
53.241328
40
0.2823461
50
353.0941646
51
0.1174696
0
ARC
8
DEFAULT_255_1_388
10
23.8237847
20
53.2466874
40
0.3342238
50
359.1804452
51
15.0452323
0
ARC
8
DEFAULT_255_1_388
10
23.9751905
20
53.2908546
40
0.1765747
50
13.957816
51
77.6713812
0
ARC
8
DEFAULT_255_1_388
10
23.9317141
20
53.1350464
40
0.3381982
50
76.111571
51
90.7028736
0
ARC
8
DEFAULT_255_1_388
10
23.9250553
20
53.165825
40
0.3074046
50
89.5321574
51
103.5319393
0
ARC
8
DEFAULT_255_1_388
10
23.9024936
20
53.2557443
40
0.2147041
50
103.2930114
51
133.5619756
0
ARC
8
DEFAULT_255_1_388
10
23.8974878
20
53.2624351
40
0.2064084
50
133.8349761
51
173.5343225
0
ARC
8
DEFAULT_255_1_388
10
23.9788535
20
53.2480144
40
0.2889266
50
172.5097183
51
180.1360699
0
ARC
8
DEFAULT_255_1_388
10
23.8718299
20
53.251888
40
0.3490913
50
155.3483706
51
180.7484035
0
ARC
8
DEFAULT_255_1_388
10
23.8663275
20
53.2486519
40
0.3454798
50
131.5745177
51
154.4799474
0
ARC
8
DEFAULT_255_1_388
10
23.9015558
20
53.2130422
40
0.3955058
50
96.9874487
51
131.9690874
0
ARC
8
DEFAULT_255_1_388
10
23.926245
20
53.0729407
40
0.537622
50
89.8592909
51
97.7827481
0
ARC
8
DEFAULT_255_1_388
10
23.9316559
20
53.043436
40
0.5671399
50
78.3654493
51
90.4132586
0
ARC
8
DEFAULT_255_1_388
10
23.97192
20
53.2300918
40
0.3762034
50
56.6229818
51
78.6387103
0
ARC
8
DEFAULT_255_1_388
10
23.996103
20
53.2723846
40
0.3275964
50
47.0254604
51
56.085558
0
ARC
8
DEFAULT_255_1_388
10
23.9983281
20
53.2768189
40
0.3228382
50
10.9207523
51
46.777927
0
ARC
8
DEFAULT_255_1_388
10
23.8448875
20
53.2413401
40
0.4802559
50
359.6364235
51
11.6087615
0
ARC
8
DEFAULT_255_1_388
10
24.051304
20
53.2396404
40
0.273833
50
332.3549969
51
359.7179765
0
ARC
8
DEFAULT_255_1_388
10
23.9781441
20
53.2743285
40
0.3547505
50
325.2332381
51
332.8746682
0
ARC
8
DEFAULT_255_1_388
10
23.9953024
20
53.2623763
40
0.3338396
50
292.9803892
51
325.2391113
0
ARC
8
DEFAULT_255_1_388
10
23.964222
20
53.3228679
40
0.4016959
50
292.542178
51
293.6931461
0
ARC
8
DEFAULT_255_1_388
10
24.0085791
20
52.5963036
40
0.372079
50
57.643292
51
72.8626085
0
ARC
8
DEFAULT_255_1_388
10
24.0484626
20
52.6609273
40
0.2961455
50
36.7246661
51
57.4701329
0
ARC
8
DEFAULT_255_1_388
10
24.0471783
20
52.662347
40
0.2963321
50
8.054535
51
36.3561529
0
ARC
8
DEFAULT_255_1_388
10
23.9501455
20
52.6449073
40
0.3948682
50
359.8316595
51
8.5873361
0
ARC
8
DEFAULT_255_1_388
10
23.907893
20
52.639497
40
0.4371398
50
343.9831631
51
0.557075
0
ARC
8
DEFAULT_255_1_388
10
24.0075979
20
52.6121963
40
0.3337749
50
311.6358204
51
343.7652116
0
ARC
8
DEFAULT_255_1_388
10
23.9650233
20
52.6601955
40
0.3979351
50
279.7829743
51
311.625622
0
ARC
8
DEFAULT_255_1_388
10
23.9311368
20
52.8218642
40
0.5630417
50
269.7285092
51
280.3857694
0
ARC
8
DEFAULT_255_1_388
10
23.9241681
20
52.8172241
40
0.5584119
50
256.6827433
51
270.4412869
0
ARC
8
DEFAULT_255_1_388
10
23.8860668
20
52.6614698
40
0.3980715
50
229.4223821
51
256.8554507
0
ARC
8
DEFAULT_255_1_388
10
23.8394221
20
52.6089683
40
0.3278564
50
181.8183354
51
229.6455015
0
ARC
8
DEFAULT_255_1_388
10
23.956383
20
52.6236825
40
0.4453611
50
179.9760419
51
183.2330638
0
ARC
8
DEFAULT_255_1_388
10
23.9370383
20
52.6213781
40
0.2579652
50
179.4467996
51
196.2871626
0
ARC
8
DEFAULT_255_1_388
10
23.8821836
20
52.6063709
40
0.2011057
50
196.5661293
51
227.7059371
0
ARC
8
DEFAULT_255_1_388
10
23.9006444
20
52.6270155
40
0.2287994
50
227.7653015
51
257.8763321
0
ARC
8
DEFAULT_255_1_388
10
23.9259527
20
52.7330961
40
0.3378385
50
257.4583525
51
270.4267406
0
ARC
8
DEFAULT_255_1_388
10
23.9310776
20
52.765723
40
0.3704652
50
269.5965319
51
280.8788143
0
ARC
8
DEFAULT_255_1_388
10
23.9569004
20
52.6367529
40
0.2389415
50
280.6347277
51
299.8594068
0
ARC
8
DEFAULT_255_1_388
10
23.9783774
20
52.5959736
40
0.19289
50
300.3575552
51
314.5515667
0
ARC
8
DEFAULT_255_1_388
10
23.969045
20
52.6028025
40
0.204312
50
315.0730962
51
345.0429362
0
ARC
8
DEFAULT_255_1_388
10
23.8651957
20
52.6330539
40
0.31246
50
344.598526
51
357.9270698
0
ARC
8
DEFAULT_255_1_388
10
23.7642262
20
52.6399705
40
0.4136265
50
357.4755098
51
0.0224936
0
ARC
8
DEFAULT_255_1_388
10
23.879514
20
52.6427099
40
0.2983498
50
359.5051035
51
13.4236939
0
ARC
8
DEFAULT_255_1_388
10
23.977023
20
52.6676637
40
0.1977186
50
12.9497905
51
48.7550905
0
ARC
8
DEFAULT_255_1_388
10
23.9565151
20
52.6396373
40
0.2323321
50
49.509109
51
72.1832965
0
ARC
8
DEFAULT_255_1_388
10
23.916262
20
52.5201632
40
0.358397
50
71.9008458
51
84.3555134
0
ARC
8
DEFAULT_255_1_388
10
23.8981014
20
52.3669712
40
0.512641
50
84.019632
51
89.3326067
0
LINE
8
DEFAULT_255_1_388
10
22.7294389
20
60.2144
11
22.3653024
21
60.2144
0
LINE
8
DEFAULT_255_1_388
10
22.3653024
20
60.2144
11
22.3653024
21
61.5299898
0
LINE
8
DEFAULT_255_1_388
10
22.3653024
20
61.5299898
11
22.7366674
21
61.5299898
0
LINE
8
DEFAULT_255_1_388
10
23.3167558
20
60.9164696
11
23.3167558
21
60.8324381
0
LINE
8
DEFAULT_255_1_388
10
22.7411852
20
61.3872267
11
22.5387868
21
61.3872267
0
LINE
8
DEFAULT_255_1_388
10
22.5387868
20
61.3872267
11
22.5387868
21
60.3562596
0
LINE
8
DEFAULT_255_1_388
10
22.5387868
20
60.3562596
11
22.7213068
21
60.3562596
0
LINE
8
DEFAULT_255_1_388
10
23.1450785
20
60.8360523
11
23.1450785
21
60.9128553
0
ARC
8
DEFAULT_255_1_388
10
22.7410469
20
60.8701436
40
0.6598608
50
75.4100343
51
90.3802731
0
ARC
8
DEFAULT_255_1_388
10
22.7668714
20
60.9777691
40
0.5492049
50
60.1455157
51
75.1889627
0
ARC
8
DEFAULT_255_1_388
10
22.7847306
20
61.0088914
40
0.5133226
50
26.525419
51
60.1451222
0
ARC
8
DEFAULT_255_1_388
10
22.6587092
20
60.9420642
40
0.6559324
50
7.4029944
51
26.832209
0
ARC
8
DEFAULT_255_1_388
10
22.4793489
20
60.9141229
40
0.8374103
50
0.1605597
51
7.7176135
0
ARC
8
DEFAULT_255_1_388
10
22.4977889
20
60.8281321
40
0.8189782
50
348.7289744
51
0.30125
0
ARC
8
DEFAULT_255_1_388
10
22.6841353
20
60.7911156
40
0.628991
50
333.0706936
51
348.7181455
0
ARC
8
DEFAULT_255_1_388
10
22.7928981
20
60.7320449
40
0.5052808
50
299.2531435
51
333.4571133
0
ARC
8
DEFAULT_255_1_388
10
22.7523012
20
60.8091629
40
0.5924066
50
278.1072193
51
299.0340218
0
ARC
8
DEFAULT_255_1_388
10
22.7235061
20
60.9787979
40
0.7644209
50
270.4446841
51
278.4508355
0
ARC
8
DEFAULT_255_1_388
10
22.7258545
20
60.87423
40
0.5179903
50
269.4969684
51
284.0204874
0
ARC
8
DEFAULT_255_1_388
10
22.7658263
20
60.7206415
40
0.3592968
50
283.7699076
51
318.1557121
0
ARC
8
DEFAULT_255_1_388
10
22.7278808
20
60.7490399
40
0.4065308
50
318.7417595
51
343.687252
0
ARC
8
DEFAULT_255_1_388
10
22.5249387
20
60.8124275
40
0.6191194
50
343.3324891
51
355.8548594
0
ARC
8
DEFAULT_255_1_388
10
22.2888424
20
60.8348719
40
0.856237
50
355.4988754
51
0.0789913
0
ARC
8
DEFAULT_255_1_388
10
22.3769224
20
60.917608
40
0.7681709
50
359.6455047
51
9.8607559
0
ARC
8
DEFAULT_255_1_388
10
22.6424947
20
60.9655664
40
0.498312
50
9.6573037
51
26.1931522
0
ARC
8
DEFAULT_255_1_388
10
22.7469022
20
61.0140587
40
0.3832303
50
26.5777895
51
40.1533752
0
ARC
8
DEFAULT_255_1_388
10
22.7756687
20
61.036502
40
0.3467742
50
40.3839958
51
80.1430923
0
ARC
8
DEFAULT_255_1_388
10
22.7388942
20
60.8734486
40
0.5137832
50
79.2153636
51
89.7445174
0
LINE
8
DEFAULT_255_1_388
10
24.3974188
20
60.3508382
11
24.3974188
21
60.2144
0
LINE
8
DEFAULT_255_1_388
10
24.3974188
20
60.2144
11
23.5354184
21
60.2144
0
LINE
8
DEFAULT_255_1_388
10
23.5354184
20
60.2144
11
23.5354184
21
60.3345741
0
LINE
8
DEFAULT_255_1_388
10
23.5354184
20
60.3345741
11
23.9908148
21
60.8405702
0
LINE
8
DEFAULT_255_1_388
10
23.677278
20
61.1423607
11
23.5101186
21
61.1423607
0
LINE
8
DEFAULT_255_1_388
10
24.0893034
20
60.733046
11
23.7369132
21
60.3508382
0
LINE
8
DEFAULT_255_1_388
10
23.7369132
20
60.3508382
11
24.3974188
21
60.3508382
0
ARC
8
DEFAULT_255_1_388
10
22.4732208
20
62.1825983
40
2.0258655
50
318.5132526
51
320.7829045
0
ARC
8
DEFAULT_255_1_388
10
23.0680165
20
61.6984929
40
1.2589638
50
320.7372878
51
323.9739031
0
ARC
8
DEFAULT_255_1_388
10
23.5089097
20
61.3790554
40
0.7145141
50
323.8962701
51
328.64194
0
ARC
8
DEFAULT_255_1_388
10
23.7391354
20
61.2370545
40
0.4440242
50
328.8294576
51
331.7891185
0
ARC
8
DEFAULT_255_1_388
10
23.8513674
20
61.1791374
40
0.3177517
50
331.4254512
51
352.9365785
0
ARC
8
DEFAULT_255_1_388
10
23.8666674
20
61.175705
40
0.3021496
50
353.2257659
51
0.0166158
0
ARC
8
DEFAULT_255_1_388
10
23.8903435
20
61.1782894
40
0.2784847
50
359.486299
51
15.9343185
0
ARC
8
DEFAULT_255_1_388
10
23.9473702
20
61.1936269
40
0.2194403
50
16.1712913
51
43.5286088
0
ARC
8
DEFAULT_255_1_388
10
23.9560646
20
61.2023191
40
0.2071504
50
43.4417391
51
83.1661095
0
ARC
8
DEFAULT_255_1_388
10
23.9409807
20
61.1194316
40
0.2912888
50
82.160179
51
90.1505708
0
ARC
8
DEFAULT_255_1_388
10
23.9374289
20
61.0590279
40
0.3517025
50
89.5460741
51
102.5418361
0
ARC
8
DEFAULT_255_1_388
10
23.9101009
20
61.1749933
40
0.2325748
50
102.1738499
51
129.206123
0
ARC
8
DEFAULT_255_1_388
10
23.9012462
20
61.1889664
40
0.2161591
50
129.72865
51
135.753947
0
ARC
8
DEFAULT_255_1_388
10
23.9148944
20
61.1780728
40
0.2335433
50
136.1757367
51
166.3673339
0
ARC
8
DEFAULT_255_1_388
10
24.0281633
20
61.1477148
40
0.3507873
50
165.9090694
51
178.8684636
0
ARC
8
DEFAULT_255_1_388
10
24.1257404
20
61.1424263
40
0.4484624
50
178.4391136
51
180.0083808
0
ARC
8
DEFAULT_255_1_388
10
23.9678106
20
61.1468197
40
0.4577138
50
163.2878482
51
180.5581842
0
ARC
8
DEFAULT_255_1_388
10
23.8776147
20
61.1716393
40
0.3641968
50
133.4540601
51
162.947111
0
ARC
8
DEFAULT_255_1_388
10
23.8977029
20
61.1502789
40
0.3935189
50
100.7869829
51
133.4382499
0
ARC
8
DEFAULT_255_1_388
10
23.9368274
20
60.9760399
40
0.5720313
50
89.660664
51
101.3702276
0
ARC
8
DEFAULT_255_1_388
10
23.9442883
20
60.9829263
40
0.5651495
50
78.2172678
51
90.412935
0
ARC
8
DEFAULT_255_1_388
10
23.9842348
20
61.1656511
40
0.378122
50
55.9269121
51
78.4888449
0
ARC
8
DEFAULT_255_1_388
10
24.0063064
20
61.2037187
40
0.3342379
50
47.929771
51
55.4049217
0
ARC
8
DEFAULT_255_1_388
10
24.0177594
20
61.2153618
40
0.3179217
50
4.334829
51
48.0560205
0
ARC
8
DEFAULT_255_1_388
10
23.8945396
20
61.1962487
40
0.442341
50
359.9251713
51
5.5971671
0
ARC
8
DEFAULT_255_1_388
10
23.942755
20
61.2025728
40
0.3941854
50
337.8914027
51
358.9967534
0
ARC
8
DEFAULT_255_1_388
10
23.637512
20
61.3203295
40
0.7213271
50
326.9132501
51
338.3508308
0
ARC
8
DEFAULT_255_1_388
10
23.1891232
20
61.6077105
40
1.2538973
50
319.6471833
51
327.0959558
0
ARC
8
DEFAULT_255_1_388
10
22.757789
20
61.963505
40
1.8129975
50
317.2588228
51
319.9045804
0
LINE
8
DEFAULT_255_1_388
10
22.7372389
20
68.1519
11
22.3731024
21
68.1519
0
LINE
8
DEFAULT_255_1_388
10
22.3731024
20
68.1519
11
22.3731024
21
69.4674898
0
LINE
8
DEFAULT_255_1_388
10
22.3731024
20
69.4674898
11
22.7444674
21
69.4674898
0
LINE
8
DEFAULT_255_1_388
10
23.3245558
20
68.8539696
11
23.3245558
21
68.7699381
0
LINE
8
DEFAULT_255_1_388
10
22.7489852
20
69.3247267
11
22.5465868
21
69.3247267
0
LINE
8
DEFAULT_255_1_388
10
22.5465868
20
69.3247267
11
22.5465868
21
68.2937596
0
LINE
8
DEFAULT_255_1_388
10
22.5465868
20
68.2937596
11
22.7291068
21
68.2937596
0
LINE
8
DEFAULT_255_1_388
10
23.1528785
20
68.7735523
11
23.1528785
21
68.8503553
0
ARC
8
DEFAULT_255_1_388
10
22.7488469
20
68.8076436
40
0.6598608
50
75.4100343
51
90.3802731
0
ARC
8
DEFAULT_255_1_388
10
22.7746714
20
68.9152691
40
0.5492049
50
60.1455157
51
75.1889627
0
ARC
8
DEFAULT_255_1_388
10
22.7925306
20
68.9463914
40
0.5133226
50
26.525419
51
60.1451222
0
ARC
8
DEFAULT_255_1_388
10
22.6665092
20
68.8795642
40
0.6559324
50
7.4029944
51
26.832209
0
ARC
8
DEFAULT_255_1_388
10
22.4871489
20
68.8516229
40
0.8374103
50
0.1605597
51
7.7176135
0
ARC
8
DEFAULT_255_1_388
10
22.5055889
20
68.7656321
40
0.8189782
50
348.7289744
51
0.30125
0
ARC
8
DEFAULT_255_1_388
10
22.6919353
20
68.7286156
40
0.628991
50
333.0706936
51
348.7181455
0
ARC
8
DEFAULT_255_1_388
10
22.8006981
20
68.6695449
40
0.5052808
50
299.2531435
51
333.4571133
0
ARC
8
DEFAULT_255_1_388
10
22.7601012
20
68.7466629
40
0.5924066
50
278.1072193
51
299.0340218
0
ARC
8
DEFAULT_255_1_388
10
22.7313061
20
68.9162979
40
0.7644209
50
270.4446841
51
278.4508355
0
ARC
8
DEFAULT_255_1_388
10
22.7336545
20
68.81173
40
0.5179903
50
269.4969684
51
284.0204874
0
ARC
8
DEFAULT_255_1_388
10
22.7736263
20
68.6581415
40
0.3592968
50
283.7699076
51
318.1557121
0
ARC
8
DEFAULT_255_1_388
10
22.7356808
20
68.6865399
40
0.4065308
50
318.7417595
51
343.687252
0
ARC
8
DEFAULT_255_1_388
10
22.5327387
20
68.7499275
40
0.6191194
50
343.3324891
51
355.8548594
0
ARC
8
DEFAULT_255_1_388
10
22.2966424
20
68.7723719
40
0.856237
50
355.4988754
51
0.0789913
0
ARC
8
DEFAULT_255_1_388
10
22.3847224
20
68.855108
40
0.7681709
50
359.6455047
51
9.8607559
0
ARC
8
DEFAULT_255_1_388
10
22.6502947
20
68.9030664
40
0.498312
50
9.6573037
51
26.1931522
0
ARC
8
DEFAULT_255_1_388
10
22.7547022
20
68.9515587
40
0.3832303
50
26.5777895
51
40.1533752
0
ARC
8
DEFAULT_255_1_388
10
22.7834687
20
68.974002
40
0.3467742
50
40.3839958
51
80.1430923
0
ARC
8
DEFAULT_255_1_388
10
22.7466942
20
68.8109486
40
0.5137832
50
79.2153636
51
89.7445174
0
LINE
8
DEFAULT_255_1_388
10
24.0925855
20
69.4738148
11
24.0925855
21
68.1519
0
LINE
8
DEFAULT_255_1_388
10
24.0925855
20
68.1519
11
23.9245226
21
68.1519
0
LINE
8
DEFAULT_255_1_388
10
23.9245226
20
68.1519
11
23.9245226
21
69.265995
0
LINE
8
DEFAULT_255_1_388
10
23.9245226
20
69.265995
11
23.587493
21
69.1422066
0
LINE
8
DEFAULT_255_1_388
10
23.587493
20
69.1422066
11
23.587493
21
69.2940055
0
LINE
8
DEFAULT_255_1_388
10
23.587493
20
69.2940055
11
24.0663822
21
69.4738148
0
LINE
8
DEFAULT_255_1_388
10
24.0663822
20
69.4738148
11
24.0925855
21
69.4738148
0
LINE
8
DEFAULT_255_1_388
10
22.7294389
20
76.0894
11
22.3653024
21
76.0894
0
LINE
8
DEFAULT_255_1_388
10
22.3653024
20
76.0894
11
22.3653024
21
77.4049898
0
LINE
8
DEFAULT_255_1_388
10
22.3653024
20
77.4049898
11
22.7366674
21
77.4049898
0
LINE
8
DEFAULT_255_1_388
10
23.3167558
20
76.7914696
11
23.3167558
21
76.7074381
0
LINE
8
DEFAULT_255_1_388
10
22.7411852
20
77.2622267
11
22.5387868
21
77.2622267
0
LINE
8
DEFAULT_255_1_388
10
22.5387868
20
77.2622267
11
22.5387868
21
76.2312596
0
LINE
8
DEFAULT_255_1_388
10
22.5387868
20
76.2312596
11
22.7213068
21
76.2312596
0
LINE
8
DEFAULT_255_1_388
10
23.1450785
20
76.7110523
11
23.1450785
21
76.7878553
0
ARC
8
DEFAULT_255_1_388
10
22.7410469
20
76.7451436
40
0.6598608
50
75.4100343
51
90.3802731
0
ARC
8
DEFAULT_255_1_388
10
22.7668714
20
76.8527691
40
0.5492049
50
60.1455157
51
75.1889627
0
ARC
8
DEFAULT_255_1_388
10
22.7847306
20
76.8838914
40
0.5133226
50
26.525419
51
60.1451222
0
ARC
8
DEFAULT_255_1_388
10
22.6587092
20
76.8170642
40
0.6559324
50
7.4029944
51
26.832209
0
ARC
8
DEFAULT_255_1_388
10
22.4793489
20
76.7891229
40
0.8374103
50
0.1605597
51
7.7176135
0
ARC
8
DEFAULT_255_1_388
10
22.4977889
20
76.7031321
40
0.8189782
50
348.7289744
51
0.30125
0
ARC
8
DEFAULT_255_1_388
10
22.6841353
20
76.6661156
40
0.628991
50
333.0706936
51
348.7181455
0
ARC
8
DEFAULT_255_1_388
10
22.7928981
20
76.6070449
40
0.5052808
50
299.2531435
51
333.4571133
0
ARC
8
DEFAULT_255_1_388
10
22.7523012
20
76.6841629
40
0.5924066
50
278.1072193
51
299.0340218
0
ARC
8
DEFAULT_255_1_388
10
22.7235061
20
76.8537979
40
0.7644209
50
270.4446841
51
278.4508355
0
ARC
8
DEFAULT_255_1_388
10
22.7258545
20
76.74923
40
0.5179903
50
269.4969684
51
284.0204874
0
ARC
8
DEFAULT_255_1_388
10
22.7658263
20
76.5956415
40
0.3592968
50
283.7699076
51
318.1557121
0
ARC
8
DEFAULT_255_1_388
10
22.7278808
20
76.6240399
40
0.4065308
50
318.7417595
51
343.687252
0
ARC
8
DEFAULT_255_1_388
10
22.5249387
20
76.6874275
40
0.6191194
50
343.3324891
51
355.8548594
0
ARC
8
DEFAULT_255_1_388
10
22.2888424
20
76.7098719
40
0.856237
50
355.4988754
51
0.0789913
0
ARC
8
DEFAULT_255_1_388
10
22.3769224
20
76.792608
40
0.7681709
50
359.6455047
51
9.8607559
0
ARC
8
DEFAULT_255_1_388
10
22.6424947
20
76.8405664
40
0.498312
50
9.6573037
51
26.1931522
0
ARC
8
DEFAULT_255_1_388
10
22.7469022
20
76.8890587
40
0.3832303
50
26.5777895
51
40.1533752
0
ARC
8
DEFAULT_255_1_388
10
22.7756687
20
76.911502
40
0.3467742
50
40.3839958
51
80.1430923
0
ARC
8
DEFAULT_255_1_388
10
22.7388942
20
76.7484486
40
0.5137832
50
79.2153636
51
89.7445174
0
LINE
8
DEFAULT_255_1_388
10
24.3603727
20
76.867369
11
24.3603727
21
76.6505135
0
LINE
8
DEFAULT_255_1_388
10
23.529997
20
76.6279244
11
23.529997
21
76.8511048
0
LINE
8
DEFAULT_255_1_388
10
24.1932133
20
76.6053353
11
24.1932133
21
76.8791153
0
LINE
8
DEFAULT_255_1_388
10
23.6971564
20
76.8917652
11
23.6971564
21
76.6243102
0
ARC
8
DEFAULT_255_1_388
10
22.9826061
20
76.6450118
40
1.3777776
50
353.8440855
51
0.2287917
0
ARC
8
DEFAULT_255_1_388
10
23.5045078
20
76.5867414
40
0.852639
50
344.4934746
51
353.9763743
0
ARC
8
DEFAULT_255_1_388
10
23.8411886
20
76.4910191
40
0.5026273
50
329.2803599
51
344.7473406
0
ARC
8
DEFAULT_255_1_388
10
23.9527381
20
76.4298038
40
0.3754848
50
324.9361395
51
328.6153007
0
ARC
8
DEFAULT_255_1_388
10
23.9953031
20
76.4000586
40
0.3235566
50
280.5801797
51
324.9173226
0
ARC
8
DEFAULT_255_1_388
10
23.950166
20
76.5880236
40
0.5167077
50
269.5979457
51
281.6732777
0
ARC
8
DEFAULT_255_1_388
10
23.9420563
20
76.5745113
40
0.5032026
50
256.6228565
51
270.5105488
0
ARC
8
DEFAULT_255_1_388
10
23.8968306
20
76.4003345
40
0.3233092
50
215.8618351
51
257.2787793
0
ARC
8
DEFAULT_255_1_388
10
24.0117013
20
76.4774106
40
0.4615831
50
197.9695203
51
215.2622745
0
ARC
8
DEFAULT_255_1_388
10
24.2912689
20
76.5717641
40
0.7566307
50
187.8816486
51
198.2346584
0
ARC
8
DEFAULT_255_1_388
10
24.7365927
20
76.6360453
40
1.2065653
50
180.8977266
51
188.0054894
0
ARC
8
DEFAULT_255_1_388
10
25.0416141
20
76.64754
40
1.5117443
50
180.7434591
51
181.152202
0
ARC
8
DEFAULT_255_1_388
10
24.8741137
20
76.8565371
40
1.3441277
50
173.7674302
51
180.2315596
0
ARC
8
DEFAULT_255_1_388
10
24.3659005
20
76.9139779
40
0.8326847
50
164.3058537
51
173.9000553
0
ARC
8
DEFAULT_255_1_388
10
24.0383005
20
77.0083652
40
0.4917711
50
148.7922028
51
164.5682288
0
ARC
8
DEFAULT_255_1_388
10
23.9313743
20
77.0680457
40
0.3694204
50
144.5883979
51
148.1161588
0
ARC
8
DEFAULT_255_1_388
10
23.8926488
20
77.0950667
40
0.322202
50
101.6440149
51
144.5142619
0
ARC
8
DEFAULT_255_1_388
10
23.940468
20
76.9050337
40
0.5180451
50
89.528284
51
102.5820197
0
ARC
8
DEFAULT_255_1_388
10
23.9493672
20
76.9006376
40
0.5224441
50
77.0437914
51
90.508231
0
ARC
8
DEFAULT_255_1_388
10
23.9945926
20
77.0854272
40
0.3322297
50
48.2777708
51
77.4996087
0
ARC
8
DEFAULT_255_1_388
10
24.0027666
20
77.0999557
40
0.315966
50
36.3141586
51
47.6307332
0
ARC
8
DEFAULT_255_1_388
10
23.9050388
20
77.0341159
40
0.4337313
50
18.2931065
51
35.6770203
0
ARC
8
DEFAULT_255_1_388
10
23.6189229
20
76.9359107
40
0.7362203
50
8.0246996
51
18.5605636
0
ARC
8
DEFAULT_255_1_388
10
23.1505585
20
76.8667432
40
1.2096583
50
1.127539
51
8.1718423
0
ARC
8
DEFAULT_255_1_388
10
22.7856718
20
76.8524374
40
1.5747719
50
0.5432713
51
1.38669
0
ARC
8
DEFAULT_255_1_388
10
22.9914097
20
76.8831163
40
1.2018103
50
359.8092569
51
4.9408001
0
ARC
8
DEFAULT_255_1_388
10
23.4650678
20
76.92539
40
0.7262727
50
4.8364937
51
12.2906017
0
ARC
8
DEFAULT_255_1_388
10
23.7750143
20
76.9944485
40
0.4087324
50
12.0806994
51
23.8171225
0
ARC
8
DEFAULT_255_1_388
10
23.9070539
20
77.0503508
40
0.2653719
50
24.2874621
51
31.3934353
0
ARC
8
DEFAULT_255_1_388
10
23.9660975
20
77.0889822
40
0.1948607
50
30.7407708
51
82.4658033
0
ARC
8
DEFAULT_255_1_388
10
23.9458635
20
76.9896017
40
0.2961198
50
81.1057101
51
90.2187368
0
ARC
8
DEFAULT_255_1_388
10
23.9418447
20
77.0186421
40
0.2670929
50
89.380395
51
105.6763916
0
ARC
8
DEFAULT_255_1_388
10
23.9212169
20
77.093632
40
0.1893189
50
105.7980655
51
149.7387869
0
ARC
8
DEFAULT_255_1_388
10
24.0409309
20
77.0216719
40
0.3289892
50
149.4208441
51
163.628295
0
ARC
8
DEFAULT_255_1_388
10
24.2761539
20
76.9499345
40
0.5749004
50
163.3764549
51
172.141138
0
ARC
8
DEFAULT_255_1_388
10
24.647426
20
76.8967582
40
0.9499585
50
172.0258462
51
178.0705453
0
ARC
8
DEFAULT_255_1_388
10
24.9895813
20
76.8805682
40
1.2924734
50
177.8639301
51
179.5036263
0
ARC
8
DEFAULT_255_1_388
10
24.8676832
20
76.6202151
40
1.170534
50
179.7995545
51
185.246089
0
ARC
8
DEFAULT_255_1_388
10
24.4128425
20
76.5771404
40
0.7136613
50
185.1411911
51
193.0082205
0
ARC
8
DEFAULT_255_1_388
10
24.1154686
20
76.5068441
40
0.4080987
50
192.7897338
51
205.2507384
0
ARC
8
DEFAULT_255_1_388
10
23.9976896
20
76.4542538
40
0.2791522
50
205.8001921
51
211.2545876
0
ARC
8
DEFAULT_255_1_388
10
23.9388435
20
76.4148132
40
0.2084074
50
210.3789935
51
238.4007996
0
ARC
8
DEFAULT_255_1_388
10
23.9366521
20
76.4200786
40
0.2117943
50
239.6521916
51
265.9793852
0
ARC
8
DEFAULT_255_1_388
10
23.946237
20
76.4957358
40
0.2879689
50
265.1324455
51
270.0603288
0
ARC
8
DEFAULT_255_1_388
10
23.9494747
20
76.4592418
40
0.2514919
50
269.3314378
51
287.2180039
0
ARC
8
DEFAULT_255_1_388
10
23.9649829
20
76.4026291
40
0.1928357
50
287.7957942
51
329.0808983
0
ARC
8
DEFAULT_255_1_388
10
23.8572586
20
76.4698651
40
0.319808
50
328.6635261
51
343.3325043
0
ARC
8
DEFAULT_255_1_388
10
23.6128045
20
76.5460195
40
0.5758408
50
343.0498092
51
351.9392499
0
ARC
8
DEFAULT_255_1_388
10
23.2227366
20
76.6035205
40
0.9701202
50
351.8071632
51
357.7957897
0
ARC
8
DEFAULT_255_1_388
10
22.8592843
20
76.6223724
40
1.3340376
50
357.5870923
51
359.2682493
0
LINE
8
DEFAULT_255_1_388
10
22.693132
20
84.4443468
11
22.8675199
21
84.4443468
0
LINE
8
DEFAULT_255_1_388
10
21.8546242
20
84.6232525
11
21.8546242
21
84.7497516
0
LINE
8
DEFAULT_255_1_388
10
22.8675199
20
84.9196217
11
22.693132
21
84.9196217
0
LINE
8
DEFAULT_255_1_388
10
22.0290121
20
84.7452337
11
22.0290121
21
84.6178312
0
ARC
8
DEFAULT_255_1_388
10
22.2509433
20
84.5115329
40
0.6202263
50
340.1774904
51
353.7812217
0
ARC
8
DEFAULT_255_1_388
10
22.4277286
20
84.4456893
40
0.4315926
50
311.4560052
51
340.4420756
0
ARC
8
DEFAULT_255_1_388
10
22.4239826
20
84.4581665
40
0.4434573
50
282.4332229
51
310.7514507
0
ARC
8
DEFAULT_255_1_388
10
22.3745644
20
84.6623703
40
0.6535262
50
269.9358869
51
282.8096729
0
ARC
8
DEFAULT_255_1_388
10
22.3687583
20
84.8136329
40
0.8048043
50
269.9995752
51
270.3612856
0
ARC
8
DEFAULT_255_1_388
10
22.3628073
20
84.5337781
40
0.5249831
50
250.7885263
51
270.6488451
0
ARC
8
DEFAULT_255_1_388
10
22.3438898
20
84.4620853
40
0.4510942
50
219.3628377
51
250.0611024
0
ARC
8
DEFAULT_255_1_388
10
22.4371772
20
84.5413653
40
0.5735046
50
193.5480293
51
219.5755675
0
ARC
8
DEFAULT_255_1_388
10
22.7039981
20
84.610652
40
0.849146
50
181.1220183
51
193.8754971
0
ARC
8
DEFAULT_255_1_388
10
22.9363214
20
84.6230914
40
1.0816971
50
179.9914644
51
181.5398227
0
ARC
8
DEFAULT_255_1_388
10
22.7286525
20
84.7539586
40
0.8740384
50
169.5837606
51
180.275782
0
ARC
8
DEFAULT_255_1_388
10
22.5219873
20
84.7921439
40
0.6638751
50
155.0367033
51
169.6002779
0
ARC
8
DEFAULT_255_1_388
10
22.3942331
20
84.8537336
40
0.5220662
50
136.7831557
51
155.2472983
0
ARC
8
DEFAULT_255_1_388
10
22.3504122
20
84.8909577
40
0.4646502
50
121.7633063
51
136.4281161
0
ARC
8
DEFAULT_255_1_388
10
22.3655962
20
84.8629049
40
0.4964979
50
95.6460018
51
121.5489589
0
ARC
8
DEFAULT_255_1_388
10
22.3832936
20
84.7381704
40
0.6223912
50
89.9245727
51
96.1375919
0
ARC
8
DEFAULT_255_1_388
10
22.3889641
20
84.7515721
40
0.6090084
50
76.6779212
51
90.456405
0
ARC
8
DEFAULT_255_1_388
10
22.4332454
20
84.930506
40
0.42469
50
47.4858803
51
76.9287069
0
ARC
8
DEFAULT_255_1_388
10
22.4167068
20
84.9192623
40
0.4441778
50
16.5424081
51
46.8934505
0
ARC
8
DEFAULT_255_1_388
10
22.2358118
20
84.8598265
40
0.6345318
50
5.4072971
51
17.0363711
0
ARC
8
DEFAULT_255_1_388
10
22.0739843
20
84.8338304
40
0.6250632
50
7.8888693
51
15.9242022
0
ARC
8
DEFAULT_255_1_388
10
22.2974828
20
84.8987309
40
0.3923364
50
15.7650676
51
27.9410069
0
ARC
8
DEFAULT_255_1_388
10
22.4216997
20
84.9652317
40
0.2514401
50
27.8167196
51
46.4007942
0
ARC
8
DEFAULT_255_1_388
10
22.4272839
20
84.9645882
40
0.2480958
50
47.4372362
51
75.0695672
0
ARC
8
DEFAULT_255_1_388
10
22.3925675
20
84.8437277
40
0.3738281
50
74.7009379
51
87.8124314
0
ARC
8
DEFAULT_255_1_388
10
22.3843292
20
84.7253659
40
0.4924321
50
87.3802571
51
90.0251599
0
ARC
8
DEFAULT_255_1_388
10
22.3799939
20
84.8573997
40
0.3604218
50
89.3451886
51
108.5744412
0
ARC
8
DEFAULT_255_1_388
10
22.3645931
20
84.9151836
40
0.3007661
50
109.2998307
51
143.3037387
0
ARC
8
DEFAULT_255_1_388
10
22.4503221
20
84.8492584
40
0.4089031
50
143.075267
51
163.1918576
0
ARC
8
DEFAULT_255_1_388
10
22.6699055
20
84.7799652
40
0.6391492
50
162.9375929
51
174.6208776
0
ARC
8
DEFAULT_255_1_388
10
22.9653437
20
84.7475711
40
0.9363344
50
174.342123
51
180.1430283
0
ARC
8
DEFAULT_255_1_388
10
22.8605978
20
84.6132117
40
0.8315986
50
179.6817261
51
189.150555
0
ARC
8
DEFAULT_255_1_388
10
22.5792727
20
84.5663559
40
0.5464044
50
188.9911061
51
203.5772363
0
ARC
8
DEFAULT_255_1_388
10
22.4578019
20
84.5159539
40
0.4149206
50
203.9075402
51
215.1312435
0
ARC
8
DEFAULT_255_1_388
10
22.3539817
20
84.4354907
40
0.2837747
50
213.9071511
51
263.8848919
0
ARC
8
DEFAULT_255_1_388
10
22.368081
20
84.5237519
40
0.3730641
50
263.1757928
51
270.1031044
0
ARC
8
DEFAULT_255_1_388
10
22.371689
20
84.6640511
40
0.5133712
50
269.6722503
51
279.0606936
0
ARC
8
DEFAULT_255_1_388
10
22.4017045
20
84.482615
40
0.3294739
50
278.8749101
51
293.6349581
0
ARC
8
DEFAULT_255_1_388
10
22.4377249
20
84.3980251
40
0.2375405
50
293.8553806
51
310.0518171
0
ARC
8
DEFAULT_255_1_388
10
22.4382758
20
84.3910021
40
0.2318463
50
311.0644687
51
332.0111037
0
ARC
8
DEFAULT_255_1_388
10
22.3041431
20
84.4649702
40
0.3850112
50
331.6586806
51
343.2877423
0
ARC
8
DEFAULT_255_1_388
10
22.0720896
20
84.5362806
40
0.6277712
50
343.1446576
51
351.0103568
0
ARC
8
DEFAULT_255_1_388
10
21.908822
20
84.5662873
40
0.7937327
50
350.71248
51
351.1626997
0
LINE
8
DEFAULT_255_1_388
10
23.2903881
20
85.3424898
11
23.2903881
21
84.0269
0
LINE
8
DEFAULT_255_1_388
10
23.2903881
20
84.0269
11
23.1169037
21
84.0269
0
LINE
8
DEFAULT_255_1_388
10
23.1169037
20
84.0269
11
23.1169037
21
85.3424898
0
LINE
8
DEFAULT_255_1_388
10
23.1169037
20
85.3424898
11
23.2903881
21
85.3424898
0
LINE
8
DEFAULT_255_1_388
10
23.7936735
20
85.3424898
11
23.7936735
21
84.0269
0
LINE
8
DEFAULT_255_1_388
10
23.7936735
20
84.0269
11
23.6201891
21
84.0269
0
LINE
8
DEFAULT_255_1_388
10
23.6201891
20
84.0269
11
23.6201891
21
85.3424898
0
LINE
8
DEFAULT_255_1_388
10
23.6201891
20
85.3424898
11
23.7936735
21
85.3424898
0
LINE
8
DEFAULT_255_1_388
10
24.2969589
20
85.3424898
11
24.2969589
21
84.0269
0
LINE
8
DEFAULT_255_1_388
10
24.2969589
20
84.0269
11
24.1234745
21
84.0269
0
LINE
8
DEFAULT_255_1_388
10
24.1234745
20
84.0269
11
24.1234745
21
85.3424898
0
LINE
8
DEFAULT_255_1_388
10
24.1234745
20
85.3424898
11
24.2969589
21
85.3424898
0
LINE
8
DEFAULT_255_1_388
10
22.693132
20
92.3818468
11
22.8675199
21
92.3818468
0
LINE
8
DEFAULT_255_1_388
10
21.8546242
20
92.5607525
11
21.8546242
21
92.6872516
0
LINE
8
DEFAULT_255_1_388
10
22.8675199
20
92.8571217
11
22.693132
21
92.8571217
0
LINE
8
DEFAULT_255_1_388
10
22.0290121
20
92.6827337
11
22.0290121
21
92.5553312
0
ARC
8
DEFAULT_255_1_388
10
22.2509433
20
92.4490329
40
0.6202263
50
340.1774904
51
353.7812217
0
ARC
8
DEFAULT_255_1_388
10
22.4277286
20
92.3831893
40
0.4315926
50
311.4560052
51
340.4420756
0
ARC
8
DEFAULT_255_1_388
10
22.4239826
20
92.3956665
40
0.4434573
50
282.4332229
51
310.7514507
0
ARC
8
DEFAULT_255_1_388
10
22.3745644
20
92.5998703
40
0.6535262
50
269.9358869
51
282.8096729
0
ARC
8
DEFAULT_255_1_388
10
22.3687583
20
92.7511329
40
0.8048043
50
269.9995752
51
270.3612856
0
ARC
8
DEFAULT_255_1_388
10
22.3628073
20
92.4712781
40
0.5249831
50
250.7885263
51
270.6488451
0
ARC
8
DEFAULT_255_1_388
10
22.3438898
20
92.3995853
40
0.4510942
50
219.3628377
51
250.0611024
0
ARC
8
DEFAULT_255_1_388
10
22.4371772
20
92.4788653
40
0.5735046
50
193.5480293
51
219.5755675
0
ARC
8
DEFAULT_255_1_388
10
22.7039981
20
92.548152
40
0.849146
50
181.1220183
51
193.8754971
0
ARC
8
DEFAULT_255_1_388
10
22.9363214
20
92.5605914
40
1.0816971
50
179.9914644
51
181.5398227
0
ARC
8
DEFAULT_255_1_388
10
22.7286525
20
92.6914586
40
0.8740384
50
169.5837606
51
180.275782
0
ARC
8
DEFAULT_255_1_388
10
22.5219873
20
92.7296439
40
0.6638751
50
155.0367033
51
169.6002779
0
ARC
8
DEFAULT_255_1_388
10
22.3942331
20
92.7912336
40
0.5220662
50
136.7831557
51
155.2472983
0
ARC
8
DEFAULT_255_1_388
10
22.3504122
20
92.8284577
40
0.4646502
50
121.7633063
51
136.4281161
0
ARC
8
DEFAULT_255_1_388
10
22.3655962
20
92.8004049
40
0.4964979
50
95.6460018
51
121.5489589
0
ARC
8
DEFAULT_255_1_388
10
22.3832936
20
92.6756704
40
0.6223912
50
89.9245727
51
96.1375919
0
ARC
8
DEFAULT_255_1_388
10
22.3889641
20
92.6890721
40
0.6090084
50
76.6779212
51
90.456405
0
ARC
8
DEFAULT_255_1_388
10
22.4332454
20
92.868006
40
0.42469
50
47.4858803
51
76.9287069
0
ARC
8
DEFAULT_255_1_388
10
22.4167068
20
92.8567623
40
0.4441778
50
16.5424081
51
46.8934505
0
ARC
8
DEFAULT_255_1_388
10
22.2358118
20
92.7973265
40
0.6345318
50
5.4072971
51
17.0363711
0
ARC
8
DEFAULT_255_1_388
10
22.0739843
20
92.7713304
40
0.6250632
50
7.8888693
51
15.9242022
0
ARC
8
DEFAULT_255_1_388
10
22.2974828
20
92.8362309
40
0.3923364
50
15.7650676
51
27.9410069
0
ARC
8
DEFAULT_255_1_388
10
22.4216997
20
92.9027317
40
0.2514401
50
27.8167196
51
46.4007942
0
ARC
8
DEFAULT_255_1_388
10
22.4272839
20
92.9020882
40
0.2480958
50
47.4372362
51
75.0695672
0
ARC
8
DEFAULT_255_1_388
10
22.3925675
20
92.7812277
40
0.3738281
50
74.7009379
51
87.8124314
0
ARC
8
DEFAULT_255_1_388
10
22.3843292
20
92.6628659
40
0.4924321
50
87.3802571
51
90.0251599
0
ARC
8
DEFAULT_255_1_388
10
22.3799939
20
92.7948997
40
0.3604218
50
89.3451886
51
108.5744412
0
ARC
8
DEFAULT_255_1_388
10
22.3645931
20
92.8526836
40
0.3007661
50
109.2998307
51
143.3037387
0
ARC
8
DEFAULT_255_1_388
10
22.4503221
20
92.7867584
40
0.4089031
50
143.075267
51
163.1918576
0
ARC
8
DEFAULT_255_1_388
10
22.6699055
20
92.7174652
40
0.6391492
50
162.9375929
51
174.6208776
0
ARC
8
DEFAULT_255_1_388
10
22.9653437
20
92.6850711
40
0.9363344
50
174.342123
51
180.1430283
0
ARC
8
DEFAULT_255_1_388
10
22.8605978
20
92.5507117
40
0.8315986
50
179.6817261
51
189.150555
0
ARC
8
DEFAULT_255_1_388
10
22.5792727
20
92.5038559
40
0.5464044
50
188.9911061
51
203.5772363
0
ARC
8
DEFAULT_255_1_388
10
22.4578019
20
92.4534539
40
0.4149206
50
203.9075402
51
215.1312435
0
ARC
8
DEFAULT_255_1_388
10
22.3539817
20
92.3729907
40
0.2837747
50
213.9071511
51
263.8848919
0
ARC
8
DEFAULT_255_1_388
10
22.368081
20
92.4612519
40
0.3730641
50
263.1757928
51
270.1031044
0
ARC
8
DEFAULT_255_1_388
10
22.371689
20
92.6015511
40
0.5133712
50
269.6722503
51
279.0606936
0
ARC
8
DEFAULT_255_1_388
10
22.4017045
20
92.420115
40
0.3294739
50
278.8749101
51
293.6349581
0
ARC
8
DEFAULT_255_1_388
10
22.4377249
20
92.3355251
40
0.2375405
50
293.8553806
51
310.0518171
0
ARC
8
DEFAULT_255_1_388
10
22.4382758
20
92.3285021
40
0.2318463
50
311.0644687
51
332.0111037
0
ARC
8
DEFAULT_255_1_388
10
22.3041431
20
92.4024702
40
0.3850112
50
331.6586806
51
343.2877423
0
ARC
8
DEFAULT_255_1_388
10
22.0720896
20
92.4737806
40
0.6277712
50
343.1446576
51
351.0103568
0
ARC
8
DEFAULT_255_1_388
10
21.908822
20
92.5037873
40
0.7937327
50
350.71248
51
351.1626997
0
LINE
8
DEFAULT_255_1_388
10
23.2903881
20
93.2799898
11
23.2903881
21
91.9644
0
LINE
8
DEFAULT_255_1_388
10
23.2903881
20
91.9644
11
23.1169037
21
91.9644
0
LINE
8
DEFAULT_255_1_388
10
23.1169037
20
91.9644
11
23.1169037
21
93.2799898
0
LINE
8
DEFAULT_255_1_388
10
23.1169037
20
93.2799898
11
23.2903881
21
93.2799898
0
LINE
8
DEFAULT_255_1_388
10
23.7936735
20
93.2799898
11
23.7936735
21
91.9644
0
LINE
8
DEFAULT_255_1_388
10
23.7936735
20
91.9644
11
23.6201891
21
91.9644
0
LINE
8
DEFAULT_255_1_388
10
23.6201891
20
91.9644
11
23.6201891
21
93.2799898
0
LINE
8
DEFAULT_255_1_388
10
23.6201891
20
93.2799898
11
23.7936735
21
93.2799898
0
LINE
8
DEFAULT_255_1_388
10
24.2969589
20
93.2799898
11
24.2969589
21
91.9644
0
LINE
8
DEFAULT_255_1_388
10
24.2969589
20
91.9644
11
24.1234745
21
91.9644
0
LINE
8
DEFAULT_255_1_388
10
24.1234745
20
91.9644
11
24.1234745
21
93.2799898
0
LINE
8
DEFAULT_255_1_388
10
24.1234745
20
93.2799898
11
24.2969589
21
93.2799898
0
LINE
8
DEFAULT_255_1_388
10
23.166532
20
100.3193468
11
23.3409199
21
100.3193468
0
LINE
8
DEFAULT_255_1_388
10
22.3280242
20
100.4982525
11
22.3280242
21
100.6247516
0
LINE
8
DEFAULT_255_1_388
10
23.3409199
20
100.7946217
11
23.166532
21
100.7946217
0
LINE
8
DEFAULT_255_1_388
10
22.5024121
20
100.6202337
11
22.5024121
21
100.4928312
0
ARC
8
DEFAULT_255_1_388
10
22.7243433
20
100.3865329
40
0.6202263
50
340.1774904
51
353.7812217
0
ARC
8
DEFAULT_255_1_388
10
22.9011286
20
100.3206893
40
0.4315926
50
311.4560052
51
340.4420756
0
ARC
8
DEFAULT_255_1_388
10
22.8973826
20
100.3331665
40
0.4434573
50
282.4332229
51
310.7514507
0
ARC
8
DEFAULT_255_1_388
10
22.8479644
20
100.5373703
40
0.6535262
50
269.9358869
51
282.8096729
0
ARC
8
DEFAULT_255_1_388
10
22.8421583
20
100.6886329
40
0.8048043
50
269.9995752
51
270.3612856
0
ARC
8
DEFAULT_255_1_388
10
22.8362073
20
100.4087781
40
0.5249831
50
250.7885263
51
270.6488451
0
ARC
8
DEFAULT_255_1_388
10
22.8172898
20
100.3370853
40
0.4510942
50
219.3628377
51
250.0611024
0
ARC
8
DEFAULT_255_1_388
10
22.9105772
20
100.4163653
40
0.5735046
50
193.5480293
51
219.5755675
0
ARC
8
DEFAULT_255_1_388
10
23.1773981
20
100.485652
40
0.849146
50
181.1220183
51
193.8754971
0
ARC
8
DEFAULT_255_1_388
10
23.4097214
20
100.4980914
40
1.0816971
50
179.9914644
51
181.5398227
0
ARC
8
DEFAULT_255_1_388
10
23.2020525
20
100.6289586
40
0.8740384
50
169.5837606
51
180.275782
0
ARC
8
DEFAULT_255_1_388
10
22.9953873
20
100.6671439
40
0.6638751
50
155.0367033
51
169.6002779
0
ARC
8
DEFAULT_255_1_388
10
22.8676331
20
100.7287336
40
0.5220662
50
136.7831557
51
155.2472983
0
ARC
8
DEFAULT_255_1_388
10
22.8238122
20
100.7659577
40
0.4646502
50
121.7633063
51
136.4281161
0
ARC
8
DEFAULT_255_1_388
10
22.8389962
20
100.7379049
40
0.4964979
50
95.6460018
51
121.5489589
0
ARC
8
DEFAULT_255_1_388
10
22.8566936
20
100.6131704
40
0.6223912
50
89.9245727
51
96.1375919
0
ARC
8
DEFAULT_255_1_388
10
22.8623641
20
100.6265721
40
0.6090084
50
76.6779212
51
90.456405
0
ARC
8
DEFAULT_255_1_388
10
22.9066454
20
100.805506
40
0.42469
50
47.4858803
51
76.9287069
0
ARC
8
DEFAULT_255_1_388
10
22.8901068
20
100.7942623
40
0.4441778
50
16.5424081
51
46.8934505
0
ARC
8
DEFAULT_255_1_388
10
22.7092118
20
100.7348265
40
0.6345318
50
5.4072971
51
17.0363711
0
ARC
8
DEFAULT_255_1_388
10
22.5473843
20
100.7088304
40
0.6250632
50
7.8888693
51
15.9242022
0
ARC
8
DEFAULT_255_1_388
10
22.7708828
20
100.7737309
40
0.3923364
50
15.7650676
51
27.9410069
0
ARC
8
DEFAULT_255_1_388
10
22.8950997
20
100.8402317
40
0.2514401
50
27.8167196
51
46.4007942
0
ARC
8
DEFAULT_255_1_388
10
22.9006839
20
100.8395882
40
0.2480958
50
47.4372362
51
75.0695672
0
ARC
8
DEFAULT_255_1_388
10
22.8659675
20
100.7187277
40
0.3738281
50
74.7009379
51
87.8124314
0
ARC
8
DEFAULT_255_1_388
10
22.8577292
20
100.6003659
40
0.4924321
50
87.3802571
51
90.0251599
0
ARC
8
DEFAULT_255_1_388
10
22.8533939
20
100.7323997
40
0.3604218
50
89.3451886
51
108.5744412
0
ARC
8
DEFAULT_255_1_388
10
22.8379931
20
100.7901836
40
0.3007661
50
109.2998307
51
143.3037387
0
ARC
8
DEFAULT_255_1_388
10
22.9237221
20
100.7242584
40
0.4089031
50
143.075267
51
163.1918576
0
ARC
8
DEFAULT_255_1_388
10
23.1433055
20
100.6549652
40
0.6391492
50
162.9375929
51
174.6208776
0
ARC
8
DEFAULT_255_1_388
10
23.4387437
20
100.6225711
40
0.9363344
50
174.342123
51
180.1430283
0
ARC
8
DEFAULT_255_1_388
10
23.3339978
20
100.4882117
40
0.8315986
50
179.6817261
51
189.150555
0
ARC
8
DEFAULT_255_1_388
10
23.0526727
20
100.4413559
40
0.5464044
50
188.9911061
51
203.5772363
0
ARC
8
DEFAULT_255_1_388
10
22.9312019
20
100.3909539
40
0.4149206
50
203.9075402
51
215.1312435
0
ARC
8
DEFAULT_255_1_388
10
22.8273817
20
100.3104907
40
0.2837747
50
213.9071511
51
263.8848919
0
ARC
8
DEFAULT_255_1_388
10
22.841481
20
100.3987519
40
0.3730641
50
263.1757928
51
270.1031044
0
ARC
8
DEFAULT_255_1_388
10
22.845089
20
100.5390511
40
0.5133712
50
269.6722503
51
279.0606936
0
ARC
8
DEFAULT_255_1_388
10
22.8751045
20
100.357615
40
0.3294739
50
278.8749101
51
293.6349581
0
ARC
8
DEFAULT_255_1_388
10
22.9111249
20
100.2730251
40
0.2375405
50
293.8553806
51
310.0518171
0
ARC
8
DEFAULT_255_1_388
10
22.9116758
20
100.2660021
40
0.2318463
50
311.0644687
51
332.0111037
0
ARC
8
DEFAULT_255_1_388
10
22.7775431
20
100.3399702
40
0.3850112
50
331.6586806
51
343.2877423
0
ARC
8
DEFAULT_255_1_388
10
22.5454896
20
100.4112806
40
0.6277712
50
343.1446576
51
351.0103568
0
ARC
8
DEFAULT_255_1_388
10
22.382222
20
100.4412873
40
0.7937327
50
350.71248
51
351.1626997
0
LINE
8
DEFAULT_255_1_388
10
24.3836333
20
101.2174898
11
24.3836333
21
101.1235191
0
LINE
8
DEFAULT_255_1_388
10
24.3836333
20
101.1235191
11
23.8387839
21
99.9019
0
LINE
8
DEFAULT_255_1_388
10
23.8387839
20
99.9019
11
23.6634924
21
99.9019
0
LINE
8
DEFAULT_255_1_388
10
23.6634924
20
99.9019
11
24.2065347
21
101.080148
0
LINE
8
DEFAULT_255_1_388
10
24.2065347
20
101.080148
11
23.4945259
21
101.080148
0
LINE
8
DEFAULT_255_1_388
10
23.4945259
20
101.080148
11
23.4945259
21
101.2174898
0
LINE
8
DEFAULT_255_1_388
10
23.4945259
20
101.2174898
11
24.3836333
21
101.2174898
0
LINE
8
DEFAULT_255_1_388
10
23.166532
20
108.2568468
11
23.3409199
21
108.2568468
0
LINE
8
DEFAULT_255_1_388
10
22.3280242
20
108.4357525
11
22.3280242
21
108.5622516
0
LINE
8
DEFAULT_255_1_388
10
23.3409199
20
108.7321217
11
23.166532
21
108.7321217
0
LINE
8
DEFAULT_255_1_388
10
22.5024121
20
108.5577337
11
22.5024121
21
108.4303312
0
ARC
8
DEFAULT_255_1_388
10
22.7243433
20
108.3240329
40
0.6202263
50
340.1774904
51
353.7812217
0
ARC
8
DEFAULT_255_1_388
10
22.9011286
20
108.2581893
40
0.4315926
50
311.4560052
51
340.4420756
0
ARC
8
DEFAULT_255_1_388
10
22.8973826
20
108.2706665
40
0.4434573
50
282.4332229
51
310.7514507
0
ARC
8
DEFAULT_255_1_388
10
22.8479644
20
108.4748703
40
0.6535262
50
269.9358869
51
282.8096729
0
ARC
8
DEFAULT_255_1_388
10
22.8421583
20
108.6261329
40
0.8048043
50
269.9995752
51
270.3612856
0
ARC
8
DEFAULT_255_1_388
10
22.8362073
20
108.3462781
40
0.5249831
50
250.7885263
51
270.6488451
0
ARC
8
DEFAULT_255_1_388
10
22.8172898
20
108.2745853
40
0.4510942
50
219.3628377
51
250.0611024
0
ARC
8
DEFAULT_255_1_388
10
22.9105772
20
108.3538653
40
0.5735046
50
193.5480293
51
219.5755675
0
ARC
8
DEFAULT_255_1_388
10
23.1773981
20
108.423152
40
0.849146
50
181.1220183
51
193.8754971
0
ARC
8
DEFAULT_255_1_388
10
23.4097214
20
108.4355914
40
1.0816971
50
179.9914644
51
181.5398227
0
ARC
8
DEFAULT_255_1_388
10
23.2020525
20
108.5664586
40
0.8740384
50
169.5837606
51
180.275782
0
ARC
8
DEFAULT_255_1_388
10
22.9953873
20
108.6046439
40
0.6638751
50
155.0367033
51
169.6002779
0
ARC
8
DEFAULT_255_1_388
10
22.8676331
20
108.6662336
40
0.5220662
50
136.7831557
51
155.2472983
0
ARC
8
DEFAULT_255_1_388
10
22.8238122
20
108.7034577
40
0.4646502
50
121.7633063
51
136.4281161
0
ARC
8
DEFAULT_255_1_388
10
22.8389962
20
108.6754049
40
0.4964979
50
95.6460018
51
121.5489589
0
ARC
8
DEFAULT_255_1_388
10
22.8566936
20
108.5506704
40
0.6223912
50
89.9245727
51
96.1375919
0
ARC
8
DEFAULT_255_1_388
10
22.8623641
20
108.5640721
40
0.6090084
50
76.6779212
51
90.456405
0
ARC
8
DEFAULT_255_1_388
10
22.9066454
20
108.743006
40
0.42469
50
47.4858803
51
76.9287069
0
ARC
8
DEFAULT_255_1_388
10
22.8901068
20
108.7317623
40
0.4441778
50
16.5424081
51
46.8934505
0
ARC
8
DEFAULT_255_1_388
10
22.7092118
20
108.6723265
40
0.6345318
50
5.4072971
51
17.0363711
0
ARC
8
DEFAULT_255_1_388
10
22.5473843
20
108.6463304
40
0.6250632
50
7.8888693
51
15.9242022
0
ARC
8
DEFAULT_255_1_388
10
22.7708828
20
108.7112309
40
0.3923364
50
15.7650676
51
27.9410069
0
ARC
8
DEFAULT_255_1_388
10
22.8950997
20
108.7777317
40
0.2514401
50
27.8167196
51
46.4007942
0
ARC
8
DEFAULT_255_1_388
10
22.9006839
20
108.7770882
40
0.2480958
50
47.4372362
51
75.0695672
0
ARC
8
DEFAULT_255_1_388
10
22.8659675
20
108.6562277
40
0.3738281
50
74.7009379
51
87.8124314
0
ARC
8
DEFAULT_255_1_388
10
22.8577292
20
108.5378659
40
0.4924321
50
87.3802571
51
90.0251599
0
ARC
8
DEFAULT_255_1_388
10
22.8533939
20
108.6698997
40
0.3604218
50
89.3451886
51
108.5744412
0
ARC
8
DEFAULT_255_1_388
10
22.8379931
20
108.7276836
40
0.3007661
50
109.2998307
51
143.3037387
0
ARC
8
DEFAULT_255_1_388
10
22.9237221
20
108.6617584
40
0.4089031
50
143.075267
51
163.1918576
0
ARC
8
DEFAULT_255_1_388
10
23.1433055
20
108.5924652
40
0.6391492
50
162.9375929
51
174.6208776
0
ARC
8
DEFAULT_255_1_388
10
23.4387437
20
108.5600711
40
0.9363344
50
174.342123
51
180.1430283
0
ARC
8
DEFAULT_255_1_388
10
23.3339978
20
108.4257117
40
0.8315986
50
179.6817261
51
189.150555
0
ARC
8
DEFAULT_255_1_388
10
23.0526727
20
108.3788559
40
0.5464044
50
188.9911061
51
203.5772363
0
ARC
8
DEFAULT_255_1_388
10
22.9312019
20
108.3284539
40
0.4149206
50
203.9075402
51
215.1312435
0
ARC
8
DEFAULT_255_1_388
10
22.8273817
20
108.2479907
40
0.2837747
50
213.9071511
51
263.8848919
0
ARC
8
DEFAULT_255_1_388
10
22.841481
20
108.3362519
40
0.3730641
50
263.1757928
51
270.1031044
0
ARC
8
DEFAULT_255_1_388
10
22.845089
20
108.4765511
40
0.5133712
50
269.6722503
51
279.0606936
0
ARC
8
DEFAULT_255_1_388
10
22.8751045
20
108.295115
40
0.3294739
50
278.8749101
51
293.6349581
0
ARC
8
DEFAULT_255_1_388
10
22.9111249
20
108.2105251
40
0.2375405
50
293.8553806
51
310.0518171
0
ARC
8
DEFAULT_255_1_388
10
22.9116758
20
108.2035021
40
0.2318463
50
311.0644687
51
332.0111037
0
ARC
8
DEFAULT_255_1_388
10
22.7775431
20
108.2774702
40
0.3850112
50
331.6586806
51
343.2877423
0
ARC
8
DEFAULT_255_1_388
10
22.5454896
20
108.3487806
40
0.6277712
50
343.1446576
51
351.0103568
0
ARC
8
DEFAULT_255_1_388
10
22.382222
20
108.3787873
40
0.7937327
50
350.71248
51
351.1626997
0
LINE
8
DEFAULT_255_1_388
10
24.1604529
20
109.1558934
11
24.1902705
21
109.1558934
0
LINE
8
DEFAULT_255_1_388
10
24.1902705
20
109.1558934
11
24.1902705
21
109.0140338
0
LINE
8
DEFAULT_255_1_388
10
24.1902705
20
109.0140338
11
24.1595493
21
109.0140338
0
LINE
8
DEFAULT_255_1_388
10
23.5442219
20
108.3399747
11
23.5442219
21
108.4041278
0
LINE
8
DEFAULT_255_1_388
10
23.7122849
20
108.3824422
11
23.7122849
21
108.3209999
0
ARC
8
DEFAULT_255_1_388
10
24.1654385
20
108.4517826
40
0.562282
50
90.6001079
51
104.5146616
0
ARC
8
DEFAULT_255_1_388
10
24.1217344
20
108.61431
40
0.3939917
50
104.2855758
51
133.8630124
0
ARC
8
DEFAULT_255_1_388
10
24.1401597
20
108.6021243
40
0.4155734
50
134.5304124
51
161.6210222
0
ARC
8
DEFAULT_255_1_388
10
24.3261529
20
108.5365421
40
0.6127682
50
161.2850533
51
174.2074364
0
ARC
8
DEFAULT_255_1_388
10
24.4851096
20
108.5146437
40
0.7731446
50
173.7817938
51
174.9251711
0
ARC
8
DEFAULT_255_1_388
10
23.972529
20
108.359127
40
0.3412588
50
95.8332067
51
138.995412
0
ARC
8
DEFAULT_255_1_388
10
23.997657
20
108.2152695
40
0.4870358
50
89.8755506
51
97.0540979
0
ARC
8
DEFAULT_255_1_388
10
24.0029959
20
108.3092841
40
0.3930432
50
71.6407016
51
90.6240821
0
ARC
8
DEFAULT_255_1_388
10
24.0199352
20
108.3716433
40
0.3285421
50
39.6368051
51
71.0190743
0
ARC
8
DEFAULT_255_1_388
10
23.948326
20
108.3097586
40
0.4231706
50
10.6588054
51
39.9044509
0
ARC
8
DEFAULT_255_1_388
10
23.7741806
20
108.2719223
40
0.60133
50
359.6827842
51
11.1326896
0
ARC
8
DEFAULT_255_1_388
10
23.7697141
20
108.2639715
40
0.6058047
50
347.2485908
51
0.4371098
0
ARC
8
DEFAULT_255_1_388
10
23.9572927
20
108.2188379
40
0.4128987
50
318.1408565
51
347.6118497
0
ARC
8
DEFAULT_255_1_388
10
23.9938524
20
108.1887903
40
0.3656244
50
275.6342406
51
317.824739
0
ARC
8
DEFAULT_255_1_388
10
23.9690044
20
108.3349827
40
0.513655
50
269.8872513
51
276.7916069
0
ARC
8
DEFAULT_255_1_388
10
23.9628237
20
108.2196181
40
0.398323
50
246.9139443
51
270.7436787
0
ARC
8
DEFAULT_255_1_388
10
23.9635433
20
108.2036044
40
0.3839368
50
218.1665534
51
245.8780431
0
ARC
8
DEFAULT_255_1_388
10
24.0624805
20
108.2863903
40
0.5128958
50
191.4115343
51
218.6077624
0
ARC
8
DEFAULT_255_1_388
10
24.2805121
20
108.3352777
40
0.7363054
50
179.6344971
51
191.7836758
0
ARC
8
DEFAULT_255_1_388
10
24.9084996
20
108.4116495
40
1.3642984
50
171.4523743
51
180.3158856
0
ARC
8
DEFAULT_255_1_388
10
24.4140723
20
108.4885895
40
0.8639311
50
157.9802296
51
171.6246761
0
ARC
8
DEFAULT_255_1_388
10
24.1650073
20
108.5879038
40
0.5958004
50
141.4299236
51
157.8541251
0
ARC
8
DEFAULT_255_1_388
10
24.0928157
20
108.6389746
40
0.5075416
50
102.871586
51
140.8564533
0
ARC
8
DEFAULT_255_1_388
10
24.165671
20
108.3644943
40
0.7914163
50
90.377773
51
103.5868422
0
ARC
8
DEFAULT_255_1_388
10
23.9701231
20
108.2964543
40
0.2667015
50
89.8751238
51
126.2072139
0
ARC
8
DEFAULT_255_1_388
10
23.9752702
20
108.2790847
40
0.2838229
50
124.9742447
51
144.8960197
0
ARC
8
DEFAULT_255_1_388
10
23.9554947
20
108.2951981
40
0.2583845
50
145.2974778
51
160.2660922
0
ARC
8
DEFAULT_255_1_388
10
24.3011435
20
108.3174151
40
0.5888695
50
179.6512124
51
190.285571
0
ARC
8
DEFAULT_255_1_388
10
24.1105915
20
108.2814968
40
0.3949683
50
190.0944895
51
207.5099647
0
ARC
8
DEFAULT_255_1_388
10
24.0469496
20
108.2512177
40
0.3245464
50
207.9585471
51
216.325377
0
ARC
8
DEFAULT_255_1_388
10
24.0087134
20
108.2197712
40
0.2751259
50
215.7661336
51
232.5457193
0
ARC
8
DEFAULT_255_1_388
10
23.9656249
20
108.1650273
40
0.2054668
50
232.8005815
51
270.6605497
0
ARC
8
DEFAULT_255_1_388
10
23.9707674
20
108.2059853
40
0.2464268
50
269.3550767
51
288.474612
0
ARC
8
DEFAULT_255_1_388
10
23.9812181
20
108.1666721
40
0.2058436
50
289.1831976
51
322.9685307
0
ARC
8
DEFAULT_255_1_388
10
23.9124282
20
108.2209279
40
0.2934408
50
322.6007085
51
346.5183319
0
ARC
8
DEFAULT_255_1_388
10
23.7822039
20
108.2541434
40
0.4278249
50
346.2584622
51
358.7739592
0
ARC
8
DEFAULT_255_1_388
10
23.6670614
20
108.2603829
40
0.5430876
50
358.3757628
51
0.0082477
0
ARC
8
DEFAULT_255_1_388
10
23.7527432
20
108.2634856
40
0.4574157
50
359.6211417
51
11.28403
0
ARC
8
DEFAULT_255_1_388
10
23.8964039
20
108.2934535
40
0.3106708
50
11.0483152
51
31.8145585
0
ARC
8
DEFAULT_255_1_388
10
23.9311744
20
108.3123045
40
0.2711963
50
32.3028554
51
38.0820598
0
ARC
8
DEFAULT_255_1_388
10
23.9784977
20
108.3551717
40
0.2075566
50
36.8249851
51
85.741667
0
ARC
8
DEFAULT_255_1_388
10
23.9709389
20
108.2988065
40
0.2643487
50
85.0150021
51
90.050843
0
LINE
8
DEFAULT_255_1_388
10
23.166532
20
116.1943468
11
23.3409199
21
116.1943468
0
LINE
8
DEFAULT_255_1_388
10
22.3280242
20
116.3732525
11
22.3280242
21
116.4997516
0
LINE
8
DEFAULT_255_1_388
10
23.3409199
20
116.6696217
11
23.166532
21
116.6696217
0
LINE
8
DEFAULT_255_1_388
10
22.5024121
20
116.4952337
11
22.5024121
21
116.3678312
0
ARC
8
DEFAULT_255_1_388
10
22.7243433
20
116.2615329
40
0.6202263
50
340.1774904
51
353.7812217
0
ARC
8
DEFAULT_255_1_388
10
22.9011286
20
116.1956893
40
0.4315926
50
311.4560052
51
340.4420756
0
ARC
8
DEFAULT_255_1_388
10
22.8973826
20
116.2081665
40
0.4434573
50
282.4332229
51
310.7514507
0
ARC
8
DEFAULT_255_1_388
10
22.8479644
20
116.4123703
40
0.6535262
50
269.9358869
51
282.8096729
0
ARC
8
DEFAULT_255_1_388
10
22.8421583
20
116.5636329
40
0.8048043
50
269.9995752
51
270.3612856
0
ARC
8
DEFAULT_255_1_388
10
22.8362073
20
116.2837781
40
0.5249831
50
250.7885263
51
270.6488451
0
ARC
8
DEFAULT_255_1_388
10
22.8172898
20
116.2120853
40
0.4510942
50
219.3628377
51
250.0611024
0
ARC
8
DEFAULT_255_1_388
10
22.9105772
20
116.2913653
40
0.5735046
50
193.5480293
51
219.5755675
0
ARC
8
DEFAULT_255_1_388
10
23.1773981
20
116.360652
40
0.849146
50
181.1220183
51
193.8754971
0
ARC
8
DEFAULT_255_1_388
10
23.4097214
20
116.3730914
40
1.0816971
50
179.9914644
51
181.5398227
0
ARC
8
DEFAULT_255_1_388
10
23.2020525
20
116.5039586
40
0.8740384
50
169.5837606
51
180.275782
0
ARC
8
DEFAULT_255_1_388
10
22.9953873
20
116.5421439
40
0.6638751
50
155.0367033
51
169.6002779
0
ARC
8
DEFAULT_255_1_388
10
22.8676331
20
116.6037336
40
0.5220662
50
136.7831557
51
155.2472983
0
ARC
8
DEFAULT_255_1_388
10
22.8238122
20
116.6409577
40
0.4646502
50
121.7633063
51
136.4281161
0
ARC
8
DEFAULT_255_1_388
10
22.8389962
20
116.6129049
40
0.4964979
50
95.6460018
51
121.5489589
0
ARC
8
DEFAULT_255_1_388
10
22.8566936
20
116.4881704
40
0.6223912
50
89.9245727
51
96.1375919
0
ARC
8
DEFAULT_255_1_388
10
22.8623641
20
116.5015721
40
0.6090084
50
76.6779212
51
90.456405
0
ARC
8
DEFAULT_255_1_388
10
22.9066454
20
116.680506
40
0.42469
50
47.4858803
51
76.9287069
0
ARC
8
DEFAULT_255_1_388
10
22.8901068
20
116.6692623
40
0.4441778
50
16.5424081
51
46.8934505
0
ARC
8
DEFAULT_255_1_388
10
22.7092118
20
116.6098265
40
0.6345318
50
5.4072971
51
17.0363711
0
ARC
8
DEFAULT_255_1_388
10
22.5473843
20
116.5838304
40
0.6250632
50
7.8888693
51
15.9242022
0
ARC
8
DEFAULT_255_1_388
10
22.7708828
20
116.6487309
40
0.3923364
50
15.7650676
51
27.9410069
0
ARC
8
DEFAULT_255_1_388
10
22.8950997
20
116.7152317
40
0.2514401
50
27.8167196
51
46.4007942
0
ARC
8
DEFAULT_255_1_388
10
22.9006839
20
116.7145882
40
0.2480958
50
47.4372362
51
75.0695672
0
ARC
8
DEFAULT_255_1_388
10
22.8659675
20
116.5937277
40
0.3738281
50
74.7009379
51
87.8124314
0
ARC
8
DEFAULT_255_1_388
10
22.8577292
20
116.4753659
40
0.4924321
50
87.3802571
51
90.0251599
0
ARC
8
DEFAULT_255_1_388
10
22.8533939
20
116.6073997
40
0.3604218
50
89.3451886
51
108.5744412
0
ARC
8
DEFAULT_255_1_388
10
22.8379931
20
116.6651836
40
0.3007661
50
109.2998307
51
143.3037387
0
ARC
8
DEFAULT_255_1_388
10
22.9237221
20
116.5992584
40
0.4089031
50
143.075267
51
163.1918576
0
ARC
8
DEFAULT_255_1_388
10
23.1433055
20
116.5299652
40
0.6391492
50
162.9375929
51
174.6208776
0
ARC
8
DEFAULT_255_1_388
10
23.4387437
20
116.4975711
40
0.9363344
50
174.342123
51
180.1430283
0
ARC
8
DEFAULT_255_1_388
10
23.3339978
20
116.3632117
40
0.8315986
50
179.6817261
51
189.150555
0
ARC
8
DEFAULT_255_1_388
10
23.0526727
20
116.3163559
40
0.5464044
50
188.9911061
51
203.5772363
0
ARC
8
DEFAULT_255_1_388
10
22.9312019
20
116.2659539
40
0.4149206
50
203.9075402
51
215.1312435
0
ARC
8
DEFAULT_255_1_388
10
22.8273817
20
116.1854907
40
0.2837747
50
213.9071511
51
263.8848919
0
ARC
8
DEFAULT_255_1_388
10
22.841481
20
116.2737519
40
0.3730641
50
263.1757928
51
270.1031044
0
ARC
8
DEFAULT_255_1_388
10
22.845089
20
116.4140511
40
0.5133712
50
269.6722503
51
279.0606936
0
ARC
8
DEFAULT_255_1_388
10
22.8751045
20
116.232615
40
0.3294739
50
278.8749101
51
293.6349581
0
ARC
8
DEFAULT_255_1_388
10
22.9111249
20
116.1480251
40
0.2375405
50
293.8553806
51
310.0518171
0
ARC
8
DEFAULT_255_1_388
10
22.9116758
20
116.1410021
40
0.2318463
50
311.0644687
51
332.0111037
0
ARC
8
DEFAULT_255_1_388
10
22.7775431
20
116.2149702
40
0.3850112
50
331.6586806
51
343.2877423
0
ARC
8
DEFAULT_255_1_388
10
22.5454896
20
116.2862806
40
0.6277712
50
343.1446576
51
351.0103568
0
ARC
8
DEFAULT_255_1_388
10
22.382222
20
116.3162873
40
0.7937327
50
350.71248
51
351.1626997
0
LINE
8
DEFAULT_255_1_388
10
23.7448132
20
116.4021666
11
23.6110857
21
116.4365021
0
LINE
8
DEFAULT_255_1_388
10
23.6110857
20
116.4365021
11
23.6779495
21
117.0924898
0
LINE
8
DEFAULT_255_1_388
10
23.6779495
20
117.0924898
11
24.3520085
21
117.0924898
0
LINE
8
DEFAULT_255_1_388
10
24.3520085
20
117.0924898
11
24.3520085
21
116.9379803
0
LINE
8
DEFAULT_255_1_388
10
24.3520085
20
116.9379803
11
23.8198091
21
116.9379803
0
LINE
8
DEFAULT_255_1_388
10
23.8198091
20
116.9379803
11
23.7800522
21
116.5792652
0
LINE
8
DEFAULT_255_1_388
10
23.5641003
20
116.1229652
11
23.7222241
21
116.1229652
0
LINE
8
DEFAULT_255_1_388
10
23.7890879
20
116.4383092
11
23.7448132
21
116.4021666
0
ARC
8
DEFAULT_255_1_388
10
23.9887136
20
116.2215241
40
0.4141476
50
93.7181681
51
120.253934
0
ARC
8
DEFAULT_255_1_388
10
23.9993188
20
116.1306284
40
0.5055616
50
89.9660471
51
94.2495185
0
ARC
8
DEFAULT_255_1_388
10
24.003901
20
116.1969154
40
0.4392953
50
73.8045384
51
90.5585736
0
ARC
8
DEFAULT_255_1_388
10
24.0303268
20
116.293452
40
0.3392225
50
41.3071072
51
73.543002
0
ARC
8
DEFAULT_255_1_388
10
23.9835088
20
116.2531461
40
0.4009977
50
13.5075837
51
41.2174839
0
ARC
8
DEFAULT_255_1_388
10
23.7988185
20
116.2047907
40
0.5918864
50
1.1330171
51
13.8830737
0
ARC
8
DEFAULT_255_1_388
10
23.6391831
20
116.1962522
40
0.7516787
50
359.9925091
51
1.5431298
0
ARC
8
DEFAULT_255_1_388
10
23.7836446
20
116.1916027
40
0.6072343
50
347.8572712
51
0.4294349
0
ARC
8
DEFAULT_255_1_388
10
23.9805581
20
116.1469898
40
0.4053482
50
323.6727442
51
348.1674594
0
ARC
8
DEFAULT_255_1_388
10
24.0136545
20
116.1268175
40
0.3667495
50
316.8171818
51
323.1486802
0
ARC
8
DEFAULT_255_1_388
10
24.0205669
20
116.1226612
40
0.358869
50
281.839603
51
316.5458142
0
ARC
8
DEFAULT_255_1_388
10
23.9782956
20
116.2976363
40
0.5388223
50
269.5770964
51
282.4214641
0
ARC
8
DEFAULT_255_1_388
10
23.9702877
20
116.273593
40
0.5147801
50
256.2425863
51
270.4486481
0
ARC
8
DEFAULT_255_1_388
10
23.9366405
20
116.1386124
40
0.3756708
50
228.9024379
51
256.33135
0
ARC
8
DEFAULT_255_1_388
10
23.9283385
20
116.1255054
40
0.360344
50
193.7536029
51
228.5272638
0
ARC
8
DEFAULT_255_1_388
10
24.067595
20
116.1663463
40
0.5053599
50
184.9244437
51
194.4976052
0
ARC
8
DEFAULT_255_1_388
10
24.0892591
20
116.1703722
40
0.3700839
50
187.3596909
51
198.6733728
0
ARC
8
DEFAULT_255_1_388
10
23.9711835
20
116.1294373
40
0.2451195
50
198.4453795
51
217.7945479
0
ARC
8
DEFAULT_255_1_388
10
23.9379007
20
116.1058563
40
0.2043754
50
218.2887146
51
228.5613203
0
ARC
8
DEFAULT_255_1_388
10
23.9489014
20
116.1206902
40
0.2227819
50
228.9652423
51
258.1237049
0
ARC
8
DEFAULT_255_1_388
10
23.9720452
20
116.2197964
40
0.3245374
50
257.7260585
51
270.4013717
0
ARC
8
DEFAULT_255_1_388
10
23.977095
20
116.1697255
40
0.2744726
50
269.4204315
51
286.420998
0
ARC
8
DEFAULT_255_1_388
10
23.9938005
20
116.1090705
40
0.2115721
50
286.7250065
51
320.6004665
0
ARC
8
DEFAULT_255_1_388
10
23.9506921
20
116.1440527
40
0.2670878
50
320.6712228
51
344.5440474
0
ARC
8
DEFAULT_255_1_388
10
23.8205635
20
116.1822394
40
0.4026927
50
344.241448
51
356.735803
0
ARC
8
DEFAULT_255_1_388
10
23.6801942
20
116.1938656
40
0.5435085
50
356.3547471
51
0.0507222
0
ARC
8
DEFAULT_255_1_388
10
23.8304207
20
116.1973812
40
0.3932934
50
359.5579289
51
12.9534322
0
ARC
8
DEFAULT_255_1_388
10
23.9491047
20
116.2261586
40
0.2711827
50
12.6489751
51
41.608121
0
ARC
8
DEFAULT_255_1_388
10
23.9750207
20
116.2481946
40
0.2371737
50
41.7851122
51
85.9892156
0
ARC
8
DEFAULT_255_1_388
10
23.9611517
20
116.1566738
40
0.3295244
50
84.6965848
51
90.0672125
0
ARC
8
DEFAULT_255_1_388
10
23.9585084
20
116.0815118
40
0.4046926
50
89.6804991
51
99.161352
0
ARC
8
DEFAULT_255_1_388
10
23.9354094
20
116.2195848
40
0.2647044
50
98.9836248
51
113.8905702
0
ARC
8
DEFAULT_255_1_388
10
23.9095769
20
116.2805118
40
0.1985386
50
114.195234
51
127.3641866
0
LINE
8
DEFAULT_255_1_388
10
23.034232
20
124.1318468
11
23.2086199
21
124.1318468
0
LINE
8
DEFAULT_255_1_388
10
22.1957242
20
124.3107525
11
22.1957242
21
124.4372516
0
LINE
8
DEFAULT_255_1_388
10
23.2086199
20
124.6071217
11
23.034232
21
124.6071217
0
LINE
8
DEFAULT_255_1_388
10
22.3701121
20
124.4327337
11
22.3701121
21
124.3053312
0
ARC
8
DEFAULT_255_1_388
10
22.5920433
20
124.1990329
40
0.6202263
50
340.1774904
51
353.7812217
0
ARC
8
DEFAULT_255_1_388
10
22.7688286
20
124.1331893
40
0.4315926
50
311.4560052
51
340.4420756
0
ARC
8
DEFAULT_255_1_388
10
22.7650826
20
124.1456665
40
0.4434573
50
282.4332229
51
310.7514507
0
ARC
8
DEFAULT_255_1_388
10
22.7156644
20
124.3498703
40
0.6535262
50
269.9358869
51
282.8096729
0
ARC
8
DEFAULT_255_1_388
10
22.7098583
20
124.5011329
40
0.8048043
50
269.9995752
51
270.3612856
0
ARC
8
DEFAULT_255_1_388
10
22.7039073
20
124.2212781
40
0.5249831
50
250.7885263
51
270.6488451
0
ARC
8
DEFAULT_255_1_388
10
22.6849898
20
124.1495853
40
0.4510942
50
219.3628377
51
250.0611024
0
ARC
8
DEFAULT_255_1_388
10
22.7782772
20
124.2288653
40
0.5735046
50
193.5480293
51
219.5755675
0
ARC
8
DEFAULT_255_1_388
10
23.0450981
20
124.298152
40
0.849146
50
181.1220183
51
193.8754971
0
ARC
8
DEFAULT_255_1_388
10
23.2774214
20
124.3105914
40
1.0816971
50
179.9914644
51
181.5398227
0
ARC
8
DEFAULT_255_1_388
10
23.0697525
20
124.4414586
40
0.8740384
50
169.5837606
51
180.275782
0
ARC
8
DEFAULT_255_1_388
10
22.8630873
20
124.4796439
40
0.6638751
50
155.0367033
51
169.6002779
0
ARC
8
DEFAULT_255_1_388
10
22.7353331
20
124.5412336
40
0.5220662
50
136.7831557
51
155.2472983
0
ARC
8
DEFAULT_255_1_388
10
22.6915122
20
124.5784577
40
0.4646502
50
121.7633063
51
136.4281161
0
ARC
8
DEFAULT_255_1_388
10
22.7066962
20
124.5504049
40
0.4964979
50
95.6460018
51
121.5489589
0
ARC
8
DEFAULT_255_1_388
10
22.7243936
20
124.4256704
40
0.6223912
50
89.9245727
51
96.1375919
0
ARC
8
DEFAULT_255_1_388
10
22.7300641
20
124.4390721
40
0.6090084
50
76.6779212
51
90.456405
0
ARC
8
DEFAULT_255_1_388
10
22.7743454
20
124.618006
40
0.42469
50
47.4858803
51
76.9287069
0
ARC
8
DEFAULT_255_1_388
10
22.7578068
20
124.6067623
40
0.4441778
50
16.5424081
51
46.8934505
0
ARC
8
DEFAULT_255_1_388
10
22.5769118
20
124.5473265
40
0.6345318
50
5.4072971
51
17.0363711
0
ARC
8
DEFAULT_255_1_388
10
22.4150843
20
124.5213304
40
0.6250632
50
7.8888693
51
15.9242022
0
ARC
8
DEFAULT_255_1_388
10
22.6385828
20
124.5862309
40
0.3923364
50
15.7650676
51
27.9410069
0
ARC
8
DEFAULT_255_1_388
10
22.7627997
20
124.6527317
40
0.2514401
50
27.8167196
51
46.4007942
0
ARC
8
DEFAULT_255_1_388
10
22.7683839
20
124.6520882
40
0.2480958
50
47.4372362
51
75.0695672
0
ARC
8
DEFAULT_255_1_388
10
22.7336675
20
124.5312277
40
0.3738281
50
74.7009379
51
87.8124314
0
ARC
8
DEFAULT_255_1_388
10
22.7254292
20
124.4128659
40
0.4924321
50
87.3802571
51
90.0251599
0
ARC
8
DEFAULT_255_1_388
10
22.7210939
20
124.5448997
40
0.3604218
50
89.3451886
51
108.5744412
0
ARC
8
DEFAULT_255_1_388
10
22.7056931
20
124.6026836
40
0.3007661
50
109.2998307
51
143.3037387
0
ARC
8
DEFAULT_255_1_388
10
22.7914221
20
124.5367584
40
0.4089031
50
143.075267
51
163.1918576
0
ARC
8
DEFAULT_255_1_388
10
23.0110055
20
124.4674652
40
0.6391492
50
162.9375929
51
174.6208776
0
ARC
8
DEFAULT_255_1_388
10
23.3064437
20
124.4350711
40
0.9363344
50
174.342123
51
180.1430283
0
ARC
8
DEFAULT_255_1_388
10
23.2016978
20
124.3007117
40
0.8315986
50
179.6817261
51
189.150555
0
ARC
8
DEFAULT_255_1_388
10
22.9203727
20
124.2538559
40
0.5464044
50
188.9911061
51
203.5772363
0
ARC
8
DEFAULT_255_1_388
10
22.7989019
20
124.2034539
40
0.4149206
50
203.9075402
51
215.1312435
0
ARC
8
DEFAULT_255_1_388
10
22.6950817
20
124.1229907
40
0.2837747
50
213.9071511
51
263.8848919
0
ARC
8
DEFAULT_255_1_388
10
22.709181
20
124.2112519
40
0.3730641
50
263.1757928
51
270.1031044
0
ARC
8
DEFAULT_255_1_388
10
22.712789
20
124.3515511
40
0.5133712
50
269.6722503
51
279.0606936
0
ARC
8
DEFAULT_255_1_388
10
22.7428045
20
124.170115
40
0.3294739
50
278.8749101
51
293.6349581
0
ARC
8
DEFAULT_255_1_388
10
22.7788249
20
124.0855251
40
0.2375405
50
293.8553806
51
310.0518171
0
ARC
8
DEFAULT_255_1_388
10
22.7793758
20
124.0785021
40
0.2318463
50
311.0644687
51
332.0111037
0
ARC
8
DEFAULT_255_1_388
10
22.6452431
20
124.1524702
40
0.3850112
50
331.6586806
51
343.2877423
0
ARC
8
DEFAULT_255_1_388
10
22.4131896
20
124.2237806
40
0.6277712
50
343.1446576
51
351.0103568
0
ARC
8
DEFAULT_255_1_388
10
22.249922
20
124.2537873
40
0.7937327
50
350.71248
51
351.1626997
0
LINE
8
DEFAULT_255_1_388
10
24.1076666
20
125.0299898
11
24.1076666
21
124.156243
0
LINE
8
DEFAULT_255_1_388
10
24.1076666
20
124.156243
11
24.2901866
21
124.156243
0
LINE
8
DEFAULT_255_1_388
10
24.2901866
20
124.156243
11
24.2901866
21
124.0198048
0
LINE
8
DEFAULT_255_1_388
10
24.2901866
20
124.0198048
11
24.1076666
21
124.0198048
0
LINE
8
DEFAULT_255_1_388
10
24.1076666
20
124.0198048
11
24.1076666
21
123.7144
0
LINE
8
DEFAULT_255_1_388
10
24.1076666
20
123.7144
11
23.9396036
21
123.7144
0
LINE
8
DEFAULT_255_1_388
10
23.9396036
20
123.7144
11
23.9396036
21
124.0198048
0
LINE
8
DEFAULT_255_1_388
10
23.9396036
20
124.0198048
11
23.3405403
21
124.0198048
0
LINE
8
DEFAULT_255_1_388
10
23.3405403
20
124.0198048
11
23.3405403
21
124.1182933
0
LINE
8
DEFAULT_255_1_388
10
23.3405403
20
124.1182933
11
23.9296644
21
125.0299898
0
LINE
8
DEFAULT_255_1_388
10
23.9296644
20
125.0299898
11
24.1076666
21
125.0299898
0
LINE
8
DEFAULT_255_1_388
10
23.9197251
20
124.7652455
11
23.5302889
21
124.156243
0
LINE
8
DEFAULT_255_1_388
10
23.5302889
20
124.156243
11
23.9396036
21
124.156243
0
LINE
8
DEFAULT_255_1_388
10
23.9396036
20
124.156243
11
23.9396036
21
124.801388
0
LINE
8
DEFAULT_255_1_388
10
23.9396036
20
124.801388
11
23.9197251
21
124.7652455
0
LINE
8
DEFAULT_255_1_388
10
23.166532
20
132.0693468
11
23.3409199
21
132.0693468
0
LINE
8
DEFAULT_255_1_388
10
22.3280242
20
132.2482525
11
22.3280242
21
132.3747516
0
LINE
8
DEFAULT_255_1_388
10
23.3409199
20
132.5446217
11
23.166532
21
132.5446217
0
LINE
8
DEFAULT_255_1_388
10
22.5024121
20
132.3702337
11
22.5024121
21
132.2428312
0
ARC
8
DEFAULT_255_1_388
10
22.7243433
20
132.1365329
40
0.6202263
50
340.1774904
51
353.7812217
0
ARC
8
DEFAULT_255_1_388
10
22.9011286
20
132.0706893
40
0.4315926
50
311.4560052
51
340.4420756
0
ARC
8
DEFAULT_255_1_388
10
22.8973826
20
132.0831665
40
0.4434573
50
282.4332229
51
310.7514507
0
ARC
8
DEFAULT_255_1_388
10
22.8479644
20
132.2873703
40
0.6535262
50
269.9358869
51
282.8096729
0
ARC
8
DEFAULT_255_1_388
10
22.8421583
20
132.4386329
40
0.8048043
50
269.9995752
51
270.3612856
0
ARC
8
DEFAULT_255_1_388
10
22.8362073
20
132.1587781
40
0.5249831
50
250.7885263
51
270.6488451
0
ARC
8
DEFAULT_255_1_388
10
22.8172898
20
132.0870853
40
0.4510942
50
219.3628377
51
250.0611024
0
ARC
8
DEFAULT_255_1_388
10
22.9105772
20
132.1663653
40
0.5735046
50
193.5480293
51
219.5755675
0
ARC
8
DEFAULT_255_1_388
10
23.1773981
20
132.235652
40
0.849146
50
181.1220183
51
193.8754971
0
ARC
8
DEFAULT_255_1_388
10
23.4097214
20
132.2480914
40
1.0816971
50
179.9914644
51
181.5398227
0
ARC
8
DEFAULT_255_1_388
10
23.2020525
20
132.3789586
40
0.8740384
50
169.5837606
51
180.275782
0
ARC
8
DEFAULT_255_1_388
10
22.9953873
20
132.4171439
40
0.6638751
50
155.0367033
51
169.6002779
0
ARC
8
DEFAULT_255_1_388
10
22.8676331
20
132.4787336
40
0.5220662
50
136.7831557
51
155.2472983
0
ARC
8
DEFAULT_255_1_388
10
22.8238122
20
132.5159577
40
0.4646502
50
121.7633063
51
136.4281161
0
ARC
8
DEFAULT_255_1_388
10
22.8389962
20
132.4879049
40
0.4964979
50
95.6460018
51
121.5489589
0
ARC
8
DEFAULT_255_1_388
10
22.8566936
20
132.3631704
40
0.6223912
50
89.9245727
51
96.1375919
0
ARC
8
DEFAULT_255_1_388
10
22.8623641
20
132.3765721
40
0.6090084
50
76.6779212
51
90.456405
0
ARC
8
DEFAULT_255_1_388
10
22.9066454
20
132.555506
40
0.42469
50
47.4858803
51
76.9287069
0
ARC
8
DEFAULT_255_1_388
10
22.8901068
20
132.5442623
40
0.4441778
50
16.5424081
51
46.8934505
0
ARC
8
DEFAULT_255_1_388
10
22.7092118
20
132.4848265
40
0.6345318
50
5.4072971
51
17.0363711
0
ARC
8
DEFAULT_255_1_388
10
22.5473843
20
132.4588304
40
0.6250632
50
7.8888693
51
15.9242022
0
ARC
8
DEFAULT_255_1_388
10
22.7708828
20
132.5237309
40
0.3923364
50
15.7650676
51
27.9410069
0
ARC
8
DEFAULT_255_1_388
10
22.8950997
20
132.5902317
40
0.2514401
50
27.8167196
51
46.4007942
0
ARC
8
DEFAULT_255_1_388
10
22.9006839
20
132.5895882
40
0.2480958
50
47.4372362
51
75.0695672
0
ARC
8
DEFAULT_255_1_388
10
22.8659675
20
132.4687277
40
0.3738281
50
74.7009379
51
87.8124314
0
ARC
8
DEFAULT_255_1_388
10
22.8577292
20
132.3503659
40
0.4924321
50
87.3802571
51
90.0251599
0
ARC
8
DEFAULT_255_1_388
10
22.8533939
20
132.4823997
40
0.3604218
50
89.3451886
51
108.5744412
0
ARC
8
DEFAULT_255_1_388
10
22.8379931
20
132.5401836
40
0.3007661
50
109.2998307
51
143.3037387
0
ARC
8
DEFAULT_255_1_388
10
22.9237221
20
132.4742584
40
0.4089031
50
143.075267
51
163.1918576
0
ARC
8
DEFAULT_255_1_388
10
23.1433055
20
132.4049652
40
0.6391492
50
162.9375929
51
174.6208776
0
ARC
8
DEFAULT_255_1_388
10
23.4387437
20
132.3725711
40
0.9363344
50
174.342123
51
180.1430283
0
ARC
8
DEFAULT_255_1_388
10
23.3339978
20
132.2382117
40
0.8315986
50
179.6817261
51
189.150555
0
ARC
8
DEFAULT_255_1_388
10
23.0526727
20
132.1913559
40
0.5464044
50
188.9911061
51
203.5772363
0
ARC
8
DEFAULT_255_1_388
10
22.9312019
20
132.1409539
40
0.4149206
50
203.9075402
51
215.1312435
0
ARC
8
DEFAULT_255_1_388
10
22.8273817
20
132.0604907
40
0.2837747
50
213.9071511
51
263.8848919
0
ARC
8
DEFAULT_255_1_388
10
22.841481
20
132.1487519
40
0.3730641
50
263.1757928
51
270.1031044
0
ARC
8
DEFAULT_255_1_388
10
22.845089
20
132.2890511
40
0.5133712
50
269.6722503
51
279.0606936
0
ARC
8
DEFAULT_255_1_388
10
22.8751045
20
132.107615
40
0.3294739
50
278.8749101
51
293.6349581
0
ARC
8
DEFAULT_255_1_388
10
22.9111249
20
132.0230251
40
0.2375405
50
293.8553806
51
310.0518171
0
ARC
8
DEFAULT_255_1_388
10
22.9116758
20
132.0160021
40
0.2318463
50
311.0644687
51
332.0111037
0
ARC
8
DEFAULT_255_1_388
10
22.7775431
20
132.0899702
40
0.3850112
50
331.6586806
51
343.2877423
0
ARC
8
DEFAULT_255_1_388
10
22.5454896
20
132.1612806
40
0.6277712
50
343.1446576
51
351.0103568
0
ARC
8
DEFAULT_255_1_388
10
22.382222
20
132.1912873
40
0.7937327
50
350.71248
51
351.1626997
0
LINE
8
DEFAULT_255_1_388
10
23.7773416
20
132.2545775
11
23.7773416
21
132.3910157
0
LINE
8
DEFAULT_255_1_388
10
23.7773416
20
132.3910157
11
23.902937
21
132.3910157
0
LINE
8
DEFAULT_255_1_388
10
23.6887922
20
132.6223282
11
23.5216328
21
132.6223282
0
LINE
8
DEFAULT_255_1_388
10
23.5098865
20
131.9988688
11
23.6779495
21
131.9988688
0
LINE
8
DEFAULT_255_1_388
10
23.902937
20
132.2545775
11
23.7773416
21
132.2545775
0
ARC
8
DEFAULT_255_1_388
10
23.8996597
20
132.7726922
40
0.3816905
50
270.491971
51
281.8953028
0
ARC
8
DEFAULT_255_1_388
10
23.9268024
20
132.6487199
40
0.2547877
50
281.6690378
51
301.2943765
0
ARC
8
DEFAULT_255_1_388
10
23.9459475
20
132.6136926
40
0.2149197
50
301.7834992
51
311.754567
0
ARC
8
DEFAULT_255_1_388
10
23.9562516
20
132.602265
40
0.1995326
50
311.7325027
51
354.2803031
0
ARC
8
DEFAULT_255_1_388
10
23.8744932
20
132.616328
40
0.2823461
50
353.0941646
51
0.1174696
0
ARC
8
DEFAULT_255_1_388
10
23.822649
20
132.6216874
40
0.3342238
50
359.1804452
51
15.0452323
0
ARC
8
DEFAULT_255_1_388
10
23.9740548
20
132.6658546
40
0.1765747
50
13.957816
51
77.6713812
0
ARC
8
DEFAULT_255_1_388
10
23.9305784
20
132.5100464
40
0.3381982
50
76.111571
51
90.7028736
0
ARC
8
DEFAULT_255_1_388
10
23.9239196
20
132.540825
40
0.3074046
50
89.5321574
51
103.5319393
0
ARC
8
DEFAULT_255_1_388
10
23.901358
20
132.6307443
40
0.2147041
50
103.2930114
51
133.5619756
0
ARC
8
DEFAULT_255_1_388
10
23.8963522
20
132.6374351
40
0.2064084
50
133.8349761
51
173.5343225
0
ARC
8
DEFAULT_255_1_388
10
23.9777179
20
132.6230144
40
0.2889266
50
172.5097183
51
180.1360699
0
ARC
8
DEFAULT_255_1_388
10
23.8706943
20
132.626888
40
0.3490913
50
155.3483706
51
180.7484035
0
ARC
8
DEFAULT_255_1_388
10
23.8651919
20
132.6236519
40
0.3454798
50
131.5745177
51
154.4799474
0
ARC
8
DEFAULT_255_1_388
10
23.9004201
20
132.5880422
40
0.3955058
50
96.9874487
51
131.9690874
0
ARC
8
DEFAULT_255_1_388
10
23.9251094
20
132.4479407
40
0.537622
50
89.8592909
51
97.7827481
0
ARC
8
DEFAULT_255_1_388
10
23.9305203
20
132.418436
40
0.5671399
50
78.3654493
51
90.4132586
0
ARC
8
DEFAULT_255_1_388
10
23.9707844
20
132.6050918
40
0.3762034
50
56.6229818
51
78.6387103
0
ARC
8
DEFAULT_255_1_388
10
23.9949673
20
132.6473846
40
0.3275964
50
47.0254604
51
56.085558
0
ARC
8
DEFAULT_255_1_388
10
23.9971924
20
132.6518189
40
0.3228382
50
10.9207523
51
46.777927
0
ARC
8
DEFAULT_255_1_388
10
23.8437518
20
132.6163401
40
0.4802559
50
359.6364235
51
11.6087615
0
ARC
8
DEFAULT_255_1_388
10
24.0501684
20
132.6146404
40
0.273833
50
332.3549969
51
359.7179765
0
ARC
8
DEFAULT_255_1_388
10
23.9770084
20
132.6493285
40
0.3547505
50
325.2332381
51
332.8746682
0
ARC
8
DEFAULT_255_1_388
10
23.9941667
20
132.6373763
40
0.3338396
50
292.9803892
51
325.2391113
0
ARC
8
DEFAULT_255_1_388
10
23.9630863
20
132.6978679
40
0.4016959
50
292.542178
51
293.6931461
0
ARC
8
DEFAULT_255_1_388
10
24.0074435
20
131.9713036
40
0.372079
50
57.643292
51
72.8626085
0
ARC
8
DEFAULT_255_1_388
10
24.047327
20
132.0359273
40
0.2961455
50
36.7246661
51
57.4701329
0
ARC
8
DEFAULT_255_1_388
10
24.0460426
20
132.037347
40
0.2963321
50
8.054535
51
36.3561529
0
ARC
8
DEFAULT_255_1_388
10
23.9490099
20
132.0199073
40
0.3948682
50
359.8316595
51
8.5873361
0
ARC
8
DEFAULT_255_1_388
10
23.9067573
20
132.014497
40
0.4371398
50
343.9831631
51
0.557075
0
ARC
8
DEFAULT_255_1_388
10
24.0064623
20
131.9871963
40
0.3337749
50
311.6358204
51
343.7652116
0
ARC
8
DEFAULT_255_1_388
10
23.9638876
20
132.0351955
40
0.3979351
50
279.7829743
51
311.625622
0
ARC
8
DEFAULT_255_1_388
10
23.9300012
20
132.1968642
40
0.5630417
50
269.7285092
51
280.3857694
0
ARC
8
DEFAULT_255_1_388
10
23.9230325
20
132.1922241
40
0.5584119
50
256.6827433
51
270.4412869
0
ARC
8
DEFAULT_255_1_388
10
23.8849311
20
132.0364698
40
0.3980715
50
229.4223821
51
256.8554507
0
ARC
8
DEFAULT_255_1_388
10
23.8382864
20
131.9839683
40
0.3278564
50
181.8183354
51
229.6455015
0
ARC
8
DEFAULT_255_1_388
10
23.9552474
20
131.9986825
40
0.4453611
50
179.9760419
51
183.2330638
0
ARC
8
DEFAULT_255_1_388
10
23.9359026
20
131.9963781
40
0.2579652
50
179.4467996
51
196.2871626
0
ARC
8
DEFAULT_255_1_388
10
23.881048
20
131.9813709
40
0.2011057
50
196.5661293
51
227.7059371
0
ARC
8
DEFAULT_255_1_388
10
23.8995087
20
132.0020155
40
0.2287994
50
227.7653015
51
257.8763321
0
ARC
8
DEFAULT_255_1_388
10
23.924817
20
132.1080961
40
0.3378385
50
257.4583525
51
270.4267406
0
ARC
8
DEFAULT_255_1_388
10
23.929942
20
132.140723
40
0.3704652
50
269.5965319
51
280.8788143
0
ARC
8
DEFAULT_255_1_388
10
23.9557648
20
132.0117529
40
0.2389415
50
280.6347277
51
299.8594068
0
ARC
8
DEFAULT_255_1_388
10
23.9772418
20
131.9709736
40
0.19289
50
300.3575552
51
314.5515667
0
ARC
8
DEFAULT_255_1_388
10
23.9679093
20
131.9778025
40
0.204312
50
315.0730962
51
345.0429362
0
ARC
8
DEFAULT_255_1_388
10
23.8640601
20
132.0080539
40
0.31246
50
344.598526
51
357.9270698
0
ARC
8
DEFAULT_255_1_388
10
23.7630906
20
132.0149705
40
0.4136265
50
357.4755098
51
0.0224936
0
ARC
8
DEFAULT_255_1_388
10
23.8783783
20
132.0177099
40
0.2983498
50
359.5051035
51
13.4236939
0
ARC
8
DEFAULT_255_1_388
10
23.9758873
20
132.0426637
40
0.1977186
50
12.9497905
51
48.7550905
0
ARC
8
DEFAULT_255_1_388
10
23.9553795
20
132.0146373
40
0.2323321
50
49.509109
51
72.1832965
0
ARC
8
DEFAULT_255_1_388
10
23.9151263
20
131.8951632
40
0.358397
50
71.9008458
51
84.3555134
0
ARC
8
DEFAULT_255_1_388
10
23.8969658
20
131.7419712
40
0.512641
50
84.019632
51
89.3326067
0
LINE
8
DEFAULT_255_1_388
10
23.166532
20
140.0068468
11
23.3409199
21
140.0068468
0
LINE
8
DEFAULT_255_1_388
10
22.3280242
20
140.1857525
11
22.3280242
21
140.3122516
0
LINE
8
DEFAULT_255_1_388
10
23.3409199
20
140.4821217
11
23.166532
21
140.4821217
0
LINE
8
DEFAULT_255_1_388
10
22.5024121
20
140.3077337
11
22.5024121
21
140.1803312
0
ARC
8
DEFAULT_255_1_388
10
22.7243433
20
140.0740329
40
0.6202263
50
340.1774904
51
353.7812217
0
ARC
8
DEFAULT_255_1_388
10
22.9011286
20
140.0081893
40
0.4315926
50
311.4560052
51
340.4420756
0
ARC
8
DEFAULT_255_1_388
10
22.8973826
20
140.0206665
40
0.4434573
50
282.4332229
51
310.7514507
0
ARC
8
DEFAULT_255_1_388
10
22.8479644
20
140.2248703
40
0.6535262
50
269.9358869
51
282.8096729
0
ARC
8
DEFAULT_255_1_388
10
22.8421583
20
140.3761329
40
0.8048043
50
269.9995752
51
270.3612856
0
ARC
8
DEFAULT_255_1_388
10
22.8362073
20
140.0962781
40
0.5249831
50
250.7885263
51
270.6488451
0
ARC
8
DEFAULT_255_1_388
10
22.8172898
20
140.0245853
40
0.4510942
50
219.3628377
51
250.0611024
0
ARC
8
DEFAULT_255_1_388
10
22.9105772
20
140.1038653
40
0.5735046
50
193.5480293
51
219.5755675
0
ARC
8
DEFAULT_255_1_388
10
23.1773981
20
140.173152
40
0.849146
50
181.1220183
51
193.8754971
0
ARC
8
DEFAULT_255_1_388
10
23.4097214
20
140.1855914
40
1.0816971
50
179.9914644
51
181.5398227
0
ARC
8
DEFAULT_255_1_388
10
23.2020525
20
140.3164586
40
0.8740384
50
169.5837606
51
180.275782
0
ARC
8
DEFAULT_255_1_388
10
22.9953873
20
140.3546439
40
0.6638751
50
155.0367033
51
169.6002779
0
ARC
8
DEFAULT_255_1_388
10
22.8676331
20
140.4162336
40
0.5220662
50
136.7831557
51
155.2472983
0
ARC
8
DEFAULT_255_1_388
10
22.8238122
20
140.4534577
40
0.4646502
50
121.7633063
51
136.4281161
0
ARC
8
DEFAULT_255_1_388
10
22.8389962
20
140.4254049
40
0.4964979
50
95.6460018
51
121.5489589
0
ARC
8
DEFAULT_255_1_388
10
22.8566936
20
140.3006704
40
0.6223912
50
89.9245727
51
96.1375919
0
ARC
8
DEFAULT_255_1_388
10
22.8623641
20
140.3140721
40
0.6090084
50
76.6779212
51
90.456405
0
ARC
8
DEFAULT_255_1_388
10
22.9066454
20
140.493006
40
0.42469
50
47.4858803
51
76.9287069
0
ARC
8
DEFAULT_255_1_388
10
22.8901068
20
140.4817623
40
0.4441778
50
16.5424081
51
46.8934505
0
ARC
8
DEFAULT_255_1_388
10
22.7092118
20
140.4223265
40
0.6345318
50
5.4072971
51
17.0363711
0
ARC
8
DEFAULT_255_1_388
10
22.5473843
20
140.3963304
40
0.6250632
50
7.8888693
51
15.9242022
0
ARC
8
DEFAULT_255_1_388
10
22.7708828
20
140.4612309
40
0.3923364
50
15.7650676
51
27.9410069
0
ARC
8
DEFAULT_255_1_388
10
22.8950997
20
140.5277317
40
0.2514401
50
27.8167196
51
46.4007942
0
ARC
8
DEFAULT_255_1_388
10
22.9006839
20
140.5270882
40
0.2480958
50
47.4372362
51
75.0695672
0
ARC
8
DEFAULT_255_1_388
10
22.8659675
20
140.4062277
40
0.3738281
50
74.7009379
51
87.8124314
0
ARC
8
DEFAULT_255_1_388
10
22.8577292
20
140.2878659
40
0.4924321
50
87.3802571
51
90.0251599
0
ARC
8
DEFAULT_255_1_388
10
22.8533939
20
140.4198997
40
0.3604218
50
89.3451886
51
108.5744412
0
ARC
8
DEFAULT_255_1_388
10
22.8379931
20
140.4776836
40
0.3007661
50
109.2998307
51
143.3037387
0
ARC
8
DEFAULT_255_1_388
10
22.9237221
20
140.4117584
40
0.4089031
50
143.075267
51
163.1918576
0
ARC
8
DEFAULT_255_1_388
10
23.1433055
20
140.3424652
40
0.6391492
50
162.9375929
51
174.6208776
0
ARC
8
DEFAULT_255_1_388
10
23.4387437
20
140.3100711
40
0.9363344
50
174.342123
51
180.1430283
0
ARC
8
DEFAULT_255_1_388
10
23.3339978
20
140.1757117
40
0.8315986
50
179.6817261
51
189.150555
0
ARC
8
DEFAULT_255_1_388
10
23.0526727
20
140.1288559
40
0.5464044
50
188.9911061
51
203.5772363
0
ARC
8
DEFAULT_255_1_388
10
22.9312019
20
140.0784539
40
0.4149206
50
203.9075402
51
215.1312435
0
ARC
8
DEFAULT_255_1_388
10
22.8273817
20
139.9979907
40
0.2837747
50
213.9071511
51
263.8848919
0
ARC
8
DEFAULT_255_1_388
10
22.841481
20
140.0862519
40
0.3730641
50
263.1757928
51
270.1031044
0
ARC
8
DEFAULT_255_1_388
10
22.845089
20
140.2265511
40
0.5133712
50
269.6722503
51
279.0606936
0
ARC
8
DEFAULT_255_1_388
10
22.8751045
20
140.045115
40
0.3294739
50
278.8749101
51
293.6349581
0
ARC
8
DEFAULT_255_1_388
10
22.9111249
20
139.9605251
40
0.2375405
50
293.8553806
51
310.0518171
0
ARC
8
DEFAULT_255_1_388
10
22.9116758
20
139.9535021
40
0.2318463
50
311.0644687
51
332.0111037
0
ARC
8
DEFAULT_255_1_388
10
22.7775431
20
140.0274702
40
0.3850112
50
331.6586806
51
343.2877423
0
ARC
8
DEFAULT_255_1_388
10
22.5454896
20
140.0987806
40
0.6277712
50
343.1446576
51
351.0103568
0
ARC
8
DEFAULT_255_1_388
10
22.382222
20
140.1287873
40
0.7937327
50
350.71248
51
351.1626997
0
LINE
8
DEFAULT_255_1_388
10
24.3962832
20
139.7258382
11
24.3962832
21
139.5894
0
LINE
8
DEFAULT_255_1_388
10
24.3962832
20
139.5894
11
23.5342827
21
139.5894
0
LINE
8
DEFAULT_255_1_388
10
23.5342827
20
139.5894
11
23.5342827
21
139.7095741
0
LINE
8
DEFAULT_255_1_388
10
23.5342827
20
139.7095741
11
23.9896792
21
140.2155702
0
LINE
8
DEFAULT_255_1_388
10
23.6761423
20
140.5173607
11
23.5089829
21
140.5173607
0
LINE
8
DEFAULT_255_1_388
10
24.0881677
20
140.108046
11
23.7357776
21
139.7258382
0
LINE
8
DEFAULT_255_1_388
10
23.7357776
20
139.7258382
11
24.3962832
21
139.7258382
0
ARC
8
DEFAULT_255_1_388
10
22.4720852
20
141.5575983
40
2.0258655
50
318.5132526
51
320.7829045
0
ARC
8
DEFAULT_255_1_388
10
23.0668808
20
141.0734929
40
1.2589638
50
320.7372878
51
323.9739031
0
ARC
8
DEFAULT_255_1_388
10
23.507774
20
140.7540554
40
0.7145141
50
323.8962701
51
328.64194
0
ARC
8
DEFAULT_255_1_388
10
23.7379998
20
140.6120545
40
0.4440242
50
328.8294576
51
331.7891185
0
ARC
8
DEFAULT_255_1_388
10
23.8502318
20
140.5541374
40
0.3177517
50
331.4254512
51
352.9365785
0
ARC
8
DEFAULT_255_1_388
10
23.8655318
20
140.550705
40
0.3021496
50
353.2257659
51
0.0166158
0
ARC
8
DEFAULT_255_1_388
10
23.8892078
20
140.5532894
40
0.2784847
50
359.486299
51
15.9343185
0
ARC
8
DEFAULT_255_1_388
10
23.9462345
20
140.5686269
40
0.2194403
50
16.1712913
51
43.5286088
0
ARC
8
DEFAULT_255_1_388
10
23.954929
20
140.5773191
40
0.2071504
50
43.4417391
51
83.1661095
0
ARC
8
DEFAULT_255_1_388
10
23.9398451
20
140.4944316
40
0.2912888
50
82.160179
51
90.1505708
0
ARC
8
DEFAULT_255_1_388
10
23.9362933
20
140.4340279
40
0.3517025
50
89.5460741
51
102.5418361
0
ARC
8
DEFAULT_255_1_388
10
23.9089653
20
140.5499933
40
0.2325748
50
102.1738499
51
129.206123
0
ARC
8
DEFAULT_255_1_388
10
23.9001106
20
140.5639664
40
0.2161591
50
129.72865
51
135.753947
0
ARC
8
DEFAULT_255_1_388
10
23.9137588
20
140.5530728
40
0.2335433
50
136.1757367
51
166.3673339
0
ARC
8
DEFAULT_255_1_388
10
24.0270276
20
140.5227148
40
0.3507873
50
165.9090694
51
178.8684636
0
ARC
8
DEFAULT_255_1_388
10
24.1246048
20
140.5174263
40
0.4484624
50
178.4391136
51
180.0083808
0
ARC
8
DEFAULT_255_1_388
10
23.9666749
20
140.5218197
40
0.4577138
50
163.2878482
51
180.5581842
0
ARC
8
DEFAULT_255_1_388
10
23.8764791
20
140.5466393
40
0.3641968
50
133.4540601
51
162.947111
0
ARC
8
DEFAULT_255_1_388
10
23.8965672
20
140.5252789
40
0.3935189
50
100.7869829
51
133.4382499
0
ARC
8
DEFAULT_255_1_388
10
23.9356917
20
140.3510399
40
0.5720313
50
89.660664
51
101.3702276
0
ARC
8
DEFAULT_255_1_388
10
23.9431526
20
140.3579263
40
0.5651495
50
78.2172678
51
90.412935
0
ARC
8
DEFAULT_255_1_388
10
23.9830992
20
140.5406511
40
0.378122
50
55.9269121
51
78.4888449
0
ARC
8
DEFAULT_255_1_388
10
24.0051707
20
140.5787187
40
0.3342379
50
47.929771
51
55.4049217
0
ARC
8
DEFAULT_255_1_388
10
24.0166238
20
140.5903618
40
0.3179217
50
4.334829
51
48.0560205
0
ARC
8
DEFAULT_255_1_388
10
23.8934039
20
140.5712487
40
0.442341
50
359.9251713
51
5.5971671
0
ARC
8
DEFAULT_255_1_388
10
23.9416194
20
140.5775728
40
0.3941854
50
337.8914027
51
358.9967534
0
ARC
8
DEFAULT_255_1_388
10
23.6363764
20
140.6953295
40
0.7213271
50
326.9132501
51
338.3508308
0
ARC
8
DEFAULT_255_1_388
10
23.1879876
20
140.9827105
40
1.2538973
50
319.6471833
51
327.0959558
0
ARC
8
DEFAULT_255_1_388
10
22.7566534
20
141.338505
40
1.8129975
50
317.2588228
51
319.9045804
0
LINE
8
DEFAULT_255_1_388
10
23.174032
20
147.9443468
11
23.3484199
21
147.9443468
0
LINE
8
DEFAULT_255_1_388
10
22.3355242
20
148.1232525
11
22.3355242
21
148.2497516
0
LINE
8
DEFAULT_255_1_388
10
23.3484199
20
148.4196217
11
23.174032
21
148.4196217
0
LINE
8
DEFAULT_255_1_388
10
22.5099121
20
148.2452337
11
22.5099121
21
148.1178312
0
ARC
8
DEFAULT_255_1_388
10
22.7318433
20
148.0115329
40
0.6202263
50
340.1774904
51
353.7812217
0
ARC
8
DEFAULT_255_1_388
10
22.9086286
20
147.9456893
40
0.4315926
50
311.4560052
51
340.4420756
0
ARC
8
DEFAULT_255_1_388
10
22.9048826
20
147.9581665
40
0.4434573
50
282.4332229
51
310.7514507
0
ARC
8
DEFAULT_255_1_388
10
22.8554644
20
148.1623703
40
0.6535262
50
269.9358869
51
282.8096729
0
ARC
8
DEFAULT_255_1_388
10
22.8496583
20
148.3136329
40
0.8048043
50
269.9995752
51
270.3612856
0
ARC
8
DEFAULT_255_1_388
10
22.8437073
20
148.0337781
40
0.5249831
50
250.7885263
51
270.6488451
0
ARC
8
DEFAULT_255_1_388
10
22.8247898
20
147.9620853
40
0.4510942
50
219.3628377
51
250.0611024
0
ARC
8
DEFAULT_255_1_388
10
22.9180772
20
148.0413653
40
0.5735046
50
193.5480293
51
219.5755675
0
ARC
8
DEFAULT_255_1_388
10
23.1848981
20
148.110652
40
0.849146
50
181.1220183
51
193.8754971
0
ARC
8
DEFAULT_255_1_388
10
23.4172214
20
148.1230914
40
1.0816971
50
179.9914644
51
181.5398227
0
ARC
8
DEFAULT_255_1_388
10
23.2095525
20
148.2539586
40
0.8740384
50
169.5837606
51
180.275782
0
ARC
8
DEFAULT_255_1_388
10
23.0028873
20
148.2921439
40
0.6638751
50
155.0367033
51
169.6002779
0
ARC
8
DEFAULT_255_1_388
10
22.8751331
20
148.3537336
40
0.5220662
50
136.7831557
51
155.2472983
0
ARC
8
DEFAULT_255_1_388
10
22.8313122
20
148.3909577
40
0.4646502
50
121.7633063
51
136.4281161
0
ARC
8
DEFAULT_255_1_388
10
22.8464962
20
148.3629049
40
0.4964979
50
95.6460018
51
121.5489589
0
ARC
8
DEFAULT_255_1_388
10
22.8641936
20
148.2381704
40
0.6223912
50
89.9245727
51
96.1375919
0
ARC
8
DEFAULT_255_1_388
10
22.8698641
20
148.2515721
40
0.6090084
50
76.6779212
51
90.456405
0
ARC
8
DEFAULT_255_1_388
10
22.9141454
20
148.430506
40
0.42469
50
47.4858803
51
76.9287069
0
ARC
8
DEFAULT_255_1_388
10
22.8976068
20
148.4192623
40
0.4441778
50
16.5424081
51
46.8934505
0
ARC
8
DEFAULT_255_1_388
10
22.7167118
20
148.3598265
40
0.6345318
50
5.4072971
51
17.0363711
0
ARC
8
DEFAULT_255_1_388
10
22.5548843
20
148.3338304
40
0.6250632
50
7.8888693
51
15.9242022
0
ARC
8
DEFAULT_255_1_388
10
22.7783828
20
148.3987309
40
0.3923364
50
15.7650676
51
27.9410069
0
ARC
8
DEFAULT_255_1_388
10
22.9025997
20
148.4652317
40
0.2514401
50
27.8167196
51
46.4007942
0
ARC
8
DEFAULT_255_1_388
10
22.9081839
20
148.4645882
40
0.2480958
50
47.4372362
51
75.0695672
0
ARC
8
DEFAULT_255_1_388
10
22.8734675
20
148.3437277
40
0.3738281
50
74.7009379
51
87.8124314
0
ARC
8
DEFAULT_255_1_388
10
22.8652292
20
148.2253659
40
0.4924321
50
87.3802571
51
90.0251599
0
ARC
8
DEFAULT_255_1_388
10
22.8608939
20
148.3573997
40
0.3604218
50
89.3451886
51
108.5744412
0
ARC
8
DEFAULT_255_1_388
10
22.8454931
20
148.4151836
40
0.3007661
50
109.2998307
51
143.3037387
0
ARC
8
DEFAULT_255_1_388
10
22.9312221
20
148.3492584
40
0.4089031
50
143.075267
51
163.1918576
0
ARC
8
DEFAULT_255_1_388
10
23.1508055
20
148.2799652
40
0.6391492
50
162.9375929
51
174.6208776
0
ARC
8
DEFAULT_255_1_388
10
23.4462437
20
148.2475711
40
0.9363344
50
174.342123
51
180.1430283
0
ARC
8
DEFAULT_255_1_388
10
23.3414978
20
148.1132117
40
0.8315986
50
179.6817261
51
189.150555
0
ARC
8
DEFAULT_255_1_388
10
23.0601727
20
148.0663559
40
0.5464044
50
188.9911061
51
203.5772363
0
ARC
8
DEFAULT_255_1_388
10
22.9387019
20
148.0159539
40
0.4149206
50
203.9075402
51
215.1312435
0
ARC
8
DEFAULT_255_1_388
10
22.8348817
20
147.9354907
40
0.2837747
50
213.9071511
51
263.8848919
0
ARC
8
DEFAULT_255_1_388
10
22.848981
20
148.0237519
40
0.3730641
50
263.1757928
51
270.1031044
0
ARC
8
DEFAULT_255_1_388
10
22.852589
20
148.1640511
40
0.5133712
50
269.6722503
51
279.0606936
0
ARC
8
DEFAULT_255_1_388
10
22.8826045
20
147.982615
40
0.3294739
50
278.8749101
51
293.6349581
0
ARC
8
DEFAULT_255_1_388
10
22.9186249
20
147.8980251
40
0.2375405
50
293.8553806
51
310.0518171
0
ARC
8
DEFAULT_255_1_388
10
22.9191758
20
147.8910021
40
0.2318463
50
311.0644687
51
332.0111037
0
ARC
8
DEFAULT_255_1_388
10
22.7850431
20
147.9649702
40
0.3850112
50
331.6586806
51
343.2877423
0
ARC
8
DEFAULT_255_1_388
10
22.5529896
20
148.0362806
40
0.6277712
50
343.1446576
51
351.0103568
0
ARC
8
DEFAULT_255_1_388
10
22.389722
20
148.0662873
40
0.7937327
50
350.71248
51
351.1626997
0
LINE
8
DEFAULT_255_1_388
10
24.0911499
20
148.8488148
11
24.0911499
21
147.5269
0
LINE
8
DEFAULT_255_1_388
10
24.0911499
20
147.5269
11
23.9230869
21
147.5269
0
LINE
8
DEFAULT_255_1_388
10
23.9230869
20
147.5269
11
23.9230869
21
148.640995
0
LINE
8
DEFAULT_255_1_388
10
23.9230869
20
148.640995
11
23.5860574
21
148.5172066
0
LINE
8
DEFAULT_255_1_388
10
23.5860574
20
148.5172066
11
23.5860574
21
148.6690055
0
LINE
8
DEFAULT_255_1_388
10
23.5860574
20
148.6690055
11
24.0649465
21
148.8488148
0
LINE
8
DEFAULT_255_1_388
10
24.0649465
20
148.8488148
11
24.0911499
21
148.8488148
0
LINE
8
DEFAULT_255_1_388
10
23.166532
20
155.8818468
11
23.3409199
21
155.8818468
0
LINE
8
DEFAULT_255_1_388
10
22.3280242
20
156.0607525
11
22.3280242
21
156.1872516
0
LINE
8
DEFAULT_255_1_388
10
23.3409199
20
156.3571217
11
23.166532
21
156.3571217
0
LINE
8
DEFAULT_255_1_388
10
22.5024121
20
156.1827337
11
22.5024121
21
156.0553312
0
ARC
8
DEFAULT_255_1_388
10
22.7243433
20
155.9490329
40
0.6202263
50
340.1774904
51
353.7812217
0
ARC
8
DEFAULT_255_1_388
10
22.9011286
20
155.8831893
40
0.4315926
50
311.4560052
51
340.4420756
0
ARC
8
DEFAULT_255_1_388
10
22.8973826
20
155.8956665
40
0.4434573
50
282.4332229
51
310.7514507
0
ARC
8
DEFAULT_255_1_388
10
22.8479644
20
156.0998703
40
0.6535262
50
269.9358869
51
282.8096729
0
ARC
8
DEFAULT_255_1_388
10
22.8421583
20
156.2511329
40
0.8048043
50
269.9995752
51
270.3612856
0
ARC
8
DEFAULT_255_1_388
10
22.8362073
20
155.9712781
40
0.5249831
50
250.7885263
51
270.6488451
0
ARC
8
DEFAULT_255_1_388
10
22.8172898
20
155.8995853
40
0.4510942
50
219.3628377
51
250.0611024
0
ARC
8
DEFAULT_255_1_388
10
22.9105772
20
155.9788653
40
0.5735046
50
193.5480293
51
219.5755675
0
ARC
8
DEFAULT_255_1_388
10
23.1773981
20
156.048152
40
0.849146
50
181.1220183
51
193.8754971
0
ARC
8
DEFAULT_255_1_388
10
23.4097214
20
156.0605914
40
1.0816971
50
179.9914644
51
181.5398227
0
ARC
8
DEFAULT_255_1_388
10
23.2020525
20
156.1914586
40
0.8740384
50
169.5837606
51
180.275782
0
ARC
8
DEFAULT_255_1_388
10
22.9953873
20
156.2296439
40
0.6638751
50
155.0367033
51
169.6002779
0
ARC
8
DEFAULT_255_1_388
10
22.8676331
20
156.2912336
40
0.5220662
50
136.7831557
51
155.2472983
0
ARC
8
DEFAULT_255_1_388
10
22.8238122
20
156.3284577
40
0.4646502
50
121.7633063
51
136.4281161
0
ARC
8
DEFAULT_255_1_388
10
22.8389962
20
156.3004049
40
0.4964979
50
95.6460018
51
121.5489589
0
ARC
8
DEFAULT_255_1_388
10
22.8566936
20
156.1756704
40
0.6223912
50
89.9245727
51
96.1375919
0
ARC
8
DEFAULT_255_1_388
10
22.8623641
20
156.1890721
40
0.6090084
50
76.6779212
51
90.456405
0
ARC
8
DEFAULT_255_1_388
10
22.9066454
20
156.368006
40
0.42469
50
47.4858803
51
76.9287069
0
ARC
8
DEFAULT_255_1_388
10
22.8901068
20
156.3567623
40
0.4441778
50
16.5424081
51
46.8934505
0
ARC
8
DEFAULT_255_1_388
10
22.7092118
20
156.2973265
40
0.6345318
50
5.4072971
51
17.0363711
0
ARC
8
DEFAULT_255_1_388
10
22.5473843
20
156.2713304
40
0.6250632
50
7.8888693
51
15.9242022
0
ARC
8
DEFAULT_255_1_388
10
22.7708828
20
156.3362309
40
0.3923364
50
15.7650676
51
27.9410069
0
ARC
8
DEFAULT_255_1_388
10
22.8950997
20
156.4027317
40
0.2514401
50
27.8167196
51
46.4007942
0
ARC
8
DEFAULT_255_1_388
10
22.9006839
20
156.4020882
40
0.2480958
50
47.4372362
51
75.0695672
0
ARC
8
DEFAULT_255_1_388
10
22.8659675
20
156.2812277
40
0.3738281
50
74.7009379
51
87.8124314
0
ARC
8
DEFAULT_255_1_388
10
22.8577292
20
156.1628659
40
0.4924321
50
87.3802571
51
90.0251599
0
ARC
8
DEFAULT_255_1_388
10
22.8533939
20
156.2948997
40
0.3604218
50
89.3451886
51
108.5744412
0
ARC
8
DEFAULT_255_1_388
10
22.8379931
20
156.3526836
40
0.3007661
50
109.2998307
51
143.3037387
0
ARC
8
DEFAULT_255_1_388
10
22.9237221
20
156.2867584
40
0.4089031
50
143.075267
51
163.1918576
0
ARC
8
DEFAULT_255_1_388
10
23.1433055
20
156.2174652
40
0.6391492
50
162.9375929
51
174.6208776
0
ARC
8
DEFAULT_255_1_388
10
23.4387437
20
156.1850711
40
0.9363344
50
174.342123
51
180.1430283
0
ARC
8
DEFAULT_255_1_388
10
23.3339978
20
156.0507117
40
0.8315986
50
179.6817261
51
189.150555
0
ARC
8
DEFAULT_255_1_388
10
23.0526727
20
156.0038559
40
0.5464044
50
188.9911061
51
203.5772363
0
ARC
8
DEFAULT_255_1_388
10
22.9312019
20
155.9534539
40
0.4149206
50
203.9075402
51
215.1312435
0
ARC
8
DEFAULT_255_1_388
10
22.8273817
20
155.8729907
40
0.2837747
50
213.9071511
51
263.8848919
0
ARC
8
DEFAULT_255_1_388
10
22.841481
20
155.9612519
40
0.3730641
50
263.1757928
51
270.1031044
0
ARC
8
DEFAULT_255_1_388
10
22.845089
20
156.1015511
40
0.5133712
50
269.6722503
51
279.0606936
0
ARC
8
DEFAULT_255_1_388
10
22.8751045
20
155.920115
40
0.3294739
50
278.8749101
51
293.6349581
0
ARC
8
DEFAULT_255_1_388
10
22.9111249
20
155.8355251
40
0.2375405
50
293.8553806
51
310.0518171
0
ARC
8
DEFAULT_255_1_388
10
22.9116758
20
155.8285021
40
0.2318463
50
311.0644687
51
332.0111037
0
ARC
8
DEFAULT_255_1_388
10
22.7775431
20
155.9024702
40
0.3850112
50
331.6586806
51
343.2877423
0
ARC
8
DEFAULT_255_1_388
10
22.5454896
20
155.9737806
40
0.6277712
50
343.1446576
51
351.0103568
0
ARC
8
DEFAULT_255_1_388
10
22.382222
20
156.0037873
40
0.7937327
50
350.71248
51
351.1626997
0
LINE
8
DEFAULT_255_1_388
10
24.3592371
20
156.242369
11
24.3592371
21
156.0255135
0
LINE
8
DEFAULT_255_1_388
10
23.5288613
20
156.0029244
11
23.5288613
21
156.2261048
0
LINE
8
DEFAULT_255_1_388
10
24.1920776
20
155.9803353
11
24.1920776
21
156.2541153
0
LINE
8
DEFAULT_255_1_388
10
23.6960208
20
156.2667652
11
23.6960208
21
155.9993102
0
ARC
8
DEFAULT_255_1_388
10
22.9814705
20
156.0200118
40
1.3777776
50
353.8440855
51
0.2287917
0
ARC
8
DEFAULT_255_1_388
10
23.5033722
20
155.9617414
40
0.852639
50
344.4934746
51
353.9763743
0
ARC
8
DEFAULT_255_1_388
10
23.8400529
20
155.8660191
40
0.5026273
50
329.2803599
51
344.7473406
0
ARC
8
DEFAULT_255_1_388
10
23.9516025
20
155.8048038
40
0.3754848
50
324.9361395
51
328.6153007
0
ARC
8
DEFAULT_255_1_388
10
23.9941675
20
155.7750586
40
0.3235566
50
280.5801797
51
324.9173226
0
ARC
8
DEFAULT_255_1_388
10
23.9490303
20
155.9630236
40
0.5167077
50
269.5979457
51
281.6732777
0
ARC
8
DEFAULT_255_1_388
10
23.9409207
20
155.9495113
40
0.5032026
50
256.6228565
51
270.5105488
0
ARC
8
DEFAULT_255_1_388
10
23.895695
20
155.7753345
40
0.3233092
50
215.8618351
51
257.2787793
0
ARC
8
DEFAULT_255_1_388
10
24.0105657
20
155.8524106
40
0.4615831
50
197.9695203
51
215.2622745
0
ARC
8
DEFAULT_255_1_388
10
24.2901332
20
155.9467641
40
0.7566307
50
187.8816486
51
198.2346584
0
ARC
8
DEFAULT_255_1_388
10
24.735457
20
156.0110453
40
1.2065653
50
180.8977266
51
188.0054894
0
ARC
8
DEFAULT_255_1_388
10
25.0404784
20
156.02254
40
1.5117443
50
180.7434591
51
181.152202
0
ARC
8
DEFAULT_255_1_388
10
24.872978
20
156.2315371
40
1.3441277
50
173.7674302
51
180.2315596
0
ARC
8
DEFAULT_255_1_388
10
24.3647649
20
156.2889779
40
0.8326847
50
164.3058537
51
173.9000553
0
ARC
8
DEFAULT_255_1_388
10
24.0371649
20
156.3833652
40
0.4917711
50
148.7922028
51
164.5682288
0
ARC
8
DEFAULT_255_1_388
10
23.9302386
20
156.4430457
40
0.3694204
50
144.5883979
51
148.1161588
0
ARC
8
DEFAULT_255_1_388
10
23.8915132
20
156.4700667
40
0.322202
50
101.6440149
51
144.5142619
0
ARC
8
DEFAULT_255_1_388
10
23.9393324
20
156.2800337
40
0.5180451
50
89.528284
51
102.5820197
0
ARC
8
DEFAULT_255_1_388
10
23.9482316
20
156.2756376
40
0.5224441
50
77.0437914
51
90.508231
0
ARC
8
DEFAULT_255_1_388
10
23.993457
20
156.4604272
40
0.3322297
50
48.2777708
51
77.4996087
0
ARC
8
DEFAULT_255_1_388
10
24.001631
20
156.4749557
40
0.315966
50
36.3141586
51
47.6307332
0
ARC
8
DEFAULT_255_1_388
10
23.9039032
20
156.4091159
40
0.4337313
50
18.2931065
51
35.6770203
0
ARC
8
DEFAULT_255_1_388
10
23.6177873
20
156.3109107
40
0.7362203
50
8.0246996
51
18.5605636
0
ARC
8
DEFAULT_255_1_388
10
23.1494228
20
156.2417432
40
1.2096583
50
1.127539
51
8.1718423
0
ARC
8
DEFAULT_255_1_388
10
22.7845362
20
156.2274374
40
1.5747719
50
0.5432713
51
1.38669
0
ARC
8
DEFAULT_255_1_388
10
22.990274
20
156.2581163
40
1.2018103
50
359.8092569
51
4.9408001
0
ARC
8
DEFAULT_255_1_388
10
23.4639322
20
156.30039
40
0.7262727
50
4.8364937
51
12.2906017
0
ARC
8
DEFAULT_255_1_388
10
23.7738786
20
156.3694485
40
0.4087324
50
12.0806994
51
23.8171225
0
ARC
8
DEFAULT_255_1_388
10
23.9059182
20
156.4253508
40
0.2653719
50
24.2874621
51
31.3934353
0
ARC
8
DEFAULT_255_1_388
10
23.9649618
20
156.4639822
40
0.1948607
50
30.7407708
51
82.4658033
0
ARC
8
DEFAULT_255_1_388
10
23.9447279
20
156.3646017
40
0.2961198
50
81.1057101
51
90.2187368
0
ARC
8
DEFAULT_255_1_388
10
23.9407091
20
156.3936421
40
0.2670929
50
89.380395
51
105.6763916
0
ARC
8
DEFAULT_255_1_388
10
23.9200813
20
156.468632
40
0.1893189
50
105.7980655
51
149.7387869
0
ARC
8
DEFAULT_255_1_388
10
24.0397953
20
156.3966719
40
0.3289892
50
149.4208441
51
163.628295
0
ARC
8
DEFAULT_255_1_388
10
24.2750183
20
156.3249345
40
0.5749004
50
163.3764549
51
172.141138
0
ARC
8
DEFAULT_255_1_388
10
24.6462904
20
156.2717582
40
0.9499585
50
172.0258462
51
178.0705453
0
ARC
8
DEFAULT_255_1_388
10
24.9884457
20
156.2555682
40
1.2924734
50
177.8639301
51
179.5036263
0
ARC
8
DEFAULT_255_1_388
10
24.8665476
20
155.9952151
40
1.170534
50
179.7995545
51
185.246089
0
ARC
8
DEFAULT_255_1_388
10
24.4117069
20
155.9521404
40
0.7136613
50
185.1411911
51
193.0082205
0
ARC
8
DEFAULT_255_1_388
10
24.1143329
20
155.8818441
40
0.4080987
50
192.7897338
51
205.2507384
0
ARC
8
DEFAULT_255_1_388
10
23.9965539
20
155.8292538
40
0.2791522
50
205.8001921
51
211.2545876
0
ARC
8
DEFAULT_255_1_388
10
23.9377078
20
155.7898132
40
0.2084074
50
210.3789935
51
238.4007996
0
ARC
8
DEFAULT_255_1_388
10
23.9355164
20
155.7950786
40
0.2117943
50
239.6521916
51
265.9793852
0
ARC
8
DEFAULT_255_1_388
10
23.9451013
20
155.8707358
40
0.2879689
50
265.1324455
51
270.0603288
0
ARC
8
DEFAULT_255_1_388
10
23.948339
20
155.8342418
40
0.2514919
50
269.3314378
51
287.2180039
0
ARC
8
DEFAULT_255_1_388
10
23.9638473
20
155.7776291
40
0.1928357
50
287.7957942
51
329.0808983
0
ARC
8
DEFAULT_255_1_388
10
23.856123
20
155.8448651
40
0.319808
50
328.6635261
51
343.3325043
0
ARC
8
DEFAULT_255_1_388
10
23.6116688
20
155.9210195
40
0.5758408
50
343.0498092
51
351.9392499
0
ARC
8
DEFAULT_255_1_388
10
23.221601
20
155.9785205
40
0.9701202
50
351.8071632
51
357.7957897
0
ARC
8
DEFAULT_255_1_388
10
22.8581487
20
155.9973724
40
1.3340376
50
357.5870923
51
359.2682493
0
ENDSEC
0
EOF