0
SECTION
2
HEADER
9
$MEASUREMENT
70
1
0
ENDSEC
0
SECTION
2
TABLES
0
TABLE
2
LTYPE
0
LTYPE
72
65
70
64
2
CONTINUOUS
3
______
73
0
40
0
0
ENDTAB
0
TABLE
2
LAYER
0
LAYER
2
DEFAULT_255_2_778
70
0
62
255
6
CONTINUOUS
0
LAYER
2
DEFAULT_255_1_234
70
0
62
255
6
CONTINUOUS
0
ENDTAB
0
ENDSEC
0
SECTION
2
ENTITIES
0
ARC
8
DEFAULT_255_2_778
10
3.5700693
20
155.1802019
40
0.7914215
50
129.1312896
51
180.1450914
0
ARC
8
DEFAULT_255_2_778
10
3.5703345
20
155.180689
40
0.7912112
50
89.854026
51
129.1684493
0
ARC
8
DEFAULT_255_2_778
10
25.7993937
20
155.1803756
40
0.7915249
50
39.4792447
51
90.147911
0
ARC
8
DEFAULT_255_2_778
10
25.7999935
20
155.1802222
40
0.7911595
50
359.8533901
51
39.5154338
0
ARC
8
DEFAULT_255_2_778
10
25.7996693
20
-1.9863503
40
0.7914836
50
309.4761667
51
0.1482649
0
ARC
8
DEFAULT_255_2_778
10
25.799398
20
-1.9867814
40
0.7913235
50
269.8517415
51
309.511178
0
ARC
8
DEFAULT_255_2_778
10
3.570342
20
-1.9867233
40
0.7913815
50
219.1282118
51
270.1454017
0
ARC
8
DEFAULT_255_2_778
10
3.5700247
20
-1.9863408
40
0.7913769
50
179.8524075
51
219.1641908
0
LINE
8
DEFAULT_255_2_778
10
3.5723503
20
155.9718978
11
25.7973503
21
155.9718978
0
LINE
8
DEFAULT_255_2_778
10
26.5911503
20
155.1781978
11
26.5911503
21
-1.9843022
0
LINE
8
DEFAULT_255_2_778
10
25.7973503
20
-2.7781022
11
3.5723503
21
-2.7781022
0
LINE
8
DEFAULT_255_2_778
10
2.7786503
20
-1.9843022
11
2.7786503
21
155.1781978
0
LINE
8
DEFAULT_255_1_234
10
10.860185
20
-0.0087609
11
10.860185
21
-0.1348592
0
LINE
8
DEFAULT_255_1_234
10
10.860185
20
-0.1348592
11
10.3694458
21
-0.1348592
0
LINE
8
DEFAULT_255_1_234
10
10.3694458
20
-0.1348592
11
10.3694458
21
-0.6513
0
LINE
8
DEFAULT_255_1_234
10
10.3694458
20
-0.6513
11
10.2152364
21
-0.6513
0
LINE
8
DEFAULT_255_1_234
10
10.2152364
20
-0.6513
11
10.2152364
21
0.5181211
0
LINE
8
DEFAULT_255_1_234
10
10.2152364
20
0.5181211
11
10.9396992
21
0.5181211
0
LINE
8
DEFAULT_255_1_234
10
10.9396992
20
0.5181211
11
10.9396992
21
0.3912196
0
LINE
8
DEFAULT_255_1_234
10
10.9396992
20
0.3912196
11
10.3694458
21
0.3912196
0
LINE
8
DEFAULT_255_1_234
10
10.3694458
20
0.3912196
11
10.3694458
21
-0.0087609
0
LINE
8
DEFAULT_255_1_234
10
10.3694458
20
-0.0087609
11
10.860185
21
-0.0087609
0
LINE
8
DEFAULT_255_1_234
10
11.8521046
20
-0.5300208
11
11.8521046
21
-0.6513
0
LINE
8
DEFAULT_255_1_234
10
11.8521046
20
-0.6513
11
11.0858768
21
-0.6513
0
LINE
8
DEFAULT_255_1_234
10
11.0858768
20
-0.6513
11
11.0858768
21
-0.5444779
0
LINE
8
DEFAULT_255_1_234
10
11.0858768
20
-0.5444779
11
11.4906764
21
-0.0947005
0
LINE
8
DEFAULT_255_1_234
10
11.2119751
20
0.1735595
11
11.0633879
21
0.1735595
0
LINE
8
DEFAULT_255_1_234
10
11.5782224
20
-0.1902782
11
11.2649846
21
-0.5300208
0
LINE
8
DEFAULT_255_1_234
10
11.2649846
20
-0.5300208
11
11.8521046
21
-0.5300208
0
ARC
8
DEFAULT_255_1_234
10
10.1416597
20
1.0982527
40
1.8008286
50
318.5132453
51
320.7828378
0
ARC
8
DEFAULT_255_1_234
10
10.6703572
20
0.6679426
40
1.1191493
50
320.7372736
51
323.9737074
0
ARC
8
DEFAULT_255_1_234
10
11.0623428
20
0.3839361
40
0.6350923
50
323.8961724
51
328.6421089
0
ARC
8
DEFAULT_255_1_234
10
11.2670024
20
0.2577031
40
0.3946393
50
328.8299013
51
331.789948
0
ARC
8
DEFAULT_255_1_234
10
11.3667202
20
0.2062509
40
0.2824501
50
331.4255242
51
352.9364833
0
ARC
8
DEFAULT_255_1_234
10
11.3803703
20
0.2031976
40
0.2685315
50
353.2248685
51
0.0169286
0
ARC
8
DEFAULT_255_1_234
10
11.401358
20
0.205495
40
0.2475536
50
359.4866256
51
15.9339782
0
ARC
8
DEFAULT_255_1_234
10
11.4520565
20
0.2191286
40
0.1950618
50
16.1714718
51
43.5284424
0
ARC
8
DEFAULT_255_1_234
10
11.4597873
20
0.2268573
40
0.184134
50
43.4415429
51
83.1661404
0
ARC
8
DEFAULT_255_1_234
10
11.4463792
20
0.1531771
40
0.258926
50
82.160215
51
90.1505798
0
ARC
8
DEFAULT_255_1_234
10
11.4432219
20
0.0994865
40
0.3126255
50
89.5460705
51
102.5418777
0
ARC
8
DEFAULT_255_1_234
10
11.4189305
20
0.2025665
40
0.2067346
50
102.1739365
51
129.2061916
0
ARC
8
DEFAULT_255_1_234
10
11.4110377
20
0.2150094
40
0.1921118
50
129.7279328
51
135.7542026
0
ARC
8
DEFAULT_255_1_234
10
11.4231904
20
0.2053045
40
0.2075944
50
136.175737
51
166.3674722
0
ARC
8
DEFAULT_255_1_234
10
11.5238824
20
0.1783182
40
0.3118201
50
165.9092917
51
178.8683903
0
ARC
8
DEFAULT_255_1_234
10
11.6103685
20
0.1736179
40
0.3983935
50
178.438168
51
180.0083905
0
ARC
8
DEFAULT_255_1_234
10
11.4702287
20
0.1775231
40
0.4068601
50
163.2878735
51
180.5581814
0
ARC
8
DEFAULT_255_1_234
10
11.3900548
20
0.199584
40
0.3237344
50
133.454115
51
162.9470031
0
ARC
8
DEFAULT_255_1_234
10
11.407909
20
0.1806
40
0.349795
50
100.7869394
51
133.4384016
0
ARC
8
DEFAULT_255_1_234
10
11.4426861
20
0.0257319
40
0.5084616
50
89.6605301
51
101.3704185
0
ARC
8
DEFAULT_255_1_234
10
11.44932
20
0.0318496
40
0.502348
50
78.2171172
51
90.4130393
0
ARC
8
DEFAULT_255_1_234
10
11.4848278
20
0.1942637
40
0.3361092
50
55.9268222
51
78.4888551
0
ARC
8
DEFAULT_255_1_234
10
11.5044719
20
0.2281324
40
0.2970617
50
47.9292255
51
55.4054003
0
ARC
8
DEFAULT_255_1_234
10
11.5146279
20
0.2384502
40
0.2825983
50
4.3347696
51
48.0560701
0
ARC
8
DEFAULT_255_1_234
10
11.4050673
20
0.2214601
40
0.393225
50
359.925209
51
5.5967654
0
ARC
8
DEFAULT_255_1_234
10
11.4479565
20
0.2270816
40
0.3503892
50
337.8914096
51
358.9967724
0
ARC
8
DEFAULT_255_1_234
10
11.1765977
20
0.3317706
40
0.6412172
50
326.9135351
51
338.3505194
0
ARC
8
DEFAULT_255_1_234
10
10.7780281
20
0.5872284
40
1.1146189
50
319.6472867
51
327.095818
0
ARC
8
DEFAULT_255_1_234
10
10.3947284
20
0.9034
40
1.6114559
50
317.2586784
51
319.9046139
0
LINE
8
DEFAULT_255_1_234
10
12.3340089
20
-0.0938974
11
12.3340089
21
-0.2151766
0
LINE
8
DEFAULT_255_1_234
10
12.3340089
20
-0.2151766
11
11.9420601
21
-0.2151766
0
LINE
8
DEFAULT_255_1_234
10
11.9420601
20
-0.2151766
11
11.9420601
21
-0.0938974
0
LINE
8
DEFAULT_255_1_234
10
11.9420601
20
-0.0938974
11
12.3340089
21
-0.0938974
0
LINE
8
DEFAULT_255_1_234
10
12.9516496
20
0.5237433
11
12.9516496
21
-0.6513
0
LINE
8
DEFAULT_255_1_234
10
12.9516496
20
-0.6513
11
12.8022593
21
-0.6513
0
LINE
8
DEFAULT_255_1_234
10
12.8022593
20
-0.6513
11
12.8022593
21
0.3390133
0
LINE
8
DEFAULT_255_1_234
10
12.8022593
20
0.3390133
11
12.5026754
21
0.2289785
0
LINE
8
DEFAULT_255_1_234
10
12.5026754
20
0.2289785
11
12.5026754
21
0.3639117
0
LINE
8
DEFAULT_255_1_234
10
12.5026754
20
0.3639117
11
12.9283576
21
0.5237433
0
LINE
8
DEFAULT_255_1_234
10
12.9283576
20
0.5237433
11
12.9516496
21
0.5237433
0
LINE
8
DEFAULT_255_1_234
10
13.9435693
20
0.5189243
11
13.970074
21
0.5189243
0
LINE
8
DEFAULT_255_1_234
10
13.970074
20
0.5189243
11
13.970074
21
0.392826
0
LINE
8
DEFAULT_255_1_234
10
13.970074
20
0.392826
11
13.9427661
21
0.392826
0
LINE
8
DEFAULT_255_1_234
10
13.3958047
20
-0.2063417
11
13.3958047
21
-0.1493164
0
LINE
8
DEFAULT_255_1_234
10
13.5451951
20
-0.1685925
11
13.5451951
21
-0.2232083
0
ARC
8
DEFAULT_255_1_234
10
13.9480009
20
-0.1069545
40
0.4998079
50
90.6001036
51
104.514704
0
ARC
8
DEFAULT_255_1_234
10
13.9091524
20
0.0375131
40
0.3502176
50
104.2855254
51
133.862935
0
ARC
8
DEFAULT_255_1_234
10
13.9255282
20
0.026683
40
0.3693984
50
134.5302688
51
161.6210873
0
ARC
8
DEFAULT_255_1_234
10
14.090847
20
-0.0316105
40
0.5446739
50
161.2849839
51
174.2076652
0
ARC
8
DEFAULT_255_1_234
10
14.2315408
20
-0.0510213
40
0.6866274
50
173.7810589
51
174.9254635
0
ARC
8
DEFAULT_255_1_234
10
13.776524
20
-0.1893161
40
0.3033419
50
95.8330959
51
138.9954921
0
ARC
8
DEFAULT_255_1_234
10
13.7988596
20
-0.3171625
40
0.4328947
50
89.8753725
51
97.0544009
0
ARC
8
DEFAULT_255_1_234
10
13.8036062
20
-0.2336252
40
0.3493769
50
71.6407809
51
90.6240094
0
ARC
8
DEFAULT_255_1_234
10
13.8186635
20
-0.1781918
40
0.2920396
50
39.6367836
51
71.019018
0
ARC
8
DEFAULT_255_1_234
10
13.7550108
20
-0.2332002
40
0.3761538
50
10.658731
51
39.9043955
0
ARC
8
DEFAULT_255_1_234
10
13.6002191
20
-0.2668314
40
0.5345136
50
359.682601
51
11.132623
0
ARC
8
DEFAULT_255_1_234
10
13.5962322
20
-0.273899
40
0.5385081
50
347.2486944
51
0.4369317
0
ARC
8
DEFAULT_255_1_234
10
13.7629799
20
-0.3140193
40
0.3670249
50
318.1409698
51
347.6118597
0
ARC
8
DEFAULT_255_1_234
10
13.7954792
20
-0.3407298
40
0.3250007
50
275.6342139
51
317.8248465
0
ARC
8
DEFAULT_255_1_234
10
13.7733903
20
-0.2107781
40
0.4565864
50
269.8874292
51
276.7917694
0
ARC
8
DEFAULT_255_1_234
10
13.7678974
20
-0.3133257
40
0.3540676
50
246.9140195
51
270.7437342
0
ARC
8
DEFAULT_255_1_234
10
13.7685364
20
-0.3275616
40
0.3412781
50
218.1665114
51
245.878116
0
ARC
8
DEFAULT_255_1_234
10
13.8564825
20
-0.2539721
40
0.455911
50
191.4115814
51
218.6077802
0
ARC
8
DEFAULT_255_1_234
10
14.0502914
20
-0.2105167
40
0.6545001
50
179.6345085
51
191.7836486
0
ARC
8
DEFAULT_255_1_234
10
14.6085251
20
-0.1426303
40
1.2127388
50
171.4525249
51
180.3158839
0
ARC
8
DEFAULT_255_1_234
10
14.1690126
20
-0.0742392
40
0.7679464
50
157.9802646
51
171.6246686
0
ARC
8
DEFAULT_255_1_234
10
13.9476147
20
0.0140421
40
0.5296008
50
141.4298019
51
157.854097
0
ARC
8
DEFAULT_255_1_234
10
13.8834468
20
0.0594381
40
0.4511509
50
102.8715806
51
140.8564722
0
ARC
8
DEFAULT_255_1_234
10
13.9482084
20
-0.1845448
40
0.7034845
50
90.3778349
51
103.5869322
0
ARC
8
DEFAULT_255_1_234
10
13.774386
20
-0.245027
40
0.2370698
50
89.8751008
51
126.2071704
0
ARC
8
DEFAULT_255_1_234
10
13.778965
20
-0.2604697
40
0.2522934
50
124.9745049
51
144.895901
0
ARC
8
DEFAULT_255_1_234
10
13.761384
20
-0.246144
40
0.2296779
50
145.2974905
51
160.2660252
0
ARC
8
DEFAULT_255_1_234
10
14.0686379
20
-0.2263929
40
0.5234525
50
179.6514266
51
190.2855912
0
ARC
8
DEFAULT_255_1_234
10
13.8992516
20
-0.2583214
40
0.3510893
50
190.0945431
51
207.5098196
0
ARC
8
DEFAULT_255_1_234
10
13.8426786
20
-0.2852377
40
0.288489
50
207.9583163
51
216.3251085
0
ARC
8
DEFAULT_255_1_234
10
13.8086894
20
-0.3131895
40
0.2445587
50
215.7661442
51
232.5456785
0
ARC
8
DEFAULT_255_1_234
10
13.7703877
20
-0.3618518
40
0.1826382
50
232.8005391
51
270.6605633
0
ARC
8
DEFAULT_255_1_234
10
13.7749578
20
-0.3254388
40
0.2190529
50
269.35537
51
288.4744281
0
ARC
8
DEFAULT_255_1_234
10
13.7842475
20
-0.3603882
40
0.1829749
50
289.1833337
51
322.9683818
0
ARC
8
DEFAULT_255_1_234
10
13.7230997
20
-0.3121609
40
0.2608399
50
322.6007884
51
346.5182367
0
ARC
8
DEFAULT_255_1_234
10
13.6073593
20
-0.2826384
40
0.3802777
50
346.2582162
51
358.7741648
0
ARC
8
DEFAULT_255_1_234
10
13.5055262
20
-0.2771035
40
0.4822176
50
358.3755224
51
0.0098023
0
ARC
8
DEFAULT_255_1_234
10
13.5811449
20
-0.2743343
40
0.4066078
50
359.6214041
51
11.2839074
0
ARC
8
DEFAULT_255_1_234
10
13.7088596
20
-0.2476934
40
0.2761514
50
11.0482309
51
31.8146458
0
ARC
8
DEFAULT_255_1_234
10
13.7397639
20
-0.2309416
40
0.2410679
50
32.3035391
51
38.082671
0
ARC
8
DEFAULT_255_1_234
10
13.7818299
20
-0.1928338
40
0.1844966
50
36.825067
51
85.7415724
0
ARC
8
DEFAULT_255_1_234
10
13.7751132
20
-0.2428699
40
0.2349122
50
85.0140713
51
90.0513278
0
LINE
8
DEFAULT_255_1_234
10
15.1571649
20
0.5181211
11
15.1571649
21
0.3912196
0
LINE
8
DEFAULT_255_1_234
10
15.1571649
20
0.3912196
11
14.7812796
21
0.3912196
0
LINE
8
DEFAULT_255_1_234
10
14.7812796
20
0.3912196
11
14.7812796
21
-0.6513
0
LINE
8
DEFAULT_255_1_234
10
14.7812796
20
-0.6513
11
14.6278734
21
-0.6513
0
LINE
8
DEFAULT_255_1_234
10
14.6278734
20
-0.6513
11
14.6278734
21
0.3912196
0
LINE
8
DEFAULT_255_1_234
10
14.6278734
20
0.3912196
11
14.2527912
21
0.3912196
0
LINE
8
DEFAULT_255_1_234
10
14.2527912
20
0.3912196
11
14.2527912
21
0.5181211
0
LINE
8
DEFAULT_255_1_234
10
14.2527912
20
0.5181211
11
15.1571649
21
0.5181211
0
LINE
8
DEFAULT_255_1_234
10
15.6543295
20
-0.6513
11
15.3306505
21
-0.6513
0
LINE
8
DEFAULT_255_1_234
10
15.3306505
20
-0.6513
11
15.3306505
21
0.5181211
0
LINE
8
DEFAULT_255_1_234
10
15.3306505
20
0.5181211
11
15.6607549
21
0.5181211
0
LINE
8
DEFAULT_255_1_234
10
16.1763925
20
-0.0272339
11
16.1763925
21
-0.1019291
0
LINE
8
DEFAULT_255_1_234
10
15.6647708
20
0.3912196
11
15.4848599
21
0.3912196
0
LINE
8
DEFAULT_255_1_234
10
15.4848599
20
0.3912196
11
15.4848599
21
-0.5252017
0
LINE
8
DEFAULT_255_1_234
10
15.4848599
20
-0.5252017
11
15.647101
21
-0.5252017
0
LINE
8
DEFAULT_255_1_234
10
16.0237895
20
-0.0987164
11
16.0237895
21
-0.0304466
0
ARC
8
DEFAULT_255_1_234
10
15.6646492
20
-0.0684106
40
0.5865446
50
75.4101064
51
90.3804066
0
ARC
8
DEFAULT_255_1_234
10
15.6876006
20
0.0272492
40
0.4881916
50
60.145586
51
75.1888407
0
ARC
8
DEFAULT_255_1_234
10
15.7034781
20
0.0549199
40
0.4562893
50
26.5253612
51
60.1450928
0
ARC
8
DEFAULT_255_1_234
10
15.591453
20
-0.0044842
40
0.5830602
50
7.4030428
51
26.8320788
0
ARC
8
DEFAULT_255_1_234
10
15.4320287
20
-0.0293196
40
0.7443669
50
0.1605367
51
7.7176192
0
ARC
8
DEFAULT_255_1_234
10
15.4484191
20
-0.1057566
40
0.7279835
50
348.7289388
51
0.3012466
0
ARC
8
DEFAULT_255_1_234
10
15.6140622
20
-0.1386614
40
0.559104
50
333.0706509
51
348.7181832
0
ARC
8
DEFAULT_255_1_234
10
15.7107379
20
-0.1911681
40
0.4491417
50
299.2531685
51
333.4571258
0
ARC
8
DEFAULT_255_1_234
10
15.6746519
20
-0.1226172
40
0.5265881
50
278.107187
51
299.0339503
0
ARC
8
DEFAULT_255_1_234
10
15.6490598
20
0.0281216
40
0.679442
50
270.4443897
51
278.4511052
0
ARC
8
DEFAULT_255_1_234
10
15.6511428
20
-0.0647787
40
0.4604407
50
269.4970433
51
284.0205042
0
ARC
8
DEFAULT_255_1_234
10
15.6866729
20
-0.2013022
40
0.3193797
50
283.7700273
51
318.1555492
0
ARC
8
DEFAULT_255_1_234
10
15.6529487
20
-0.1760633
40
0.3613588
50
318.7415601
51
343.6873628
0
ARC
8
DEFAULT_255_1_234
10
15.4725511
20
-0.1197168
40
0.5503313
50
343.3325091
51
355.8548958
0
ARC
8
DEFAULT_255_1_234
10
15.2627195
20
-0.0997681
40
0.7610708
50
355.4988528
51
0.0791727
0
ARC
8
DEFAULT_255_1_234
10
15.3409818
20
-0.026222
40
0.6828208
50
359.6455037
51
9.8607896
0
ARC
8
DEFAULT_255_1_234
10
15.5770515
20
0.0164099
40
0.4429406
50
9.6571907
51
26.1932807
0
ARC
8
DEFAULT_255_1_234
10
15.6698504
20
0.0595118
40
0.3406537
50
26.5777228
51
40.1532208
0
ARC
8
DEFAULT_255_1_234
10
15.695423
20
0.0794619
40
0.308246
50
40.3840491
51
80.1431104
0
ARC
8
DEFAULT_255_1_234
10
15.6627348
20
-0.0654667
40
0.4566909
50
79.2152159
51
89.7445637
0
LINE
8
DEFAULT_255_1_234
10
17.1369884
20
-0.5300208
11
17.1369884
21
-0.6513
0
LINE
8
DEFAULT_255_1_234
10
17.1369884
20
-0.6513
11
16.3707606
21
-0.6513
0
LINE
8
DEFAULT_255_1_234
10
16.3707606
20
-0.6513
11
16.3707606
21
-0.5444779
0
LINE
8
DEFAULT_255_1_234
10
16.3707606
20
-0.5444779
11
16.7755602
21
-0.0947005
0
LINE
8
DEFAULT_255_1_234
10
16.4968589
20
0.1735595
11
16.3482717
21
0.1735595
0
LINE
8
DEFAULT_255_1_234
10
16.8631062
20
-0.1902782
11
16.5498684
21
-0.5300208
0
LINE
8
DEFAULT_255_1_234
10
16.5498684
20
-0.5300208
11
17.1369884
21
-0.5300208
0
ARC
8
DEFAULT_255_1_234
10
15.4265435
20
1.0982527
40
1.8008286
50
318.5132453
51
320.7828378
0
ARC
8
DEFAULT_255_1_234
10
15.955241
20
0.6679426
40
1.1191493
50
320.7372736
51
323.9737074
0
ARC
8
DEFAULT_255_1_234
10
16.3472266
20
0.3839361
40
0.6350923
50
323.8961724
51
328.6421089
0
ARC
8
DEFAULT_255_1_234
10
16.5518862
20
0.2577031
40
0.3946393
50
328.8299013
51
331.789948
0
ARC
8
DEFAULT_255_1_234
10
16.651604
20
0.2062509
40
0.2824501
50
331.4255242
51
352.9364833
0
ARC
8
DEFAULT_255_1_234
10
16.6652541
20
0.2031976
40
0.2685315
50
353.2248685
51
0.0169286
0
ARC
8
DEFAULT_255_1_234
10
16.6862417
20
0.205495
40
0.2475536
50
359.4866256
51
15.9339782
0
ARC
8
DEFAULT_255_1_234
10
16.7369403
20
0.2191286
40
0.1950618
50
16.1714718
51
43.5284424
0
ARC
8
DEFAULT_255_1_234
10
16.7446711
20
0.2268573
40
0.184134
50
43.4415429
51
83.1661404
0
ARC
8
DEFAULT_255_1_234
10
16.731263
20
0.1531771
40
0.258926
50
82.160215
51
90.1505798
0
ARC
8
DEFAULT_255_1_234
10
16.7281057
20
0.0994865
40
0.3126255
50
89.5460705
51
102.5418777
0
ARC
8
DEFAULT_255_1_234
10
16.7038143
20
0.2025665
40
0.2067346
50
102.1739365
51
129.2061916
0
ARC
8
DEFAULT_255_1_234
10
16.6959215
20
0.2150094
40
0.1921118
50
129.7279328
51
135.7542026
0
ARC
8
DEFAULT_255_1_234
10
16.7080742
20
0.2053045
40
0.2075944
50
136.175737
51
166.3674722
0
ARC
8
DEFAULT_255_1_234
10
16.8087662
20
0.1783182
40
0.3118201
50
165.9092917
51
178.8683903
0
ARC
8
DEFAULT_255_1_234
10
16.8952523
20
0.1736179
40
0.3983935
50
178.438168
51
180.0083905
0
ARC
8
DEFAULT_255_1_234
10
16.7551125
20
0.1775231
40
0.4068601
50
163.2878735
51
180.5581814
0
ARC
8
DEFAULT_255_1_234
10
16.6749386
20
0.199584
40
0.3237344
50
133.454115
51
162.9470031
0
ARC
8
DEFAULT_255_1_234
10
16.6927928
20
0.1806
40
0.349795
50
100.7869394
51
133.4384016
0
ARC
8
DEFAULT_255_1_234
10
16.7275699
20
0.0257319
40
0.5084616
50
89.6605301
51
101.3704185
0
ARC
8
DEFAULT_255_1_234
10
16.7342038
20
0.0318496
40
0.502348
50
78.2171172
51
90.4130393
0
ARC
8
DEFAULT_255_1_234
10
16.7697116
20
0.1942637
40
0.3361092
50
55.9268222
51
78.4888551
0
ARC
8
DEFAULT_255_1_234
10
16.7893557
20
0.2281324
40
0.2970617
50
47.9292255
51
55.4054003
0
ARC
8
DEFAULT_255_1_234
10
16.7995117
20
0.2384502
40
0.2825983
50
4.3347696
51
48.0560701
0
ARC
8
DEFAULT_255_1_234
10
16.6899511
20
0.2214601
40
0.393225
50
359.925209
51
5.5967654
0
ARC
8
DEFAULT_255_1_234
10
16.7328403
20
0.2270816
40
0.3503892
50
337.8914096
51
358.9967724
0
ARC
8
DEFAULT_255_1_234
10
16.4614815
20
0.3317706
40
0.6412172
50
326.9135351
51
338.3505194
0
ARC
8
DEFAULT_255_1_234
10
16.0629118
20
0.5872284
40
1.1146189
50
319.6472867
51
327.095818
0
ARC
8
DEFAULT_255_1_234
10
15.6796122
20
0.9034
40
1.6114559
50
317.2586784
51
319.9046139
0
LINE
8
DEFAULT_255_1_234
10
17.7626608
20
-0.1934909
11
17.4871722
21
-0.1934909
0
LINE
8
DEFAULT_255_1_234
10
17.4871722
20
-0.1934909
11
17.4871722
21
-0.6513
0
LINE
8
DEFAULT_255_1_234
10
17.4871722
20
-0.6513
11
17.3329628
21
-0.6513
0
LINE
8
DEFAULT_255_1_234
10
17.3329628
20
-0.6513
11
17.3329628
21
0.5181211
0
LINE
8
DEFAULT_255_1_234
10
17.3329628
20
0.5181211
11
17.7642672
21
0.5181211
0
LINE
8
DEFAULT_255_1_234
10
17.4871722
20
0.3912196
11
17.4871722
21
-0.0673926
0
LINE
8
DEFAULT_255_1_234
10
17.4871722
20
-0.0673926
11
17.7642672
21
-0.0673926
0
LINE
8
DEFAULT_255_1_234
10
17.7731021
20
0.3912196
11
17.4871722
21
0.3912196
0
ARC
8
DEFAULT_255_1_234
10
17.7684799
20
-0.0877805
40
0.6059162
50
78.8378113
51
90.3983573
0
ARC
8
DEFAULT_255_1_234
10
17.8100812
20
0.1142879
40
0.3996205
50
58.9632738
51
79.0810598
0
ARC
8
DEFAULT_255_1_234
10
17.8402355
20
0.1702721
40
0.3361177
50
48.0197965
51
58.447194
0
ARC
8
DEFAULT_255_1_234
10
17.8491215
20
0.1788225
40
0.3238191
50
3.3375044
51
48.1766626
0
ARC
8
DEFAULT_255_1_234
10
17.7261055
20
0.1611171
40
0.4477806
50
359.9477528
51
4.6829065
0
ARC
8
DEFAULT_255_1_234
10
17.7384372
20
0.1568628
40
0.4354656
50
346.1877825
51
0.5060252
0
ARC
8
DEFAULT_255_1_234
10
17.8743239
20
0.1215731
40
0.295089
50
310.8831995
51
346.5426355
0
ARC
8
DEFAULT_255_1_234
10
17.843466
20
0.1632695
40
0.3468331
50
286.6925341
51
310.2288297
0
ARC
8
DEFAULT_255_1_234
10
17.786549
20
0.3422882
40
0.5346654
50
274.6850312
51
287.0245141
0
ARC
8
DEFAULT_255_1_234
10
17.7640213
20
0.5631932
40
0.7566852
50
269.8969846
51
275.018904
0
ARC
8
DEFAULT_255_1_234
10
17.7667805
20
0.3552707
40
0.4226708
50
269.6593078
51
279.4153575
0
ARC
8
DEFAULT_255_1_234
10
17.792508
20
0.2062133
40
0.2714146
50
279.2049762
51
294.9900808
0
ARC
8
DEFAULT_255_1_234
10
17.8215406
20
0.1414508
40
0.2004525
50
295.2888114
51
311.2911209
0
ARC
8
DEFAULT_255_1_234
10
17.82863
20
0.130922
40
0.1878703
50
311.7854996
51
347.2861051
0
ARC
8
DEFAULT_255_1_234
10
17.7302458
20
0.1562092
40
0.2894234
50
346.6893224
51
0.1059443
0
ARC
8
DEFAULT_255_1_234
10
17.6547353
20
0.1590685
40
0.3649409
50
359.6350983
51
0.0053152
0
ARC
8
DEFAULT_255_1_234
10
17.7517682
20
0.1615937
40
0.2679199
50
359.4672059
51
15.5933957
0
ARC
8
DEFAULT_255_1_234
10
17.814257
20
0.1784779
40
0.2031932
50
15.7442113
51
46.6203375
0
ARC
8
DEFAULT_255_1_234
10
17.7994791
20
0.1614484
40
0.2257226
50
46.8628658
51
75.6676503
0
ARC
8
DEFAULT_255_1_234
10
17.7700612
20
0.0555718
40
0.3355939
50
75.276167
51
88.2915297
0
ARC
8
DEFAULT_255_1_234
10
17.7642318
20
-0.0322476
40
0.4235602
50
87.8575022
51
88.8000139
0
ARC
8
DEFAULT_255_2_778
10
20.2534188
20
152.3616525
40
0.3580657
50
89.9945037
51
180.0054963
0
ARC
8
DEFAULT_255_2_778
10
20.2534875
20
152.3616525
40
0.3580657
50
359.9945037
51
90.0054963
0
ARC
8
DEFAULT_255_2_778
10
20.2534875
20
152.3615838
40
0.3580657
50
269.9945037
51
0.0054963
0
ARC
8
DEFAULT_255_2_778
10
20.2534188
20
152.3615838
40
0.3580657
50
179.9945037
51
270.0054963
0
ARC
8
DEFAULT_255_2_778
10
22.9622406
20
152.093282
40
2.3282817
50
111.9150345
51
128.7655504
0
ARC
8
DEFAULT_255_2_778
10
22.8791007
20
152.225352
40
2.1733214
50
129.2366206
51
154.7721516
0
ARC
8
DEFAULT_255_2_778
10
23.480657
20
151.9295583
40
2.8435961
50
154.5467617
51
165.9285636
0
ARC
8
DEFAULT_255_2_778
10
23.9646902
20
151.7921212
40
3.3465569
50
165.6609748
51
166.525375
0
ARC
8
DEFAULT_255_2_778
10
21.5282291
20
153.0103171
40
1.414623
50
156.0627036
51
175.7189082
0
ARC
8
DEFAULT_255_2_778
10
22.1164502
20
152.756783
40
2.0551309
50
144.7505594
51
156.2560535
0
ARC
8
DEFAULT_255_2_778
10
22.8861799
20
152.2214863
40
2.9926766
50
137.345293
51
144.8863205
0
ARC
8
DEFAULT_255_2_778
10
23.8131446
20
151.3723407
40
4.2497776
50
131.6389266
51
137.393651
0
ARC
8
DEFAULT_255_2_778
10
24.5393492
20
150.5756248
40
5.3277326
50
130.1334351
51
131.7826198
0
LINE
8
DEFAULT_255_2_778
10
19.8953532
20
152.3616182
11
19.8953532
21
152.3616182
0
LINE
8
DEFAULT_255_2_778
10
21.1052532
20
154.6489182
11
22.0932532
21
154.2533182
0
LINE
8
DEFAULT_255_2_778
10
20.7102532
20
152.5719182
11
20.1175532
21
153.1159182
0
LINE
8
DEFAULT_255_2_778
10
21.1052532
20
154.6489182
11
21.1052532
21
154.6489182
0
ARC
8
DEFAULT_255_2_778
10
13.7594907
20
153.1851437
40
0.8717226
50
88.9281645
51
133.9885749
0
ARC
8
DEFAULT_255_2_778
10
13.7757454
20
152.9600604
40
1.0966534
50
88.9487005
51
89.9972984
0
ARC
8
DEFAULT_255_2_778
10
13.7953
20
153.2555011
40
0.8010283
50
72.1310318
51
89.9594908
0
ARC
8
DEFAULT_255_2_778
10
13.8705373
20
153.5125083
40
0.5333823
50
60.6505783
51
71.3519493
0
ARC
8
DEFAULT_255_2_778
10
13.9543387
20
153.6396349
40
0.3816498
50
20.3938858
51
62.2625554
0
ARC
8
DEFAULT_255_2_778
10
14.9704645
20
153.1516628
40
0.9050345
50
89.7568633
51
136.6758865
0
ARC
8
DEFAULT_255_2_778
10
14.9742773
20
153.0340709
40
1.0226182
50
88.9864436
51
89.9984426
0
ARC
8
DEFAULT_255_2_778
10
14.992248
20
153.273192
40
0.7833372
50
71.373585
51
89.9913488
0
ARC
8
DEFAULT_255_2_778
10
15.0841803
20
153.552042
40
0.489734
50
42.2193789
51
71.1458349
0
ARC
8
DEFAULT_255_2_778
10
15.0590908
20
153.5445658
40
0.5134635
50
8.5226311
51
40.9558105
0
ARC
8
DEFAULT_255_2_778
10
14.7367896
20
153.4793045
40
0.8420446
50
359.6942069
51
9.6641803
0
ARC
8
DEFAULT_255_2_778
10
14.4472507
20
153.4763277
40
1.1315727
50
355.5855084
51
359.923173
0
ARC
8
DEFAULT_255_2_778
10
14.2502845
20
153.4486289
40
0.7547163
50
352.4548626
51
359.7652122
0
ARC
8
DEFAULT_255_2_778
10
14.4078893
20
153.4457192
40
0.5971052
50
359.9824407
51
2.1700815
0
ARC
8
DEFAULT_255_2_778
10
14.8167551
20
153.4615752
40
0.1879327
50
2.0595693
51
88.944897
0
ARC
8
DEFAULT_255_2_778
10
14.7529878
20
153.1742725
40
0.4799353
50
81.9476992
51
88.9638763
0
ARC
8
DEFAULT_255_2_778
10
14.7641352
20
153.1681844
40
0.4859511
50
90.2910974
51
140.7094043
0
ARC
8
DEFAULT_255_2_778
10
14.950423
20
152.9753111
40
0.7529164
50
138.3264016
51
141.8088804
0
ARC
8
DEFAULT_255_2_778
10
13.0111845
20
153.4452289
40
0.7547163
50
352.4548626
51
359.7652122
0
ARC
8
DEFAULT_255_2_778
10
13.1687893
20
153.4423192
40
0.5971052
50
359.9824407
51
2.1700815
0
ARC
8
DEFAULT_255_2_778
10
13.5767327
20
153.4591775
40
0.1888212
50
1.7455696
51
88.6065628
0
ARC
8
DEFAULT_255_2_778
10
13.5151974
20
153.1828897
40
0.469731
50
81.9072271
51
88.8693446
0
ARC
8
DEFAULT_255_2_778
10
13.5126914
20
153.1428568
40
0.5098084
50
88.6765396
51
89.9981553
0
ARC
8
DEFAULT_255_2_778
10
13.5179114
20
153.1464569
40
0.5062351
50
90.5889431
51
134.9317856
0
ARC
8
DEFAULT_255_2_778
10
13.6708307
20
152.9560835
40
0.749469
50
132.9288129
51
135.7848647
0
LINE
8
DEFAULT_255_2_778
10
12.6682663
20
154.0224292
11
13.2005663
21
154.0240292
0
LINE
8
DEFAULT_255_2_778
10
13.2005663
20
154.0240292
11
13.1540663
21
153.8123292
0
LINE
8
DEFAULT_255_2_778
10
15.5754663
20
153.3892292
11
15.5715663
21
153.3464292
0
LINE
8
DEFAULT_255_2_778
10
15.5715663
20
153.3464292
11
15.3386663
21
152.1610292
0
LINE
8
DEFAULT_255_2_778
10
15.3386663
20
152.1610292
11
14.7655663
21
152.1610292
0
LINE
8
DEFAULT_255_2_778
10
14.7655663
20
152.1610292
11
14.9984663
21
153.3495292
0
LINE
8
DEFAULT_255_2_778
10
14.3586663
20
153.4408292
11
14.3525663
21
153.4014292
0
LINE
8
DEFAULT_255_2_778
10
14.3525663
20
153.4014292
11
14.0975663
21
152.1610292
0
LINE
8
DEFAULT_255_2_778
10
14.0975663
20
152.1610292
11
13.5265663
21
152.1610292
0
LINE
8
DEFAULT_255_2_778
10
13.5265663
20
152.1610292
11
13.7593663
21
153.3461292
0
LINE
8
DEFAULT_255_2_778
10
13.1336663
20
153.4787292
11
12.8603663
21
152.1610292
0
LINE
8
DEFAULT_255_2_778
10
12.8603663
20
152.1610292
11
12.2893663
21
152.1610292
0
LINE
8
DEFAULT_255_2_778
10
12.2893663
20
152.1610292
11
12.6679663
21
154.0221292
0
LINE
8
DEFAULT_255_2_778
10
12.6679663
20
154.0221292
11
12.6682663
21
154.0224292
0
ARC
8
DEFAULT_255_2_778
10
16.6200275
20
152.8718402
40
1.1831221
50
72.5008211
51
90.0103536
0
ARC
8
DEFAULT_255_2_778
10
16.6947507
20
153.1348399
40
0.9098586
50
60.3242318
51
72.0085714
0
ARC
8
DEFAULT_255_2_778
10
16.7751012
20
153.2553126
40
0.7654736
50
24.9543019
51
61.0852427
0
ARC
8
DEFAULT_255_2_778
10
16.6805748
20
153.2134465
40
0.8688408
50
359.4872778
51
24.8275177
0
ARC
8
DEFAULT_255_2_778
10
16.4736953
20
153.2070476
40
1.0756863
50
353.6171666
51
359.9267064
0
ARC
8
DEFAULT_255_2_778
10
16.4716377
20
153.1770267
40
1.0748142
50
309.833105
51
355.2199932
0
ARC
8
DEFAULT_255_2_778
10
16.4130984
20
153.2436469
40
1.1634726
50
274.0073872
51
309.9453537
0
ARC
8
DEFAULT_255_2_778
10
16.3618842
20
153.6121028
40
1.5348158
50
269.9462811
51
274.9533663
0
ARC
8
DEFAULT_255_2_778
10
16.3604794
20
153.7358871
40
1.6585995
50
269.1686307
51
269.9988202
0
ARC
8
DEFAULT_255_2_778
10
16.3365813
20
153.2483263
40
1.170864
50
252.1092944
51
269.9918014
0
ARC
8
DEFAULT_255_2_778
10
16.2643696
20
152.9980397
40
0.9105332
50
240.5370236
51
251.5952644
0
ARC
8
DEFAULT_255_2_778
10
16.1851911
20
152.8762089
40
0.7655666
50
205.2400495
51
241.211713
0
ARC
8
DEFAULT_255_2_778
10
16.2644037
20
152.9133751
40
0.8530649
50
179.5368594
51
205.2293562
0
ARC
8
DEFAULT_255_2_778
10
16.4511084
20
152.9189748
40
1.0397424
50
173.5174505
51
179.9285896
0
ARC
8
DEFAULT_255_2_778
10
16.6391783
20
152.9076758
40
1.2279263
50
153.4099026
51
173.9843619
0
ARC
8
DEFAULT_255_2_778
10
16.479572
20
152.9754448
40
1.0549233
50
129.6863931
51
152.8211827
0
ARC
8
DEFAULT_255_2_778
10
16.5416975
20
152.9048495
40
1.1489256
50
92.7623759
51
129.8224215
0
ARC
8
DEFAULT_255_2_778
10
16.5842285
20
152.5614549
40
1.494196
50
89.9700369
51
93.7568045
0
ARC
8
DEFAULT_255_2_778
10
16.5848986
20
152.4598597
40
1.5957911
50
88.7355209
51
89.9960014
0
ARC
8
DEFAULT_255_2_778
10
16.4400613
20
152.851603
40
0.4277578
50
179.6036168
51
209.4859363
0
ARC
8
DEFAULT_255_2_778
10
16.339416
20
152.8046836
40
0.3171735
50
211.0570865
51
223.1755117
0
ARC
8
DEFAULT_255_2_778
10
16.3473605
20
152.8226914
40
0.3353769
50
224.4904912
51
268.822899
0
ARC
8
DEFAULT_255_2_778
10
16.3773279
20
153.0346578
40
0.5485121
50
266.1471365
51
268.8180779
0
ARC
8
DEFAULT_255_2_778
10
16.3834514
20
153.1642665
40
0.6782284
50
268.5267288
51
269.9955114
0
ARC
8
DEFAULT_255_2_778
10
16.3990205
20
152.9737446
40
0.4879566
50
268.1653241
51
325.4286401
0
ARC
8
DEFAULT_255_2_778
10
16.1704675
20
153.1403589
40
0.7707306
50
324.8706977
51
351.0886768
0
ARC
8
DEFAULT_255_2_778
10
15.7623164
20
153.219259
40
1.1862684
50
350.3775551
51
0.2885744
0
ARC
8
DEFAULT_255_2_778
10
15.4717168
20
153.2249545
40
1.4768528
50
0.0108339
51
1.7075744
0
ARC
8
DEFAULT_255_2_778
10
16.4932944
20
153.2598407
40
0.4547108
50
1.1494496
51
31.2166939
0
ARC
8
DEFAULT_255_2_778
10
16.5878459
20
153.3067329
40
0.3496592
50
32.6753678
51
41.7495025
0
ARC
8
DEFAULT_255_2_778
10
16.6094593
20
153.3153938
40
0.3278631
50
43.1354862
51
88.8367492
0
ARC
8
DEFAULT_255_2_778
10
16.5789315
20
153.1030566
40
0.5414112
50
86.0618601
51
88.8694569
0
ARC
8
DEFAULT_255_2_778
10
16.5725619
20
153.0017668
40
0.6428217
50
88.4799611
51
89.9943311
0
ARC
8
DEFAULT_255_2_778
10
16.5615507
20
153.1550787
40
0.4896349
50
88.7039519
51
145.0513377
0
ARC
8
DEFAULT_255_2_778
10
16.7596336
20
153.0017936
40
0.7399051
50
144.1087108
51
170.2824956
0
ARC
8
DEFAULT_255_2_778
10
17.1861932
20
152.9146764
40
1.1751307
50
169.6063184
51
180.3528002
0
ARC
8
DEFAULT_255_2_778
10
17.5222659
20
152.9078441
40
1.5111813
50
180.0153016
51
182.009194
0
LINE
8
DEFAULT_255_2_778
10
16.6201137
20
154.0552623
11
16.6198137
21
154.0549623
0
LINE
8
DEFAULT_255_2_778
10
16.0120137
20
152.8548623
11
16.0123137
21
152.8545623
0
ARC
8
DEFAULT_255_2_778
10
18.587937
20
151.9330854
40
1.642039
50
81.2830361
51
86.628458
0
ARC
8
DEFAULT_255_2_778
10
18.6429757
20
152.7715313
40
0.8018272
50
87.0310432
51
89.8986713
0
ARC
8
DEFAULT_255_2_778
10
18.6242064
20
152.6828997
40
0.8906863
50
88.7012797
51
89.9954117
0
ARC
8
DEFAULT_255_2_778
10
18.6103452
20
152.9271623
40
0.6465738
50
88.765285
51
116.6201427
0
ARC
8
DEFAULT_255_2_778
10
18.5802548
20
153.0111694
40
0.5580924
50
117.7228833
51
138.7756782
0
ARC
8
DEFAULT_255_2_778
10
18.7590475
20
153.3773707
40
0.6980151
50
116.489914
51
143.0810972
0
ARC
8
DEFAULT_255_2_778
10
18.7053938
20
153.4574223
40
0.6025621
50
89.4580016
51
115.3188873
0
ARC
8
DEFAULT_255_2_778
10
18.6965205
20
153.1226885
40
0.9373821
50
77.9674605
51
89.1092017
0
ARC
8
DEFAULT_255_2_778
10
18.6028478
20
152.5921466
40
1.4759175
50
78.008513
51
78.7045202
0
LINE
8
DEFAULT_255_2_778
10
18.9094938
20
154.0361573
11
18.8367938
21
153.5561573
0
LINE
8
DEFAULT_255_2_778
10
18.1604938
20
153.3789573
11
17.9072938
21
152.1610573
0
LINE
8
DEFAULT_255_2_778
10
17.9072938
20
152.1610573
11
17.3362938
21
152.1610573
0
LINE
8
DEFAULT_255_2_778
10
17.3362938
20
152.1610573
11
17.7169938
21
154.0221573
0
LINE
8
DEFAULT_255_2_778
10
17.7169938
20
154.0221573
11
18.2535938
21
154.0237573
0
LINE
8
DEFAULT_255_2_778
10
18.2535938
20
154.0237573
11
18.2009938
21
153.7966573
0
LINE
8
DEFAULT_255_2_778
10
18.9094938
20
154.0358573
11
18.9094938
21
154.0361573
0
ARC
8
DEFAULT_255_2_778
10
19.1571667
20
153.247675
40
1.1701724
50
250.1393411
51
270.3226852
0
ARC
8
DEFAULT_255_2_778
10
19.1022051
20
153.0678343
40
0.9824012
50
242.0502734
51
249.5907868
0
ARC
8
DEFAULT_255_2_778
10
19.001531
20
152.9083015
40
0.794417
50
208.3292132
51
243.0715083
0
ARC
8
DEFAULT_255_2_778
10
18.9937252
20
152.8992929
40
0.7832826
50
179.5739013
51
208.0201199
0
ARC
8
DEFAULT_255_2_778
10
19.1404713
20
152.9043153
40
0.9300073
50
174.3657638
51
179.9505495
0
ARC
8
DEFAULT_255_2_778
10
19.3222378
20
152.94618
40
1.1074063
50
145.2485417
51
173.7769976
0
ARC
8
DEFAULT_255_2_778
10
19.3043239
20
152.9706177
40
1.0788028
50
116.4826416
51
145.7726174
0
ARC
8
DEFAULT_255_2_778
10
19.3348976
20
152.9009316
40
1.1548163
50
89.3335424
51
116.2986099
0
ARC
8
DEFAULT_255_2_778
10
19.3482483
20
152.6585133
40
1.3971563
50
88.7200635
51
89.9966493
0
ARC
8
DEFAULT_255_2_778
10
19.3739264
20
152.9429187
40
1.1124162
50
73.6937809
51
89.7151452
0
ARC
8
DEFAULT_255_2_778
10
19.4851962
20
153.3148827
40
0.7241771
50
40.439997
51
73.880282
0
ARC
8
DEFAULT_255_2_778
10
19.4519455
20
153.2930624
40
0.7636535
50
0.3396925
51
40.0677766
0
ARC
8
DEFAULT_255_2_778
10
19.2144824
20
153.2694788
40
1.0014977
50
359.9940332
51
1.608453
0
ARC
8
DEFAULT_255_2_778
10
19.0855644
20
153.2716523
40
1.1304181
50
353.1542739
51
359.8845474
0
ARC
8
DEFAULT_255_2_778
10
18.9436927
20
153.2861317
40
1.2730067
50
352.3796891
51
353.2683443
0
ARC
8
DEFAULT_255_2_778
10
19.1535012
20
152.8476797
40
0.3608489
50
171.5634883
51
179.9015639
0
ARC
8
DEFAULT_255_2_778
10
19.1262943
20
152.8518702
40
0.3336607
50
180.6131262
51
227.843893
0
ARC
8
DEFAULT_255_2_778
10
19.2043051
20
153.1135151
40
0.5918171
50
239.3225098
51
268.8255118
0
ARC
8
DEFAULT_255_2_778
10
19.2271512
20
153.3469016
40
0.8258202
50
267.5725716
51
270.0162941
0
ARC
8
DEFAULT_255_2_778
10
19.2268973
20
153.4306346
40
0.9095533
50
270.0307885
51
273.2244191
0
ARC
8
DEFAULT_255_2_778
10
19.2542379
20
152.7702649
40
0.2488861
50
275.4917641
51
302.3582203
0
ARC
8
DEFAULT_255_2_778
10
19.3200418
20
152.6543063
40
0.115896
50
305.561706
51
314.7657745
0
ARC
8
DEFAULT_255_2_778
10
19.3095773
20
152.6871064
40
0.1473882
50
308.6632861
51
359.3837416
0
ARC
8
DEFAULT_255_2_778
10
17.807225
20
154.4097828
40
2.962762
50
318.8021847
51
324.4102292
0
ARC
8
DEFAULT_255_2_778
10
18.7925821
20
153.5414505
40
1.6494092
50
310.4033061
51
318.953359
0
ARC
8
DEFAULT_255_2_778
10
19.3188808
20
152.9148187
40
0.831118
50
295.9312381
51
310.7744109
0
ARC
8
DEFAULT_255_2_778
10
19.4407027
20
152.6859771
40
0.5721233
50
294.3678437
51
294.9811966
0
ARC
8
DEFAULT_255_2_778
10
19.1940828
20
153.4529614
40
1.3756016
50
269.5724547
51
290.5412856
0
ARC
8
DEFAULT_255_2_778
10
19.1838577
20
153.6712488
40
1.5938505
50
269.2881822
51
269.9985732
0
ARC
8
DEFAULT_255_2_778
10
19.3390649
20
153.0846819
40
0.5598634
50
88.7931239
51
89.9984438
0
ARC
8
DEFAULT_255_2_778
10
19.3326983
20
153.1815553
40
0.463034
50
89.2102909
51
125.5845733
0
ARC
8
DEFAULT_255_2_778
10
19.4008068
20
153.1098825
40
0.5611219
50
126.9818839
51
147.669232
0
ARC
8
DEFAULT_255_2_778
10
19.876359
20
152.7901894
40
1.1340353
50
146.870707
51
156.2884785
0
ARC
8
DEFAULT_255_2_778
10
19.2333366
20
153.3683392
40
0.4293753
50
349.7481736
51
359.8266598
0
ARC
8
DEFAULT_255_2_778
10
19.2961469
20
153.3675983
40
0.3665636
50
359.9127606
51
9.1392387
0
ARC
8
DEFAULT_255_2_778
10
19.4131569
20
153.3820587
40
0.2487794
50
10.1315408
51
54.8294252
0
ARC
8
DEFAULT_255_2_778
10
19.3593417
20
153.2862413
40
0.3582778
50
56.6210187
51
91.3472693
0
LINE
8
DEFAULT_255_2_778
10
18.2149569
20
152.9956211
11
18.2213569
21
153.0662211
0
LINE
8
DEFAULT_255_2_778
10
20.2054569
20
153.1173211
11
20.1723569
21
152.9006211
0
LINE
8
DEFAULT_255_2_778
10
20.1723569
20
152.9006211
11
18.7965569
21
152.9006211
0
LINE
8
DEFAULT_255_2_778
10
19.4569569
20
152.6855211
11
20.2165569
21
152.6855211
0
LINE
8
DEFAULT_255_2_778
10
18.8380569
20
153.2462211
11
19.6434569
21
153.2462211
0
LINE
8
DEFAULT_255_2_778
10
19.6434569
20
153.2462211
11
19.6558569
21
153.2919211
0
LINE
8
DEFAULT_255_2_778
10
11.4252281
20
153.8330177
11
12.8081281
21
153.0170177
0
LINE
8
DEFAULT_255_2_778
10
12.8081281
20
153.0170177
11
11.2770281
21
152.4236177
0
LINE
8
DEFAULT_255_2_778
10
11.2770281
20
152.4236177
11
11.5979281
21
153.1406177
0
LINE
8
DEFAULT_255_2_778
10
11.5979281
20
153.1406177
11
11.4252281
21
153.8330177
0
ARC
8
DEFAULT_255_2_778
10
7.8633492
20
153.5526349
40
1.734445
50
345.0500681
51
0.450213
0
ARC
8
DEFAULT_255_2_778
10
8.1424128
20
153.4884315
40
1.4482985
50
339.8011311
51
344.6559926
0
ARC
8
DEFAULT_255_2_778
10
8.2241959
20
153.4429595
40
1.3559213
50
318.9869254
51
340.4112117
0
ARC
8
DEFAULT_255_2_778
10
8.3403786
20
153.3550223
40
1.2105876
50
317.7755753
51
318.5188915
0
ARC
8
DEFAULT_255_2_778
10
8.3677776
20
153.3291224
40
1.1728926
50
293.4453171
51
317.8130059
0
ARC
8
DEFAULT_255_2_778
10
8.3381728
20
153.4073502
40
1.2564472
50
269.4376299
51
293.2645473
0
ARC
8
DEFAULT_255_2_778
10
8.6390116
20
153.6154305
40
1.0182316
50
68.112945
51
90.7974227
0
ARC
8
DEFAULT_255_2_778
10
8.6827218
20
153.7507759
40
0.8764035
50
66.6600337
51
67.4660887
0
ARC
8
DEFAULT_255_2_778
10
8.6950616
20
153.7625129
40
0.860764
50
41.8199578
51
67.1046866
0
ARC
8
DEFAULT_255_2_778
10
8.5939144
20
153.6862866
40
0.9870277
50
18.4442061
51
41.2024761
0
ARC
8
DEFAULT_255_2_778
10
8.2913394
20
153.5826986
40
1.3068358
50
359.9236227
51
18.5554774
0
ARC
8
DEFAULT_255_2_778
10
7.9767371
20
153.5662824
40
1.6215036
50
359.9993331
51
0.5185192
0
ARC
8
DEFAULT_255_2_778
10
8.1161265
20
153.5724191
40
1.1556879
50
359.3527282
51
15.3461488
0
ARC
8
DEFAULT_255_2_778
10
8.3555709
20
153.6275091
40
0.9102591
50
15.9909101
51
17.2384514
0
ARC
8
DEFAULT_255_2_778
10
8.5215656
20
153.6909942
40
0.7329962
50
16.3441173
51
39.0583428
0
ARC
8
DEFAULT_255_2_778
10
8.6385861
20
153.7765513
40
0.5882641
50
39.7694118
51
66.0014919
0
ARC
8
DEFAULT_255_2_778
10
8.6052911
20
153.6835083
40
0.6868457
50
66.6208799
51
90.9301944
0
ARC
8
DEFAULT_255_2_778
10
8.3674619
20
153.2785777
40
0.865983
50
269.2774049
51
294.6427005
0
ARC
8
DEFAULT_255_2_778
10
8.3809787
20
153.2305801
40
0.8167574
50
295.184769
51
321.1699914
0
ARC
8
DEFAULT_255_2_778
10
8.188821
20
153.3770326
40
1.0582969
50
321.5163412
51
341.7776814
0
ARC
8
DEFAULT_255_2_778
10
7.8940618
20
153.4925931
40
1.374523
50
341.044332
51
342.4824039
0
ARC
8
DEFAULT_255_2_778
10
7.7898077
20
153.5142334
40
1.4804949
50
342.8981919
51
356.6952858
0
ARC
8
DEFAULT_255_2_778
10
7.2862441
20
153.5579849
40
1.9857973
50
356.2725814
51
0.0484329
0
LINE
8
DEFAULT_255_2_778
10
8.3258407
20
152.1509635
11
7.2765407
21
152.1266635
0
LINE
8
DEFAULT_255_2_778
10
7.2765407
20
152.1266635
11
7.7858407
21
154.6335635
0
LINE
8
DEFAULT_255_2_778
10
7.7858407
20
154.6335635
11
8.6248407
21
154.6335635
0
LINE
8
DEFAULT_255_2_778
10
9.5982407
20
153.5662635
11
9.5977407
21
153.5662635
0
LINE
8
DEFAULT_255_2_778
10
8.5941407
20
154.3702635
11
7.9962407
21
154.3522635
0
LINE
8
DEFAULT_255_2_778
10
7.9962407
20
154.3522635
11
7.6363407
21
152.3740635
0
LINE
8
DEFAULT_255_2_778
10
7.6363407
20
152.3740635
11
8.3565407
21
152.4126635
0
LINE
8
DEFAULT_255_2_778
10
9.2720407
20
153.5596635
11
9.2717407
21
153.5593635
0
ARC
8
DEFAULT_255_2_778
10
10.302374
20
152.954919
40
0.5777251
50
269.3131992
51
298.9193317
0
ARC
8
DEFAULT_255_2_778
10
10.2422898
20
153.0595114
40
0.6983333
50
299.0845099
51
323.1838183
0
ARC
8
DEFAULT_255_2_778
10
10.0730419
20
153.1834915
40
0.9081244
50
323.3206017
51
342.9705556
0
ARC
8
DEFAULT_255_2_778
10
9.9076255
20
153.2409416
40
1.0831324
50
342.6274164
51
0.2324268
0
ARC
8
DEFAULT_255_2_778
10
10.2433391
20
153.2580185
40
0.7475175
50
359.0278167
51
16.1300251
0
ARC
8
DEFAULT_255_2_778
10
10.5672449
20
153.3511392
40
0.4104922
50
16.2042834
51
41.9480466
0
ARC
8
DEFAULT_255_2_778
10
10.5796118
20
153.3429262
40
0.4070383
50
43.9719544
51
85.3997935
0
ARC
8
DEFAULT_255_2_778
10
10.5322186
20
153.0672297
40
0.686108
50
83.300847
51
90.1477804
0
ARC
8
DEFAULT_255_2_778
10
10.5219616
20
153.1719474
40
0.58145
50
89.163628
51
118.6648078
0
ARC
8
DEFAULT_255_2_778
10
10.581079
20
153.0749564
40
0.6949321
50
119.1056578
51
143.2104754
0
ARC
8
DEFAULT_255_2_778
10
10.7542438
20
152.9479766
40
0.9096571
50
143.3373192
51
162.9538381
0
ARC
8
DEFAULT_255_2_778
10
10.9180519
20
152.8909321
40
1.0830106
50
162.6089297
51
180.2167337
0
ARC
8
DEFAULT_255_2_778
10
10.590132
20
152.8741465
40
0.7551896
50
179.037255
51
196.0102976
0
ARC
8
DEFAULT_255_2_778
10
10.2623689
20
152.7806213
40
0.4143448
50
196.0798237
51
221.5429745
0
ARC
8
DEFAULT_255_2_778
10
10.2435386
20
152.7822741
40
0.4015819
50
223.501568
51
264.945498
0
ARC
8
DEFAULT_255_2_778
10
10.2934062
20
153.062423
40
0.6854906
50
262.8561454
51
270.170743
0
ARC
8
DEFAULT_255_2_778
10
10.2496801
20
153.1201733
40
0.993603
50
251.4783364
51
270.6555979
0
ARC
8
DEFAULT_255_2_778
10
10.1671823
20
152.8744369
40
0.7343883
50
228.2272369
51
251.4910714
0
ARC
8
DEFAULT_255_2_778
10
10.1298392
20
152.8237077
40
0.671704
50
202.6960886
51
227.720176
0
ARC
8
DEFAULT_255_2_778
10
10.2495562
20
152.8690656
40
0.7996635
50
179.6456167
51
202.3846702
0
ARC
8
DEFAULT_255_2_778
10
10.5173927
20
152.8852351
40
1.0675438
50
179.9999853
51
180.6023814
0
ARC
8
DEFAULT_255_2_778
10
10.5536721
20
152.892223
40
1.1038452
50
157.230675
51
180.3627006
0
ARC
8
DEFAULT_255_2_778
10
10.5843324
20
152.8826196
40
1.135837
50
135.6908415
51
157.3825693
0
ARC
8
DEFAULT_255_2_778
10
10.5546282
20
152.909315
40
1.0959349
50
113.1058727
51
135.604761
0
ARC
8
DEFAULT_255_2_778
10
10.5551078
20
152.9135049
40
1.0922713
50
89.5047522
51
113.2152626
0
ARC
8
DEFAULT_255_2_778
10
10.5759287
20
153.0104295
40
0.9953709
50
71.5130801
51
90.6550541
0
ARC
8
DEFAULT_255_2_778
10
10.6573575
20
153.2562115
40
0.7364524
50
48.2602918
51
71.4580165
0
ARC
8
DEFAULT_255_2_778
10
10.6956984
20
153.3096961
40
0.6710546
50
22.5497085
51
47.6627683
0
ARC
8
DEFAULT_255_2_778
10
10.5670556
20
153.2603328
40
0.8088011
50
359.0650515
51
22.2845409
0
ARC
8
DEFAULT_255_2_778
10
10.2767028
20
153.2410709
40
1.0990629
50
337.1812514
51
0.316152
0
ARC
8
DEFAULT_255_2_778
10
10.2412655
20
153.2516512
40
1.135837
50
315.6908415
51
337.3825693
0
ARC
8
DEFAULT_255_2_778
10
10.2631229
20
153.2336107
40
1.1075969
50
293.2336194
51
315.5688359
0
ARC
8
DEFAULT_255_2_778
10
10.268874
20
153.2129991
40
1.0863919
50
269.5873092
51
293.383724
0
LINE
8
DEFAULT_255_2_778
10
10.295449
20
152.3769354
11
10.295449
21
152.3772354
0
LINE
8
DEFAULT_255_2_778
10
10.261049
20
152.1266354
11
10.261049
21
152.1266354
0
LINE
8
DEFAULT_255_1_234
10
11.6789879
20
150.6691211
11
11.6789879
21
149.4997
0
LINE
8
DEFAULT_255_1_234
10
11.6789879
20
149.4997
11
11.5239753
21
149.4997
0
LINE
8
DEFAULT_255_1_234
10
11.5239753
20
149.4997
11
11.5239753
21
150.040236
0
LINE
8
DEFAULT_255_1_234
10
11.5239753
20
150.040236
11
10.9344458
21
150.040236
0
LINE
8
DEFAULT_255_1_234
10
10.9344458
20
150.040236
11
10.9344458
21
149.4997
0
LINE
8
DEFAULT_255_1_234
10
10.9344458
20
149.4997
11
10.7802364
21
149.4997
0
LINE
8
DEFAULT_255_1_234
10
10.7802364
20
149.4997
11
10.7802364
21
150.6691211
0
LINE
8
DEFAULT_255_1_234
10
10.7802364
20
150.6691211
11
10.9344458
21
150.6691211
0
LINE
8
DEFAULT_255_1_234
10
10.9344458
20
150.6691211
11
10.9344458
21
150.1663343
0
LINE
8
DEFAULT_255_1_234
10
10.9344458
20
150.1663343
11
11.5239753
21
150.1663343
0
LINE
8
DEFAULT_255_1_234
10
11.5239753
20
150.1663343
11
11.5239753
21
150.6691211
0
LINE
8
DEFAULT_255_1_234
10
11.5239753
20
150.6691211
11
11.6789879
21
150.6691211
0
LINE
8
DEFAULT_255_1_234
10
12.6805457
20
149.6209792
11
12.6805457
21
149.4997
0
LINE
8
DEFAULT_255_1_234
10
12.6805457
20
149.4997
11
11.9143178
21
149.4997
0
LINE
8
DEFAULT_255_1_234
10
11.9143178
20
149.4997
11
11.9143178
21
149.6065221
0
LINE
8
DEFAULT_255_1_234
10
11.9143178
20
149.6065221
11
12.3191174
21
150.0562995
0
LINE
8
DEFAULT_255_1_234
10
12.0404161
20
150.3245595
11
11.891829
21
150.3245595
0
LINE
8
DEFAULT_255_1_234
10
12.4066634
20
149.9607218
11
12.0934256
21
149.6209792
0
LINE
8
DEFAULT_255_1_234
10
12.0934256
20
149.6209792
11
12.6805457
21
149.6209792
0
ARC
8
DEFAULT_255_1_234
10
10.9701008
20
151.2492527
40
1.8008286
50
318.5132453
51
320.7828378
0
ARC
8
DEFAULT_255_1_234
10
11.4987982
20
150.8189426
40
1.1191493
50
320.7372736
51
323.9737074
0
ARC
8
DEFAULT_255_1_234
10
11.8907838
20
150.5349361
40
0.6350923
50
323.8961724
51
328.6421089
0
ARC
8
DEFAULT_255_1_234
10
12.0954434
20
150.4087031
40
0.3946393
50
328.8299013
51
331.789948
0
ARC
8
DEFAULT_255_1_234
10
12.1951612
20
150.3572509
40
0.2824501
50
331.4255242
51
352.9364833
0
ARC
8
DEFAULT_255_1_234
10
12.2088113
20
150.3541976
40
0.2685315
50
353.2248685
51
0.0169286
0
ARC
8
DEFAULT_255_1_234
10
12.229799
20
150.356495
40
0.2475536
50
359.4866256
51
15.9339782
0
ARC
8
DEFAULT_255_1_234
10
12.2804975
20
150.3701286
40
0.1950618
50
16.1714718
51
43.5284424
0
ARC
8
DEFAULT_255_1_234
10
12.2882284
20
150.3778573
40
0.184134
50
43.4415429
51
83.1661404
0
ARC
8
DEFAULT_255_1_234
10
12.2748202
20
150.3041771
40
0.258926
50
82.160215
51
90.1505798
0
ARC
8
DEFAULT_255_1_234
10
12.2716629
20
150.2504865
40
0.3126255
50
89.5460705
51
102.5418777
0
ARC
8
DEFAULT_255_1_234
10
12.2473715
20
150.3535665
40
0.2067346
50
102.1739365
51
129.2061916
0
ARC
8
DEFAULT_255_1_234
10
12.2394787
20
150.3660094
40
0.1921118
50
129.7279328
51
135.7542026
0
ARC
8
DEFAULT_255_1_234
10
12.2516315
20
150.3563045
40
0.2075944
50
136.175737
51
166.3674722
0
ARC
8
DEFAULT_255_1_234
10
12.3523234
20
150.3293182
40
0.3118201
50
165.9092917
51
178.8683903
0
ARC
8
DEFAULT_255_1_234
10
12.4388095
20
150.3246179
40
0.3983935
50
178.438168
51
180.0083905
0
ARC
8
DEFAULT_255_1_234
10
12.2986697
20
150.3285231
40
0.4068601
50
163.2878735
51
180.5581814
0
ARC
8
DEFAULT_255_1_234
10
12.2184959
20
150.350584
40
0.3237344
50
133.454115
51
162.9470031
0
ARC
8
DEFAULT_255_1_234
10
12.23635
20
150.3316
40
0.349795
50
100.7869394
51
133.4384016
0
ARC
8
DEFAULT_255_1_234
10
12.2711271
20
150.1767319
40
0.5084616
50
89.6605301
51
101.3704185
0
ARC
8
DEFAULT_255_1_234
10
12.277761
20
150.1828496
40
0.502348
50
78.2171172
51
90.4130393
0
ARC
8
DEFAULT_255_1_234
10
12.3132689
20
150.3452637
40
0.3361092
50
55.9268222
51
78.4888551
0
ARC
8
DEFAULT_255_1_234
10
12.3329129
20
150.3791324
40
0.2970617
50
47.9292255
51
55.4054003
0
ARC
8
DEFAULT_255_1_234
10
12.3430689
20
150.3894502
40
0.2825983
50
4.3347696
51
48.0560701
0
ARC
8
DEFAULT_255_1_234
10
12.2335083
20
150.3724601
40
0.393225
50
359.925209
51
5.5967654
0
ARC
8
DEFAULT_255_1_234
10
12.2763975
20
150.3780816
40
0.3503892
50
337.8914096
51
358.9967724
0
ARC
8
DEFAULT_255_1_234
10
12.0050387
20
150.4827706
40
0.6412172
50
326.9135351
51
338.3505194
0
ARC
8
DEFAULT_255_1_234
10
11.6064691
20
150.7382284
40
1.1146189
50
319.6472867
51
327.095818
0
ARC
8
DEFAULT_255_1_234
10
11.2231694
20
151.0544
40
1.6114559
50
317.2586784
51
319.9046139
0
LINE
8
DEFAULT_255_1_234
10
14.0595951
20
150.3309849
11
13.9045826
21
150.3309849
0
LINE
8
DEFAULT_255_1_234
10
13.2122467
20
149.8386394
11
13.3672593
21
149.8386394
0
ARC
8
DEFAULT_255_1_234
10
13.9704639
20
151.2256768
40
1.252368
50
248.9199003
51
254.1439814
0
ARC
8
DEFAULT_255_1_234
10
13.8024133
20
150.7930234
40
0.788226
50
241.633709
51
249.0064503
0
ARC
8
DEFAULT_255_1_234
10
13.6495528
20
150.5129317
40
0.4691427
50
230.498225
51
241.8087113
0
ARC
8
DEFAULT_255_1_234
10
13.5711102
20
150.4129906
40
0.3421437
50
227.4064532
51
229.9881192
0
ARC
8
DEFAULT_255_1_234
10
13.5223623
20
150.3654088
40
0.2741476
50
200.6781896
51
228.1763934
0
ARC
8
DEFAULT_255_1_234
10
13.5295933
20
150.3639077
40
0.2804109
50
179.5061581
51
199.8694617
0
ARC
8
DEFAULT_255_1_234
10
13.5286685
20
150.371321
40
0.2795204
50
132.4834203
51
181.0242172
0
ARC
8
DEFAULT_255_1_234
10
13.5882267
20
150.3150704
40
0.3612768
50
129.2532479
51
133.4242687
0
ARC
8
DEFAULT_255_1_234
10
13.6028717
20
150.2930965
40
0.3875675
50
101.98776
51
128.8742646
0
ARC
8
DEFAULT_255_1_234
10
13.6427327
20
150.1209741
40
0.5642249
50
89.5906553
51
102.3169264
0
ARC
8
DEFAULT_255_1_234
10
13.649782
20
150.1528148
40
0.5323783
50
77.2360837
51
90.3248275
0
ARC
8
DEFAULT_255_1_234
10
13.6704899
20
150.24954
40
0.4334697
50
63.837784
51
77.0809408
0
ARC
8
DEFAULT_255_1_234
10
13.698266
20
150.3012911
40
0.3747796
50
45.9864267
51
64.1607727
0
ARC
8
DEFAULT_255_1_234
10
13.7243542
20
150.3310866
40
0.3352302
50
32.2747395
51
45.6547121
0
ARC
8
DEFAULT_255_1_234
10
13.7309983
20
150.332988
40
0.328603
50
359.6507365
51
32.6130309
0
ARC
8
DEFAULT_255_1_234
10
13.6367078
20
150.333466
40
0.2678863
50
359.469343
51
14.9832209
0
ARC
8
DEFAULT_255_1_234
10
13.707214
20
150.3523539
40
0.1948938
50
14.9781179
51
48.2004265
0
ARC
8
DEFAULT_255_1_234
10
13.6907784
20
150.3316983
40
0.2212521
50
48.5927837
51
74.1241538
0
ARC
8
DEFAULT_255_1_234
10
13.6574274
20
150.2216248
40
0.3362561
50
73.7888341
51
86.6652678
0
ARC
8
DEFAULT_255_1_234
10
13.647184
20
150.1008881
40
0.4573953
50
86.2640471
51
90.0526343
0
ARC
8
DEFAULT_255_1_234
10
13.6443552
20
150.1404192
40
0.4178709
50
89.6697524
51
99.2309573
0
ARC
8
DEFAULT_255_1_234
10
13.6201003
20
150.2848964
40
0.2713749
50
99.069534
51
113.7658566
0
ARC
8
DEFAULT_255_1_234
10
13.5927194
20
150.3494677
40
0.2012469
50
114.0401004
51
127.9850673
0
ARC
8
DEFAULT_255_1_234
10
13.5686758
20
150.379073
40
0.1631167
50
127.7287463
51
176.7105154
0
ARC
8
DEFAULT_255_1_234
10
13.6365475
20
150.3689693
40
0.2315392
50
175.1779447
51
180.0581938
0
ARC
8
DEFAULT_255_1_234
10
13.5522322
20
150.3677428
40
0.1472271
50
179.6142195
51
228.1246017
0
ARC
8
DEFAULT_255_1_234
10
13.5963991
20
150.4086308
40
0.2072299
50
226.5779593
51
230.8800004
0
ARC
8
DEFAULT_255_1_234
10
13.643507
20
150.4711636
40
0.2854818
50
231.4635071
51
241.9260842
0
ARC
8
DEFAULT_255_1_234
10
13.7632248
20
150.69148
40
0.53622
50
241.7178533
51
248.3259551
0
ARC
8
DEFAULT_255_1_234
10
13.9017619
20
151.0347064
40
0.9063478
50
248.2007737
51
252.4528373
0
ARC
8
DEFAULT_255_1_234
10
14.0221344
20
151.4068441
40
1.2974635
50
252.3391078
51
254.3469452
0
ARC
8
DEFAULT_255_1_234
10
13.2679047
20
148.7091148
40
1.5037162
50
71.0197183
51
74.4087047
0
ARC
8
DEFAULT_255_1_234
10
13.4373732
20
149.1983111
40
0.9859993
50
66.1847285
51
71.086374
0
ARC
8
DEFAULT_255_1_234
10
13.5930044
20
149.54872
40
0.6025855
50
59.3536294
51
66.2691831
0
ARC
8
DEFAULT_255_1_234
10
13.6818697
20
149.6990609
40
0.4279449
50
49.1020879
51
59.3293958
0
ARC
8
DEFAULT_255_1_234
10
13.7637437
20
149.7923834
40
0.3038015
50
32.7919921
51
49.2505539
0
ARC
8
DEFAULT_255_1_234
10
13.7958527
20
149.8152191
40
0.264448
50
31.1181161
51
32.4005348
0
ARC
8
DEFAULT_255_1_234
10
13.7870064
20
149.8116779
40
0.2738556
50
8.1116974
51
30.7958831
0
ARC
8
DEFAULT_255_1_234
10
13.7059732
20
149.7978753
40
0.3560327
50
359.8389159
51
8.4706516
0
ARC
8
DEFAULT_255_1_234
10
13.7685524
20
149.7930137
40
0.2934776
50
337.4731098
51
0.7537279
0
ARC
8
DEFAULT_255_1_234
10
13.7864219
20
149.7910387
40
0.2762607
50
307.5917067
51
336.4315538
0
ARC
8
DEFAULT_255_1_234
10
13.7404047
20
149.8423102
40
0.3449979
50
307.6551545
51
308.4529766
0
ARC
8
DEFAULT_255_1_234
10
13.7173766
20
149.877825
40
0.3871988
50
284.3734338
51
307.1424381
0
ARC
8
DEFAULT_255_1_234
10
13.6678596
20
150.0599932
40
0.5759636
50
272.4382747
51
284.646547
0
ARC
8
DEFAULT_255_1_234
10
13.6551805
20
150.2399893
40
0.7563528
50
269.9708387
51
272.8178037
0
ARC
8
DEFAULT_255_1_234
10
13.6508844
20
150.0361716
40
0.5525489
50
248.2707594
51
270.4055579
0
ARC
8
DEFAULT_255_1_234
10
13.6454585
20
150.0171192
40
0.5328452
50
246.1383403
51
248.0542782
0
ARC
8
DEFAULT_255_1_234
10
13.6035964
20
149.9291843
40
0.4355005
50
233.1670131
51
246.4950969
0
ARC
8
DEFAULT_255_1_234
10
13.5481869
20
149.8543812
40
0.3424126
50
215.3403242
51
233.0843104
0
ARC
8
DEFAULT_255_1_234
10
13.5209301
20
149.8345549
40
0.3087104
50
179.2419209
51
215.2648451
0
ARC
8
DEFAULT_255_1_234
10
13.5976894
20
149.8359666
40
0.2304457
50
179.335461
51
199.1045811
0
ARC
8
DEFAULT_255_1_234
10
13.5644571
20
149.8272766
40
0.1962176
50
199.8828939
51
232.7063202
0
ARC
8
DEFAULT_255_1_234
10
13.6116839
20
149.8866788
40
0.2720938
50
232.3738199
51
255.5136649
0
ARC
8
DEFAULT_255_1_234
10
13.6457706
20
150.0110835
40
0.4010747
50
255.2446292
51
267.5320849
0
ARC
8
DEFAULT_255_1_234
10
13.6545329
20
150.1343702
40
0.5246356
50
267.1557994
51
270.0286766
0
ARC
8
DEFAULT_255_1_234
10
13.6573102
20
150.089995
40
0.4802668
50
269.7000017
51
278.1660162
0
ARC
8
DEFAULT_255_1_234
10
13.6829106
20
149.9169515
40
0.3053425
50
278.0231263
51
290.625471
0
ARC
8
DEFAULT_255_1_234
10
13.7176793
20
149.8242025
40
0.206291
50
290.6619762
51
307.0370976
0
ARC
8
DEFAULT_255_1_234
10
13.7477183
20
149.7873504
40
0.1587906
50
306.3943566
51
355.3030547
0
ARC
8
DEFAULT_255_1_234
10
13.6965114
20
149.7950113
40
0.2104809
50
354.3660432
51
0.0698737
0
ARC
8
DEFAULT_255_1_234
10
13.7107459
20
149.7972617
40
0.1962563
50
359.417946
51
16.1971788
0
ARC
8
DEFAULT_255_1_234
10
13.756277
20
149.8097418
40
0.149053
50
16.4723299
51
52.6262157
0
ARC
8
DEFAULT_255_1_234
10
13.6741824
20
149.7013433
40
0.2850296
50
52.7386432
51
62.4979148
0
ARC
8
DEFAULT_255_1_234
10
13.53569
20
149.4407283
40
0.5801521
50
62.2515216
51
68.1220564
0
ARC
8
DEFAULT_255_1_234
10
13.3636811
20
149.0179872
40
1.0365451
50
68.0062803
51
71.8053402
0
ARC
8
DEFAULT_255_1_234
10
13.1841183
20
148.4794758
40
1.6042013
50
71.7183119
51
73.9258742
0
LINE
8
DEFAULT_255_1_234
10
14.1985442
20
149.9101218
11
14.1985442
21
149.9374297
0
LINE
8
DEFAULT_255_1_234
10
14.9358578
20
149.9534932
11
14.9358578
21
149.8916488
0
LINE
8
DEFAULT_255_1_234
10
14.9358578
20
149.8916488
11
14.3471313
21
149.8916488
0
LINE
8
DEFAULT_255_1_234
10
14.8338547
20
149.7221792
11
14.9246133
21
149.6514999
0
LINE
8
DEFAULT_255_1_234
10
14.3519504
20
150.0137313
11
14.7872706
21
150.0137313
0
LINE
8
DEFAULT_255_1_234
10
14.7872706
20
150.0137313
11
14.7872706
21
150.0249757
0
ARC
8
DEFAULT_255_1_234
10
14.5924807
20
149.9212332
40
0.4376191
50
252.3266134
51
270.5810217
0
ARC
8
DEFAULT_255_1_234
10
14.5719896
20
149.8471644
40
0.3608374
50
223.3000567
51
251.8561855
0
ARC
8
DEFAULT_255_1_234
10
14.5931257
20
149.8676937
40
0.3902993
50
190.9374509
51
223.3654032
0
ARC
8
DEFAULT_255_1_234
10
14.7656229
20
149.9066885
40
0.5670891
50
179.6531105
51
191.4989439
0
ARC
8
DEFAULT_255_1_234
10
14.7778241
20
149.9406417
40
0.5792888
50
167.4007466
51
180.3176909
0
ARC
8
DEFAULT_255_1_234
10
14.6726303
20
149.9628885
40
0.471777
50
154.1835823
51
167.250763
0
ARC
8
DEFAULT_255_1_234
10
14.609477
20
149.9961417
40
0.4004528
50
134.3149965
51
154.5315275
0
ARC
8
DEFAULT_255_1_234
10
14.5877265
20
150.0152228
40
0.371612
50
122.8616532
51
133.9707695
0
ARC
8
DEFAULT_255_1_234
10
14.577384
20
150.0374703
40
0.3473289
50
89.8249009
51
123.4199222
0
ARC
8
DEFAULT_255_1_234
10
14.582388
20
149.9727967
40
0.4120197
50
74.7876118
51
90.5482747
0
ARC
8
DEFAULT_255_1_234
10
14.6117624
20
150.081303
40
0.2996077
50
39.8178249
51
74.7633718
0
ARC
8
DEFAULT_255_1_234
10
14.5604944
20
150.0413351
40
0.3645855
50
16.8990863
51
39.4829761
0
ARC
8
DEFAULT_255_1_234
10
14.371024
20
149.9806526
40
0.5635218
50
4.9636328
51
17.2026414
0
ARC
8
DEFAULT_255_1_234
10
14.129231
20
149.955134
40
0.8066286
50
359.8834553
51
5.2834307
0
ARC
8
DEFAULT_255_1_234
10
14.7329835
20
149.8982803
40
0.3859091
50
180.9846213
51
194.9401313
0
ARC
8
DEFAULT_255_1_234
10
14.6280113
20
149.8695849
40
0.2770883
50
194.80314
51
222.0412631
0
ARC
8
DEFAULT_255_1_234
10
14.5975995
20
149.8394116
40
0.2343055
50
221.5417084
51
268.8614402
0
ARC
8
DEFAULT_255_1_234
10
14.6048989
20
149.9070686
40
0.3021528
50
267.732405
51
270.0097136
0
ARC
8
DEFAULT_255_1_234
10
14.6066799
20
149.9272105
40
0.3222994
50
269.6924892
51
280.4117579
0
ARC
8
DEFAULT_255_1_234
10
14.6243206
20
149.8353193
40
0.2287344
50
280.2255091
51
298.6338936
0
ARC
8
DEFAULT_255_1_234
10
14.6359998
20
149.8109223
40
0.2017294
50
299.0430333
51
300.4643464
0
ARC
8
DEFAULT_255_1_234
10
14.5680004
20
149.9243038
40
0.3339357
50
300.6577328
51
322.0378878
0
ARC
8
DEFAULT_255_1_234
10
14.5329543
20
149.9547021
40
0.3802736
50
321.6750233
51
322.3046845
0
ARC
8
DEFAULT_255_1_234
10
14.6260504
20
149.838037
40
0.3520454
50
276.9728461
51
328.0035423
0
ARC
8
DEFAULT_255_1_234
10
14.5983557
20
149.9860841
40
0.5024498
50
269.8361028
51
278.0581756
0
ARC
8
DEFAULT_255_1_234
10
14.5756294
20
150.0605757
40
0.202159
50
89.2018686
51
117.2851756
0
ARC
8
DEFAULT_255_1_234
10
14.5809463
20
150.0563752
40
0.2083484
50
118.0551165
51
137.4540413
0
ARC
8
DEFAULT_255_1_234
10
14.6184203
20
150.0223304
40
0.2589774
50
137.5109581
51
158.8516286
0
ARC
8
DEFAULT_255_1_234
10
14.7322039
20
149.9764074
40
0.38167
50
158.5845963
51
170.1721436
0
ARC
8
DEFAULT_255_1_234
10
14.8491428
20
149.9531823
40
0.5008657
50
169.8376422
51
173.0566086
0
ARC
8
DEFAULT_255_1_234
10
14.3794502
20
150.0042509
40
0.4083467
50
2.9091802
51
12.8847116
0
ARC
8
DEFAULT_255_1_234
10
14.5165178
20
150.0365101
40
0.2675383
50
12.6957781
51
28.6404489
0
ARC
8
DEFAULT_255_1_234
10
14.5706849
20
150.0645458
40
0.2065654
50
29.0169854
51
41.1487595
0
ARC
8
DEFAULT_255_1_234
10
14.5909634
20
150.0822003
40
0.1796786
50
41.1646065
51
85.0013516
0
ARC
8
DEFAULT_255_1_234
10
14.5788731
20
150.0087431
40
0.2539726
50
83.7280015
51
90.0964893
0
LINE
8
DEFAULT_255_1_234
10
15.5277969
20
150.3735531
11
15.5277969
21
150.2354072
0
LINE
8
DEFAULT_255_1_234
10
15.2563241
20
150.1165375
11
15.2563241
21
149.4997
0
LINE
8
DEFAULT_255_1_234
10
15.2563241
20
149.4997
11
15.107737
21
149.4997
0
LINE
8
DEFAULT_255_1_234
10
15.107737
20
149.4997
11
15.107737
21
150.3687341
0
LINE
8
DEFAULT_255_1_234
10
15.107737
20
150.3687341
11
15.2523083
21
150.3687341
0
LINE
8
DEFAULT_255_1_234
10
15.2523083
20
150.3687341
11
15.2547178
21
150.2683374
0
ARC
8
DEFAULT_255_1_234
10
15.4611374
20
149.8294342
40
0.4114092
50
80.6754243
51
86.8932892
0
ARC
8
DEFAULT_255_1_234
10
15.4550908
20
149.73267
40
0.5083596
50
86.8038578
51
90.0431435
0
ARC
8
DEFAULT_255_1_234
10
15.4513889
20
149.9783866
40
0.2626638
50
89.2759698
51
106.6213787
0
ARC
8
DEFAULT_255_1_234
10
15.4309453
20
150.052683
40
0.1856317
50
107.1346045
51
157.6458115
0
ARC
8
DEFAULT_255_1_234
10
15.5001055
20
150.0143311
40
0.2643398
50
155.6586782
51
157.2539184
0
ARC
8
DEFAULT_255_1_234
10
15.4796257
20
150.1312157
40
0.2634121
50
127.8165941
51
148.6302098
0
ARC
8
DEFAULT_255_1_234
10
15.4542726
20
150.1572218
40
0.2273596
50
91.3329982
51
126.7875809
0
ARC
8
DEFAULT_255_1_234
10
15.4618666
20
150.0857195
40
0.299078
50
89.986594
51
92.4688449
0
ARC
8
DEFAULT_255_1_234
10
15.4627061
20
150.1132078
40
0.2715908
50
85.3589899
51
90.1623399
0
ARC
8
DEFAULT_255_1_234
10
15.4711577
20
150.2136164
40
0.1708278
50
78.401942
51
85.4594656
0
ARC
8
DEFAULT_255_1_234
10
15.4856461
20
150.2827236
40
0.1002194
50
67.7858312
51
78.5728455
0
ARC
8
DEFAULT_255_1_234
10
15.4964314
20
150.3106887
40
0.0702548
50
63.4835954
51
67.3062642
0
LINE
8
DEFAULT_255_1_234
10
15.8257744
20
150.3687341
11
15.8257744
21
149.4997
0
LINE
8
DEFAULT_255_1_234
10
15.8257744
20
149.4997
11
15.6771872
21
149.4997
0
LINE
8
DEFAULT_255_1_234
10
15.6771872
20
149.4997
11
15.6771872
21
150.3687341
0
LINE
8
DEFAULT_255_1_234
10
15.6771872
20
150.3687341
11
15.8257744
21
150.3687341
0
ARC
8
DEFAULT_255_1_234
10
15.7630021
20
150.6001889
40
0.097867
50
161.415052
51
180.5526306
0
ARC
8
DEFAULT_255_1_234
10
15.7505799
20
150.6036077
40
0.0850062
50
138.1827368
51
160.9307106
0
ARC
8
DEFAULT_255_1_234
10
15.7395744
20
150.6131588
40
0.0704362
50
104.6368899
51
138.0039868
0
ARC
8
DEFAULT_255_1_234
10
15.7502899
20
150.5764963
40
0.1086221
50
92.0600725
51
105.2189128
0
ARC
8
DEFAULT_255_1_234
10
15.7526248
20
150.5422117
40
0.1429728
50
89.9756393
51
92.5012496
0
ARC
8
DEFAULT_255_1_234
10
15.7536267
20
150.5647731
40
0.1204151
50
78.0235316
51
90.4478182
0
ARC
8
DEFAULT_255_1_234
10
15.7628359
20
150.6061295
40
0.0780493
50
55.051506
51
78.3369085
0
ARC
8
DEFAULT_255_1_234
10
15.7678633
20
150.6145711
40
0.0682538
50
42.0501187
51
54.4513741
0
ARC
8
DEFAULT_255_1_234
10
15.75435
20
150.6021798
40
0.0865878
50
1.7497075
51
42.1496013
0
ARC
8
DEFAULT_255_1_234
10
15.7288833
20
150.5992738
40
0.1121515
50
359.9852656
51
2.8364544
0
ARC
8
DEFAULT_255_1_234
10
15.7454825
20
150.5983229
40
0.0955566
50
342.1070653
51
0.552888
0
ARC
8
DEFAULT_255_1_234
10
15.7597523
20
150.5943904
40
0.0807713
50
316.7107116
51
341.6516965
0
ARC
8
DEFAULT_255_1_234
10
15.766456
20
150.5883823
40
0.0717724
50
285.4397031
51
316.5324284
0
ARC
8
DEFAULT_255_1_234
10
15.7554477
20
150.6249554
40
0.1099597
50
272.3547054
51
285.8953117
0
ARC
8
DEFAULT_255_1_234
10
15.7527635
20
150.6615048
40
0.1465932
50
269.9695369
51
272.8160237
0
ARC
8
DEFAULT_255_1_234
10
15.7517816
20
150.6395863
40
0.1246779
50
258.8431134
51
270.4153935
0
ARC
8
DEFAULT_255_1_234
10
15.7427859
20
150.5960414
40
0.0802162
50
238.5431189
51
259.1288175
0
ARC
8
DEFAULT_255_1_234
10
15.7359744
20
150.5836856
40
0.0661247
50
222.5062634
51
237.9906969
0
ARC
8
DEFAULT_255_1_234
10
15.7487331
20
150.5952889
40
0.0833707
50
184.1069131
51
222.460413
0
ARC
8
DEFAULT_255_1_234
10
15.7756572
20
150.5991349
40
0.1105176
50
179.9429482
51
185.0960898
0
LINE
8
DEFAULT_255_1_234
10
16.0257646
20
149.9101218
11
16.0257646
21
149.9374297
0
LINE
8
DEFAULT_255_1_234
10
16.7630782
20
149.9534932
11
16.7630782
21
149.8916488
0
LINE
8
DEFAULT_255_1_234
10
16.7630782
20
149.8916488
11
16.1743518
21
149.8916488
0
LINE
8
DEFAULT_255_1_234
10
16.6610751
20
149.7221792
11
16.7518338
21
149.6514999
0
LINE
8
DEFAULT_255_1_234
10
16.1791708
20
150.0137313
11
16.6144911
21
150.0137313
0
LINE
8
DEFAULT_255_1_234
10
16.6144911
20
150.0137313
11
16.6144911
21
150.0249757
0
ARC
8
DEFAULT_255_1_234
10
16.4197012
20
149.9212332
40
0.4376191
50
252.3266134
51
270.5810217
0
ARC
8
DEFAULT_255_1_234
10
16.3992101
20
149.8471644
40
0.3608374
50
223.3000567
51
251.8561855
0
ARC
8
DEFAULT_255_1_234
10
16.4203461
20
149.8676937
40
0.3902993
50
190.9374509
51
223.3654032
0
ARC
8
DEFAULT_255_1_234
10
16.5928434
20
149.9066885
40
0.5670891
50
179.6531105
51
191.4989439
0
ARC
8
DEFAULT_255_1_234
10
16.6050446
20
149.9406417
40
0.5792888
50
167.4007466
51
180.3176909
0
ARC
8
DEFAULT_255_1_234
10
16.4998507
20
149.9628885
40
0.471777
50
154.1835823
51
167.250763
0
ARC
8
DEFAULT_255_1_234
10
16.4366975
20
149.9961417
40
0.4004528
50
134.3149965
51
154.5315275
0
ARC
8
DEFAULT_255_1_234
10
16.414947
20
150.0152228
40
0.371612
50
122.8616532
51
133.9707695
0
ARC
8
DEFAULT_255_1_234
10
16.4046044
20
150.0374703
40
0.3473289
50
89.8249009
51
123.4199222
0
ARC
8
DEFAULT_255_1_234
10
16.4096085
20
149.9727967
40
0.4120197
50
74.7876118
51
90.5482747
0
ARC
8
DEFAULT_255_1_234
10
16.4389828
20
150.081303
40
0.2996077
50
39.8178249
51
74.7633718
0
ARC
8
DEFAULT_255_1_234
10
16.3877149
20
150.0413351
40
0.3645855
50
16.8990863
51
39.4829761
0
ARC
8
DEFAULT_255_1_234
10
16.1982445
20
149.9806526
40
0.5635218
50
4.9636328
51
17.2026414
0
ARC
8
DEFAULT_255_1_234
10
15.9564515
20
149.955134
40
0.8066286
50
359.8834553
51
5.2834307
0
ARC
8
DEFAULT_255_1_234
10
16.560204
20
149.8982803
40
0.3859091
50
180.9846213
51
194.9401313
0
ARC
8
DEFAULT_255_1_234
10
16.4552317
20
149.8695849
40
0.2770883
50
194.80314
51
222.0412631
0
ARC
8
DEFAULT_255_1_234
10
16.4248199
20
149.8394116
40
0.2343055
50
221.5417084
51
268.8614402
0
ARC
8
DEFAULT_255_1_234
10
16.4321194
20
149.9070686
40
0.3021528
50
267.732405
51
270.0097136
0
ARC
8
DEFAULT_255_1_234
10
16.4339004
20
149.9272105
40
0.3222994
50
269.6924892
51
280.4117579
0
ARC
8
DEFAULT_255_1_234
10
16.4515411
20
149.8353193
40
0.2287344
50
280.2255091
51
298.6338936
0
ARC
8
DEFAULT_255_1_234
10
16.4632203
20
149.8109223
40
0.2017294
50
299.0430333
51
300.4643464
0
ARC
8
DEFAULT_255_1_234
10
16.3952208
20
149.9243038
40
0.3339357
50
300.6577328
51
322.0378878
0
ARC
8
DEFAULT_255_1_234
10
16.3601747
20
149.9547021
40
0.3802736
50
321.6750233
51
322.3046845
0
ARC
8
DEFAULT_255_1_234
10
16.4532709
20
149.838037
40
0.3520454
50
276.9728461
51
328.0035423
0
ARC
8
DEFAULT_255_1_234
10
16.4255761
20
149.9860841
40
0.5024498
50
269.8361028
51
278.0581756
0
ARC
8
DEFAULT_255_1_234
10
16.4028499
20
150.0605757
40
0.202159
50
89.2018686
51
117.2851756
0
ARC
8
DEFAULT_255_1_234
10
16.4081668
20
150.0563752
40
0.2083484
50
118.0551165
51
137.4540413
0
ARC
8
DEFAULT_255_1_234
10
16.4456408
20
150.0223304
40
0.2589774
50
137.5109581
51
158.8516286
0
ARC
8
DEFAULT_255_1_234
10
16.5594243
20
149.9764074
40
0.38167
50
158.5845963
51
170.1721436
0
ARC
8
DEFAULT_255_1_234
10
16.6763633
20
149.9531823
40
0.5008657
50
169.8376422
51
173.0566086
0
ARC
8
DEFAULT_255_1_234
10
16.2066706
20
150.0042509
40
0.4083467
50
2.9091802
51
12.8847116
0
ARC
8
DEFAULT_255_1_234
10
16.3437383
20
150.0365101
40
0.2675383
50
12.6957781
51
28.6404489
0
ARC
8
DEFAULT_255_1_234
10
16.3979054
20
150.0645458
40
0.2065654
50
29.0169854
51
41.1487595
0
ARC
8
DEFAULT_255_1_234
10
16.4181839
20
150.0822003
40
0.1796786
50
41.1646065
51
85.0013516
0
ARC
8
DEFAULT_255_1_234
10
16.4060936
20
150.0087431
40
0.2539726
50
83.7280015
51
90.0964893
0
LINE
8
DEFAULT_255_1_234
10
17.5815124
20
150.1133248
11
17.432122
21
150.1133248
0
LINE
8
DEFAULT_255_1_234
10
16.8988146
20
149.7671569
11
17.0474018
21
149.7671569
0
ARC
8
DEFAULT_255_1_234
10
17.3133039
20
149.7316959
40
0.1276617
50
359.3334982
51
18.5871358
0
ARC
8
DEFAULT_255_1_234
10
17.3341676
20
149.7372133
40
0.1061371
50
19.3540742
51
54.6485071
0
ARC
8
DEFAULT_255_1_234
10
17.2837578
20
149.6676919
40
0.1920087
50
54.3827097
51
65.0622807
0
ARC
8
DEFAULT_255_1_234
10
17.2068974
20
149.50599
40
0.3710447
50
64.8282493
51
71.4200025
0
ARC
8
DEFAULT_255_1_234
10
17.116685
20
149.2413107
40
0.6506741
50
71.3164301
51
75.8006402
0
ARC
8
DEFAULT_255_1_234
10
17.032567
20
148.9172561
40
0.9854641
50
75.6809531
51
78.0061883
0
ARC
8
DEFAULT_255_1_234
10
17.4774203
20
151.015177
40
1.1591028
50
254.6901892
51
258.0466452
0
ARC
8
DEFAULT_255_1_234
10
17.3736111
20
150.6392781
40
0.7691345
50
249.9010773
51
254.755261
0
ARC
8
DEFAULT_255_1_234
10
17.2732453
20
150.3666982
40
0.478665
50
243.3097214
51
249.9709442
0
ARC
8
DEFAULT_255_1_234
10
17.2103475
20
150.2412778
40
0.3383568
50
234.4047477
51
243.2862168
0
ARC
8
DEFAULT_255_1_234
10
17.1480998
20
150.1553232
40
0.2322322
50
220.8667099
51
234.5493881
0
ARC
8
DEFAULT_255_1_234
10
17.1138939
20
150.1241817
40
0.1859923
50
214.3062465
51
220.5065136
0
ARC
8
DEFAULT_255_1_234
10
17.1113018
20
150.121088
40
0.1821108
50
186.912965
51
213.9618616
0
ARC
8
DEFAULT_255_1_234
10
17.1645113
20
150.1297009
40
0.2359799
50
179.8808832
51
187.4339886
0
ARC
8
DEFAULT_255_1_234
10
17.1490246
20
150.1317088
40
0.2204978
50
132.005434
51
180.3942919
0
ARC
8
DEFAULT_255_1_234
10
17.214686
20
150.0711083
40
0.3095791
50
129.2319861
51
133.5302299
0
ARC
8
DEFAULT_255_1_234
10
17.2200368
20
150.0616928
40
0.3202615
50
100.4410011
51
128.9081242
0
ARC
8
DEFAULT_255_1_234
10
17.2474252
20
149.9331455
40
0.4516583
50
89.6985377
51
100.9026564
0
ARC
8
DEFAULT_255_1_234
10
17.2531294
20
149.9171166
40
0.4676928
50
77.6965325
51
90.4076836
0
ARC
8
DEFAULT_255_1_234
10
17.2862278
20
150.0598413
40
0.3211988
50
50.7276602
51
78.0399361
0
ARC
8
DEFAULT_255_1_234
10
17.3306736
20
150.1116296
40
0.2529778
50
25.7545084
51
51.0957453
0
ARC
8
DEFAULT_255_1_234
10
17.3307961
20
150.1166206
40
0.250738
50
359.2468627
51
24.7394243
0
ARC
8
DEFAULT_255_1_234
10
17.3023413
20
150.1137664
40
0.1297815
50
359.8050318
51
45.1544908
0
ARC
8
DEFAULT_255_1_234
10
17.2616555
20
150.0789794
40
0.1831883
50
43.8047702
51
49.6271585
0
ARC
8
DEFAULT_255_1_234
10
17.2624456
20
150.0790678
40
0.18261
50
49.7980766
51
82.1218353
0
ARC
8
DEFAULT_255_1_234
10
17.2505428
20
150.0143998
40
0.2483163
50
81.4465357
51
90.1710293
0
ARC
8
DEFAULT_255_1_234
10
17.2481031
20
149.961788
40
0.300932
50
89.6766211
51
99.1264602
0
ARC
8
DEFAULT_255_1_234
10
17.2309493
20
150.0651537
40
0.1961547
50
98.968313
51
113.4570237
0
ARC
8
DEFAULT_255_1_234
10
17.2113578
20
150.1119965
40
0.1453859
50
113.722589
51
127.4763106
0
ARC
8
DEFAULT_255_1_234
10
17.1945224
20
150.1320124
40
0.1192639
50
126.9083309
51
150.3165862
0
ARC
8
DEFAULT_255_1_234
10
17.1897557
20
150.1370981
40
0.112623
50
151.3635175
51
180.0701457
0
ARC
8
DEFAULT_255_1_234
10
17.2206341
20
150.134999
40
0.1435149
50
179.2169974
51
179.9954013
0
ARC
8
DEFAULT_255_1_234
10
17.1845399
20
150.1337056
40
0.1074286
50
179.3040112
51
198.4225446
0
ARC
8
DEFAULT_255_1_234
10
17.1653532
20
150.1287127
40
0.0876573
50
199.2895851
51
238.6034594
0
ARC
8
DEFAULT_255_1_234
10
17.2256379
20
150.223345
40
0.1998512
50
237.9846301
51
246.8744712
0
ARC
8
DEFAULT_255_1_234
10
17.3114324
20
150.4196205
40
0.4140547
50
246.6234531
51
251.8168941
0
ARC
8
DEFAULT_255_1_234
10
17.4144867
20
150.7290905
40
0.7402308
50
251.713434
51
255.0778414
0
ARC
8
DEFAULT_255_1_234
10
17.534413
20
151.1757563
40
1.2027155
50
255.0367487
51
257.4705983
0
ARC
8
DEFAULT_255_1_234
10
17.023614
20
148.8743863
40
1.1546601
50
73.6837552
51
77.5016755
0
ARC
8
DEFAULT_255_1_234
10
17.1324915
20
149.2443581
40
0.7690009
50
68.7044154
51
73.7249639
0
ARC
8
DEFAULT_255_1_234
10
17.2227935
20
149.4770654
40
0.5193873
50
63.590599
51
68.6626804
0
ARC
8
DEFAULT_255_1_234
10
17.2998954
20
149.6308123
40
0.3473927
50
54.7106439
51
63.7013633
0
ARC
8
DEFAULT_255_1_234
10
17.3623409
20
149.71804
40
0.2401192
50
41.0622434
51
54.8487496
0
ARC
8
DEFAULT_255_1_234
10
17.3964795
20
149.7493592
40
0.1938094
50
34.4950568
51
40.7105546
0
ARC
8
DEFAULT_255_1_234
10
17.4011603
20
149.7542078
40
0.1872106
50
9.3763373
51
34.0833615
0
ARC
8
DEFAULT_255_1_234
10
17.3358473
20
149.7416728
40
0.2536988
50
359.7694872
51
9.7663171
0
ARC
8
DEFAULT_255_1_234
10
17.3555974
20
149.7373764
40
0.2339696
50
335.8654732
51
0.8022045
0
ARC
8
DEFAULT_255_1_234
10
17.3631018
20
149.7387197
40
0.2277108
50
307.7357725
51
334.7849066
0
ARC
8
DEFAULT_255_1_234
10
17.3230194
20
149.7837645
40
0.2878951
50
307.0241536
51
308.5578354
0
ARC
8
DEFAULT_255_1_234
10
17.2972525
20
149.8223801
40
0.3342515
50
282.9362969
51
306.5646424
0
ARC
8
DEFAULT_255_1_234
10
17.2610823
20
149.9691108
40
0.4853615
50
271.1026298
51
283.2200835
0
ARC
8
DEFAULT_255_1_234
10
17.2547067
20
150.0932418
40
0.6096052
50
269.9919117
51
271.4772449
0
ARC
8
DEFAULT_255_1_234
10
17.2520822
20
149.9854436
40
0.5018135
50
259.0723564
51
270.289833
0
ARC
8
DEFAULT_255_1_234
10
17.2308554
20
149.8737271
40
0.388099
50
245.4963068
51
259.0227342
0
ARC
8
DEFAULT_255_1_234
10
17.203051
20
149.8155615
40
0.3236422
50
228.9684658
51
245.7044727
0
ARC
8
DEFAULT_255_1_234
10
17.1764954
20
149.7828575
40
0.2815426
50
214.4011705
51
228.6759915
0
ARC
8
DEFAULT_255_1_234
10
17.1475695
20
149.767029
40
0.2487548
50
179.9705531
51
215.1572795
0
ARC
8
DEFAULT_255_1_234
10
17.2176294
20
149.7743806
40
0.1703809
50
182.4299387
51
203.0329699
0
ARC
8
DEFAULT_255_1_234
10
17.1991952
20
149.7687396
40
0.1512226
50
203.798802
51
232.548466
0
ARC
8
DEFAULT_255_1_234
10
17.2268473
20
149.8038826
40
0.1959374
50
232.3782728
51
256.3934612
0
ARC
8
DEFAULT_255_1_234
10
17.2498835
20
149.8928842
40
0.2878639
50
256.104506
51
268.4626716
0
ARC
8
DEFAULT_255_1_234
10
17.2545319
20
149.9725487
40
0.3676329
50
268.0715632
51
270.0138206
0
ARC
8
DEFAULT_255_1_234
10
17.2563844
20
149.9453083
40
0.3403971
50
269.7031147
51
278.8341955
0
ARC
8
DEFAULT_255_1_234
10
17.2745937
20
149.8322876
40
0.2259217
50
278.6728789
51
292.8232582
0
ARC
8
DEFAULT_255_1_234
10
17.2946475
20
149.7821449
40
0.171929
50
293.1452328
51
303.6655899
0
ARC
8
DEFAULT_255_1_234
10
17.3211354
20
149.7445204
40
0.1259367
50
303.1248165
51
321.742847
0
ARC
8
DEFAULT_255_1_234
10
17.3397235
20
149.7282156
40
0.1012531
50
322.4748573
51
1.1291126
0
LINE
8
DEFAULT_255_2_778
10
19.9765417
20
140.0968481
11
18.6536417
21
140.0968481
0
LINE
8
DEFAULT_255_2_778
10
18.6536417
20
140.0968481
11
18.6536417
21
75.2739481
0
LINE
8
DEFAULT_255_2_778
10
18.6536417
20
69.9822481
11
18.6536417
21
5.1593481
0
LINE
8
DEFAULT_255_2_778
10
18.6536417
20
5.1593481
11
19.9765417
21
5.1593481
0
LINE
8
DEFAULT_255_2_778
10
17.3307834
20
75.2739333
11
19.9765834
21
75.2739333
0
LINE
8
DEFAULT_255_2_778
10
19.9765834
20
75.2739333
11
19.9765834
21
69.9822333
0
LINE
8
DEFAULT_255_2_778
10
19.9765834
20
69.9822333
11
17.3307834
21
69.9822333
0
LINE
8
DEFAULT_255_2_778
10
17.3307834
20
69.9822333
11
17.3307834
21
75.2739333
0
LINE
8
DEFAULT_255_2_778
10
18.1245
20
70.5114666
11
18.1245
21
74.7447666
0
LINE
8
DEFAULT_255_2_778
10
17.8599167
20
73.951075
11
18.1245167
21
74.744775
0
LINE
8
DEFAULT_255_2_778
10
18.1245167
20
74.744775
11
18.3891167
21
73.951075
0
LINE
8
DEFAULT_255_2_778
10
18.3891167
20
73.951075
11
17.8599167
21
73.951075
0
LINE
8
DEFAULT_255_2_778
10
19.1828
20
74.7447666
11
19.1828
21
70.5114666
0
LINE
8
DEFAULT_255_2_778
10
18.9182167
20
71.305175
11
19.1828167
21
70.511475
0
LINE
8
DEFAULT_255_2_778
10
19.1828167
20
70.511475
11
19.4474167
21
71.305175
0
LINE
8
DEFAULT_255_2_778
10
19.4474167
20
71.305175
11
18.9182167
21
71.305175
0
LINE
8
DEFAULT_255_1_234
10
4.9274119
20
147.6366792
11
4.9274119
21
147.5154
0
LINE
8
DEFAULT_255_1_234
10
4.9274119
20
147.5154
11
4.161184
21
147.5154
0
LINE
8
DEFAULT_255_1_234
10
4.161184
20
147.5154
11
4.161184
21
147.6222221
0
LINE
8
DEFAULT_255_1_234
10
4.161184
20
147.6222221
11
4.5659836
21
148.0719995
0
LINE
8
DEFAULT_255_1_234
10
4.2872823
20
148.3402595
11
4.1386952
21
148.3402595
0
LINE
8
DEFAULT_255_1_234
10
4.6535296
20
147.9764218
11
4.3402918
21
147.6366792
0
LINE
8
DEFAULT_255_1_234
10
4.3402918
20
147.6366792
11
4.9274119
21
147.6366792
0
ARC
8
DEFAULT_255_1_234
10
3.216967
20
149.2649527
40
1.8008286
50
318.5132453
51
320.7828378
0
ARC
8
DEFAULT_255_1_234
10
3.7456644
20
148.8346426
40
1.1191493
50
320.7372736
51
323.9737074
0
ARC
8
DEFAULT_255_1_234
10
4.1376501
20
148.5506361
40
0.6350923
50
323.8961724
51
328.6421089
0
ARC
8
DEFAULT_255_1_234
10
4.3423096
20
148.4244031
40
0.3946393
50
328.8299013
51
331.789948
0
ARC
8
DEFAULT_255_1_234
10
4.4420274
20
148.3729509
40
0.2824501
50
331.4255242
51
352.9364833
0
ARC
8
DEFAULT_255_1_234
10
4.4556775
20
148.3698976
40
0.2685315
50
353.2248685
51
0.0169286
0
ARC
8
DEFAULT_255_1_234
10
4.4766652
20
148.372195
40
0.2475536
50
359.4866256
51
15.9339782
0
ARC
8
DEFAULT_255_1_234
10
4.5273637
20
148.3858286
40
0.1950618
50
16.1714718
51
43.5284424
0
ARC
8
DEFAULT_255_1_234
10
4.5350946
20
148.3935573
40
0.184134
50
43.4415429
51
83.1661404
0
ARC
8
DEFAULT_255_1_234
10
4.5216864
20
148.3198771
40
0.258926
50
82.160215
51
90.1505798
0
ARC
8
DEFAULT_255_1_234
10
4.5185291
20
148.2661865
40
0.3126255
50
89.5460705
51
102.5418777
0
ARC
8
DEFAULT_255_1_234
10
4.4942377
20
148.3692665
40
0.2067346
50
102.1739365
51
129.2061916
0
ARC
8
DEFAULT_255_1_234
10
4.4863449
20
148.3817094
40
0.1921118
50
129.7279328
51
135.7542026
0
ARC
8
DEFAULT_255_1_234
10
4.4984977
20
148.3720045
40
0.2075944
50
136.175737
51
166.3674722
0
ARC
8
DEFAULT_255_1_234
10
4.5991896
20
148.3450182
40
0.3118201
50
165.9092917
51
178.8683903
0
ARC
8
DEFAULT_255_1_234
10
4.6856757
20
148.3403179
40
0.3983935
50
178.438168
51
180.0083905
0
ARC
8
DEFAULT_255_1_234
10
4.5455359
20
148.3442231
40
0.4068601
50
163.2878735
51
180.5581814
0
ARC
8
DEFAULT_255_1_234
10
4.4653621
20
148.366284
40
0.3237344
50
133.454115
51
162.9470031
0
ARC
8
DEFAULT_255_1_234
10
4.4832162
20
148.3473
40
0.349795
50
100.7869394
51
133.4384016
0
ARC
8
DEFAULT_255_1_234
10
4.5179934
20
148.1924319
40
0.5084616
50
89.6605301
51
101.3704185
0
ARC
8
DEFAULT_255_1_234
10
4.5246273
20
148.1985496
40
0.502348
50
78.2171172
51
90.4130393
0
ARC
8
DEFAULT_255_1_234
10
4.5601351
20
148.3609637
40
0.3361092
50
55.9268222
51
78.4888551
0
ARC
8
DEFAULT_255_1_234
10
4.5797791
20
148.3948324
40
0.2970617
50
47.9292255
51
55.4054003
0
ARC
8
DEFAULT_255_1_234
10
4.5899352
20
148.4051502
40
0.2825983
50
4.3347696
51
48.0560701
0
ARC
8
DEFAULT_255_1_234
10
4.4803745
20
148.3881601
40
0.393225
50
359.925209
51
5.5967654
0
ARC
8
DEFAULT_255_1_234
10
4.5232637
20
148.3937816
40
0.3503892
50
337.8914096
51
358.9967724
0
ARC
8
DEFAULT_255_1_234
10
4.2519049
20
148.4984706
40
0.6412172
50
326.9135351
51
338.3505194
0
ARC
8
DEFAULT_255_1_234
10
3.8533353
20
148.7539284
40
1.1146189
50
319.6472867
51
327.095818
0
ARC
8
DEFAULT_255_1_234
10
3.4700356
20
149.0701
40
1.6114559
50
317.2586784
51
319.9046139
0
LINE
8
DEFAULT_255_1_234
10
5.7121127
20
148.6848211
11
5.7121127
21
147.908152
0
LINE
8
DEFAULT_255_1_234
10
5.7121127
20
147.908152
11
5.8743538
21
147.908152
0
LINE
8
DEFAULT_255_1_234
10
5.8743538
20
147.908152
11
5.8743538
21
147.7868728
0
LINE
8
DEFAULT_255_1_234
10
5.8743538
20
147.7868728
11
5.7121127
21
147.7868728
0
LINE
8
DEFAULT_255_1_234
10
5.7121127
20
147.7868728
11
5.7121127
21
147.5154
0
LINE
8
DEFAULT_255_1_234
10
5.7121127
20
147.5154
11
5.5627224
21
147.5154
0
LINE
8
DEFAULT_255_1_234
10
5.5627224
20
147.5154
11
5.5627224
21
147.7868728
0
LINE
8
DEFAULT_255_1_234
10
5.5627224
20
147.7868728
11
5.0302181
21
147.7868728
0
LINE
8
DEFAULT_255_1_234
10
5.0302181
20
147.7868728
11
5.0302181
21
147.8744187
0
LINE
8
DEFAULT_255_1_234
10
5.0302181
20
147.8744187
11
5.5538875
21
148.6848211
0
LINE
8
DEFAULT_255_1_234
10
5.5538875
20
148.6848211
11
5.7121127
21
148.6848211
0
LINE
8
DEFAULT_255_1_234
10
5.5450525
20
148.4494912
11
5.1988846
21
147.908152
0
LINE
8
DEFAULT_255_1_234
10
5.1988846
20
147.908152
11
5.5627224
21
147.908152
0
LINE
8
DEFAULT_255_1_234
10
5.5627224
20
147.908152
11
5.5627224
21
148.4816181
0
LINE
8
DEFAULT_255_1_234
10
5.5627224
20
148.4816181
11
5.5450525
21
148.4494912
0
LINE
8
DEFAULT_255_1_234
10
6.101652
20
148.6848211
11
6.434166
21
147.7202093
0
LINE
8
DEFAULT_255_1_234
10
6.434166
20
147.7202093
11
6.7682863
21
148.6848211
0
LINE
8
DEFAULT_255_1_234
10
6.7682863
20
148.6848211
11
6.9369528
21
148.6848211
0
LINE
8
DEFAULT_255_1_234
10
6.9369528
20
148.6848211
11
6.5032389
21
147.5154
0
LINE
8
DEFAULT_255_1_234
10
6.5032389
20
147.5154
11
6.3666994
21
147.5154
0
LINE
8
DEFAULT_255_1_234
10
6.3666994
20
147.5154
11
5.9337887
21
148.6848211
0
LINE
8
DEFAULT_255_1_234
10
5.9337887
20
148.6848211
11
6.101652
21
148.6848211
0
LINE
8
DEFAULT_255_1_234
10
23.1643817
20
148.2069327
11
23.1643817
21
148.0141709
0
LINE
8
DEFAULT_255_1_234
10
22.426265
20
147.9940916
11
22.426265
21
148.1924755
0
LINE
8
DEFAULT_255_1_234
10
23.0157946
20
147.9740123
11
23.0157946
21
148.2173739
0
LINE
8
DEFAULT_255_1_234
10
22.5748521
20
148.2286184
11
22.5748521
21
147.9908789
0
ARC
8
DEFAULT_255_1_234
10
21.9396707
20
148.0092805
40
1.2247208
50
353.8441951
51
0.2287902
0
ARC
8
DEFAULT_255_1_234
10
22.4036211
20
147.9574806
40
0.7578929
50
344.4934747
51
353.9765454
0
ARC
8
DEFAULT_255_1_234
10
22.7028801
20
147.8723981
40
0.4467846
50
329.2803592
51
344.7472793
0
ARC
8
DEFAULT_255_1_234
10
22.8021626
20
147.8179018
40
0.3336173
50
324.9352394
51
328.6160465
0
ARC
8
DEFAULT_255_1_234
10
22.8398734
20
147.7915427
40
0.2876076
50
280.580143
51
324.9173126
0
ARC
8
DEFAULT_255_1_234
10
22.7997527
20
147.9586099
40
0.4592847
50
269.5977311
51
281.6734359
0
ARC
8
DEFAULT_255_1_234
10
22.7925433
20
147.9466173
40
0.4472986
50
256.6228859
51
270.51044
0
ARC
8
DEFAULT_255_1_234
10
22.752341
20
147.7917877
40
0.2873874
50
215.8618325
51
257.2788573
0
ARC
8
DEFAULT_255_1_234
10
22.8544442
20
147.8602977
40
0.4102928
50
197.9693508
51
215.2623606
0
ARC
8
DEFAULT_255_1_234
10
23.1029558
20
147.9441709
40
0.6725652
50
187.8816417
51
198.2346507
0
ARC
8
DEFAULT_255_1_234
10
23.4987766
20
148.0013079
40
1.0724845
50
180.8976217
51
188.0055519
0
ARC
8
DEFAULT_255_1_234
10
23.7787954
20
148.0116777
40
1.3526448
50
180.7449369
51
181.1510016
0
ARC
8
DEFAULT_255_1_234
10
23.6210683
20
148.1973042
40
1.1948131
50
173.7675579
51
180.231553
0
ARC
8
DEFAULT_255_1_234
10
23.169283
20
148.2483666
40
0.7401564
50
164.3058563
51
173.9002247
0
ARC
8
DEFAULT_255_1_234
10
22.8780899
20
148.3322656
40
0.4371288
50
148.7922025
51
164.568378
0
ARC
8
DEFAULT_255_1_234
10
22.7829351
20
148.3853929
40
0.3282386
50
144.5883898
51
148.1176286
0
ARC
8
DEFAULT_255_1_234
10
22.7486249
20
148.4093315
40
0.2864044
50
101.6440918
51
144.514236
0
ARC
8
DEFAULT_255_1_234
10
22.7911315
20
148.2404069
40
0.4604934
50
89.5284041
51
102.5819763
0
ARC
8
DEFAULT_255_1_234
10
22.7990403
20
148.2365018
40
0.464401
50
77.0437873
51
90.5081339
0
ARC
8
DEFAULT_255_1_234
10
22.8392405
20
148.4007615
40
0.2953195
50
48.2778575
51
77.4994676
0
ARC
8
DEFAULT_255_1_234
10
22.8465036
20
148.4136746
40
0.2808655
50
36.3142134
51
47.6305865
0
ARC
8
DEFAULT_255_1_234
10
22.7596343
20
148.3551515
40
0.3855453
50
18.2931786
51
35.6769206
0
ARC
8
DEFAULT_255_1_234
10
22.5053102
20
148.2678593
40
0.654423
50
8.024666
51
18.5605216
0
ARC
8
DEFAULT_255_1_234
10
22.0890022
20
148.2063792
40
1.0752407
50
1.1274072
51
8.1718305
0
ARC
8
DEFAULT_255_1_234
10
21.7654213
20
148.1936885
40
1.3990231
50
0.5424119
51
1.3863029
0
ARC
8
DEFAULT_255_1_234
10
21.947559
20
148.2209342
40
1.0682415
50
359.8090433
51
4.9407866
0
ARC
8
DEFAULT_255_1_234
10
22.3685604
20
148.2585113
40
0.6455691
50
4.8362157
51
12.2904523
0
ARC
8
DEFAULT_255_1_234
10
22.6440719
20
148.3198965
40
0.3633074
50
12.0805627
51
23.8173984
0
ARC
8
DEFAULT_255_1_234
10
22.7614425
20
148.3695919
40
0.2358723
50
24.2871213
51
31.3935614
0
ARC
8
DEFAULT_255_1_234
10
22.8139122
20
148.4039233
40
0.1732111
50
30.7407893
51
82.4657128
0
ARC
8
DEFAULT_255_1_234
10
22.7959256
20
148.3155691
40
0.263235
50
81.1060089
51
90.2184952
0
ARC
8
DEFAULT_255_1_234
10
22.7923555
20
148.3413924
40
0.2374236
50
89.3806855
51
105.6762551
0
ARC
8
DEFAULT_255_1_234
10
22.7740186
20
148.4080567
40
0.1682847
50
105.7981136
51
149.7388061
0
ARC
8
DEFAULT_255_1_234
10
22.8804264
20
148.344095
40
0.2924306
50
149.4208916
51
163.6286378
0
ARC
8
DEFAULT_255_1_234
10
23.0895152
20
148.280325
40
0.5110213
50
163.3763315
51
172.1410975
0
ARC
8
DEFAULT_255_1_234
10
23.4195871
20
148.2330518
40
0.8444586
50
172.0259487
51
178.0703232
0
ARC
8
DEFAULT_255_1_234
10
23.722596
20
148.2186906
40
1.1477868
50
177.8631668
51
179.5044149
0
ARC
8
DEFAULT_255_1_234
10
23.6153365
20
147.9872389
40
1.0404907
50
179.7995573
51
185.2460446
0
ARC
8
DEFAULT_255_1_234
10
23.2110404
20
147.9489513
40
0.6343885
50
185.1411642
51
193.0079639
0
ARC
8
DEFAULT_255_1_234
10
22.9466877
20
147.8864641
40
0.3627568
50
192.7897626
51
205.2507664
0
ARC
8
DEFAULT_255_1_234
10
22.8420424
20
147.8397415
40
0.2481908
50
205.8005384
51
211.2537509
0
ARC
8
DEFAULT_255_1_234
10
22.7896864
20
147.804658
40
0.1852521
50
210.3789793
51
238.4008143
0
ARC
8
DEFAULT_255_1_234
10
22.7877386
20
147.8093376
40
0.1882621
50
239.6520629
51
265.9793761
0
ARC
8
DEFAULT_255_1_234
10
22.7962586
20
147.8765427
40
0.2559272
50
265.1315437
51
270.060332
0
ARC
8
DEFAULT_255_1_234
10
22.7991365
20
147.8441534
40
0.2235528
50
269.3314664
51
287.2178029
0
ARC
8
DEFAULT_255_1_234
10
22.8129217
20
147.7938279
40
0.1714108
50
287.7958004
51
329.080874
0
ARC
8
DEFAULT_255_1_234
10
22.7171674
20
147.853593
40
0.2842745
50
328.6634704
51
343.3325132
0
ARC
8
DEFAULT_255_1_234
10
22.4998694
20
147.9212863
40
0.5118644
50
343.0499468
51
351.9393422
0
ARC
8
DEFAULT_255_1_234
10
22.1531994
20
147.9723949
40
0.8622784
50
351.8069023
51
357.7959224
0
ARC
8
DEFAULT_255_1_234
10
21.829655
20
147.9891721
40
1.1862365
50
357.5871873
51
359.2677531
0
LINE
8
DEFAULT_255_1_234
10
23.4479021
20
148.6848211
11
23.7804161
21
147.7202093
0
LINE
8
DEFAULT_255_1_234
10
23.7804161
20
147.7202093
11
24.1145364
21
148.6848211
0
LINE
8
DEFAULT_255_1_234
10
24.1145364
20
148.6848211
11
24.2832029
21
148.6848211
0
LINE
8
DEFAULT_255_1_234
10
24.2832029
20
148.6848211
11
23.849489
21
147.5154
0
LINE
8
DEFAULT_255_1_234
10
23.849489
20
147.5154
11
23.7129495
21
147.5154
0
LINE
8
DEFAULT_255_1_234
10
23.7129495
20
147.5154
11
23.2800388
21
148.6848211
0
LINE
8
DEFAULT_255_1_234
10
23.2800388
20
148.6848211
11
23.4479021
21
148.6848211
0
LINE
8
DEFAULT_255_1_234
10
23.8692392
20
4.6404
11
23.4636364
21
4.6404
0
LINE
8
DEFAULT_255_1_234
10
23.4636364
20
4.6404
11
23.4636364
21
5.8098211
0
LINE
8
DEFAULT_255_1_234
10
23.4636364
20
5.8098211
11
23.8459471
21
5.8098211
0
LINE
8
DEFAULT_255_1_234
10
23.8748614
20
5.1873614
11
23.6178458
21
5.1873614
0
LINE
8
DEFAULT_255_1_234
10
23.6178458
20
5.1873614
11
23.6178458
21
4.7664983
0
LINE
8
DEFAULT_255_1_234
10
23.6178458
20
4.7664983
11
23.8724519
21
4.7664983
0
LINE
8
DEFAULT_255_1_234
10
23.6178458
20
5.6829196
11
23.6178458
21
5.3110501
0
LINE
8
DEFAULT_255_1_234
10
23.6178458
20
5.3110501
11
23.8507662
21
5.3110501
0
LINE
8
DEFAULT_255_1_234
10
23.8459471
20
5.6829196
11
23.6178458
21
5.6829196
0
ARC
8
DEFAULT_255_1_234
10
23.849718
20
5.0730901
40
0.7367406
50
82.1257326
51
90.2932599
0
ARC
8
DEFAULT_255_1_234
10
23.8886135
20
5.3449013
40
0.4621653
50
69.9044149
51
82.2857423
0
ARC
8
DEFAULT_255_1_234
10
23.9456813
20
5.4991637
40
0.2976871
50
51.1838526
51
70.0181538
0
ARC
8
DEFAULT_255_1_234
10
23.9711779
20
5.536224
40
0.2528517
50
12.1017251
51
50.4214761
0
ARC
8
DEFAULT_255_1_234
10
23.8327653
20
5.5014676
40
0.3955061
50
359.5251267
51
12.8211707
0
ARC
8
DEFAULT_255_1_234
10
23.9907579
20
5.4945344
40
0.2375281
50
323.4908128
51
0.8817314
0
ARC
8
DEFAULT_255_1_234
10
23.9489266
20
5.526855
40
0.2903817
50
298.6825083
51
323.2756573
0
ARC
8
DEFAULT_255_1_234
10
23.9127629
20
5.5869649
40
0.3604842
50
293.1999386
51
299.1396394
0
ARC
8
DEFAULT_255_1_234
10
23.9800602
20
4.9784126
40
0.2871098
50
54.0011765
51
74.9167975
0
ARC
8
DEFAULT_255_1_234
10
23.9916961
20
4.9981332
40
0.2643248
50
36.3580696
51
53.5291921
0
ARC
8
DEFAULT_255_1_234
10
23.9790203
20
4.9890998
40
0.2798884
50
4.8189881
51
36.3089977
0
ARC
8
DEFAULT_255_1_234
10
23.9011038
20
4.978127
40
0.358478
50
359.9370252
51
5.5204067
0
ARC
8
DEFAULT_255_1_234
10
23.868656
20
4.9740667
40
0.3909429
50
344.7478609
51
0.5373281
0
ARC
8
DEFAULT_255_1_234
10
23.9677531
20
4.9473544
40
0.2883093
50
311.1786488
51
344.6886812
0
ARC
8
DEFAULT_255_1_234
10
23.9385578
20
4.9836987
40
0.3348923
50
286.0418249
51
310.8441291
0
ARC
8
DEFAULT_255_1_234
10
23.887841
20
5.1483807
40
0.5071869
50
274.1042341
51
286.4071509
0
ARC
8
DEFAULT_255_1_234
10
23.8701666
20
5.3367229
40
0.6963234
50
269.9236873
51
274.445647
0
ARC
8
DEFAULT_255_1_234
10
23.8747667
20
5.1027537
40
0.3362634
50
269.6055768
51
281.3740047
0
ARC
8
DEFAULT_255_1_234
10
23.8978305
20
4.9934353
40
0.224546
50
281.1055983
51
302.5132223
0
ARC
8
DEFAULT_255_1_234
10
23.9125204
20
4.9670823
40
0.1944357
50
303.0368945
51
311.8811219
0
ARC
8
DEFAULT_255_1_234
10
23.9196611
20
4.958589
40
0.1833454
50
311.9916004
51
351.7143462
0
ARC
8
DEFAULT_255_1_234
10
23.8379841
20
4.975093
40
0.2665871
50
350.7339597
51
0.2221581
0
ARC
8
DEFAULT_255_1_234
10
23.8272287
20
4.9807467
40
0.2773789
50
359.0456241
51
17.2296242
0
ARC
8
DEFAULT_255_1_234
10
23.9311404
20
5.0116163
40
0.1689915
50
17.6685481
51
78.9940892
0
ARC
8
DEFAULT_255_1_234
10
23.8794568
20
4.8261224
40
0.3612658
50
76.5635957
51
90.6980921
0
LINE
8
DEFAULT_255_1_234
10
23.8750552
20
5.1873613
11
23.8748614
21
5.1873614
0
ARC
8
DEFAULT_255_1_234
10
23.8530228
20
5.6396036
40
0.3285612
50
269.6064736
51
281.4533503
0
ARC
8
DEFAULT_255_1_234
10
23.8753048
20
5.5344688
40
0.2210975
50
281.2041486
51
302.5148063
0
ARC
8
DEFAULT_255_1_234
10
23.8889898
20
5.5098241
40
0.1929674
50
303.021671
51
309.8369575
0
ARC
8
DEFAULT_255_1_234
10
23.9073359
20
5.4892488
40
0.1654181
50
309.5228395
51
356.9509836
0
ARC
8
DEFAULT_255_1_234
10
23.8409942
20
5.4987932
40
0.2322512
50
355.4701227
51
0.0492546
0
ARC
8
DEFAULT_255_1_234
10
23.8131033
20
5.5010094
40
0.2601498
50
359.5558597
51
11.2096359
0
ARC
8
DEFAULT_255_1_234
10
23.9088323
20
5.520823
40
0.1623975
50
10.9182341
51
31.3230275
0
ARC
8
DEFAULT_255_1_234
10
23.9374056
20
5.5367214
40
0.1297302
50
31.8852677
51
52.1412565
0
ARC
8
DEFAULT_255_1_234
10
23.9099789
20
5.497975
40
0.1771663
50
52.8285564
51
71.9850297
0
ARC
8
DEFAULT_255_1_234
10
23.8723965
20
5.3873664
40
0.2939794
50
71.6863486
51
82.8455995
0
ARC
8
DEFAULT_255_1_234
10
23.8484501
20
5.2064149
40
0.476506
50
82.6984714
51
90.1729175
0
ARC
8
DEFAULT_255_1_234
10
23.8462136
20
5.3287623
40
0.3541573
50
89.8708275
51
90.0431131
0
LINE
8
DEFAULT_255_1_234
10
24.3355674
20
13.7473211
11
24.3355674
21
13.663791
0
LINE
8
DEFAULT_255_1_234
10
24.3355674
20
13.663791
11
23.8512536
21
12.5779
0
LINE
8
DEFAULT_255_1_234
10
23.8512536
20
12.5779
11
23.6954379
21
12.5779
0
LINE
8
DEFAULT_255_1_234
10
23.6954379
20
12.5779
11
24.1781454
21
13.6252387
0
LINE
8
DEFAULT_255_1_234
10
24.1781454
20
13.6252387
11
23.5452444
21
13.6252387
0
LINE
8
DEFAULT_255_1_234
10
23.5452444
20
13.6252387
11
23.5452444
21
13.7473211
0
LINE
8
DEFAULT_255_1_234
10
23.5452444
20
13.7473211
11
24.3355674
21
13.7473211
0
LINE
8
DEFAULT_255_1_234
10
24.1371835
20
21.6856243
11
24.1636882
21
21.6856243
0
LINE
8
DEFAULT_255_1_234
10
24.1636882
20
21.6856243
11
24.1636882
21
21.559526
0
LINE
8
DEFAULT_255_1_234
10
24.1636882
20
21.559526
11
24.1363803
21
21.559526
0
LINE
8
DEFAULT_255_1_234
10
23.5894189
20
20.9603583
11
23.5894189
21
21.0173836
0
LINE
8
DEFAULT_255_1_234
10
23.7388093
20
20.9981075
11
23.7388093
21
20.9434917
0
ARC
8
DEFAULT_255_1_234
10
24.1416151
20
21.0597455
40
0.4998079
50
90.6001036
51
104.514704
0
ARC
8
DEFAULT_255_1_234
10
24.1027667
20
21.2042131
40
0.3502176
50
104.2855254
51
133.862935
0
ARC
8
DEFAULT_255_1_234
10
24.1191424
20
21.193383
40
0.3693984
50
134.5302688
51
161.6210873
0
ARC
8
DEFAULT_255_1_234
10
24.2844613
20
21.1350895
40
0.5446739
50
161.2849839
51
174.2076652
0
ARC
8
DEFAULT_255_1_234
10
24.425155
20
21.1156787
40
0.6866274
50
173.7810589
51
174.9254635
0
ARC
8
DEFAULT_255_1_234
10
23.9701382
20
20.9773839
40
0.3033419
50
95.8330959
51
138.9954921
0
ARC
8
DEFAULT_255_1_234
10
23.9924738
20
20.8495375
40
0.4328947
50
89.8753725
51
97.0544009
0
ARC
8
DEFAULT_255_1_234
10
23.9972204
20
20.9330748
40
0.3493769
50
71.6407809
51
90.6240094
0
ARC
8
DEFAULT_255_1_234
10
24.0122777
20
20.9885082
40
0.2920396
50
39.6367836
51
71.019018
0
ARC
8
DEFAULT_255_1_234
10
23.948625
20
20.9334998
40
0.3761538
50
10.658731
51
39.9043955
0
ARC
8
DEFAULT_255_1_234
10
23.7938333
20
20.8998686
40
0.5345136
50
359.682601
51
11.132623
0
ARC
8
DEFAULT_255_1_234
10
23.7898464
20
20.892801
40
0.5385081
50
347.2486944
51
0.4369317
0
ARC
8
DEFAULT_255_1_234
10
23.9565941
20
20.8526807
40
0.3670249
50
318.1409698
51
347.6118597
0
ARC
8
DEFAULT_255_1_234
10
23.9890934
20
20.8259702
40
0.3250007
50
275.6342139
51
317.8248465
0
ARC
8
DEFAULT_255_1_234
10
23.9670045
20
20.9559219
40
0.4565864
50
269.8874292
51
276.7917694
0
ARC
8
DEFAULT_255_1_234
10
23.9615116
20
20.8533743
40
0.3540676
50
246.9140195
51
270.7437342
0
ARC
8
DEFAULT_255_1_234
10
23.9621506
20
20.8391384
40
0.3412781
50
218.1665114
51
245.878116
0
ARC
8
DEFAULT_255_1_234
10
24.0500967
20
20.9127279
40
0.455911
50
191.4115814
51
218.6077802
0
ARC
8
DEFAULT_255_1_234
10
24.2439056
20
20.9561833
40
0.6545001
50
179.6345085
51
191.7836486
0
ARC
8
DEFAULT_255_1_234
10
24.8021393
20
21.0240697
40
1.2127388
50
171.4525249
51
180.3158839
0
ARC
8
DEFAULT_255_1_234
10
24.3626269
20
21.0924608
40
0.7679464
50
157.9802646
51
171.6246686
0
ARC
8
DEFAULT_255_1_234
10
24.141229
20
21.1807421
40
0.5296008
50
141.4298019
51
157.854097
0
ARC
8
DEFAULT_255_1_234
10
24.077061
20
21.2261381
40
0.4511509
50
102.8715806
51
140.8564722
0
ARC
8
DEFAULT_255_1_234
10
24.1418226
20
20.9821552
40
0.7034845
50
90.3778349
51
103.5869322
0
ARC
8
DEFAULT_255_1_234
10
23.9680002
20
20.921673
40
0.2370698
50
89.8751008
51
126.2071704
0
ARC
8
DEFAULT_255_1_234
10
23.9725792
20
20.9062303
40
0.2522934
50
124.9745049
51
144.895901
0
ARC
8
DEFAULT_255_1_234
10
23.9549982
20
20.920556
40
0.2296779
50
145.2974905
51
160.2660252
0
ARC
8
DEFAULT_255_1_234
10
24.2622521
20
20.9403071
40
0.5234525
50
179.6514266
51
190.2855912
0
ARC
8
DEFAULT_255_1_234
10
24.0928658
20
20.9083786
40
0.3510893
50
190.0945431
51
207.5098196
0
ARC
8
DEFAULT_255_1_234
10
24.0362928
20
20.8814623
40
0.288489
50
207.9583163
51
216.3251085
0
ARC
8
DEFAULT_255_1_234
10
24.0023036
20
20.8535105
40
0.2445587
50
215.7661442
51
232.5456785
0
ARC
8
DEFAULT_255_1_234
10
23.9640019
20
20.8048482
40
0.1826382
50
232.8005391
51
270.6605633
0
ARC
8
DEFAULT_255_1_234
10
23.968572
20
20.8412612
40
0.2190529
50
269.35537
51
288.4744281
0
ARC
8
DEFAULT_255_1_234
10
23.9778617
20
20.8063118
40
0.1829749
50
289.1833337
51
322.9683818
0
ARC
8
DEFAULT_255_1_234
10
23.9167139
20
20.8545391
40
0.2608399
50
322.6007884
51
346.5182367
0
ARC
8
DEFAULT_255_1_234
10
23.8009735
20
20.8840616
40
0.3802777
50
346.2582162
51
358.7741648
0
ARC
8
DEFAULT_255_1_234
10
23.6991404
20
20.8895965
40
0.4822176
50
358.3755224
51
0.0098023
0
ARC
8
DEFAULT_255_1_234
10
23.7747591
20
20.8923657
40
0.4066078
50
359.6214041
51
11.2839074
0
ARC
8
DEFAULT_255_1_234
10
23.9024738
20
20.9190066
40
0.2761514
50
11.0482309
51
31.8146458
0
ARC
8
DEFAULT_255_1_234
10
23.9333781
20
20.9357584
40
0.2410679
50
32.3035391
51
38.082671
0
ARC
8
DEFAULT_255_1_234
10
23.9754441
20
20.9738662
40
0.1844966
50
36.825067
51
85.7415724
0
ARC
8
DEFAULT_255_1_234
10
23.9687274
20
20.9238301
40
0.2349122
50
85.0140713
51
90.0513278
0
LINE
8
DEFAULT_255_1_234
10
23.7677235
20
29.0086963
11
23.6488538
21
29.0392169
0
LINE
8
DEFAULT_255_1_234
10
23.6488538
20
29.0392169
11
23.7082887
21
29.6223211
0
LINE
8
DEFAULT_255_1_234
10
23.7082887
20
29.6223211
11
24.3074563
21
29.6223211
0
LINE
8
DEFAULT_255_1_234
10
24.3074563
20
29.6223211
11
24.3074563
21
29.4849784
0
LINE
8
DEFAULT_255_1_234
10
24.3074563
20
29.4849784
11
23.834387
21
29.4849784
0
LINE
8
DEFAULT_255_1_234
10
23.834387
20
29.4849784
11
23.7990473
21
29.1661184
0
LINE
8
DEFAULT_255_1_234
10
23.6070888
20
28.7605156
11
23.7476442
21
28.7605156
0
LINE
8
DEFAULT_255_1_234
10
23.8070791
20
29.0408232
11
23.7677235
21
29.0086963
0
ARC
8
DEFAULT_255_1_234
10
23.9845257
20
28.848123
40
0.3681349
50
93.7182161
51
120.2538958
0
ARC
8
DEFAULT_255_1_234
10
23.993952
20
28.7673394
40
0.449379
50
89.9660152
51
94.2496022
0
ARC
8
DEFAULT_255_1_234
10
23.9980254
20
28.8262549
40
0.390482
50
73.8043271
51
90.5585896
0
ARC
8
DEFAULT_255_1_234
10
24.0215151
20
28.9120602
40
0.3015334
50
41.3071453
51
73.5430202
0
ARC
8
DEFAULT_255_1_234
10
23.9798978
20
28.8762324
40
0.3564457
50
13.5075983
51
41.2174222
0
ARC
8
DEFAULT_255_1_234
10
23.8157182
20
28.8332486
40
0.5261351
50
1.1331335
51
13.8829381
0
ARC
8
DEFAULT_255_1_234
10
23.6745551
20
28.8256665
40
0.6674378
50
359.9919444
51
1.544251
0
ARC
8
DEFAULT_255_1_234
10
23.8022377
20
28.821528
40
0.5397702
50
347.8572367
51
0.4293338
0
ARC
8
DEFAULT_255_1_234
10
23.9772695
20
28.7818736
40
0.3603188
50
323.673004
51
348.1672506
0
ARC
8
DEFAULT_255_1_234
10
24.0067203
20
28.7639168
40
0.3259678
50
316.8171152
51
323.1492751
0
ARC
8
DEFAULT_255_1_234
10
24.0128392
20
28.760246
40
0.3189975
50
281.8396411
51
316.5457803
0
ARC
8
DEFAULT_255_1_234
10
23.9752656
20
28.9157762
40
0.4789527
50
269.5770101
51
282.4214771
0
ARC
8
DEFAULT_255_1_234
10
23.9681467
20
28.8944125
40
0.45759
50
256.2427136
51
270.4486331
0
ARC
8
DEFAULT_255_1_234
10
23.938237
20
28.7744229
40
0.3339303
50
228.9023911
51
256.3314342
0
ARC
8
DEFAULT_255_1_234
10
23.9308602
20
28.7627746
40
0.32031
50
193.753695
51
228.5271154
0
ARC
8
DEFAULT_255_1_234
10
24.0546556
20
28.79908
40
0.4492253
50
184.924711
51
194.497588
0
ARC
8
DEFAULT_255_1_234
10
24.0739123
20
28.8026591
40
0.3289787
50
187.3600538
51
198.6732863
0
ARC
8
DEFAULT_255_1_234
10
23.9689417
20
28.7662674
40
0.217884
50
198.4451669
51
217.794479
0
ARC
8
DEFAULT_255_1_234
10
23.9393592
20
28.7453085
40
0.1816698
50
218.2887171
51
228.5612368
0
ARC
8
DEFAULT_255_1_234
10
23.9491379
20
28.7584963
40
0.1980329
50
228.9654866
51
258.1234728
0
ARC
8
DEFAULT_255_1_234
10
23.9697089
20
28.8465833
40
0.2884748
50
257.7258293
51
270.401361
0
ARC
8
DEFAULT_255_1_234
10
23.9741975
20
28.8020821
40
0.2439788
50
269.4204404
51
286.4209037
0
ARC
8
DEFAULT_255_1_234
10
23.9890463
20
28.7481657
40
0.1880666
50
286.7251356
51
320.600362
0
ARC
8
DEFAULT_255_1_234
10
23.9507288
20
28.7792595
40
0.2374121
50
320.6712579
51
344.5441685
0
ARC
8
DEFAULT_255_1_234
10
23.8350614
20
28.8132045
40
0.3579479
50
344.2412205
51
356.7357071
0
ARC
8
DEFAULT_255_1_234
10
23.7101763
20
28.8235444
40
0.4832297
50
356.3548756
51
0.0500261
0
ARC
8
DEFAULT_255_1_234
10
23.8438272
20
28.826665
40
0.3495889
50
359.5576869
51
12.953486
0
ARC
8
DEFAULT_255_1_234
10
23.9493169
20
28.8522434
40
0.2410532
50
12.6490276
51
41.6081334
0
ARC
8
DEFAULT_255_1_234
10
23.972354
20
28.8718321
40
0.2108218
50
41.7850273
51
85.9892764
0
ARC
8
DEFAULT_255_1_234
10
23.9600277
20
28.7905462
40
0.2928454
50
84.6957577
51
90.0676183
0
ARC
8
DEFAULT_255_1_234
10
23.9576761
20
28.7236716
40
0.3597255
50
89.6804936
51
99.1614436
0
ARC
8
DEFAULT_255_1_234
10
23.9371392
20
28.8464131
40
0.235281
50
98.9830931
51
113.8908934
0
ARC
8
DEFAULT_255_1_234
10
23.9141802
20
28.9005587
40
0.176479
50
114.1950727
51
127.3641004
0
LINE
8
DEFAULT_255_1_234
10
23.9961628
20
37.5598211
11
23.9961628
21
36.783152
0
LINE
8
DEFAULT_255_1_234
10
23.9961628
20
36.783152
11
24.1584039
21
36.783152
0
LINE
8
DEFAULT_255_1_234
10
24.1584039
20
36.783152
11
24.1584039
21
36.6618728
0
LINE
8
DEFAULT_255_1_234
10
24.1584039
20
36.6618728
11
23.9961628
21
36.6618728
0
LINE
8
DEFAULT_255_1_234
10
23.9961628
20
36.6618728
11
23.9961628
21
36.3904
0
LINE
8
DEFAULT_255_1_234
10
23.9961628
20
36.3904
11
23.8467725
21
36.3904
0
LINE
8
DEFAULT_255_1_234
10
23.8467725
20
36.3904
11
23.8467725
21
36.6618728
0
LINE
8
DEFAULT_255_1_234
10
23.8467725
20
36.6618728
11
23.3142682
21
36.6618728
0
LINE
8
DEFAULT_255_1_234
10
23.3142682
20
36.6618728
11
23.3142682
21
36.7494187
0
LINE
8
DEFAULT_255_1_234
10
23.3142682
20
36.7494187
11
23.8379375
21
37.5598211
0
LINE
8
DEFAULT_255_1_234
10
23.8379375
20
37.5598211
11
23.9961628
21
37.5598211
0
LINE
8
DEFAULT_255_1_234
10
23.8291026
20
37.3244912
11
23.4829347
21
36.783152
0
LINE
8
DEFAULT_255_1_234
10
23.4829347
20
36.783152
11
23.8467725
21
36.783152
0
LINE
8
DEFAULT_255_1_234
10
23.8467725
20
36.783152
11
23.8467725
21
37.3566181
0
LINE
8
DEFAULT_255_1_234
10
23.8467725
20
37.3566181
11
23.8291026
21
37.3244912
0
LINE
8
DEFAULT_255_1_234
10
23.7966378
20
44.8636169
11
23.7966378
21
44.9848962
0
LINE
8
DEFAULT_255_1_234
10
23.7966378
20
44.9848962
11
23.908279
21
44.9848962
0
LINE
8
DEFAULT_255_1_234
10
23.7179268
20
45.1905087
11
23.5693396
21
45.1905087
0
LINE
8
DEFAULT_255_1_234
10
23.5588983
20
44.6363188
11
23.7082887
21
44.6363188
0
LINE
8
DEFAULT_255_1_234
10
23.908279
20
44.8636169
11
23.7966378
21
44.8636169
0
ARC
8
DEFAULT_255_1_234
10
23.9053656
20
45.3241713
40
0.3392876
50
270.4919872
51
281.8951556
0
ARC
8
DEFAULT_255_1_234
10
23.9294918
20
45.2139702
40
0.2264817
50
281.6691735
51
301.2943132
0
ARC
8
DEFAULT_255_1_234
10
23.9465128
20
45.1828304
40
0.1910381
50
301.7833094
51
311.7545298
0
ARC
8
DEFAULT_255_1_234
10
23.9556704
20
45.1726748
40
0.1773635
50
311.7323931
51
354.2802411
0
ARC
8
DEFAULT_255_1_234
10
23.8830329
20
45.1851722
40
0.2509385
50
353.0937916
51
0.1181479
0
ARC
8
DEFAULT_255_1_234
10
23.8369114
20
45.1899386
40
0.2970898
50
359.1805295
51
15.0453146
0
ARC
8
DEFAULT_255_1_234
10
23.9714951
20
45.2291992
40
0.1569564
50
13.9577229
51
77.6713066
0
ARC
8
DEFAULT_255_1_234
10
23.932848
20
45.0906949
40
0.3006298
50
76.1116566
51
90.7026153
0
ARC
8
DEFAULT_255_1_234
10
23.9269318
20
45.1180545
40
0.2732568
50
89.5324876
51
103.531937
0
ARC
8
DEFAULT_255_1_234
10
23.9068762
20
45.1979884
40
0.1908508
50
103.2931773
51
133.5619022
0
ARC
8
DEFAULT_255_1_234
10
23.9024251
20
45.2039375
40
0.1834746
50
133.8349307
51
173.5344437
0
ARC
8
DEFAULT_255_1_234
10
23.9747294
20
45.1911213
40
0.2568033
50
172.5096846
51
180.1366907
0
ARC
8
DEFAULT_255_1_234
10
23.8796188
20
45.1945622
40
0.3103056
50
155.3484492
51
180.7484736
0
ARC
8
DEFAULT_255_1_234
10
23.8747277
20
45.1916846
40
0.3070957
50
131.5744599
51
154.4798489
0
ARC
8
DEFAULT_255_1_234
10
23.9060424
20
45.160031
40
0.3515643
50
96.9875458
51
131.9690667
0
ARC
8
DEFAULT_255_1_234
10
23.9279904
20
45.0354636
40
0.4779224
50
89.8596053
51
97.7825159
0
ARC
8
DEFAULT_255_1_234
10
23.9327967
20
45.0092616
40
0.5041361
50
78.3655447
51
90.4131539
0
ARC
8
DEFAULT_255_1_234
10
23.9685885
20
45.1751887
40
0.3344039
50
56.6229102
51
78.638727
0
ARC
8
DEFAULT_255_1_234
10
23.9900829
20
45.2127805
40
0.2912001
50
47.0253525
51
56.0854072
0
ARC
8
DEFAULT_255_1_234
10
23.9920609
20
45.2167223
40
0.2869704
50
10.9208013
51
46.7778124
0
ARC
8
DEFAULT_255_1_234
10
23.8556675
20
45.1851857
40
0.426899
50
359.6364486
51
11.6087304
0
ARC
8
DEFAULT_255_1_234
10
24.0391519
20
45.1836752
40
0.243409
50
332.3549906
51
359.7179418
0
ARC
8
DEFAULT_255_1_234
10
23.9741121
20
45.2145142
40
0.3153459
50
325.2333722
51
332.8745602
0
ARC
8
DEFAULT_255_1_234
10
23.9893744
20
45.2038828
40
0.2967456
50
292.9802137
51
325.2392345
0
ARC
8
DEFAULT_255_1_234
10
23.9619118
20
45.2572863
40
0.3566604
50
292.5402179
51
293.6924929
0
ARC
8
DEFAULT_255_1_234
10
24.0011714
20
44.6118091
40
0.3307468
50
57.6435486
51
72.8625112
0
ARC
8
DEFAULT_255_1_234
10
24.0366214
20
44.6692549
40
0.2632492
50
36.7248896
51
57.4697979
0
ARC
8
DEFAULT_255_1_234
10
24.0354847
20
44.670522
40
0.2634081
50
8.0545065
51
36.356114
0
ARC
8
DEFAULT_255_1_234
10
23.9492032
20
44.6550174
40
0.3510261
50
359.8320645
51
8.5869982
0
ARC
8
DEFAULT_255_1_234
10
23.9116808
20
44.6502101
40
0.3885653
50
343.9829931
51
0.5571613
0
ARC
8
DEFAULT_255_1_234
10
24.0003005
20
44.6259438
40
0.2966924
50
311.6359546
51
343.7651759
0
ARC
8
DEFAULT_255_1_234
10
23.9624574
20
44.6686102
40
0.3537231
50
279.7829875
51
311.6255694
0
ARC
8
DEFAULT_255_1_234
10
23.9323351
20
44.812328
40
0.5004971
50
269.7286406
51
280.3856417
0
ARC
8
DEFAULT_255_1_234
10
23.9261423
20
44.8081996
40
0.4963778
50
256.6828919
51
270.4412052
0
ARC
8
DEFAULT_255_1_234
10
23.8922719
20
44.6697394
40
0.3538406
50
229.4223008
51
256.8556159
0
ARC
8
DEFAULT_255_1_234
10
23.8508112
20
44.6230736
40
0.2914296
50
181.818294
51
229.6455059
0
ARC
8
DEFAULT_255_1_234
10
23.9548068
20
44.6361496
40
0.3959084
50
179.9755256
51
183.2323064
0
ARC
8
DEFAULT_255_1_234
10
23.9375814
20
44.6341037
40
0.2293034
50
179.4465117
51
196.2869258
0
ARC
8
DEFAULT_255_1_234
10
23.8888222
20
44.6207651
40
0.1787621
50
196.5661473
51
227.705904
0
ARC
8
DEFAULT_255_1_234
10
23.9052317
20
44.6391155
40
0.2033784
50
227.7652068
51
257.8762805
0
ARC
8
DEFAULT_255_1_234
10
23.9277287
20
44.7334156
40
0.3003081
50
257.4584385
51
270.426602
0
ARC
8
DEFAULT_255_1_234
10
23.9322853
20
44.7623996
40
0.329292
50
269.5962073
51
280.8789248
0
ARC
8
DEFAULT_255_1_234
10
23.9552382
20
44.6477685
40
0.2123908
50
280.6346389
51
299.8595945
0
ARC
8
DEFAULT_255_1_234
10
23.9743289
20
44.6115212
40
0.171457
50
300.3576302
51
314.5517981
0
ARC
8
DEFAULT_255_1_234
10
23.9660349
20
44.6175919
40
0.1816095
50
315.0728369
51
345.0431014
0
ARC
8
DEFAULT_255_1_234
10
23.8737163
20
44.6444841
40
0.2777492
50
344.5986631
51
357.9269593
0
ARC
8
DEFAULT_255_1_234
10
23.7841489
20
44.6506276
40
0.3674917
50
357.4748886
51
0.0231117
0
ARC
8
DEFAULT_255_1_234
10
23.8864599
20
44.6530679
40
0.2651907
50
359.5047933
51
13.4239635
0
ARC
8
DEFAULT_255_1_234
10
23.9731242
20
44.6752478
40
0.1757509
50
12.9498199
51
48.7551375
0
ARC
8
DEFAULT_255_1_234
10
23.9548976
20
44.65034
40
0.2065134
50
49.5088623
51
72.1836453
0
ARC
8
DEFAULT_255_1_234
10
23.9191129
20
44.5441291
40
0.3185836
50
71.9010081
51
84.3554254
0
ARC
8
DEFAULT_255_1_234
10
23.9029761
20
44.4080326
40
0.4556151
50
84.0193428
51
89.333121
0
LINE
8
DEFAULT_255_1_234
10
24.3468119
20
52.3866792
11
24.3468119
21
52.2654
0
LINE
8
DEFAULT_255_1_234
10
24.3468119
20
52.2654
11
23.580584
21
52.2654
0
LINE
8
DEFAULT_255_1_234
10
23.580584
20
52.2654
11
23.580584
21
52.3722221
0
LINE
8
DEFAULT_255_1_234
10
23.580584
20
52.3722221
11
23.9853836
21
52.8219995
0
LINE
8
DEFAULT_255_1_234
10
23.7066823
20
53.0902595
11
23.5580952
21
53.0902595
0
LINE
8
DEFAULT_255_1_234
10
24.0729296
20
52.7264218
11
23.7596918
21
52.3866792
0
LINE
8
DEFAULT_255_1_234
10
23.7596918
20
52.3866792
11
24.3468119
21
52.3866792
0
ARC
8
DEFAULT_255_1_234
10
22.636367
20
54.0149527
40
1.8008286
50
318.5132453
51
320.7828378
0
ARC
8
DEFAULT_255_1_234
10
23.1650644
20
53.5846426
40
1.1191493
50
320.7372736
51
323.9737074
0
ARC
8
DEFAULT_255_1_234
10
23.5570501
20
53.3006361
40
0.6350923
50
323.8961724
51
328.6421089
0
ARC
8
DEFAULT_255_1_234
10
23.7617096
20
53.1744031
40
0.3946393
50
328.8299013
51
331.789948
0
ARC
8
DEFAULT_255_1_234
10
23.8614274
20
53.1229509
40
0.2824501
50
331.4255242
51
352.9364833
0
ARC
8
DEFAULT_255_1_234
10
23.8750775
20
53.1198976
40
0.2685315
50
353.2248685
51
0.0169286
0
ARC
8
DEFAULT_255_1_234
10
23.8960652
20
53.122195
40
0.2475536
50
359.4866256
51
15.9339782
0
ARC
8
DEFAULT_255_1_234
10
23.9467637
20
53.1358286
40
0.1950618
50
16.1714718
51
43.5284424
0
ARC
8
DEFAULT_255_1_234
10
23.9544946
20
53.1435573
40
0.184134
50
43.4415429
51
83.1661404
0
ARC
8
DEFAULT_255_1_234
10
23.9410864
20
53.0698771
40
0.258926
50
82.160215
51
90.1505798
0
ARC
8
DEFAULT_255_1_234
10
23.9379291
20
53.0161865
40
0.3126255
50
89.5460705
51
102.5418777
0
ARC
8
DEFAULT_255_1_234
10
23.9136377
20
53.1192665
40
0.2067346
50
102.1739365
51
129.2061916
0
ARC
8
DEFAULT_255_1_234
10
23.9057449
20
53.1317094
40
0.1921118
50
129.7279328
51
135.7542026
0
ARC
8
DEFAULT_255_1_234
10
23.9178977
20
53.1220045
40
0.2075944
50
136.175737
51
166.3674722
0
ARC
8
DEFAULT_255_1_234
10
24.0185896
20
53.0950182
40
0.3118201
50
165.9092917
51
178.8683903
0
ARC
8
DEFAULT_255_1_234
10
24.1050757
20
53.0903179
40
0.3983935
50
178.438168
51
180.0083905
0
ARC
8
DEFAULT_255_1_234
10
23.9649359
20
53.0942231
40
0.4068601
50
163.2878735
51
180.5581814
0
ARC
8
DEFAULT_255_1_234
10
23.8847621
20
53.116284
40
0.3237344
50
133.454115
51
162.9470031
0
ARC
8
DEFAULT_255_1_234
10
23.9026162
20
53.0973
40
0.349795
50
100.7869394
51
133.4384016
0
ARC
8
DEFAULT_255_1_234
10
23.9373934
20
52.9424319
40
0.5084616
50
89.6605301
51
101.3704185
0
ARC
8
DEFAULT_255_1_234
10
23.9440273
20
52.9485496
40
0.502348
50
78.2171172
51
90.4130393
0
ARC
8
DEFAULT_255_1_234
10
23.9795351
20
53.1109637
40
0.3361092
50
55.9268222
51
78.4888551
0
ARC
8
DEFAULT_255_1_234
10
23.9991791
20
53.1448324
40
0.2970617
50
47.9292255
51
55.4054003
0
ARC
8
DEFAULT_255_1_234
10
24.0093352
20
53.1551502
40
0.2825983
50
4.3347696
51
48.0560701
0
ARC
8
DEFAULT_255_1_234
10
23.8997745
20
53.1381601
40
0.393225
50
359.925209
51
5.5967654
0
ARC
8
DEFAULT_255_1_234
10
23.9426637
20
53.1437816
40
0.3503892
50
337.8914096
51
358.9967724
0
ARC
8
DEFAULT_255_1_234
10
23.6713049
20
53.2484706
40
0.6412172
50
326.9135351
51
338.3505194
0
ARC
8
DEFAULT_255_1_234
10
23.2727353
20
53.5039284
40
1.1146189
50
319.6472867
51
327.095818
0
ARC
8
DEFAULT_255_1_234
10
22.8894356
20
53.8201
40
1.6114559
50
317.2586784
51
319.9046139
0
LINE
8
DEFAULT_255_1_234
10
24.0771137
20
61.3779433
11
24.0771137
21
60.2029
0
LINE
8
DEFAULT_255_1_234
10
24.0771137
20
60.2029
11
23.9277234
21
60.2029
0
LINE
8
DEFAULT_255_1_234
10
23.9277234
20
60.2029
11
23.9277234
21
61.1932133
0
LINE
8
DEFAULT_255_1_234
10
23.9277234
20
61.1932133
11
23.6281396
21
61.0831785
0
LINE
8
DEFAULT_255_1_234
10
23.6281396
20
61.0831785
11
23.6281396
21
61.2181117
0
LINE
8
DEFAULT_255_1_234
10
23.6281396
20
61.2181117
11
24.0538217
21
61.3779433
0
LINE
8
DEFAULT_255_1_234
10
24.0538217
20
61.3779433
11
24.0771137
21
61.3779433
0
LINE
8
DEFAULT_255_1_234
10
24.3138817
20
68.8319327
11
24.3138817
21
68.6391709
0
LINE
8
DEFAULT_255_1_234
10
23.575765
20
68.6190916
11
23.575765
21
68.8174755
0
LINE
8
DEFAULT_255_1_234
10
24.1652946
20
68.5990123
11
24.1652946
21
68.8423739
0
LINE
8
DEFAULT_255_1_234
10
23.7243521
20
68.8536184
11
23.7243521
21
68.6158789
0
ARC
8
DEFAULT_255_1_234
10
23.0891707
20
68.6342805
40
1.2247208
50
353.8441951
51
0.2287902
0
ARC
8
DEFAULT_255_1_234
10
23.5531211
20
68.5824806
40
0.7578929
50
344.4934747
51
353.9765454
0
ARC
8
DEFAULT_255_1_234
10
23.8523801
20
68.4973981
40
0.4467846
50
329.2803592
51
344.7472793
0
ARC
8
DEFAULT_255_1_234
10
23.9516626
20
68.4429018
40
0.3336173
50
324.9352394
51
328.6160465
0
ARC
8
DEFAULT_255_1_234
10
23.9893734
20
68.4165427
40
0.2876076
50
280.580143
51
324.9173126
0
ARC
8
DEFAULT_255_1_234
10
23.9492527
20
68.5836099
40
0.4592847
50
269.5977311
51
281.6734359
0
ARC
8
DEFAULT_255_1_234
10
23.9420433
20
68.5716173
40
0.4472986
50
256.6228859
51
270.51044
0
ARC
8
DEFAULT_255_1_234
10
23.901841
20
68.4167877
40
0.2873874
50
215.8618325
51
257.2788573
0
ARC
8
DEFAULT_255_1_234
10
24.0039442
20
68.4852977
40
0.4102928
50
197.9693508
51
215.2623606
0
ARC
8
DEFAULT_255_1_234
10
24.2524558
20
68.5691709
40
0.6725652
50
187.8816417
51
198.2346507
0
ARC
8
DEFAULT_255_1_234
10
24.6482766
20
68.6263079
40
1.0724845
50
180.8976217
51
188.0055519
0
ARC
8
DEFAULT_255_1_234
10
24.9282954
20
68.6366777
40
1.3526448
50
180.7449369
51
181.1510016
0
ARC
8
DEFAULT_255_1_234
10
24.7705683
20
68.8223042
40
1.1948131
50
173.7675579
51
180.231553
0
ARC
8
DEFAULT_255_1_234
10
24.318783
20
68.8733666
40
0.7401564
50
164.3058563
51
173.9002247
0
ARC
8
DEFAULT_255_1_234
10
24.0275899
20
68.9572656
40
0.4371288
50
148.7922025
51
164.568378
0
ARC
8
DEFAULT_255_1_234
10
23.9324351
20
69.0103929
40
0.3282386
50
144.5883898
51
148.1176286
0
ARC
8
DEFAULT_255_1_234
10
23.8981249
20
69.0343315
40
0.2864044
50
101.6440918
51
144.514236
0
ARC
8
DEFAULT_255_1_234
10
23.9406315
20
68.8654069
40
0.4604934
50
89.5284041
51
102.5819763
0
ARC
8
DEFAULT_255_1_234
10
23.9485403
20
68.8615018
40
0.464401
50
77.0437873
51
90.5081339
0
ARC
8
DEFAULT_255_1_234
10
23.9887405
20
69.0257615
40
0.2953195
50
48.2778575
51
77.4994676
0
ARC
8
DEFAULT_255_1_234
10
23.9960036
20
69.0386746
40
0.2808655
50
36.3142134
51
47.6305865
0
ARC
8
DEFAULT_255_1_234
10
23.9091343
20
68.9801515
40
0.3855453
50
18.2931786
51
35.6769206
0
ARC
8
DEFAULT_255_1_234
10
23.6548102
20
68.8928593
40
0.654423
50
8.024666
51
18.5605216
0
ARC
8
DEFAULT_255_1_234
10
23.2385022
20
68.8313792
40
1.0752407
50
1.1274072
51
8.1718305
0
ARC
8
DEFAULT_255_1_234
10
22.9149213
20
68.8186885
40
1.3990231
50
0.5424119
51
1.3863029
0
ARC
8
DEFAULT_255_1_234
10
23.097059
20
68.8459342
40
1.0682415
50
359.8090433
51
4.9407866
0
ARC
8
DEFAULT_255_1_234
10
23.5180604
20
68.8835113
40
0.6455691
50
4.8362157
51
12.2904523
0
ARC
8
DEFAULT_255_1_234
10
23.7935719
20
68.9448965
40
0.3633074
50
12.0805627
51
23.8173984
0
ARC
8
DEFAULT_255_1_234
10
23.9109425
20
68.9945919
40
0.2358723
50
24.2871213
51
31.3935614
0
ARC
8
DEFAULT_255_1_234
10
23.9634122
20
69.0289233
40
0.1732111
50
30.7407893
51
82.4657128
0
ARC
8
DEFAULT_255_1_234
10
23.9454256
20
68.9405691
40
0.263235
50
81.1060089
51
90.2184952
0
ARC
8
DEFAULT_255_1_234
10
23.9418555
20
68.9663924
40
0.2374236
50
89.3806855
51
105.6762551
0
ARC
8
DEFAULT_255_1_234
10
23.9235186
20
69.0330567
40
0.1682847
50
105.7981136
51
149.7388061
0
ARC
8
DEFAULT_255_1_234
10
24.0299264
20
68.969095
40
0.2924306
50
149.4208916
51
163.6286378
0
ARC
8
DEFAULT_255_1_234
10
24.2390152
20
68.905325
40
0.5110213
50
163.3763315
51
172.1410975
0
ARC
8
DEFAULT_255_1_234
10
24.5690871
20
68.8580518
40
0.8444586
50
172.0259487
51
178.0703232
0
ARC
8
DEFAULT_255_1_234
10
24.872096
20
68.8436906
40
1.1477868
50
177.8631668
51
179.5044149
0
ARC
8
DEFAULT_255_1_234
10
24.7648365
20
68.6122389
40
1.0404907
50
179.7995573
51
185.2460446
0
ARC
8
DEFAULT_255_1_234
10
24.3605404
20
68.5739513
40
0.6343885
50
185.1411642
51
193.0079639
0
ARC
8
DEFAULT_255_1_234
10
24.0961877
20
68.5114641
40
0.3627568
50
192.7897626
51
205.2507664
0
ARC
8
DEFAULT_255_1_234
10
23.9915424
20
68.4647415
40
0.2481908
50
205.8005384
51
211.2537509
0
ARC
8
DEFAULT_255_1_234
10
23.9391864
20
68.429658
40
0.1852521
50
210.3789793
51
238.4008143
0
ARC
8
DEFAULT_255_1_234
10
23.9372386
20
68.4343376
40
0.1882621
50
239.6520629
51
265.9793761
0
ARC
8
DEFAULT_255_1_234
10
23.9457586
20
68.5015427
40
0.2559272
50
265.1315437
51
270.060332
0
ARC
8
DEFAULT_255_1_234
10
23.9486365
20
68.4691534
40
0.2235528
50
269.3314664
51
287.2178029
0
ARC
8
DEFAULT_255_1_234
10
23.9624217
20
68.4188279
40
0.1714108
50
287.7958004
51
329.080874
0
ARC
8
DEFAULT_255_1_234
10
23.8666674
20
68.478593
40
0.2842745
50
328.6634704
51
343.3325132
0
ARC
8
DEFAULT_255_1_234
10
23.6493694
20
68.5462863
40
0.5118644
50
343.0499468
51
351.9393422
0
ARC
8
DEFAULT_255_1_234
10
23.3026994
20
68.5973949
40
0.8622784
50
351.8069023
51
357.7959224
0
ARC
8
DEFAULT_255_1_234
10
22.979155
20
68.6141721
40
1.1862365
50
357.5871873
51
359.2677531
0
LINE
8
DEFAULT_255_1_234
10
24.3355674
20
77.2473211
11
24.3355674
21
77.163791
0
LINE
8
DEFAULT_255_1_234
10
24.3355674
20
77.163791
11
23.8512536
21
76.0779
0
LINE
8
DEFAULT_255_1_234
10
23.8512536
20
76.0779
11
23.6954379
21
76.0779
0
LINE
8
DEFAULT_255_1_234
10
23.6954379
20
76.0779
11
24.1781454
21
77.1252387
0
LINE
8
DEFAULT_255_1_234
10
24.1781454
20
77.1252387
11
23.5452444
21
77.1252387
0
LINE
8
DEFAULT_255_1_234
10
23.5452444
20
77.1252387
11
23.5452444
21
77.2473211
0
LINE
8
DEFAULT_255_1_234
10
23.5452444
20
77.2473211
11
24.3355674
21
77.2473211
0
LINE
8
DEFAULT_255_1_234
10
24.1371835
20
85.1856243
11
24.1636882
21
85.1856243
0
LINE
8
DEFAULT_255_1_234
10
24.1636882
20
85.1856243
11
24.1636882
21
85.059526
0
LINE
8
DEFAULT_255_1_234
10
24.1636882
20
85.059526
11
24.1363803
21
85.059526
0
LINE
8
DEFAULT_255_1_234
10
23.5894189
20
84.4603583
11
23.5894189
21
84.5173836
0
LINE
8
DEFAULT_255_1_234
10
23.7388093
20
84.4981075
11
23.7388093
21
84.4434917
0
ARC
8
DEFAULT_255_1_234
10
24.1416151
20
84.5597455
40
0.4998079
50
90.6001036
51
104.514704
0
ARC
8
DEFAULT_255_1_234
10
24.1027667
20
84.7042131
40
0.3502176
50
104.2855254
51
133.862935
0
ARC
8
DEFAULT_255_1_234
10
24.1191424
20
84.693383
40
0.3693984
50
134.5302688
51
161.6210873
0
ARC
8
DEFAULT_255_1_234
10
24.2844613
20
84.6350895
40
0.5446739
50
161.2849839
51
174.2076652
0
ARC
8
DEFAULT_255_1_234
10
24.425155
20
84.6156787
40
0.6866274
50
173.7810589
51
174.9254635
0
ARC
8
DEFAULT_255_1_234
10
23.9701382
20
84.4773839
40
0.3033419
50
95.8330959
51
138.9954921
0
ARC
8
DEFAULT_255_1_234
10
23.9924738
20
84.3495375
40
0.4328947
50
89.8753725
51
97.0544009
0
ARC
8
DEFAULT_255_1_234
10
23.9972204
20
84.4330748
40
0.3493769
50
71.6407809
51
90.6240094
0
ARC
8
DEFAULT_255_1_234
10
24.0122777
20
84.4885082
40
0.2920396
50
39.6367836
51
71.019018
0
ARC
8
DEFAULT_255_1_234
10
23.948625
20
84.4334998
40
0.3761538
50
10.658731
51
39.9043955
0
ARC
8
DEFAULT_255_1_234
10
23.7938333
20
84.3998686
40
0.5345136
50
359.682601
51
11.132623
0
ARC
8
DEFAULT_255_1_234
10
23.7898464
20
84.392801
40
0.5385081
50
347.2486944
51
0.4369317
0
ARC
8
DEFAULT_255_1_234
10
23.9565941
20
84.3526807
40
0.3670249
50
318.1409698
51
347.6118597
0
ARC
8
DEFAULT_255_1_234
10
23.9890934
20
84.3259702
40
0.3250007
50
275.6342139
51
317.8248465
0
ARC
8
DEFAULT_255_1_234
10
23.9670045
20
84.4559219
40
0.4565864
50
269.8874292
51
276.7917694
0
ARC
8
DEFAULT_255_1_234
10
23.9615116
20
84.3533743
40
0.3540676
50
246.9140195
51
270.7437342
0
ARC
8
DEFAULT_255_1_234
10
23.9621506
20
84.3391384
40
0.3412781
50
218.1665114
51
245.878116
0
ARC
8
DEFAULT_255_1_234
10
24.0500967
20
84.4127279
40
0.455911
50
191.4115814
51
218.6077802
0
ARC
8
DEFAULT_255_1_234
10
24.2439056
20
84.4561833
40
0.6545001
50
179.6345085
51
191.7836486
0
ARC
8
DEFAULT_255_1_234
10
24.8021393
20
84.5240697
40
1.2127388
50
171.4525249
51
180.3158839
0
ARC
8
DEFAULT_255_1_234
10
24.3626269
20
84.5924608
40
0.7679464
50
157.9802646
51
171.6246686
0
ARC
8
DEFAULT_255_1_234
10
24.141229
20
84.6807421
40
0.5296008
50
141.4298019
51
157.854097
0
ARC
8
DEFAULT_255_1_234
10
24.077061
20
84.7261381
40
0.4511509
50
102.8715806
51
140.8564722
0
ARC
8
DEFAULT_255_1_234
10
24.1418226
20
84.4821552
40
0.7034845
50
90.3778349
51
103.5869322
0
ARC
8
DEFAULT_255_1_234
10
23.9680002
20
84.421673
40
0.2370698
50
89.8751008
51
126.2071704
0
ARC
8
DEFAULT_255_1_234
10
23.9725792
20
84.4062303
40
0.2522934
50
124.9745049
51
144.895901
0
ARC
8
DEFAULT_255_1_234
10
23.9549982
20
84.420556
40
0.2296779
50
145.2974905
51
160.2660252
0
ARC
8
DEFAULT_255_1_234
10
24.2622521
20
84.4403071
40
0.5234525
50
179.6514266
51
190.2855912
0
ARC
8
DEFAULT_255_1_234
10
24.0928658
20
84.4083786
40
0.3510893
50
190.0945431
51
207.5098196
0
ARC
8
DEFAULT_255_1_234
10
24.0362928
20
84.3814623
40
0.288489
50
207.9583163
51
216.3251085
0
ARC
8
DEFAULT_255_1_234
10
24.0023036
20
84.3535105
40
0.2445587
50
215.7661442
51
232.5456785
0
ARC
8
DEFAULT_255_1_234
10
23.9640019
20
84.3048482
40
0.1826382
50
232.8005391
51
270.6605633
0
ARC
8
DEFAULT_255_1_234
10
23.968572
20
84.3412612
40
0.2190529
50
269.35537
51
288.4744281
0
ARC
8
DEFAULT_255_1_234
10
23.9778617
20
84.3063118
40
0.1829749
50
289.1833337
51
322.9683818
0
ARC
8
DEFAULT_255_1_234
10
23.9167139
20
84.3545391
40
0.2608399
50
322.6007884
51
346.5182367
0
ARC
8
DEFAULT_255_1_234
10
23.8009735
20
84.3840616
40
0.3802777
50
346.2582162
51
358.7741648
0
ARC
8
DEFAULT_255_1_234
10
23.6991404
20
84.3895965
40
0.4822176
50
358.3755224
51
0.0098023
0
ARC
8
DEFAULT_255_1_234
10
23.7747591
20
84.3923657
40
0.4066078
50
359.6214041
51
11.2839074
0
ARC
8
DEFAULT_255_1_234
10
23.9024738
20
84.4190066
40
0.2761514
50
11.0482309
51
31.8146458
0
ARC
8
DEFAULT_255_1_234
10
23.9333781
20
84.4357584
40
0.2410679
50
32.3035391
51
38.082671
0
ARC
8
DEFAULT_255_1_234
10
23.9754441
20
84.4738662
40
0.1844966
50
36.825067
51
85.7415724
0
ARC
8
DEFAULT_255_1_234
10
23.9687274
20
84.4238301
40
0.2349122
50
85.0140713
51
90.0513278
0
LINE
8
DEFAULT_255_1_234
10
23.7677235
20
92.5086963
11
23.6488538
21
92.5392169
0
LINE
8
DEFAULT_255_1_234
10
23.6488538
20
92.5392169
11
23.7082887
21
93.1223211
0
LINE
8
DEFAULT_255_1_234
10
23.7082887
20
93.1223211
11
24.3074563
21
93.1223211
0
LINE
8
DEFAULT_255_1_234
10
24.3074563
20
93.1223211
11
24.3074563
21
92.9849784
0
LINE
8
DEFAULT_255_1_234
10
24.3074563
20
92.9849784
11
23.834387
21
92.9849784
0
LINE
8
DEFAULT_255_1_234
10
23.834387
20
92.9849784
11
23.7990473
21
92.6661184
0
LINE
8
DEFAULT_255_1_234
10
23.6070888
20
92.2605156
11
23.7476442
21
92.2605156
0
LINE
8
DEFAULT_255_1_234
10
23.8070791
20
92.5408232
11
23.7677235
21
92.5086963
0
ARC
8
DEFAULT_255_1_234
10
23.9845257
20
92.348123
40
0.3681349
50
93.7182161
51
120.2538958
0
ARC
8
DEFAULT_255_1_234
10
23.993952
20
92.2673394
40
0.449379
50
89.9660152
51
94.2496022
0
ARC
8
DEFAULT_255_1_234
10
23.9980254
20
92.3262549
40
0.390482
50
73.8043271
51
90.5585896
0
ARC
8
DEFAULT_255_1_234
10
24.0215151
20
92.4120602
40
0.3015334
50
41.3071453
51
73.5430202
0
ARC
8
DEFAULT_255_1_234
10
23.9798978
20
92.3762324
40
0.3564457
50
13.5075983
51
41.2174222
0
ARC
8
DEFAULT_255_1_234
10
23.8157182
20
92.3332486
40
0.5261351
50
1.1331335
51
13.8829381
0
ARC
8
DEFAULT_255_1_234
10
23.6745551
20
92.3256665
40
0.6674378
50
359.9919444
51
1.544251
0
ARC
8
DEFAULT_255_1_234
10
23.8022377
20
92.321528
40
0.5397702
50
347.8572367
51
0.4293338
0
ARC
8
DEFAULT_255_1_234
10
23.9772695
20
92.2818736
40
0.3603188
50
323.673004
51
348.1672506
0
ARC
8
DEFAULT_255_1_234
10
24.0067203
20
92.2639168
40
0.3259678
50
316.8171152
51
323.1492751
0
ARC
8
DEFAULT_255_1_234
10
24.0128392
20
92.260246
40
0.3189975
50
281.8396411
51
316.5457803
0
ARC
8
DEFAULT_255_1_234
10
23.9752656
20
92.4157762
40
0.4789527
50
269.5770101
51
282.4214771
0
ARC
8
DEFAULT_255_1_234
10
23.9681467
20
92.3944125
40
0.45759
50
256.2427136
51
270.4486331
0
ARC
8
DEFAULT_255_1_234
10
23.938237
20
92.2744229
40
0.3339303
50
228.9023911
51
256.3314342
0
ARC
8
DEFAULT_255_1_234
10
23.9308602
20
92.2627746
40
0.32031
50
193.753695
51
228.5271154
0
ARC
8
DEFAULT_255_1_234
10
24.0546556
20
92.29908
40
0.4492253
50
184.924711
51
194.497588
0
ARC
8
DEFAULT_255_1_234
10
24.0739123
20
92.3026591
40
0.3289787
50
187.3600538
51
198.6732863
0
ARC
8
DEFAULT_255_1_234
10
23.9689417
20
92.2662674
40
0.217884
50
198.4451669
51
217.794479
0
ARC
8
DEFAULT_255_1_234
10
23.9393592
20
92.2453085
40
0.1816698
50
218.2887171
51
228.5612368
0
ARC
8
DEFAULT_255_1_234
10
23.9491379
20
92.2584963
40
0.1980329
50
228.9654866
51
258.1234728
0
ARC
8
DEFAULT_255_1_234
10
23.9697089
20
92.3465833
40
0.2884748
50
257.7258293
51
270.401361
0
ARC
8
DEFAULT_255_1_234
10
23.9741975
20
92.3020821
40
0.2439788
50
269.4204404
51
286.4209037
0
ARC
8
DEFAULT_255_1_234
10
23.9890463
20
92.2481657
40
0.1880666
50
286.7251356
51
320.600362
0
ARC
8
DEFAULT_255_1_234
10
23.9507288
20
92.2792595
40
0.2374121
50
320.6712579
51
344.5441685
0
ARC
8
DEFAULT_255_1_234
10
23.8350614
20
92.3132045
40
0.3579479
50
344.2412205
51
356.7357071
0
ARC
8
DEFAULT_255_1_234
10
23.7101763
20
92.3235444
40
0.4832297
50
356.3548756
51
0.0500261
0
ARC
8
DEFAULT_255_1_234
10
23.8438272
20
92.326665
40
0.3495889
50
359.5576869
51
12.953486
0
ARC
8
DEFAULT_255_1_234
10
23.9493169
20
92.3522434
40
0.2410532
50
12.6490276
51
41.6081334
0
ARC
8
DEFAULT_255_1_234
10
23.972354
20
92.3718321
40
0.2108218
50
41.7850273
51
85.9892764
0
ARC
8
DEFAULT_255_1_234
10
23.9600277
20
92.2905462
40
0.2928454
50
84.6957577
51
90.0676183
0
ARC
8
DEFAULT_255_1_234
10
23.9576761
20
92.2236716
40
0.3597255
50
89.6804936
51
99.1614436
0
ARC
8
DEFAULT_255_1_234
10
23.9371392
20
92.3464131
40
0.235281
50
98.9830931
51
113.8908934
0
ARC
8
DEFAULT_255_1_234
10
23.9141802
20
92.4005587
40
0.176479
50
114.1950727
51
127.3641004
0
LINE
8
DEFAULT_255_1_234
10
23.9961628
20
101.0598211
11
23.9961628
21
100.283152
0
LINE
8
DEFAULT_255_1_234
10
23.9961628
20
100.283152
11
24.1584039
21
100.283152
0
LINE
8
DEFAULT_255_1_234
10
24.1584039
20
100.283152
11
24.1584039
21
100.1618728
0
LINE
8
DEFAULT_255_1_234
10
24.1584039
20
100.1618728
11
23.9961628
21
100.1618728
0
LINE
8
DEFAULT_255_1_234
10
23.9961628
20
100.1618728
11
23.9961628
21
99.8904
0
LINE
8
DEFAULT_255_1_234
10
23.9961628
20
99.8904
11
23.8467725
21
99.8904
0
LINE
8
DEFAULT_255_1_234
10
23.8467725
20
99.8904
11
23.8467725
21
100.1618728
0
LINE
8
DEFAULT_255_1_234
10
23.8467725
20
100.1618728
11
23.3142682
21
100.1618728
0
LINE
8
DEFAULT_255_1_234
10
23.3142682
20
100.1618728
11
23.3142682
21
100.2494187
0
LINE
8
DEFAULT_255_1_234
10
23.3142682
20
100.2494187
11
23.8379375
21
101.0598211
0
LINE
8
DEFAULT_255_1_234
10
23.8379375
20
101.0598211
11
23.9961628
21
101.0598211
0
LINE
8
DEFAULT_255_1_234
10
23.8291026
20
100.8244912
11
23.4829347
21
100.283152
0
LINE
8
DEFAULT_255_1_234
10
23.4829347
20
100.283152
11
23.8467725
21
100.283152
0
LINE
8
DEFAULT_255_1_234
10
23.8467725
20
100.283152
11
23.8467725
21
100.8566181
0
LINE
8
DEFAULT_255_1_234
10
23.8467725
20
100.8566181
11
23.8291026
21
100.8244912
0
LINE
8
DEFAULT_255_1_234
10
23.7966378
20
108.3636169
11
23.7966378
21
108.4848962
0
LINE
8
DEFAULT_255_1_234
10
23.7966378
20
108.4848962
11
23.908279
21
108.4848962
0
LINE
8
DEFAULT_255_1_234
10
23.7179268
20
108.6905087
11
23.5693396
21
108.6905087
0
LINE
8
DEFAULT_255_1_234
10
23.5588983
20
108.1363188
11
23.7082887
21
108.1363188
0
LINE
8
DEFAULT_255_1_234
10
23.908279
20
108.3636169
11
23.7966378
21
108.3636169
0
ARC
8
DEFAULT_255_1_234
10
23.9053656
20
108.8241713
40
0.3392876
50
270.4919872
51
281.8951556
0
ARC
8
DEFAULT_255_1_234
10
23.9294918
20
108.7139702
40
0.2264817
50
281.6691735
51
301.2943132
0
ARC
8
DEFAULT_255_1_234
10
23.9465128
20
108.6828304
40
0.1910381
50
301.7833094
51
311.7545298
0
ARC
8
DEFAULT_255_1_234
10
23.9556704
20
108.6726748
40
0.1773635
50
311.7323931
51
354.2802411
0
ARC
8
DEFAULT_255_1_234
10
23.8830329
20
108.6851722
40
0.2509385
50
353.0937916
51
0.1181479
0
ARC
8
DEFAULT_255_1_234
10
23.8369114
20
108.6899386
40
0.2970898
50
359.1805295
51
15.0453146
0
ARC
8
DEFAULT_255_1_234
10
23.9714951
20
108.7291992
40
0.1569564
50
13.9577229
51
77.6713066
0
ARC
8
DEFAULT_255_1_234
10
23.932848
20
108.5906949
40
0.3006298
50
76.1116566
51
90.7026153
0
ARC
8
DEFAULT_255_1_234
10
23.9269318
20
108.6180545
40
0.2732568
50
89.5324876
51
103.531937
0
ARC
8
DEFAULT_255_1_234
10
23.9068762
20
108.6979884
40
0.1908508
50
103.2931773
51
133.5619022
0
ARC
8
DEFAULT_255_1_234
10
23.9024251
20
108.7039375
40
0.1834746
50
133.8349307
51
173.5344437
0
ARC
8
DEFAULT_255_1_234
10
23.9747294
20
108.6911213
40
0.2568033
50
172.5096846
51
180.1366907
0
ARC
8
DEFAULT_255_1_234
10
23.8796188
20
108.6945622
40
0.3103056
50
155.3484492
51
180.7484736
0
ARC
8
DEFAULT_255_1_234
10
23.8747277
20
108.6916846
40
0.3070957
50
131.5744599
51
154.4798489
0
ARC
8
DEFAULT_255_1_234
10
23.9060424
20
108.660031
40
0.3515643
50
96.9875458
51
131.9690667
0
ARC
8
DEFAULT_255_1_234
10
23.9279904
20
108.5354636
40
0.4779224
50
89.8596053
51
97.7825159
0
ARC
8
DEFAULT_255_1_234
10
23.9327967
20
108.5092616
40
0.5041361
50
78.3655447
51
90.4131539
0
ARC
8
DEFAULT_255_1_234
10
23.9685885
20
108.6751887
40
0.3344039
50
56.6229102
51
78.638727
0
ARC
8
DEFAULT_255_1_234
10
23.9900829
20
108.7127805
40
0.2912001
50
47.0253525
51
56.0854072
0
ARC
8
DEFAULT_255_1_234
10
23.9920609
20
108.7167223
40
0.2869704
50
10.9208013
51
46.7778124
0
ARC
8
DEFAULT_255_1_234
10
23.8556675
20
108.6851857
40
0.426899
50
359.6364486
51
11.6087304
0
ARC
8
DEFAULT_255_1_234
10
24.0391519
20
108.6836752
40
0.243409
50
332.3549906
51
359.7179418
0
ARC
8
DEFAULT_255_1_234
10
23.9741121
20
108.7145142
40
0.3153459
50
325.2333722
51
332.8745602
0
ARC
8
DEFAULT_255_1_234
10
23.9893744
20
108.7038828
40
0.2967456
50
292.9802137
51
325.2392345
0
ARC
8
DEFAULT_255_1_234
10
23.9619118
20
108.7572863
40
0.3566604
50
292.5402179
51
293.6924929
0
ARC
8
DEFAULT_255_1_234
10
24.0011714
20
108.1118091
40
0.3307468
50
57.6435486
51
72.8625112
0
ARC
8
DEFAULT_255_1_234
10
24.0366214
20
108.1692549
40
0.2632492
50
36.7248896
51
57.4697979
0
ARC
8
DEFAULT_255_1_234
10
24.0354847
20
108.170522
40
0.2634081
50
8.0545065
51
36.356114
0
ARC
8
DEFAULT_255_1_234
10
23.9492032
20
108.1550174
40
0.3510261
50
359.8320645
51
8.5869982
0
ARC
8
DEFAULT_255_1_234
10
23.9116808
20
108.1502101
40
0.3885653
50
343.9829931
51
0.5571613
0
ARC
8
DEFAULT_255_1_234
10
24.0003005
20
108.1259438
40
0.2966924
50
311.6359546
51
343.7651759
0
ARC
8
DEFAULT_255_1_234
10
23.9624574
20
108.1686102
40
0.3537231
50
279.7829875
51
311.6255694
0
ARC
8
DEFAULT_255_1_234
10
23.9323351
20
108.312328
40
0.5004971
50
269.7286406
51
280.3856417
0
ARC
8
DEFAULT_255_1_234
10
23.9261423
20
108.3081996
40
0.4963778
50
256.6828919
51
270.4412052
0
ARC
8
DEFAULT_255_1_234
10
23.8922719
20
108.1697394
40
0.3538406
50
229.4223008
51
256.8556159
0
ARC
8
DEFAULT_255_1_234
10
23.8508112
20
108.1230736
40
0.2914296
50
181.818294
51
229.6455059
0
ARC
8
DEFAULT_255_1_234
10
23.9548068
20
108.1361496
40
0.3959084
50
179.9755256
51
183.2323064
0
ARC
8
DEFAULT_255_1_234
10
23.9375814
20
108.1341037
40
0.2293034
50
179.4465117
51
196.2869258
0
ARC
8
DEFAULT_255_1_234
10
23.8888222
20
108.1207651
40
0.1787621
50
196.5661473
51
227.705904
0
ARC
8
DEFAULT_255_1_234
10
23.9052317
20
108.1391155
40
0.2033784
50
227.7652068
51
257.8762805
0
ARC
8
DEFAULT_255_1_234
10
23.9277287
20
108.2334156
40
0.3003081
50
257.4584385
51
270.426602
0
ARC
8
DEFAULT_255_1_234
10
23.9322853
20
108.2623996
40
0.329292
50
269.5962073
51
280.8789248
0
ARC
8
DEFAULT_255_1_234
10
23.9552382
20
108.1477685
40
0.2123908
50
280.6346389
51
299.8595945
0
ARC
8
DEFAULT_255_1_234
10
23.9743289
20
108.1115212
40
0.171457
50
300.3576302
51
314.5517981
0
ARC
8
DEFAULT_255_1_234
10
23.9660349
20
108.1175919
40
0.1816095
50
315.0728369
51
345.0431014
0
ARC
8
DEFAULT_255_1_234
10
23.8737163
20
108.1444841
40
0.2777492
50
344.5986631
51
357.9269593
0
ARC
8
DEFAULT_255_1_234
10
23.7841489
20
108.1506276
40
0.3674917
50
357.4748886
51
0.0231117
0
ARC
8
DEFAULT_255_1_234
10
23.8864599
20
108.1530679
40
0.2651907
50
359.5047933
51
13.4239635
0
ARC
8
DEFAULT_255_1_234
10
23.9731242
20
108.1752478
40
0.1757509
50
12.9498199
51
48.7551375
0
ARC
8
DEFAULT_255_1_234
10
23.9548976
20
108.15034
40
0.2065134
50
49.5088623
51
72.1836453
0
ARC
8
DEFAULT_255_1_234
10
23.9191129
20
108.0441291
40
0.3185836
50
71.9010081
51
84.3554254
0
ARC
8
DEFAULT_255_1_234
10
23.9029761
20
107.9080326
40
0.4556151
50
84.0193428
51
89.333121
0
LINE
8
DEFAULT_255_1_234
10
24.3468119
20
115.8866792
11
24.3468119
21
115.7654
0
LINE
8
DEFAULT_255_1_234
10
24.3468119
20
115.7654
11
23.580584
21
115.7654
0
LINE
8
DEFAULT_255_1_234
10
23.580584
20
115.7654
11
23.580584
21
115.8722221
0
LINE
8
DEFAULT_255_1_234
10
23.580584
20
115.8722221
11
23.9853836
21
116.3219995
0
LINE
8
DEFAULT_255_1_234
10
23.7066823
20
116.5902595
11
23.5580952
21
116.5902595
0
LINE
8
DEFAULT_255_1_234
10
24.0729296
20
116.2264218
11
23.7596918
21
115.8866792
0
LINE
8
DEFAULT_255_1_234
10
23.7596918
20
115.8866792
11
24.3468119
21
115.8866792
0
ARC
8
DEFAULT_255_1_234
10
22.636367
20
117.5149527
40
1.8008286
50
318.5132453
51
320.7828378
0
ARC
8
DEFAULT_255_1_234
10
23.1650644
20
117.0846426
40
1.1191493
50
320.7372736
51
323.9737074
0
ARC
8
DEFAULT_255_1_234
10
23.5570501
20
116.8006361
40
0.6350923
50
323.8961724
51
328.6421089
0
ARC
8
DEFAULT_255_1_234
10
23.7617096
20
116.6744031
40
0.3946393
50
328.8299013
51
331.789948
0
ARC
8
DEFAULT_255_1_234
10
23.8614274
20
116.6229509
40
0.2824501
50
331.4255242
51
352.9364833
0
ARC
8
DEFAULT_255_1_234
10
23.8750775
20
116.6198976
40
0.2685315
50
353.2248685
51
0.0169286
0
ARC
8
DEFAULT_255_1_234
10
23.8960652
20
116.622195
40
0.2475536
50
359.4866256
51
15.9339782
0
ARC
8
DEFAULT_255_1_234
10
23.9467637
20
116.6358286
40
0.1950618
50
16.1714718
51
43.5284424
0
ARC
8
DEFAULT_255_1_234
10
23.9544946
20
116.6435573
40
0.184134
50
43.4415429
51
83.1661404
0
ARC
8
DEFAULT_255_1_234
10
23.9410864
20
116.5698771
40
0.258926
50
82.160215
51
90.1505798
0
ARC
8
DEFAULT_255_1_234
10
23.9379291
20
116.5161865
40
0.3126255
50
89.5460705
51
102.5418777
0
ARC
8
DEFAULT_255_1_234
10
23.9136377
20
116.6192665
40
0.2067346
50
102.1739365
51
129.2061916
0
ARC
8
DEFAULT_255_1_234
10
23.9057449
20
116.6317094
40
0.1921118
50
129.7279328
51
135.7542026
0
ARC
8
DEFAULT_255_1_234
10
23.9178977
20
116.6220045
40
0.2075944
50
136.175737
51
166.3674722
0
ARC
8
DEFAULT_255_1_234
10
24.0185896
20
116.5950182
40
0.3118201
50
165.9092917
51
178.8683903
0
ARC
8
DEFAULT_255_1_234
10
24.1050757
20
116.5903179
40
0.3983935
50
178.438168
51
180.0083905
0
ARC
8
DEFAULT_255_1_234
10
23.9649359
20
116.5942231
40
0.4068601
50
163.2878735
51
180.5581814
0
ARC
8
DEFAULT_255_1_234
10
23.8847621
20
116.616284
40
0.3237344
50
133.454115
51
162.9470031
0
ARC
8
DEFAULT_255_1_234
10
23.9026162
20
116.5973
40
0.349795
50
100.7869394
51
133.4384016
0
ARC
8
DEFAULT_255_1_234
10
23.9373934
20
116.4424319
40
0.5084616
50
89.6605301
51
101.3704185
0
ARC
8
DEFAULT_255_1_234
10
23.9440273
20
116.4485496
40
0.502348
50
78.2171172
51
90.4130393
0
ARC
8
DEFAULT_255_1_234
10
23.9795351
20
116.6109637
40
0.3361092
50
55.9268222
51
78.4888551
0
ARC
8
DEFAULT_255_1_234
10
23.9991791
20
116.6448324
40
0.2970617
50
47.9292255
51
55.4054003
0
ARC
8
DEFAULT_255_1_234
10
24.0093352
20
116.6551502
40
0.2825983
50
4.3347696
51
48.0560701
0
ARC
8
DEFAULT_255_1_234
10
23.8997745
20
116.6381601
40
0.393225
50
359.925209
51
5.5967654
0
ARC
8
DEFAULT_255_1_234
10
23.9426637
20
116.6437816
40
0.3503892
50
337.8914096
51
358.9967724
0
ARC
8
DEFAULT_255_1_234
10
23.6713049
20
116.7484706
40
0.6412172
50
326.9135351
51
338.3505194
0
ARC
8
DEFAULT_255_1_234
10
23.2727353
20
117.0039284
40
1.1146189
50
319.6472867
51
327.095818
0
ARC
8
DEFAULT_255_1_234
10
22.8894356
20
117.3201
40
1.6114559
50
317.2586784
51
319.9046139
0
LINE
8
DEFAULT_255_1_234
10
24.0771137
20
124.8779433
11
24.0771137
21
123.7029
0
LINE
8
DEFAULT_255_1_234
10
24.0771137
20
123.7029
11
23.9277234
21
123.7029
0
LINE
8
DEFAULT_255_1_234
10
23.9277234
20
123.7029
11
23.9277234
21
124.6932133
0
LINE
8
DEFAULT_255_1_234
10
23.9277234
20
124.6932133
11
23.6281396
21
124.5831785
0
LINE
8
DEFAULT_255_1_234
10
23.6281396
20
124.5831785
11
23.6281396
21
124.7181117
0
LINE
8
DEFAULT_255_1_234
10
23.6281396
20
124.7181117
11
24.0538217
21
124.8779433
0
LINE
8
DEFAULT_255_1_234
10
24.0538217
20
124.8779433
11
24.0771137
21
124.8779433
0
LINE
8
DEFAULT_255_1_234
10
24.3138817
20
132.3319327
11
24.3138817
21
132.1391709
0
LINE
8
DEFAULT_255_1_234
10
23.575765
20
132.1190916
11
23.575765
21
132.3174755
0
LINE
8
DEFAULT_255_1_234
10
24.1652946
20
132.0990123
11
24.1652946
21
132.3423739
0
LINE
8
DEFAULT_255_1_234
10
23.7243521
20
132.3536184
11
23.7243521
21
132.1158789
0
ARC
8
DEFAULT_255_1_234
10
23.0891707
20
132.1342805
40
1.2247208
50
353.8441951
51
0.2287902
0
ARC
8
DEFAULT_255_1_234
10
23.5531211
20
132.0824806
40
0.7578929
50
344.4934747
51
353.9765454
0
ARC
8
DEFAULT_255_1_234
10
23.8523801
20
131.9973981
40
0.4467846
50
329.2803592
51
344.7472793
0
ARC
8
DEFAULT_255_1_234
10
23.9516626
20
131.9429018
40
0.3336173
50
324.9352394
51
328.6160465
0
ARC
8
DEFAULT_255_1_234
10
23.9893734
20
131.9165427
40
0.2876076
50
280.580143
51
324.9173126
0
ARC
8
DEFAULT_255_1_234
10
23.9492527
20
132.0836099
40
0.4592847
50
269.5977311
51
281.6734359
0
ARC
8
DEFAULT_255_1_234
10
23.9420433
20
132.0716173
40
0.4472986
50
256.6228859
51
270.51044
0
ARC
8
DEFAULT_255_1_234
10
23.901841
20
131.9167877
40
0.2873874
50
215.8618325
51
257.2788573
0
ARC
8
DEFAULT_255_1_234
10
24.0039442
20
131.9852977
40
0.4102928
50
197.9693508
51
215.2623606
0
ARC
8
DEFAULT_255_1_234
10
24.2524558
20
132.0691709
40
0.6725652
50
187.8816417
51
198.2346507
0
ARC
8
DEFAULT_255_1_234
10
24.6482766
20
132.1263079
40
1.0724845
50
180.8976217
51
188.0055519
0
ARC
8
DEFAULT_255_1_234
10
24.9282954
20
132.1366777
40
1.3526448
50
180.7449369
51
181.1510016
0
ARC
8
DEFAULT_255_1_234
10
24.7705683
20
132.3223042
40
1.1948131
50
173.7675579
51
180.231553
0
ARC
8
DEFAULT_255_1_234
10
24.318783
20
132.3733666
40
0.7401564
50
164.3058563
51
173.9002247
0
ARC
8
DEFAULT_255_1_234
10
24.0275899
20
132.4572656
40
0.4371288
50
148.7922025
51
164.568378
0
ARC
8
DEFAULT_255_1_234
10
23.9324351
20
132.5103929
40
0.3282386
50
144.5883898
51
148.1176286
0
ARC
8
DEFAULT_255_1_234
10
23.8981249
20
132.5343315
40
0.2864044
50
101.6440918
51
144.514236
0
ARC
8
DEFAULT_255_1_234
10
23.9406315
20
132.3654069
40
0.4604934
50
89.5284041
51
102.5819763
0
ARC
8
DEFAULT_255_1_234
10
23.9485403
20
132.3615018
40
0.464401
50
77.0437873
51
90.5081339
0
ARC
8
DEFAULT_255_1_234
10
23.9887405
20
132.5257615
40
0.2953195
50
48.2778575
51
77.4994676
0
ARC
8
DEFAULT_255_1_234
10
23.9960036
20
132.5386746
40
0.2808655
50
36.3142134
51
47.6305865
0
ARC
8
DEFAULT_255_1_234
10
23.9091343
20
132.4801515
40
0.3855453
50
18.2931786
51
35.6769206
0
ARC
8
DEFAULT_255_1_234
10
23.6548102
20
132.3928593
40
0.654423
50
8.024666
51
18.5605216
0
ARC
8
DEFAULT_255_1_234
10
23.2385022
20
132.3313792
40
1.0752407
50
1.1274072
51
8.1718305
0
ARC
8
DEFAULT_255_1_234
10
22.9149213
20
132.3186885
40
1.3990231
50
0.5424119
51
1.3863029
0
ARC
8
DEFAULT_255_1_234
10
23.097059
20
132.3459342
40
1.0682415
50
359.8090433
51
4.9407866
0
ARC
8
DEFAULT_255_1_234
10
23.5180604
20
132.3835113
40
0.6455691
50
4.8362157
51
12.2904523
0
ARC
8
DEFAULT_255_1_234
10
23.7935719
20
132.4448965
40
0.3633074
50
12.0805627
51
23.8173984
0
ARC
8
DEFAULT_255_1_234
10
23.9109425
20
132.4945919
40
0.2358723
50
24.2871213
51
31.3935614
0
ARC
8
DEFAULT_255_1_234
10
23.9634122
20
132.5289233
40
0.1732111
50
30.7407893
51
82.4657128
0
ARC
8
DEFAULT_255_1_234
10
23.9454256
20
132.4405691
40
0.263235
50
81.1060089
51
90.2184952
0
ARC
8
DEFAULT_255_1_234
10
23.9418555
20
132.4663924
40
0.2374236
50
89.3806855
51
105.6762551
0
ARC
8
DEFAULT_255_1_234
10
23.9235186
20
132.5330567
40
0.1682847
50
105.7981136
51
149.7388061
0
ARC
8
DEFAULT_255_1_234
10
24.0299264
20
132.469095
40
0.2924306
50
149.4208916
51
163.6286378
0
ARC
8
DEFAULT_255_1_234
10
24.2390152
20
132.405325
40
0.5110213
50
163.3763315
51
172.1410975
0
ARC
8
DEFAULT_255_1_234
10
24.5690871
20
132.3580518
40
0.8444586
50
172.0259487
51
178.0703232
0
ARC
8
DEFAULT_255_1_234
10
24.872096
20
132.3436906
40
1.1477868
50
177.8631668
51
179.5044149
0
ARC
8
DEFAULT_255_1_234
10
24.7648365
20
132.1122389
40
1.0404907
50
179.7995573
51
185.2460446
0
ARC
8
DEFAULT_255_1_234
10
24.3605404
20
132.0739513
40
0.6343885
50
185.1411642
51
193.0079639
0
ARC
8
DEFAULT_255_1_234
10
24.0961877
20
132.0114641
40
0.3627568
50
192.7897626
51
205.2507664
0
ARC
8
DEFAULT_255_1_234
10
23.9915424
20
131.9647415
40
0.2481908
50
205.8005384
51
211.2537509
0
ARC
8
DEFAULT_255_1_234
10
23.9391864
20
131.929658
40
0.1852521
50
210.3789793
51
238.4008143
0
ARC
8
DEFAULT_255_1_234
10
23.9372386
20
131.9343376
40
0.1882621
50
239.6520629
51
265.9793761
0
ARC
8
DEFAULT_255_1_234
10
23.9457586
20
132.0015427
40
0.2559272
50
265.1315437
51
270.060332
0
ARC
8
DEFAULT_255_1_234
10
23.9486365
20
131.9691534
40
0.2235528
50
269.3314664
51
287.2178029
0
ARC
8
DEFAULT_255_1_234
10
23.9624217
20
131.9188279
40
0.1714108
50
287.7958004
51
329.080874
0
ARC
8
DEFAULT_255_1_234
10
23.8666674
20
131.978593
40
0.2842745
50
328.6634704
51
343.3325132
0
ARC
8
DEFAULT_255_1_234
10
23.6493694
20
132.0462863
40
0.5118644
50
343.0499468
51
351.9393422
0
ARC
8
DEFAULT_255_1_234
10
23.3026994
20
132.0973949
40
0.8622784
50
351.8069023
51
357.7959224
0
ARC
8
DEFAULT_255_1_234
10
22.979155
20
132.1141721
40
1.1862365
50
357.5871873
51
359.2677531
0
LINE
8
DEFAULT_255_1_234
10
23.9845293
20
139.5779
11
23.8728881
21
139.8831061
0
LINE
8
DEFAULT_255_1_234
10
23.8728881
20
139.8831061
11
23.3829521
21
139.8831061
0
LINE
8
DEFAULT_255_1_234
10
23.3829521
20
139.8831061
11
23.2729173
21
139.5779
0
LINE
8
DEFAULT_255_1_234
10
23.2729173
20
139.5779
11
23.1138889
21
139.5779
0
LINE
8
DEFAULT_255_1_234
10
23.1138889
20
139.5779
11
23.5604535
21
140.7473211
0
LINE
8
DEFAULT_255_1_234
10
23.5604535
20
140.7473211
11
23.6953867
21
140.7473211
0
LINE
8
DEFAULT_255_1_234
10
23.6953867
20
140.7473211
11
24.1427545
21
139.5779
0
LINE
8
DEFAULT_255_1_234
10
24.1427545
20
139.5779
11
23.9845293
21
139.5779
0
LINE
8
DEFAULT_255_1_234
10
23.6279201
20
140.5569689
11
23.4295362
21
140.0100075
0
LINE
8
DEFAULT_255_1_234
10
23.4295362
20
140.0100075
11
23.8271072
21
140.0100075
0
LINE
8
DEFAULT_255_1_234
10
23.8271072
20
140.0100075
11
23.6279201
21
140.5569689
0
ENDSEC
0
EOF