0
SECTION
2
HEADER
9
$MEASUREMENT
70
1
0
ENDSEC
0
SECTION
2
TABLES
0
TABLE
2
LTYPE
0
LTYPE
72
65
70
64
2
CONTINUOUS
3
______
73
0
40
0
0
ENDTAB
0
TABLE
2
LAYER
0
LAYER
2
DEFAULT_255_2_778
70
0
62
255
6
CONTINUOUS
0
ENDTAB
0
ENDSEC
0
SECTION
2
ENTITIES
0
ARC
8
DEFAULT_255_2_778
10
1.3238853
20
15.7443659
40
1.056601
50
89.9431572
51
129.5863161
0
ARC
8
DEFAULT_255_2_778
10
1.3234256
20
15.7410496
40
1.0588669
50
129.452794
51
177.1187892
0
ARC
8
DEFAULT_255_2_778
10
1.3430155
20
15.7400556
40
1.0784821
50
177.1183634
51
179.9728624
0
ARC
8
DEFAULT_255_2_778
10
4.4739391
20
11.9385231
40
0.9819924
50
240.5366287
51
241.1915408
0
ARC
8
DEFAULT_255_2_778
10
5.2121978
20
13.2473781
40
2.4846991
50
239.6031363
51
240.5597509
0
ARC
8
DEFAULT_255_2_778
10
5.7910567
20
14.2369996
40
3.6311838
50
238.6900833
51
239.625943
0
ARC
8
DEFAULT_255_2_778
10
6.1492757
20
14.8271507
40
4.321545
50
237.8013946
51
238.6984472
0
ARC
8
DEFAULT_255_2_778
10
6.406306
20
15.2347762
40
4.8034404
50
236.2623115
51
237.7978756
0
ARC
8
DEFAULT_255_2_778
10
6.5179589
20
15.4031238
40
5.0054475
50
234.2769418
51
236.2697462
0
ARC
8
DEFAULT_255_2_778
10
6.4116646
20
15.2571272
40
4.8248584
50
231.6687653
51
234.2894363
0
ARC
8
DEFAULT_255_2_778
10
6.110826
20
14.8784459
40
4.3412244
50
228.4793589
51
231.683661
0
ARC
8
DEFAULT_255_2_778
10
5.4785619
20
14.1805881
40
3.399622
50
220.7208584
51
228.6611079
0
ARC
8
DEFAULT_255_2_778
10
4.4405191
20
13.3143397
40
2.0478787
50
203.7329682
51
221.2990521
0
ARC
8
DEFAULT_255_2_778
10
3.8176443
20
13.0182857
40
1.3586775
50
193.9315763
51
202.8757938
0
ARC
8
DEFAULT_255_2_778
10
3.510126
20
12.9365329
40
1.0405359
50
179.8152561
51
193.6392444
0
ARC
8
DEFAULT_255_2_778
10
3.6335683
20
12.939662
40
1.1639727
50
177.2820205
51
179.9888757
0
ARC
8
DEFAULT_255_2_778
10
4.0525617
20
12.8901926
40
1.5851159
50
155.9631808
51
176.2140155
0
ARC
8
DEFAULT_255_2_778
10
5.1371681
20
12.4333755
40
2.7618511
50
145.9330855
51
156.4731554
0
ARC
8
DEFAULT_255_2_778
10
5.8685795
20
11.9648219
40
3.6302699
50
143.7407501
51
146.2734542
0
ARC
8
DEFAULT_255_2_778
10
6.2053868
20
11.7171417
40
4.0483421
50
140.704158
51
143.7334539
0
ARC
8
DEFAULT_255_2_778
10
6.4155651
20
11.5468118
40
4.3188705
50
138.668437
51
140.7213396
0
ARC
8
DEFAULT_255_2_778
10
6.4086265
20
11.5536417
40
4.3091499
50
136.998751
51
138.6756998
0
ARC
8
DEFAULT_255_2_778
10
6.1935124
20
11.7546752
40
4.0147208
50
135.6875628
51
137.0032142
0
ARC
8
DEFAULT_255_2_778
10
5.8300845
20
12.1093282
40
3.5069231
50
134.7941449
51
135.6857451
0
ARC
8
DEFAULT_255_2_778
10
5.3290623
20
12.6146933
40
2.7952934
50
133.8892898
51
134.8046827
0
ARC
8
DEFAULT_255_2_778
10
4.6620999
20
13.3081887
40
1.8331217
50
133.1934893
51
133.8927484
0
ARC
8
DEFAULT_255_2_778
10
3.9207909
20
14.0984235
40
0.7496043
50
132.6382312
51
133.2270265
0
ARC
8
DEFAULT_255_2_778
10
5.4775011
20
14.261699
40
0.3389698
50
121.5857111
51
123.2525655
0
ARC
8
DEFAULT_255_2_778
10
5.7754309
20
13.7794191
40
0.905852
50
119.5761379
51
121.6608723
0
ARC
8
DEFAULT_255_2_778
10
6.059631
20
13.2804022
40
1.480123
50
117.427165
51
119.6095999
0
ARC
8
DEFAULT_255_2_778
10
6.3152193
20
12.7886779
40
2.0343052
50
115.0856064
51
117.4373335
0
ARC
8
DEFAULT_255_2_778
10
6.5401594
20
12.3092917
40
2.5638417
50
112.7431516
51
115.0962522
0
ARC
8
DEFAULT_255_2_778
10
6.7375584
20
11.8388214
40
3.0740462
50
110.2721657
51
112.746256
0
ARC
8
DEFAULT_255_2_778
10
6.912396
20
11.3661766
40
3.5779916
50
107.7834547
51
110.2760999
0
ARC
8
DEFAULT_255_2_778
10
6.9943384
20
11.1170554
40
3.8402366
50
107.4515601
51
107.8124043
0
ARC
8
DEFAULT_255_2_778
10
7.0868582
20
10.8165936
40
4.1546153
50
104.8444014
51
107.4260873
0
ARC
8
DEFAULT_255_2_778
10
7.2192221
20
10.3179053
40
4.6705709
50
102.2812424
51
104.8466688
0
ARC
8
DEFAULT_255_2_778
10
7.327271
20
9.8237735
40
5.1763777
50
99.9608162
51
102.2864362
0
ARC
8
DEFAULT_255_2_778
10
7.4179726
20
9.3058278
40
5.7022052
50
97.4393586
51
99.958233
0
ARC
8
DEFAULT_255_2_778
10
7.4912265
20
8.7471589
40
6.2656561
50
95.0895709
51
97.4421257
0
ARC
8
DEFAULT_255_2_778
10
7.5439737
20
8.1536629
40
6.8614914
50
92.6799791
51
95.0886388
0
ARC
8
DEFAULT_255_2_778
10
7.5745872
20
7.5010623
40
7.5148097
50
90.3173023
51
92.6804834
0
ARC
8
DEFAULT_255_2_778
10
7.5791465
20
7.1187926
40
7.8970991
50
89.9993369
51
90.3350212
0
ARC
8
DEFAULT_255_2_778
10
7.5790031
20
6.9436824
40
8.0722093
50
89.3043294
51
89.9983341
0
ARC
8
DEFAULT_255_2_778
10
7.576646
20
6.7451552
40
8.2707506
50
88.7285968
51
89.3046998
0
ARC
8
DEFAULT_255_2_778
10
7.5723792
20
6.552833
40
8.4631202
50
88.1551503
51
88.728607
0
ARC
8
DEFAULT_255_2_778
10
7.3560203
20
-0.0635071
40
15.0829964
50
87.0526381
51
88.1428197
0
ARC
8
DEFAULT_255_2_778
10
7.2380121
20
-2.3619166
40
17.3844334
50
85.9945178
51
87.0537214
0
ARC
8
DEFAULT_255_2_778
10
7.0563388
20
-4.9282164
40
19.9571551
50
84.6071809
51
85.988866
0
ARC
8
DEFAULT_255_2_778
10
6.8478573
20
-7.1577812
40
22.1964452
50
83.2626347
51
84.6123013
0
ARC
8
DEFAULT_255_2_778
10
6.7890431
20
-7.7061609
40
22.7479388
50
80.6645603
51
83.2775631
0
ARC
8
DEFAULT_255_2_778
10
7.2915005
20
-4.6450788
40
19.6458932
50
79.0372545
51
80.6623779
0
ARC
8
DEFAULT_255_2_778
10
7.987238
20
-1.054354
40
15.9883865
50
77.5084574
51
79.0379367
0
ARC
8
DEFAULT_255_2_778
10
8.778862
20
2.5098423
40
12.3373375
50
75.7712786
51
77.5175831
0
ARC
8
DEFAULT_255_2_778
10
9.5956045
20
5.7268315
40
9.0182885
50
73.8254689
51
75.7774552
0
ARC
8
DEFAULT_255_2_778
10
10.3585262
20
8.3514147
40
6.2850701
50
71.4721994
51
73.8401328
0
ARC
8
DEFAULT_255_2_778
10
11.0734586
20
10.4741402
40
4.0451874
50
68.1816861
51
71.5196452
0
ARC
8
DEFAULT_255_2_778
10
11.7068119
20
12.0489297
40
2.3478112
50
63.5655611
51
68.2473531
0
ARC
8
DEFAULT_255_2_778
10
12.0257996
20
12.7058188
40
1.6176129
50
62.2006578
51
63.3249227
0
ARC
8
DEFAULT_255_2_778
10
12.158183
20
12.9548846
40
1.3355527
50
59.743414
51
62.2412443
0
ARC
8
DEFAULT_255_2_778
10
12.3184083
20
13.229095
40
1.0179626
50
56.7263766
51
59.7564594
0
ARC
8
DEFAULT_255_2_778
10
12.4641765
20
13.4506216
40
0.7527791
50
52.8732333
51
56.7517219
0
ARC
8
DEFAULT_255_2_778
10
12.5930978
20
13.620463
40
0.5395499
50
47.9957539
51
52.9025715
0
ARC
8
DEFAULT_255_2_778
10
12.6742564
20
13.7118051
40
0.4173646
50
45.2217308
51
47.8837049
0
ARC
8
DEFAULT_255_2_778
10
12.5953165
20
13.6375779
40
0.52567
50
37.8990819
51
44.8128289
0
ARC
8
DEFAULT_255_2_778
10
12.2877755
20
13.3961021
40
0.916682
50
33.2072835
51
38.0011524
0
ARC
8
DEFAULT_255_2_778
10
11.8235806
20
13.0904994
40
1.4724413
50
29.7768014
51
33.2645162
0
ARC
8
DEFAULT_255_2_778
10
11.1904578
20
12.726829
40
2.2025781
50
27.1366102
51
29.8088143
0
ARC
8
DEFAULT_255_2_778
10
10.3843762
20
12.3125443
40
3.1088885
50
25.0138016
51
27.1553359
0
ARC
8
DEFAULT_255_2_778
10
9.3789036
20
11.8429442
40
4.2186181
50
23.1186434
51
25.0192867
0
ARC
8
DEFAULT_255_2_778
10
8.2083555
20
11.3420796
40
5.4918216
50
21.5502745
51
23.1295175
0
ARC
8
DEFAULT_255_2_778
10
6.8626443
20
10.8109545
40
6.9385533
50
19.9230859
51
21.547746
0
ARC
8
DEFAULT_255_2_778
10
5.4414492
20
10.2946485
40
8.4506267
50
18.4949413
51
19.9306892
0
ARC
8
DEFAULT_255_2_778
10
4.1879688
20
9.8746693
40
9.7725933
50
17.0877316
51
18.498798
0
ARC
8
DEFAULT_255_2_778
10
3.1667983
20
9.5610504
40
10.8408375
50
15.0994813
51
17.0862422
0
ARC
8
DEFAULT_255_2_778
10
3.0346657
20
9.522468
40
10.9784591
50
13.1110357
51
15.1142527
0
ARC
8
DEFAULT_255_2_778
10
4.2592829
20
9.8021679
40
9.7223195
50
10.4051061
51
13.1427529
0
ARC
8
DEFAULT_255_2_778
10
6.2208769
20
10.1640528
40
7.7276246
50
8.1557464
51
10.3928237
0
ARC
8
DEFAULT_255_2_778
10
7.9132675
20
10.4064498
40
6.017963
50
5.8418592
51
8.1571226
0
ARC
8
DEFAULT_255_2_778
10
9.3561305
20
10.5537
40
4.5676059
50
3.2994437
51
5.8465452
0
ARC
8
DEFAULT_255_2_778
10
10.5521354
20
10.6219303
40
3.3696566
50
0.3122467
51
3.3116547
0
ARC
8
DEFAULT_255_2_778
10
11.0968597
20
10.6290442
40
2.8249047
50
0.0003496
51
0.2281714
0
ARC
8
DEFAULT_255_2_778
10
11.5061748
20
10.6260469
40
2.4155914
50
357.0441975
51
0.0715021
0
ARC
8
DEFAULT_255_2_778
10
12.1604929
20
10.5914505
40
1.7603601
50
353.2090935
51
357.0705634
0
ARC
8
DEFAULT_255_2_778
10
12.6751409
20
10.5297183
40
1.2420231
50
348.5192488
51
353.2295714
0
ARC
8
DEFAULT_255_2_778
10
13.0578204
20
10.4512695
40
0.8513863
50
342.3626906
51
348.5671042
0
ARC
8
DEFAULT_255_2_778
10
13.3340175
20
10.3625637
40
0.5612959
50
333.7758689
51
342.4495527
0
ARC
8
DEFAULT_255_2_778
10
13.5180145
20
10.2706366
40
0.3556181
50
320.379091
51
333.962765
0
ARC
8
DEFAULT_255_2_778
10
13.5863063
20
10.2170775
40
0.268869
50
315.0325803
51
319.8901253
0
ARC
8
DEFAULT_255_2_778
10
13.7158651
20
10.0905304
40
0.0877971
50
294.6950036
51
313.7099149
0
ARC
8
DEFAULT_255_2_778
10
13.6733417
20
10.1788093
40
0.1857765
50
285.0375597
51
295.2355023
0
ARC
8
DEFAULT_255_2_778
10
13.6285426
20
10.3407571
40
0.3538041
50
278.7796103
51
285.2395521
0
ARC
8
DEFAULT_255_2_778
10
13.5881227
20
10.5948496
40
0.6110898
50
274.5799726
51
278.8886611
0
ARC
8
DEFAULT_255_2_778
10
13.5579103
20
10.9631626
40
0.9806394
50
271.4048371
51
274.6212206
0
ARC
8
DEFAULT_255_2_778
10
13.5462325
20
11.3587191
40
1.3763647
50
269.9706944
51
271.4871215
0
ARC
8
DEFAULT_255_2_778
10
13.5512228
20
12.0591292
40
2.0767824
50
266.7556239
51
269.8429008
0
ARC
8
DEFAULT_255_2_778
10
13.6236966
20
13.3967443
40
3.4163568
50
264.7907865
51
266.8117129
0
ARC
8
DEFAULT_255_2_778
10
13.794842
20
15.2751752
40
5.3025683
50
263.0414619
51
264.7919672
0
ARC
8
DEFAULT_255_2_778
10
14.1327905
20
18.0538539
40
8.1017224
50
261.6235564
51
263.0498118
0
ARC
8
DEFAULT_255_2_778
10
14.6086335
20
21.3180865
40
11.4004531
50
260.7607874
51
261.6474509
0
ARC
8
DEFAULT_255_2_778
10
15.2979081
20
25.5351556
40
15.6734806
50
259.7304689
51
260.7488939
0
ARC
8
DEFAULT_255_2_778
10
16.3237557
20
31.2154285
40
21.4456429
50
258.9702831
51
259.739178
0
ARC
8
DEFAULT_255_2_778
10
17.5173936
20
37.3483674
40
27.6936592
50
258.3387205
51
258.97391
0
ARC
8
DEFAULT_255_2_778
10
18.3630398
20
41.4749735
40
31.9060179
50
258.1684516
51
258.3493165
0
ARC
8
DEFAULT_255_2_778
10
19.0383355
20
44.6890051
40
35.1902255
50
257.7798434
51
258.1652607
0
ARC
8
DEFAULT_255_2_778
10
19.8223468
20
48.3148062
40
38.8998219
50
257.4930907
51
257.7816427
0
ARC
8
DEFAULT_255_2_778
10
20.3086705
20
50.5103873
40
41.1486187
50
257.2715077
51
257.4940459
0
ARC
8
DEFAULT_255_2_778
10
20.5353409
20
51.5153168
40
42.1787947
50
257.0967704
51
257.2719389
0
ARC
8
DEFAULT_255_2_778
10
20.4653252
20
51.2111863
40
41.8667091
50
256.890633
51
257.0972273
0
ARC
8
DEFAULT_255_2_778
10
19.9951496
20
49.1924623
40
39.7939545
50
256.7394863
51
256.8907114
0
ARC
8
DEFAULT_255_2_778
10
19.1091805
20
45.4352858
40
35.9337323
50
256.5912827
51
256.7403301
0
ARC
8
DEFAULT_255_2_778
10
17.8334946
20
40.0826779
40
30.4312069
50
256.4875259
51
256.5906494
0
ARC
8
DEFAULT_255_2_778
10
16.2266648
20
33.3987719
40
23.5568706
50
256.3809277
51
256.4890083
0
ARC
8
DEFAULT_255_2_778
10
14.2964415
20
25.4318878
40
15.3594927
50
256.2986398
51
256.3810137
0
ARC
8
DEFAULT_255_2_778
10
12.2057196
20
16.8569288
40
6.533336
50
256.2337099
51
256.2999738
0
ARC
8
DEFAULT_255_2_778
10
12.1799778
20
9.3585243
40
0.9695268
50
23.1323877
51
23.4641876
0
ARC
8
DEFAULT_255_2_778
10
10.8729768
20
8.7992888
40
2.391144
50
22.7864672
51
23.1517546
0
ARC
8
DEFAULT_255_2_778
10
9.3838335
20
8.173957
40
4.0062563
50
22.2516067
51
22.7834007
0
ARC
8
DEFAULT_255_2_778
10
7.8446236
20
7.5437905
40
5.6694691
50
21.664357
51
22.2554294
0
ARC
8
DEFAULT_255_2_778
10
6.4791607
20
7.0009882
40
7.1388647
50
21.0351863
51
21.667358
0
ARC
8
DEFAULT_255_2_778
10
5.3974382
20
6.5844311
40
8.2980208
50
20.4585872
51
21.0387982
0
ARC
8
DEFAULT_255_2_778
10
4.6105043
20
6.2905077
40
9.138054
50
19.9306458
51
20.4606374
0
ARC
8
DEFAULT_255_2_778
10
3.9046543
20
6.0348099
40
9.8887907
50
19.2008596
51
19.9293197
0
ARC
8
DEFAULT_255_2_778
10
3.2562689
20
5.8089224
40
10.5753972
50
18.3666977
51
19.2012938
0
ARC
8
DEFAULT_255_2_778
10
2.8256574
20
5.6654582
40
11.0292784
50
17.7096073
51
18.3691472
0
ARC
8
DEFAULT_255_2_778
10
2.5093743
20
5.5646203
40
11.3612471
50
16.6623096
51
17.7088414
0
ARC
8
DEFAULT_255_2_778
10
2.3144336
20
5.5060461
40
11.5647976
50
15.5415806
51
16.663396
0
ARC
8
DEFAULT_255_2_778
10
2.2997209
20
5.5017269
40
11.5801296
50
14.1936487
51
15.5426652
0
ARC
8
DEFAULT_255_2_778
10
2.447945
20
5.5390515
40
11.4272783
50
12.8714774
51
14.1944476
0
ARC
8
DEFAULT_255_2_778
10
2.7525134
20
5.6081115
40
11.114979
50
11.1433838
51
12.8741705
0
ARC
8
DEFAULT_255_2_778
10
3.2510246
20
5.7055102
40
10.6070426
50
8.9878884
51
11.1476101
0
ARC
8
DEFAULT_255_2_778
10
3.9090749
20
5.8089657
40
9.9409099
50
6.5309903
51
8.9914566
0
ARC
8
DEFAULT_255_2_778
10
4.7506369
20
5.9030794
40
9.0941049
50
3.086797
51
6.5449571
0
ARC
8
DEFAULT_255_2_778
10
5.6098659
20
5.9506835
40
8.2335592
50
0.0238544
51
3.0779826
0
ARC
8
DEFAULT_255_2_778
10
6.3237401
20
5.951101
40
7.5196848
50
356.8819859
51
0.0229381
0
ARC
8
DEFAULT_255_2_778
10
7.0128484
20
5.9124356
40
6.8294937
50
352.9506554
51
356.8914289
0
ARC
8
DEFAULT_255_2_778
10
7.3965108
20
5.8687871
40
6.443376
50
352.3166732
51
352.9171674
0
ARC
8
DEFAULT_255_2_778
10
7.8142947
20
5.8068934
40
6.0210703
50
346.9678695
51
352.3688313
0
ARC
8
DEFAULT_255_2_778
10
8.3773615
20
5.6786171
40
5.4435804
50
342.2544504
51
346.9468434
0
ARC
8
DEFAULT_255_2_778
10
14.2426702
20
5.2652732
40
1.4196608
50
240.6773615
51
241.3468211
0
ARC
8
DEFAULT_255_2_778
10
15.2541895
20
7.0712203
40
3.4895916
50
239.9840542
51
240.718439
0
ARC
8
DEFAULT_255_2_778
10
16.1314778
20
8.5921365
40
5.2453878
50
239.2721457
51
239.9970829
0
ARC
8
DEFAULT_255_2_778
10
17.0224433
20
10.0891829
40
6.9875033
50
238.1884144
51
239.2643942
0
ARC
8
DEFAULT_255_2_778
10
17.8461582
20
11.4195103
40
8.5522002
50
237.1588812
51
238.1969288
0
ARC
8
DEFAULT_255_2_778
10
18.5309977
20
12.4801175
40
9.8146948
50
235.8394677
51
237.1576696
0
ARC
8
DEFAULT_255_2_778
10
19.0665077
20
13.2709783
40
10.7698027
50
234.5868117
51
235.8445845
0
ARC
8
DEFAULT_255_2_778
10
19.4581881
20
13.8217598
40
11.4456531
50
232.9602199
51
234.5865285
0
ARC
8
DEFAULT_255_2_778
10
19.7186775
20
14.1676547
40
11.8786631
50
231.1007755
51
232.9622903
0
ARC
8
DEFAULT_255_2_778
10
19.8133594
20
14.2858423
40
12.0300986
50
229.3000056
51
231.103299
0
ARC
8
DEFAULT_255_2_778
10
19.7721581
20
14.2386416
40
11.967447
50
227.0983019
51
229.3021921
0
ARC
8
DEFAULT_255_2_778
10
19.5832101
20
14.0367318
40
11.6909186
50
224.1929374
51
227.1030072
0
ARC
8
DEFAULT_255_2_778
10
19.3632448
20
13.8209152
40
11.3827635
50
222.9596674
51
224.1858549
0
ARC
8
DEFAULT_255_2_778
10
19.1985211
20
13.6677837
40
11.1578566
50
221.4518564
51
222.9606415
0
ARC
8
DEFAULT_255_2_778
10
18.9903659
20
13.4842469
40
10.8803421
50
219.665462
51
221.453087
0
ARC
8
DEFAULT_255_2_778
10
18.747325
20
13.2829181
40
10.5647441
50
217.6979047
51
219.666298
0
ARC
8
DEFAULT_255_2_778
10
18.5383399
20
13.1207022
40
10.3001908
50
216.4595127
51
217.694797
0
ARC
8
DEFAULT_255_2_778
10
17.584669
20
10.502089
40
8.1242238
50
205.5371521
51
208.0899311
0
ARC
8
DEFAULT_255_2_778
10
17.4225688
20
10.4156574
40
7.9405206
50
208.0904741
51
210.6354119
0
ARC
8
DEFAULT_255_2_778
10
17.2859933
20
10.3347997
40
7.7818044
50
210.6355813
51
213.2542195
0
ARC
8
DEFAULT_255_2_778
10
17.1744862
20
10.2617824
40
7.6485176
50
213.2548567
51
215.7548564
0
ARC
8
DEFAULT_255_2_778
10
17.0820155
20
10.1952318
40
7.5345887
50
215.7550457
51
218.2630118
0
ARC
8
DEFAULT_255_2_778
10
17.0020727
20
10.1322291
40
7.4328037
50
218.2633055
51
220.6739001
0
ARC
8
DEFAULT_255_2_778
10
16.9584651
20
10.0951567
40
7.3755682
50
220.6762659
51
221.0142307
0
ARC
8
DEFAULT_255_2_778
10
16.8996505
20
10.0429777
40
7.2969475
50
221.0081488
51
224.6138475
0
ARC
8
DEFAULT_255_2_778
10
16.7864338
20
9.931244
40
7.1378801
50
224.6136591
51
227.900791
0
ARC
8
DEFAULT_255_2_778
10
16.652651
20
9.7828918
40
6.9381147
50
227.8991981
51
231.0378942
0
ARC
8
DEFAULT_255_2_778
10
16.4908354
20
9.5828902
40
6.6808503
50
231.0384035
51
233.6149288
0
ARC
8
DEFAULT_255_2_778
10
16.2893181
20
9.3086811
40
6.3405567
50
233.6110241
51
236.1880959
0
ARC
8
DEFAULT_255_2_778
10
16.0299874
20
8.9210758
40
5.874198
50
236.1859472
51
238.4920847
0
ARC
8
DEFAULT_255_2_778
10
15.7294588
20
8.430717
40
5.2990727
50
238.4915607
51
240.448157
0
ARC
8
DEFAULT_255_2_778
10
15.37636
20
7.8066161
40
4.5820092
50
240.4400386
51
242.3694496
0
ARC
8
DEFAULT_255_2_778
10
14.9966131
20
7.0820642
40
3.7639732
50
242.3757637
51
243.8017766
0
ARC
8
DEFAULT_255_2_778
10
14.5905741
20
6.2546979
40
2.8423433
50
243.7828975
51
245.3011922
0
ARC
8
DEFAULT_255_2_778
10
14.0964747
20
5.1777044
40
1.6574183
50
245.2624011
51
246.7364359
0
ARC
8
DEFAULT_255_2_778
10
13.6525463
20
4.1456479
40
0.5339356
50
246.7593577
51
247.5250399
0
ARC
8
DEFAULT_255_2_778
10
9.6463959
20
5.0724625
40
4.0586262
50
339.4085749
51
339.517555
0
ARC
8
DEFAULT_255_2_778
10
2.9203587
20
7.5991041
40
11.2435755
50
339.2285046
51
339.4102958
0
ARC
8
DEFAULT_255_2_778
10
-3.2821804
20
9.9504467
40
17.876848
50
339.0188409
51
339.2322524
0
ARC
8
DEFAULT_255_2_778
10
-7.6342357
20
11.6185961
40
22.5376532
50
338.7791265
51
339.020755
0
ARC
8
DEFAULT_255_2_778
10
-10.1362092
20
12.5892893
40
25.221329
50
338.546542
51
338.7808357
0
ARC
8
DEFAULT_255_2_778
10
-11.2871899
20
13.0413699
40
26.4579104
50
338.2010293
51
338.5469916
0
ARC
8
DEFAULT_255_2_778
10
-11.0416884
20
12.9424088
40
26.1932147
50
337.7674447
51
338.2025986
0
ARC
8
DEFAULT_255_2_778
10
-9.0580266
20
12.1292171
40
24.049342
50
337.0782485
51
337.7726474
0
ARC
8
DEFAULT_255_2_778
10
-4.8505144
20
10.3434743
40
19.478566
50
335.9079203
51
337.0959597
0
ARC
8
DEFAULT_255_2_778
10
0.2188706
20
8.0741403
40
13.9244204
50
334.454184
51
335.9174219
0
ARC
8
DEFAULT_255_2_778
10
3.4765316
20
6.5240472
40
10.3167769
50
333.5452037
51
334.4194581
0
ARC
8
DEFAULT_255_2_778
10
5.7888887
20
5.3685142
40
7.7317768
50
331.9161655
51
333.5777864
0
ARC
8
DEFAULT_255_2_778
10
7.9894247
20
4.1934138
40
5.2371389
50
329.9025615
51
331.9250594
0
ARC
8
DEFAULT_255_2_778
10
9.5479262
20
3.2891637
40
3.4353082
50
327.4072779
51
329.9157131
0
ARC
8
DEFAULT_255_2_778
10
10.6009528
20
2.6151738
40
2.1850575
50
324.295902
51
327.4236209
0
ARC
8
DEFAULT_255_2_778
10
11.3079964
20
2.1052433
40
1.3133142
50
319.8655063
51
324.3593649
0
ARC
8
DEFAULT_255_2_778
10
11.7069728
20
1.7701101
40
0.7922625
50
315.37418
51
319.7965698
0
ARC
8
DEFAULT_255_2_778
10
16.1384919
20
0.9243408
40
1.0566749
50
269.942614
51
309.5897597
0
ARC
8
DEFAULT_255_2_778
10
16.139047
20
0.9275032
40
1.0587611
50
309.4575479
51
356.7251547
0
ARC
8
DEFAULT_255_2_778
10
16.1201245
20
0.9284895
40
1.077709
50
356.730275
51
359.9934573
0
ARC
8
DEFAULT_255_2_778
10
16.1412331
20
15.7416147
40
1.056601
50
359.9431572
51
39.5863161
0
ARC
8
DEFAULT_255_2_778
10
16.1379167
20
15.7420744
40
1.0588669
50
39.452794
51
87.1187892
0
ARC
8
DEFAULT_255_2_778
10
16.1369228
20
15.7224845
40
1.0784821
50
87.1183634
51
89.9728624
0
LINE
8
DEFAULT_255_2_778
10
16.1374336
20
16.8009664
11
1.3249336
21
16.8009664
0
LINE
8
DEFAULT_255_2_778
10
0.2645336
20
15.7405664
11
0.2645336
21
10.1466664
0
LINE
8
DEFAULT_255_2_778
10
0.2645336
20
10.1466664
11
3.5977336
21
11.0780664
0
LINE
8
DEFAULT_255_2_778
10
3.5977336
20
11.0780664
11
5.8163336
21
10.1580664
0
LINE
8
DEFAULT_255_2_778
10
5.8163336
20
10.1580664
11
4.0007336
21
11.0780664
0
LINE
8
DEFAULT_255_2_778
10
3.4130336
20
14.6498664
11
7.5318336
21
14.1207664
0
LINE
8
DEFAULT_255_2_778
10
7.5318336
20
14.1207664
11
5.2916336
21
14.5451664
0
LINE
8
DEFAULT_255_2_778
10
10.6510336
20
10.5112664
11
13.0693336
21
9.7445664
0
LINE
8
DEFAULT_255_2_778
10
12.2708336
20
1.2135664
11
5.2387336
21
4.2380664
0
LINE
8
DEFAULT_255_2_778
10
5.2387336
20
4.2380664
11
1.6647336
21
-0.1323336
0
LINE
8
DEFAULT_255_2_778
10
1.6647336
20
-0.1323336
11
16.1374336
21
-0.1323336
0
LINE
8
DEFAULT_255_2_778
10
17.1978336
20
0.9283664
11
17.1978336
21
15.7405664
0
ENDSEC
0
EOF