0
SECTION
2
HEADER
9
$MEASUREMENT
70
1
0
ENDSEC
0
SECTION
2
TABLES
0
TABLE
2
LTYPE
0
LTYPE
72
65
70
64
2
CONTINUOUS
3
______
73
0
40
0
0
ENDTAB
0
TABLE
2
LAYER
0
LAYER
2
DEFAULT_255_2_778
70
0
62
255
6
CONTINUOUS
0
ENDTAB
0
ENDSEC
0
SECTION
2
ENTITIES
0
ARC
8
DEFAULT_255_2_778
10
29.2398603
20
1.2613624
40
0.6287792
50
270.7936232
51
286.5214996
0
ARC
8
DEFAULT_255_2_778
10
29.2333769
20
0.9806503
40
0.3483382
50
246.0419196
51
272.4997062
0
ARC
8
DEFAULT_255_2_778
10
29.189969
20
0.8468953
40
0.2089943
50
189.1795683
51
242.0235085
0
ARC
8
DEFAULT_255_2_778
10
29.5694923
20
0.940339
40
0.599403
50
179.0627518
51
192.2113076
0
ARC
8
DEFAULT_255_2_778
10
27.461356
20
2.7322278
40
1.5088426
50
359.6436483
51
14.3870043
0
ARC
8
DEFAULT_255_2_778
10
27.7546249
20
2.8079145
40
1.2059649
50
14.3658851
51
40.6544502
0
ARC
8
DEFAULT_255_2_778
10
27.6186714
20
2.6576654
40
1.4072225
50
41.6892399
51
71.8536257
0
ARC
8
DEFAULT_255_2_778
10
27.3832504
20
2.0043156
40
2.1014954
50
71.3020848
51
88.2221141
0
ARC
8
DEFAULT_255_2_778
10
27.3525622
20
1.6129761
40
2.4936674
50
87.7963064
51
90.0067268
0
ARC
8
DEFAULT_255_2_778
10
27.3447733
20
-2.3544051
40
6.461053
50
89.9335255
51
91.8571953
0
ARC
8
DEFAULT_255_2_778
10
27.2722668
20
-0.2148167
40
4.3202397
50
91.8157173
51
95.2639599
0
ARC
8
DEFAULT_255_2_778
10
27.1787237
20
0.8104975
40
3.2906679
50
95.2799437
51
100.7491878
0
ARC
8
DEFAULT_255_2_778
10
27.2231632
20
0.6226878
40
3.4834813
50
100.8911545
51
106.4301158
0
ARC
8
DEFAULT_255_2_778
10
27.6104547
20
-0.7089814
40
4.8703188
50
106.3691743
51
109.0695406
0
ARC
8
DEFAULT_255_2_778
10
28.3413025
20
-2.8325856
40
7.1161654
50
109.0447938
51
110.7345648
0
ARC
8
DEFAULT_255_2_778
10
29.7227706
20
-6.4848024
40
11.020924
50
110.7291774
51
111.934358
0
ARC
8
DEFAULT_255_2_778
10
26.9550061
20
2.3107014
40
0.9603569
50
116.3445591
51
117.5264531
0
ARC
8
DEFAULT_255_2_778
10
27.010485
20
2.1359303
40
1.1419358
50
89.2795854
51
114.9475204
0
ARC
8
DEFAULT_255_2_778
10
27.1266863
20
-0.2460194
40
3.5252669
50
89.9157586
51
91.6554801
0
ARC
8
DEFAULT_255_2_778
10
27.140701
20
2.2840518
40
0.995231
50
78.7554053
51
90.508446
0
ARC
8
DEFAULT_255_2_778
10
27.2227504
20
2.6812544
40
0.5896615
50
58.9398539
51
79.048919
0
ARC
8
DEFAULT_255_2_778
10
27.2054933
20
2.7185416
40
0.5676444
50
4.9983116
51
55.5038699
0
ARC
8
DEFAULT_255_2_778
10
26.0050113
20
2.4951306
40
1.7869244
50
0.9670201
51
8.7835747
0
ARC
8
DEFAULT_255_2_778
10
21.8472129
20
2.3859257
40
5.9461017
50
359.7766202
51
1.3430008
0
ARC
8
DEFAULT_255_2_778
10
27.1764533
20
-2.8916892
40
5.1559612
50
83.1291561
51
89.9881307
0
ARC
8
DEFAULT_255_2_778
10
27.1775019
20
-2.8330648
40
5.0973367
50
89.9997805
51
90.5421576
0
ARC
8
DEFAULT_255_2_778
10
27.128943
20
-3.1946148
40
5.4586584
50
89.9965742
51
90.7697495
0
ARC
8
DEFAULT_255_2_778
10
27.0629325
20
-1.4564235
40
3.7199818
50
90.1127825
51
102.1935222
0
ARC
8
DEFAULT_255_2_778
10
26.6763495
20
0.3474468
40
1.875158
50
102.2895117
51
117.9963622
0
ARC
8
DEFAULT_255_2_778
10
26.259896
20
1.0928693
40
1.0216322
50
116.9977002
51
163.4831893
0
ARC
8
DEFAULT_255_2_778
10
26.489801
20
1.0393071
40
1.2573561
50
164.1215804
51
179.0663519
0
ARC
8
DEFAULT_255_2_778
10
26.7804317
20
1.0227853
40
1.5482624
50
178.6302655
51
180.0052452
0
ARC
8
DEFAULT_255_2_778
10
26.6312489
20
1.0144579
40
1.3991034
50
179.6647774
51
192.4855356
0
ARC
8
DEFAULT_255_2_778
10
26.3091521
20
0.9422855
40
1.0690213
50
192.4410287
51
211.3875
0
ARC
8
DEFAULT_255_2_778
10
26.3477502
20
1.0095013
40
1.1375896
50
213.2653221
51
259.7457571
0
ARC
8
DEFAULT_255_2_778
10
26.4799179
20
1.4312665
40
1.5771047
50
257.7481083
51
263.8939445
0
ARC
8
DEFAULT_255_2_778
10
26.4891694
20
1.5133856
40
1.659742
50
263.8779258
51
270.0103586
0
ARC
8
DEFAULT_255_2_778
10
26.4961814
20
1.3223903
40
1.468762
50
269.7381675
51
285.6963666
0
ARC
8
DEFAULT_255_2_778
10
26.514661
20
1.2323224
40
1.3770692
50
285.9699957
51
309.1256641
0
ARC
8
DEFAULT_255_2_778
10
26.2865687
20
1.4948419
40
1.7246909
50
309.5007217
51
331.5775787
0
ARC
8
DEFAULT_255_2_778
10
28.9211595
20
0.7819756
40
1.1229985
50
185.5203706
51
204.8726676
0
ARC
8
DEFAULT_255_2_778
10
28.5950569
20
0.6302726
40
0.7633371
50
204.8372379
51
256.1999984
0
ARC
8
DEFAULT_255_2_778
10
28.6928444
20
0.9786088
40
1.1250065
50
255.5952063
51
270.4902022
0
ARC
8
DEFAULT_255_2_778
10
28.6768389
20
1.4880201
40
1.6345775
50
270.8984484
51
297.7954617
0
ARC
8
DEFAULT_255_2_778
10
26.9006734
20
1.3329656
40
0.6470039
50
253.0425999
51
270.9118045
0
ARC
8
DEFAULT_255_2_778
10
26.8263105
20
1.0835892
40
0.3867845
50
184.2241516
51
252.8050657
0
ARC
8
DEFAULT_255_2_778
10
27.1350269
20
1.1496735
40
0.7008606
50
179.8307701
51
187.7551711
0
ARC
8
DEFAULT_255_2_778
10
27.0318899
20
1.1622026
40
0.597812
50
159.6860834
51
181.0024721
0
ARC
8
DEFAULT_255_2_778
10
26.9350477
20
1.1707944
40
0.5046579
50
101.1913163
51
156.7826092
0
ARC
8
DEFAULT_255_2_778
10
27.1833726
20
0.3017302
40
1.4073889
50
89.697336
51
104.2432114
0
ARC
8
DEFAULT_255_2_778
10
27.2161599
20
-0.5226171
40
2.2318608
50
89.9971893
51
90.6508655
0
ARC
8
DEFAULT_255_2_778
10
27.1217812
20
-2.4733703
40
4.183681
50
80.6682272
51
88.7058675
0
ARC
8
DEFAULT_255_2_778
10
26.4402425
20
1.7217192
40
1.3615654
50
344.300623
51
357.1888997
0
ARC
8
DEFAULT_255_2_778
10
26.7712237
20
1.6273566
40
1.0173988
50
326.3327627
51
344.3728322
0
ARC
8
DEFAULT_255_2_778
10
26.911275
20
1.5355274
40
0.8499317
50
298.3767608
51
326.2509734
0
ARC
8
DEFAULT_255_2_778
10
26.9108707
20
1.5419438
40
0.8557734
50
275.1945072
51
298.1964094
0
ARC
8
DEFAULT_255_2_778
10
26.9090341
20
1.5516806
40
0.865637
50
270.002337
51
275.2572191
0
ARC
8
DEFAULT_255_2_778
10
10.4442231
20
1.2295424
40
2.8712174
50
89.8075057
51
99.43653
0
ARC
8
DEFAULT_255_2_778
10
10.3461055
20
1.8095658
40
2.2829567
50
99.3940624
51
112.1454083
0
ARC
8
DEFAULT_255_2_778
10
10.2050129
20
2.1545236
40
1.9102605
50
112.1259263
51
131.3694444
0
ARC
8
DEFAULT_255_2_778
10
10.2897321
20
2.1023749
40
2.0055995
50
132.2011718
51
167.5745122
0
ARC
8
DEFAULT_255_2_778
10
10.9198025
20
1.9284682
40
2.6585518
50
166.8361126
51
180.2138897
0
ARC
8
DEFAULT_255_2_778
10
10.8414502
20
1.9082515
40
2.5802013
50
179.7714544
51
191.0316284
0
ARC
8
DEFAULT_255_2_778
10
10.3172024
20
1.8036754
40
2.0456311
50
190.9664102
51
206.8014723
0
ARC
8
DEFAULT_255_2_778
10
10.1076985
20
1.7114815
40
1.8171038
50
207.1853863
51
251.4294358
0
ARC
8
DEFAULT_255_2_778
10
10.3311384
20
2.2814074
40
2.4287035
50
250.714602
51
264.6439864
0
ARC
8
DEFAULT_255_2_778
10
10.3888124
20
2.7726327
40
2.9231905
50
264.417223
51
270.0559996
0
ARC
8
DEFAULT_255_2_778
10
10.4016027
20
2.6369348
40
2.7875089
50
269.7958255
51
282.4252113
0
ARC
8
DEFAULT_255_2_778
10
10.5146174
20
2.1411479
40
2.2790208
50
282.3324035
51
299.9073261
0
ARC
8
DEFAULT_255_2_778
10
10.6896043
20
1.8398304
40
1.930581
50
299.8643552
51
342.5419372
0
ARC
8
DEFAULT_255_2_778
10
10.3536948
20
1.9507109
40
2.2842879
50
342.4165853
51
356.8215563
0
ARC
8
DEFAULT_255_2_778
10
10.0262287
20
1.9790429
40
2.6128407
50
356.5993804
51
0.0175588
0
ARC
8
DEFAULT_255_2_778
10
10.2068695
20
1.9746795
40
2.4322054
50
0.1216516
51
20.738828
0
ARC
8
DEFAULT_255_2_778
10
10.7124476
20
2.173306
40
1.8890631
50
20.5348026
51
59.0246149
0
ARC
8
DEFAULT_255_2_778
10
10.638915
20
2.0280819
40
2.051455
50
59.3512911
51
73.859955
0
ARC
8
DEFAULT_255_2_778
10
10.5136961
20
1.6005841
40
2.4969125
50
73.8267994
51
84.429554
0
ARC
8
DEFAULT_255_2_778
10
10.457433
20
1.0884455
40
3.0121006
50
84.3100134
51
90.0734929
0
ARC
8
DEFAULT_255_2_778
10
10.4167374
20
1.6689256
40
0.9204378
50
247.9615042
51
270.6307181
0
ARC
8
DEFAULT_255_2_778
10
10.4287622
20
1.6357224
40
0.8944843
50
203.7185261
51
246.4493156
0
ARC
8
DEFAULT_255_2_778
10
10.9455461
20
1.8960909
40
1.4726644
50
188.4815066
51
204.9053581
0
ARC
8
DEFAULT_255_2_778
10
11.499895
20
1.9913231
40
2.0350343
50
179.8304935
51
188.8314607
0
ARC
8
DEFAULT_255_2_778
10
11.4788503
20
2.0084311
40
2.0140114
50
169.9937184
51
180.3154253
0
ARC
8
DEFAULT_255_2_778
10
10.8304301
20
2.1265717
40
1.3549318
50
155.3045761
51
170.1491877
0
ARC
8
DEFAULT_255_2_778
10
10.424855
20
2.3195874
40
0.9058285
50
127.4654611
51
155.678762
0
ARC
8
DEFAULT_255_2_778
10
10.3926189
20
2.3318363
40
0.8766852
50
95.1218971
51
126.28012
0
ARC
8
DEFAULT_255_2_778
10
10.4337007
20
2.0637871
40
1.1474573
50
89.9316579
51
95.9701758
0
ARC
8
DEFAULT_255_2_778
10
10.4700081
20
2.2950261
40
0.9168834
50
35.2274064
51
92.1838372
0
ARC
8
DEFAULT_255_2_778
10
10.312469
20
2.2055513
40
1.0973275
50
16.4476361
51
34.2988423
0
ARC
8
DEFAULT_255_2_778
10
9.8641844
20
2.0691435
40
1.5658949
50
4.6296748
51
16.5903022
0
ARC
8
DEFAULT_255_2_778
10
9.3596786
20
2.0181772
40
2.0728927
50
359.9216774
51
4.9082561
0
ARC
8
DEFAULT_255_2_778
10
9.4345391
20
2.0272955
40
1.998066
50
348.3499166
51
359.6572684
0
ARC
8
DEFAULT_255_2_778
10
10.0098721
20
1.9053234
40
1.4099591
50
333.0216816
51
348.4832077
0
ARC
8
DEFAULT_255_2_778
10
10.3949049
20
1.7022751
40
0.9747329
50
305.1170726
51
333.3908742
0
ARC
8
DEFAULT_255_2_778
10
10.4465589
20
1.6578487
40
0.9088324
50
271.2166307
51
304.0644701
0
ARC
8
DEFAULT_255_2_778
10
10.4272816
20
1.847167
40
1.0986234
50
269.9941477
51
272.0121459
0
ARC
8
DEFAULT_255_2_778
10
3.5564405
20
2.2519619
40
2.4860556
50
359.7345384
51
6.0565765
0
ARC
8
DEFAULT_255_2_778
10
4.6248997
20
2.3702319
40
1.4110901
50
5.8585829
51
16.159248
0
ARC
8
DEFAULT_255_2_778
10
5.2463287
20
2.5557183
40
0.7626081
50
15.7678473
51
34.4829457
0
ARC
8
DEFAULT_255_2_778
10
5.4267586
20
2.662863
40
0.5533924
50
35.9153643
51
87.0225285
0
ARC
8
DEFAULT_255_2_778
10
5.3526434
20
2.2081754
40
1.012571
50
84.1696525
51
90.1343324
0
ARC
8
DEFAULT_255_2_778
10
5.339264
20
2.301428
40
0.9193815
50
89.3141289
51
106.8594521
0
ARC
8
DEFAULT_255_2_778
10
5.2826977
20
2.528442
40
0.6858191
50
107.8373472
51
164.8148012
0
ARC
8
DEFAULT_255_2_778
10
5.9122679
20
2.3020992
40
1.3537542
50
162.5486134
51
176.9095871
0
ARC
8
DEFAULT_255_2_778
10
6.4855149
20
2.2522671
40
1.9289463
50
176.3495291
51
180.0511945
0
ARC
8
DEFAULT_255_2_778
10
0.9079671
20
2.2563609
40
2.4791295
50
359.7315087
51
6.0705361
0
ARC
8
DEFAULT_255_2_778
10
1.9835148
20
2.3759417
40
1.3969765
50
5.8585687
51
16.3643346
0
ARC
8
DEFAULT_255_2_778
10
2.602226
20
2.5630667
40
0.7506264
50
15.965418
51
35.1777648
0
ARC
8
DEFAULT_255_2_778
10
2.770387
20
2.6639718
40
0.5552309
50
36.6642646
51
85.639866
0
ARC
8
DEFAULT_255_2_778
10
2.6893986
20
2.2031064
40
1.0219429
50
83.0758801
51
90.1922567
0
ARC
8
DEFAULT_255_2_778
10
2.674958
20
2.3054735
40
0.9196361
50
89.3139398
51
106.8572434
0
ARC
8
DEFAULT_255_2_778
10
2.6183179
20
2.5327149
40
0.685834
50
107.8339782
51
164.8158098
0
ARC
8
DEFAULT_255_2_778
10
3.2480771
20
2.306326
40
1.3539628
50
162.5496894
51
176.910326
0
ARC
8
DEFAULT_255_2_778
10
3.8217414
20
2.2564678
40
1.9295727
50
176.3501233
51
180.051198
0
ARC
8
DEFAULT_255_2_778
10
3.0495266
20
2.7944383
40
1.3071213
50
102.3799754
51
151.4849884
0
ARC
8
DEFAULT_255_2_778
10
3.1343812
20
2.4457015
40
1.6659611
50
89.7252693
51
102.6590511
0
ARC
8
DEFAULT_255_2_778
10
3.1662671
20
2.5617265
40
1.5501013
50
60.2404358
51
90.883354
0
ARC
8
DEFAULT_255_2_778
10
3.3281787
20
2.8756398
40
1.1973185
50
26.5593713
51
59.5103462
0
ARC
8
DEFAULT_255_2_778
10
3.2266253
20
2.8237506
40
1.3113566
50
18.1590989
51
26.6033437
0
ARC
8
DEFAULT_255_2_778
10
5.8371335
20
2.6825063
40
1.4711197
50
132.4137531
51
158.048461
0
ARC
8
DEFAULT_255_2_778
10
5.7220059
20
2.7849614
40
1.3179222
50
102.7177085
51
131.7227502
0
ARC
8
DEFAULT_255_2_778
10
5.7956116
20
2.4818886
40
1.6297716
50
89.7413292
51
102.8962697
0
ARC
8
DEFAULT_255_2_778
10
5.8247384
20
2.5523236
40
1.5594719
50
62.8964288
51
90.7998275
0
ARC
8
DEFAULT_255_2_778
10
5.9807093
20
2.8812805
40
1.1956301
50
27.7117136
51
62.3678551
0
ARC
8
DEFAULT_255_2_778
10
5.8054053
20
2.795211
40
1.390861
50
10.8669651
51
27.4924243
0
ARC
8
DEFAULT_255_2_778
10
5.3712775
20
2.7087205
40
1.8335125
50
359.7288513
51
10.9636407
0
LINE
8
DEFAULT_255_2_778
10
28.9701694
20
0.9501436
11
28.9701694
21
2.7228436
0
LINE
8
DEFAULT_255_2_778
10
25.6059694
20
3.7383436
11
25.4419694
21
2.8027436
0
LINE
8
DEFAULT_255_2_778
10
25.4419694
20
2.8027436
11
26.3767694
21
2.7040436
0
LINE
8
DEFAULT_255_2_778
10
26.3767694
20
2.7040436
11
26.5111694
21
3.1623436
0
LINE
8
DEFAULT_255_2_778
10
27.7932694
20
2.3627436
11
27.7932694
21
2.2272436
0
LINE
8
DEFAULT_255_2_778
10
29.4390694
20
0.0420436
11
29.4186694
21
0.6585436
0
LINE
8
DEFAULT_255_2_778
10
26.9090694
20
0.6860436
11
26.9109694
21
0.6860436
0
LINE
8
DEFAULT_255_2_778
10
25.3445694
20
6.1629436
11
23.5819694
21
-0.0547564
0
LINE
8
DEFAULT_255_2_778
10
23.5819694
20
-0.0547564
11
22.4320694
21
-0.0547564
0
LINE
8
DEFAULT_255_2_778
10
22.4320694
20
-0.0547564
11
24.1941694
21
6.1629436
0
LINE
8
DEFAULT_255_2_778
10
24.1941694
20
6.1629436
11
25.3456694
21
6.1629436
0
LINE
8
DEFAULT_255_2_778
10
25.3456694
20
6.1629436
11
25.3445694
21
6.1629436
0
LINE
8
DEFAULT_255_2_778
10
22.9712694
20
6.1629436
11
21.2091694
21
-0.0547564
0
LINE
8
DEFAULT_255_2_778
10
21.2091694
20
-0.0547564
11
20.0587694
21
-0.0547564
0
LINE
8
DEFAULT_255_2_778
10
20.0587694
20
-0.0547564
11
21.8208694
21
6.1629436
0
LINE
8
DEFAULT_255_2_778
10
21.8208694
20
6.1629436
11
22.9712694
21
6.1629436
0
LINE
8
DEFAULT_255_2_778
10
18.0738694
20
4.0203436
11
19.2962694
21
4.0203436
0
LINE
8
DEFAULT_255_2_778
10
19.2962694
20
4.0203436
11
19.2962694
21
2.5550436
0
LINE
8
DEFAULT_255_2_778
10
19.2962694
20
2.5550436
11
18.0738694
21
2.5550436
0
LINE
8
DEFAULT_255_2_778
10
18.0738694
20
2.5550436
11
18.0738694
21
4.0203436
0
LINE
8
DEFAULT_255_2_778
10
18.0738694
20
1.4046436
11
19.2962694
21
1.4046436
0
LINE
8
DEFAULT_255_2_778
10
19.2962694
20
1.4046436
11
19.2962694
21
-0.0611564
0
LINE
8
DEFAULT_255_2_778
10
19.2962694
20
-0.0611564
11
18.0738694
21
-0.0611564
0
LINE
8
DEFAULT_255_2_778
10
18.0738694
20
-0.0611564
11
18.0738694
21
1.4046436
0
LINE
8
DEFAULT_255_2_778
10
16.2939694
20
1.4562436
11
17.2200694
21
1.3663436
0
LINE
8
DEFAULT_255_2_778
10
17.2200694
20
1.3663436
11
16.9676694
21
-0.0632564
0
LINE
8
DEFAULT_255_2_778
10
16.9676694
20
-0.0632564
11
13.3986694
21
-0.0632564
0
LINE
8
DEFAULT_255_2_778
10
13.3986694
20
-0.0632564
11
13.2806694
21
0.5506436
0
LINE
8
DEFAULT_255_2_778
10
13.2806694
20
0.5506436
11
15.5280694
21
3.1302436
0
LINE
8
DEFAULT_255_2_778
10
15.5280694
20
3.1302436
11
14.2532694
21
3.1302436
0
LINE
8
DEFAULT_255_2_778
10
14.2532694
20
3.1302436
11
14.0733694
21
2.5005436
0
LINE
8
DEFAULT_255_2_778
10
14.0733694
20
2.5005436
11
13.2287694
21
2.5905436
0
LINE
8
DEFAULT_255_2_778
10
13.2287694
20
2.5905436
11
13.3724694
21
4.0200436
0
LINE
8
DEFAULT_255_2_778
10
13.3724694
20
4.0200436
11
16.9580694
21
4.0200436
0
LINE
8
DEFAULT_255_2_778
10
16.9580694
20
4.0200436
11
17.0491694
21
3.4115436
0
LINE
8
DEFAULT_255_2_778
10
17.0491694
20
3.4115436
11
14.7829694
21
0.8318436
0
LINE
8
DEFAULT_255_2_778
10
14.7829694
20
0.8318436
11
16.1045694
21
0.8318436
0
LINE
8
DEFAULT_255_2_778
10
16.1045694
20
0.8318436
11
16.2939694
21
1.4562436
0
LINE
8
DEFAULT_255_2_778
10
10.4535694
20
4.1005436
11
10.4538694
21
4.1007436
0
LINE
8
DEFAULT_255_2_778
10
10.4271694
20
0.7485436
11
10.4268694
21
0.7485436
0
LINE
8
DEFAULT_255_2_778
10
7.2084694
20
0.8297436
11
7.7490694
21
0.8297436
0
LINE
8
DEFAULT_255_2_778
10
7.7490694
20
0.8297436
11
7.7490694
21
-0.0603564
0
LINE
8
DEFAULT_255_2_778
10
7.7490694
20
-0.0603564
11
6.0424694
21
-0.0603564
0
LINE
8
DEFAULT_255_2_778
10
6.0424694
20
-0.0603564
11
6.0424694
21
2.2404436
0
LINE
8
DEFAULT_255_2_778
10
4.5565694
20
2.2505436
11
4.5565694
21
0.8329436
0
LINE
8
DEFAULT_255_2_778
10
4.5565694
20
0.8329436
11
5.0936694
21
0.8329436
0
LINE
8
DEFAULT_255_2_778
10
5.0936694
20
0.8329436
11
5.0936694
21
-0.0571564
0
LINE
8
DEFAULT_255_2_778
10
5.0936694
20
-0.0571564
11
3.3870694
21
-0.0571564
0
LINE
8
DEFAULT_255_2_778
10
3.3870694
20
-0.0571564
11
3.3870694
21
2.2447436
0
LINE
8
DEFAULT_255_2_778
10
1.8921694
20
2.2547436
11
1.8921694
21
0.8360436
0
LINE
8
DEFAULT_255_2_778
10
1.8921694
20
0.8360436
11
2.6748694
21
0.8360436
0
LINE
8
DEFAULT_255_2_778
10
2.6748694
20
0.8360436
11
2.6748694
21
-0.0539564
0
LINE
8
DEFAULT_255_2_778
10
2.6748694
20
-0.0539564
11
0.1943694
21
-0.0539564
0
LINE
8
DEFAULT_255_2_778
10
0.1943694
20
-0.0539564
11
0.1943694
21
0.8347436
0
LINE
8
DEFAULT_255_2_778
10
0.1943694
20
0.8347436
11
0.7330694
21
0.8347436
0
LINE
8
DEFAULT_255_2_778
10
0.7330694
20
0.8347436
11
0.7330694
21
3.1437436
0
LINE
8
DEFAULT_255_2_778
10
0.7330694
20
3.1437436
11
0.1943694
21
3.1437436
0
LINE
8
DEFAULT_255_2_778
10
0.1943694
20
3.1437436
11
0.1943694
21
4.0309436
0
LINE
8
DEFAULT_255_2_778
10
0.1943694
20
4.0309436
11
1.9009694
21
4.0309436
0
LINE
8
DEFAULT_255_2_778
10
1.9009694
20
4.0309436
11
1.9009694
21
3.4184436
0
LINE
8
DEFAULT_255_2_778
10
7.2047694
20
2.7000436
11
7.2047694
21
0.8294436
0
LINE
8
DEFAULT_255_2_778
10
7.2047694
20
0.8294436
11
7.2084694
21
0.8297436
0
ENDSEC
0
EOF