0
SECTION
2
HEADER
9
$MEASUREMENT
70
1
0
ENDSEC
0
SECTION
2
TABLES
0
TABLE
2
LTYPE
0
LTYPE
72
65
70
64
2
CONTINUOUS
3
______
73
0
40
0
0
ENDTAB
0
TABLE
2
LAYER
0
LAYER
2
DEFAULT_255_2_778
70
0
62
255
6
CONTINUOUS
0
ENDTAB
0
ENDSEC
0
SECTION
2
ENTITIES
0
ARC
8
DEFAULT_255_2_778
10
29.4502098
20
2.6326765
40
1.4827386
50
179.3634198
51
189.1109076
0
ARC
8
DEFAULT_255_2_778
10
28.6204356
20
2.4912262
40
0.6410882
50
188.3713884
51
211.2979315
0
ARC
8
DEFAULT_255_2_778
10
28.4763396
20
2.4234052
40
0.483025
50
213.3035509
51
251.2270522
0
ARC
8
DEFAULT_255_2_778
10
28.653618
20
2.8891046
40
0.981166
50
250.177236
51
263.3383635
0
ARC
8
DEFAULT_255_2_778
10
28.7809004
20
3.8830252
40
1.9831731
50
263.01702
51
270.2006264
0
ARC
8
DEFAULT_255_2_778
10
28.7968112
20
4.7307134
40
2.8308635
50
269.8185195
51
269.9990177
0
ARC
8
DEFAULT_255_2_778
10
28.9202608
20
3.1597602
40
0.6998998
50
259.5843571
51
270.9170546
0
ARC
8
DEFAULT_255_2_778
10
28.8265639
20
2.689528
40
0.2205923
50
228.9606489
51
261.4394066
0
ARC
8
DEFAULT_255_2_778
10
28.8507034
20
2.6726234
40
0.2256029
50
177.5259196
51
221.4966417
0
ARC
8
DEFAULT_255_2_778
10
29.7277629
20
2.7410407
40
1.1040126
50
179.729644
51
183.0467213
0
ARC
8
DEFAULT_255_2_778
10
27.2132644
20
9.6085373
40
6.2762354
50
261.7730262
51
262.2081192
0
ARC
8
DEFAULT_255_2_778
10
26.8880246
20
7.3608066
40
4.005096
50
261.1470289
51
261.7766603
0
ARC
8
DEFAULT_255_2_778
10
26.498679
20
4.9491351
40
1.5622946
50
256.6345078
51
261.6440543
0
ARC
8
DEFAULT_255_2_778
10
26.2159533
20
3.7923292
40
0.3715441
50
241.0467648
51
257.8156253
0
ARC
8
DEFAULT_255_2_778
10
26.1032549
20
3.5817791
40
0.1327941
50
173.7005099
51
239.6169179
0
ARC
8
DEFAULT_255_2_778
10
26.1013011
20
3.6082153
40
0.1305786
50
104.1205041
51
185.2134721
0
ARC
8
DEFAULT_255_2_778
10
26.2352678
20
3.247713
40
0.5145854
50
95.3668173
51
108.7987831
0
ARC
8
DEFAULT_255_2_778
10
26.3492781
20
2.2385124
40
1.530145
50
90.3152812
51
96.0827115
0
ARC
8
DEFAULT_255_2_778
10
26.3747988
20
1.1001862
40
2.6686638
50
89.9900413
51
90.7287202
0
ARC
8
DEFAULT_255_2_778
10
26.3731212
20
2.3518064
40
1.4170453
50
84.5233289
51
89.9134106
0
ARC
8
DEFAULT_255_2_778
10
26.3524877
20
2.1310968
40
1.6387166
50
70.2163598
51
84.5416971
0
ARC
8
DEFAULT_255_2_778
10
26.5223645
20
2.6060293
40
1.134318
50
62.5951434
51
70.1709061
0
ARC
8
DEFAULT_255_2_778
10
26.6525032
20
2.842491
40
1.4659244
50
61.1399933
51
74.6976005
0
ARC
8
DEFAULT_255_2_778
10
26.4004758
20
1.9454456
40
2.3976882
50
74.5458636
51
86.2596422
0
ARC
8
DEFAULT_255_2_778
10
26.3548324
20
1.4759201
40
2.86923
50
85.9617715
51
90.0133735
0
ARC
8
DEFAULT_255_2_778
10
26.3422294
20
1.8117373
40
2.5334409
50
89.7301183
51
96.3176868
0
ARC
8
DEFAULT_255_2_778
10
26.2208339
20
2.8682704
40
1.469972
50
96.1463345
51
106.4539063
0
ARC
8
DEFAULT_255_2_778
10
26.0324922
20
3.4885684
40
0.8217446
50
106.109947
51
124.264612
0
ARC
8
DEFAULT_255_2_778
10
25.9192708
20
3.6790333
40
0.6007456
50
125.5678623
51
177.2297626
0
ARC
8
DEFAULT_255_2_778
10
26.3930845
20
3.6026005
40
1.079024
50
174.3907603
51
180.119497
0
ARC
8
DEFAULT_255_2_778
10
26.2700418
20
3.5893091
40
0.9560428
50
179.3382983
51
193.364926
0
ARC
8
DEFAULT_255_2_778
10
25.8928144
20
3.4960257
40
0.5674802
50
193.0054825
51
222.3768618
0
ARC
8
DEFAULT_255_2_778
10
25.9952307
20
3.6305527
40
0.7344371
50
224.7452225
51
253.2287754
0
ARC
8
DEFAULT_255_2_778
10
26.4370132
20
4.9497068
40
2.1253791
50
252.0870899
51
261.2377635
0
ARC
8
DEFAULT_255_2_778
10
27.3367424
20
10.2786298
40
7.5295664
50
260.6484027
51
262.5017338
0
ARC
8
DEFAULT_255_2_778
10
25.3924903
20
-4.5988321
40
7.4744056
50
82.2270941
51
82.6077155
0
ARC
8
DEFAULT_255_2_778
10
25.76869
20
-1.8448943
40
4.6948913
50
81.6689467
51
82.2305251
0
ARC
8
DEFAULT_255_2_778
10
26.1961446
20
0.9791281
40
1.8387862
50
77.6855683
51
82.0978401
0
ARC
8
DEFAULT_255_2_778
10
26.4991842
20
2.3306232
40
0.4538227
50
64.1790699
51
78.6735484
0
ARC
8
DEFAULT_255_2_778
10
26.639533
20
2.6161245
40
0.1357102
50
354.2593898
51
65.0164796
0
ARC
8
DEFAULT_255_2_778
10
26.6249788
20
2.5804391
40
0.1512093
50
283.9702893
51
8.4083613
0
ARC
8
DEFAULT_255_2_778
10
26.4987181
20
2.984329
40
0.5741796
50
273.5076149
51
286.4676969
0
ARC
8
DEFAULT_255_2_778
10
26.3747715
20
4.5184761
40
2.1132467
50
269.9401593
51
274.3170488
0
ARC
8
DEFAULT_255_2_778
10
26.3458222
20
6.8513006
40
4.4461506
50
269.9940791
51
270.3446187
0
ARC
8
DEFAULT_255_2_778
10
26.3711256
20
4.0434616
40
1.6385141
50
238.0378168
51
269.0990836
0
ARC
8
DEFAULT_255_2_778
10
26.1545049
20
3.7183016
40
1.8372085
50
237.4922029
51
263.9603663
0
ARC
8
DEFAULT_255_2_778
10
26.2988805
20
4.5898639
40
2.7196185
50
262.8674913
51
270.104962
0
ARC
8
DEFAULT_255_2_778
10
26.3176094
20
5.2625563
40
3.3923341
50
269.7678204
51
274.8339217
0
ARC
8
DEFAULT_255_2_778
10
26.4521928
20
3.7286909
40
1.8525898
50
274.6839469
51
282.9176019
0
ARC
8
DEFAULT_255_2_778
10
26.6548592
20
2.8692261
40
0.969585
50
282.5982348
51
297.3427949
0
ARC
8
DEFAULT_255_2_778
10
26.8388074
20
2.513192
40
0.5688392
50
297.3563611
51
353.3725135
0
ARC
8
DEFAULT_255_2_778
10
26.251969
20
2.6324446
40
1.1666227
50
350.8804228
51
0.4029928
0
ARC
8
DEFAULT_255_2_778
10
26.556327
20
2.6514108
40
0.8623028
50
359.2849808
51
14.1366966
0
ARC
8
DEFAULT_255_2_778
10
26.8620211
20
2.723874
40
0.5481859
50
14.5958343
51
69.8802574
0
ARC
8
DEFAULT_255_2_778
10
26.4734267
20
1.837222
40
1.5155843
50
67.6156658
51
79.1842302
0
ARC
8
DEFAULT_255_2_778
10
25.6802904
20
-2.1366886
40
5.567834
50
78.8411859
51
82.511317
0
ARC
8
DEFAULT_255_2_778
10
21.4908763
20
-31.606329
40
35.33351
50
82.0039337
51
82.0752983
0
ARC
8
DEFAULT_255_2_778
10
23.8997221
20
2.9298818
40
0.8642353
50
78.8880797
51
90.7133292
0
ARC
8
DEFAULT_255_2_778
10
23.995569
20
3.3907954
40
0.393525
50
54.5987314
51
79.6481073
0
ARC
8
DEFAULT_255_2_778
10
23.9782394
20
3.4216391
40
0.3797731
50
3.1463115
51
49.7662161
0
ARC
8
DEFAULT_255_2_778
10
22.8937024
20
3.241196
40
1.4775128
50
3.1641522
51
7.8299718
0
ARC
8
DEFAULT_255_2_778
10
23.9628533
20
3.2689502
40
0.6523129
50
152.2114509
51
175.2691292
0
ARC
8
DEFAULT_255_2_778
10
23.7288957
20
3.3771995
40
0.3950941
50
107.6068075
51
150.2811928
0
ARC
8
DEFAULT_255_2_778
10
23.8463245
20
3.0409915
40
0.7511423
50
93.0046975
51
108.3872026
0
ARC
8
DEFAULT_255_2_778
10
23.887253
20
2.575755
40
1.2179962
50
89.919572
51
93.7802165
0
ARC
8
DEFAULT_255_2_778
10
23.9028069
20
3.5340959
40
1.1372046
50
259.9863679
51
270.5822274
0
ARC
8
DEFAULT_255_2_778
10
23.796744
20
2.9632049
40
0.5565919
50
239.8769666
51
260.519526
0
ARC
8
DEFAULT_255_2_778
10
23.7572538
20
2.8500268
40
0.4394639
50
186.0156168
51
236.9236211
0
ARC
8
DEFAULT_255_2_778
10
24.2790522
20
2.9784201
40
0.9745825
50
187.4799288
51
190.31144
0
ARC
8
DEFAULT_255_2_778
10
14.6563744
20
3.14211
40
10.3183801
50
358.3863688
51
359.3919668
0
ARC
8
DEFAULT_255_2_778
10
18.5956076
20
3.0929608
40
6.3788514
50
359.4579256
51
359.9907057
0
ARC
8
DEFAULT_255_2_778
10
21.8831328
20
3.1280357
40
3.091537
50
359.3307605
51
7.3261581
0
ARC
8
DEFAULT_255_2_778
10
23.7273425
20
3.3728797
40
1.2311847
50
6.968924
51
24.8407389
0
ARC
8
DEFAULT_255_2_778
10
24.1933537
20
3.5825504
40
0.7202281
50
25.278151
51
63.2682935
0
ARC
8
DEFAULT_255_2_778
10
24.0711666
20
3.3361347
40
0.9952705
50
63.3669059
51
78.1953165
0
ARC
8
DEFAULT_255_2_778
10
23.9487287
20
2.7732384
40
1.5713168
50
78.0241828
51
87.523391
0
ARC
8
DEFAULT_255_2_778
10
23.9113902
20
2.1837794
40
2.1618711
50
87.2098026
51
90.0404844
0
ARC
8
DEFAULT_255_2_778
10
23.89948
20
2.1562532
40
2.1894215
50
89.7282893
51
97.7650079
0
ARC
8
DEFAULT_255_2_778
10
23.7939739
20
2.9064867
40
1.4318158
50
97.637987
51
109.4308521
0
ARC
8
DEFAULT_255_2_778
10
23.6365155
20
3.3454575
40
0.9654688
50
109.2849731
51
128.1526098
0
ARC
8
DEFAULT_255_2_778
10
23.6837393
20
3.3510743
40
0.9910569
50
130.5007626
51
173.7320751
0
ARC
8
DEFAULT_255_2_778
10
24.8937672
20
3.1210275
40
2.2210678
50
171.2402909
51
180.4328032
0
ARC
8
DEFAULT_255_2_778
10
24.7279023
20
3.0718212
40
2.0553955
50
179.0959818
51
192.5712742
0
ARC
8
DEFAULT_255_2_778
10
23.5936251
20
2.7943139
40
0.8882344
50
191.024614
51
239.4687281
0
ARC
8
DEFAULT_255_2_778
10
23.6878712
20
2.9925929
40
1.1070727
50
240.4804929
51
255.5555354
0
ARC
8
DEFAULT_255_2_778
10
23.8391991
20
3.5634566
40
1.697644
50
255.4155612
51
265.3819199
0
ARC
8
DEFAULT_255_2_778
10
23.9096726
20
4.3110333
40
2.4484884
50
265.146635
51
270.1167709
0
ARC
8
DEFAULT_255_2_778
10
23.9293279
20
4.5262329
40
2.6637233
50
269.6845549
51
276.536111
0
ARC
8
DEFAULT_255_2_778
10
24.0590238
20
3.4513104
40
1.5810374
50
276.3007315
51
291.0971615
0
ARC
8
DEFAULT_255_2_778
10
24.0590661
20
3.3989199
40
1.5322588
50
291.8008613
51
306.7490614
0
ARC
8
DEFAULT_255_2_778
10
23.7926972
20
3.7854233
40
2.0014009
50
306.2389711
51
306.9674739
0
ARC
8
DEFAULT_255_2_778
10
24.045306
20
3.4308994
40
1.0229098
50
286.9357355
51
307.1934131
0
ARC
8
DEFAULT_255_2_778
10
23.9853606
20
3.663004
40
1.2624523
50
275.1256476
51
286.4698054
0
ARC
8
DEFAULT_255_2_778
10
23.9201004
20
4.2979229
40
1.9006807
50
269.8360823
51
275.3751146
0
ARC
8
DEFAULT_255_2_778
10
19.9225548
20
2.96801
40
1.7873408
50
353.2677501
51
1.3990826
0
ARC
8
DEFAULT_255_2_778
10
21.3872998
20
2.7723915
40
0.3105834
50
291.1642864
51
357.4328628
0
ARC
8
DEFAULT_255_2_778
10
21.2932414
20
3.0403034
40
0.5944519
50
274.22721
51
290.2954763
0
ARC
8
DEFAULT_255_2_778
10
21.2375024
20
3.5654219
40
1.1223775
50
269.8193035
51
275.0889396
0
ARC
8
DEFAULT_255_2_778
10
21.222875
20
3.414697
40
0.9717102
50
260.0645863
51
270.6537869
0
ARC
8
DEFAULT_255_2_778
10
21.1230447
20
2.8763998
40
0.4242966
50
238.6604379
51
260.8014353
0
ARC
8
DEFAULT_255_2_778
10
21.1004703
20
2.7883627
40
0.3384027
50
180.3200194
51
234.1676829
0
ARC
8
DEFAULT_255_2_778
10
22.8398097
20
2.9705179
40
2.0858721
50
178.9882231
51
185.0620303
0
ARC
8
DEFAULT_255_2_778
10
23.1082676
20
3.0013695
40
3.0150586
50
179.658311
51
185.5979636
0
ARC
8
DEFAULT_255_2_778
10
21.5616909
20
2.8434556
40
1.4604671
50
185.3509613
51
196.5518168
0
ARC
8
DEFAULT_255_2_778
10
20.8134703
20
2.5986229
40
0.6738464
50
194.7206282
51
246.0932395
0
ARC
8
DEFAULT_255_2_778
10
20.9865418
20
2.9910879
40
1.1027776
50
246.1360123
51
259.9598286
0
ARC
8
DEFAULT_255_2_778
10
21.1573022
20
3.8976094
40
2.0252118
50
259.673983
51
267.3996011
0
ARC
8
DEFAULT_255_2_778
10
21.2257734
20
5.0583626
40
3.1879152
50
267.1167538
51
270.0752929
0
ARC
8
DEFAULT_255_2_778
10
21.24351
20
4.6207163
40
2.7502996
50
269.7177738
51
275.8107461
0
ARC
8
DEFAULT_255_2_778
10
21.3742848
20
3.3836089
40
1.5063166
50
275.6260928
51
285.7658928
0
ARC
8
DEFAULT_255_2_778
10
21.5654992
20
2.7263015
40
0.8218007
50
285.3876215
51
304.7766653
0
ARC
8
DEFAULT_255_2_778
10
21.6281166
20
2.602014
40
0.6842743
50
306.4061614
51
344.8150691
0
ARC
8
DEFAULT_255_2_778
10
20.8882107
20
2.8397619
40
1.4610559
50
343.4173168
51
354.6184738
0
ARC
8
DEFAULT_255_2_778
10
19.3108464
20
3.0020843
40
3.0467223
50
354.3613961
51
0.2022994
0
ARC
8
DEFAULT_255_2_778
10
17.8619179
20
3.0236535
40
4.4956447
50
359.8622055
51
0.0012306
0
ARC
8
DEFAULT_255_2_778
10
18.3914834
20
3.1038823
40
0.6733154
50
253.8528335
51
270.9002828
0
ARC
8
DEFAULT_255_2_778
10
18.3295707
20
2.8614664
40
0.4233189
50
189.4178309
51
252.777157
0
ARC
8
DEFAULT_255_2_778
10
19.1923593
20
3.0780275
40
1.3119173
50
179.1489732
51
192.5840736
0
ARC
8
DEFAULT_255_2_778
10
20.277422
20
3.1082391
40
2.3968594
50
179.9997381
51
180.2564038
0
ARC
8
DEFAULT_255_2_778
10
19.2525713
20
3.1313609
40
1.3722032
50
169.5052804
51
180.9650287
0
ARC
8
DEFAULT_255_2_778
10
18.3514689
20
3.313922
40
0.4531831
50
132.2459209
51
171.4496409
0
ARC
8
DEFAULT_255_2_778
10
18.3150435
20
3.3156346
40
0.4282047
50
100.2128084
51
128.7899154
0
ARC
8
DEFAULT_255_2_778
10
18.3944684
20
2.9471558
40
0.8050301
50
89.4594892
51
101.1262316
0
ARC
8
DEFAULT_255_2_778
10
18.4149104
20
2.5225844
40
1.2296327
50
80.8357279
51
90.5986606
0
ARC
8
DEFAULT_255_2_778
10
18.530475
20
3.1974769
40
0.5449892
50
60.248248
51
81.5298645
0
ARC
8
DEFAULT_255_2_778
10
18.5899751
20
3.3356122
40
0.3958965
50
10.6631983
51
57.8028683
0
ARC
8
DEFAULT_255_2_778
10
17.9245688
20
3.1644149
40
1.0824307
50
1.5165065
51
13.0520616
0
ARC
8
DEFAULT_255_2_778
10
16.9370528
20
3.1105571
40
2.0712113
50
359.9361808
51
2.2829161
0
ARC
8
DEFAULT_255_2_778
10
17.6491734
20
3.0926446
40
1.3591789
50
350.1821081
51
0.657855
0
ARC
8
DEFAULT_255_2_778
10
18.401193
20
2.9544922
40
0.5946679
50
327.3146343
51
350.9429911
0
ARC
8
DEFAULT_255_2_778
10
18.5470516
20
2.8792196
40
0.4315326
50
283.3383027
51
325.267604
0
ARC
8
DEFAULT_255_2_778
10
18.4254518
20
3.3092087
40
0.878184
50
270.7352963
51
284.5859264
0
ARC
8
DEFAULT_255_2_778
10
18.4023587
20
3.7509924
40
1.3203426
50
269.987155
51
271.4913286
0
ARC
8
DEFAULT_255_2_778
10
18.6831383
20
3.7379476
40
0.5507285
50
41.3028667
51
65.8274621
0
ARC
8
DEFAULT_255_2_778
10
18.5155272
20
3.3760328
40
0.9495554
50
65.5429342
51
78.6008947
0
ARC
8
DEFAULT_255_2_778
10
18.3588695
20
2.6403887
40
1.7016702
50
78.3256973
51
85.9383296
0
ARC
8
DEFAULT_255_2_778
10
18.2746007
20
1.5728977
40
2.7724616
50
85.7637718
51
90.149582
0
ARC
8
DEFAULT_255_2_778
10
18.2572637
20
2.8297424
40
1.5156413
50
89.6182247
51
100.4338903
0
ARC
8
DEFAULT_255_2_778
10
18.159338
20
3.3433481
40
0.9927994
50
100.2439037
51
117.6232855
0
ARC
8
DEFAULT_255_2_778
10
18.1281297
20
3.4596887
40
0.8756447
50
119.3438319
51
167.8359507
0
ARC
8
DEFAULT_255_2_778
10
19.1417421
20
3.1672779
40
1.9294679
50
165.6895062
51
178.5757782
0
ARC
8
DEFAULT_255_2_778
10
20.136056
20
3.1096031
40
2.9250936
50
177.9304766
51
180.0265033
0
ARC
8
DEFAULT_255_2_778
10
19.5259812
20
3.0836055
40
2.3151497
50
179.3900796
51
190.7367792
0
ARC
8
DEFAULT_255_2_778
10
18.3793743
20
2.8561242
40
1.1462794
50
190.2424791
51
212.5420308
0
ARC
8
DEFAULT_255_2_778
10
18.0678196
20
2.6729562
40
0.785221
50
213.5038497
51
248.5804859
0
ARC
8
DEFAULT_255_2_778
10
18.1814349
20
2.9605341
40
1.0944283
50
248.5414098
51
263.9149709
0
ARC
8
DEFAULT_255_2_778
10
18.2426278
20
3.4330126
40
1.5707681
50
263.522362
51
270.1508268
0
ARC
8
DEFAULT_255_2_778
10
18.2615024
20
4.4635785
40
2.6013702
50
269.6753521
51
275.2703771
0
ARC
8
DEFAULT_255_2_778
10
18.3927261
20
3.1056326
40
1.2371258
50
274.9955627
51
285.8615934
0
ARC
8
DEFAULT_255_2_778
10
18.5693167
20
2.5127922
40
0.618643
50
285.1359387
51
315.1967214
0
ARC
8
DEFAULT_255_2_778
10
15.7672162
20
3.6328118
40
1.2022337
50
260.4211562
51
270.6265458
0
ARC
8
DEFAULT_255_2_778
10
15.6506607
20
2.979442
40
0.5386137
50
239.3103044
51
261.0814132
0
ARC
8
DEFAULT_255_2_778
10
15.5968906
20
2.8547115
40
0.4042845
50
191.0289642
51
236.840518
0
ARC
8
DEFAULT_255_2_778
10
16.2442217
20
3.0235694
40
1.0727819
50
181.5942419
51
193.2674249
0
ARC
8
DEFAULT_255_2_778
10
17.1845429
20
3.076314
40
2.0143815
50
179.9364011
51
182.3498158
0
ARC
8
DEFAULT_255_2_778
10
16.5141252
20
3.0936298
40
1.3440471
50
170.4025555
51
180.642852
0
ARC
8
DEFAULT_255_2_778
10
15.7708869
20
3.2269082
40
0.5890384
50
148.2984634
51
171.1317895
0
ARC
8
DEFAULT_255_2_778
10
15.621972
20
3.3011761
40
0.4235825
50
103.1600947
51
146.2599885
0
ARC
8
DEFAULT_255_2_778
10
15.7535976
20
2.833805
40
0.9089075
50
90.7396279
51
104.5320102
0
ARC
8
DEFAULT_255_2_778
10
15.7799877
20
2.3270602
40
1.4160898
50
89.9848294
51
91.542657
0
ARC
8
DEFAULT_255_2_778
10
15.791029
20
3.0336585
40
0.7095717
50
75.0199482
51
90.8613083
0
ARC
8
DEFAULT_255_2_778
10
15.8699025
20
3.331325
40
0.4016344
50
11.0043904
51
74.9131457
0
ARC
8
DEFAULT_255_2_778
10
15.1101147
20
3.1271413
40
1.1877197
50
0.1099079
51
13.6777614
0
ARC
8
DEFAULT_255_2_778
10
13.9413813
20
3.0794122
40
2.3569815
50
359.9790421
51
1.2157203
0
ARC
8
DEFAULT_255_2_778
10
14.9777433
20
3.0556237
40
1.3208184
50
348.7275547
51
0.9945698
0
ARC
8
DEFAULT_255_2_778
10
15.8639427
20
2.8521973
40
0.4127871
50
289.1626755
51
352.3767306
0
ARC
8
DEFAULT_255_2_778
10
15.799041
20
3.0868223
40
0.6559039
50
270.4489194
51
287.7901765
0
ARC
8
DEFAULT_255_2_778
10
15.7805212
20
3.4011781
40
0.970528
50
269.9906422
51
271.396853
0
ARC
8
DEFAULT_255_2_778
10
15.9390852
20
1.6831652
40
2.6620028
50
89.7895533
51
95.3309699
0
ARC
8
DEFAULT_255_2_778
10
15.8397859
20
2.7163803
40
1.6240336
50
95.2295385
51
103.1800585
0
ARC
8
DEFAULT_255_2_778
10
15.6846229
20
3.364657
40
0.9574602
50
102.9849248
51
115.4362183
0
ARC
8
DEFAULT_255_2_778
10
15.5262034
20
3.6935084
40
0.592447
50
115.2602784
51
136.1606134
0
ARC
8
DEFAULT_255_2_778
10
15.4799376
20
3.7443195
40
0.5239028
50
136.6640964
51
140.0752876
0
ARC
8
DEFAULT_255_2_778
10
15.5321047
20
2.3844211
40
0.464492
50
218.7712905
51
246.7044493
0
ARC
8
DEFAULT_255_2_778
10
15.6830559
20
2.7199489
40
0.832385
50
246.2947095
51
259.2319988
0
ARC
8
DEFAULT_255_2_778
10
15.8316889
20
3.4654669
40
1.5925595
50
258.989919
51
266.7742363
0
ARC
8
DEFAULT_255_2_778
10
15.905555
20
4.5528823
40
2.6824378
50
266.5059662
51
270.1176433
0
ARC
8
DEFAULT_255_2_778
10
15.9215195
20
3.4195322
40
1.5491175
50
269.6132426
51
280.2842505
0
ARC
8
DEFAULT_255_2_778
10
16.0227774
20
2.8805123
40
1.0006855
50
280.0896357
51
297.2161178
0
ARC
8
DEFAULT_255_2_778
10
16.0641475
20
2.7452633
40
0.8618543
50
298.8827294
51
348.079767
0
ARC
8
DEFAULT_255_2_778
10
15.0195821
20
3.0417622
40
1.9465569
50
345.8907693
51
358.667666
0
ARC
8
DEFAULT_255_2_778
10
13.9414743
20
3.1022961
40
3.0259887
50
357.9964225
51
0.0275298
0
ARC
8
DEFAULT_255_2_778
10
14.5712341
20
3.1298472
40
2.3963707
50
359.3760205
51
10.318928
0
ARC
8
DEFAULT_255_2_778
10
15.7886217
20
3.3604655
40
1.1573967
50
9.8822472
51
31.0797576
0
ARC
8
DEFAULT_255_2_778
10
16.1287883
20
3.5526701
40
0.7669181
50
31.9009105
51
68.6838341
0
ARC
8
DEFAULT_255_2_778
10
16.0146911
20
3.2630093
40
1.0782393
50
68.6309146
51
83.893009
0
ARC
8
DEFAULT_255_2_778
10
15.9528121
20
2.7850803
40
1.5600755
50
83.5006526
51
90.1560646
0
ARC
8
DEFAULT_255_2_778
10
12.6800827
20
2.8840538
40
0.669612
50
343.1720642
51
1.1377785
0
ARC
8
DEFAULT_255_2_778
10
12.9595464
20
2.8050451
40
0.3792793
50
282.2782584
51
342.3745858
0
ARC
8
DEFAULT_255_2_778
10
12.7966593
20
3.3352283
40
0.9331297
50
272.2263162
51
285.1292503
0
ARC
8
DEFAULT_255_2_778
10
12.752783
20
3.9647932
40
1.5640442
50
269.9369817
51
272.9365296
0
ARC
8
DEFAULT_255_2_778
10
12.7388596
20
3.428141
40
1.0274634
50
261.2290038
51
270.6805104
0
ARC
8
DEFAULT_255_2_778
10
12.6318291
20
2.7786017
40
0.369261
50
239.9362035
51
262.2738616
0
ARC
8
DEFAULT_255_2_778
10
12.5663159
20
2.6385611
40
0.2156606
50
173.9342095
51
236.3590302
0
ARC
8
DEFAULT_255_2_778
10
12.6845036
20
2.6829071
40
0.3333387
50
155.3583753
51
183.7079099
0
ARC
8
DEFAULT_255_2_778
10
12.5632741
20
2.7156825
40
0.2105093
50
109.613443
51
149.7001758
0
ARC
8
DEFAULT_255_2_778
10
12.729302
20
2.3164635
40
0.6426861
50
99.0718408
51
111.6097394
0
ARC
8
DEFAULT_255_2_778
10
12.9253625
20
1.1994923
40
1.7766851
50
94.0613712
51
99.6359485
0
ARC
8
DEFAULT_255_2_778
10
13.1186595
20
-1.3202236
40
4.3037877
50
91.4548988
51
94.2524483
0
ARC
8
DEFAULT_255_2_778
10
13.2654468
20
-6.5790551
40
9.56466
50
90.0630031
51
91.5340797
0
ARC
8
DEFAULT_255_2_778
10
13.2938407
20
-11.9151398
40
14.9007897
50
89.9983774
51
90.14962
0
ARC
8
DEFAULT_255_2_778
10
11.5756155
20
3.4175739
40
2.4093255
50
359.5380783
51
6.2178244
0
ARC
8
DEFAULT_255_2_778
10
12.9563332
20
3.5755761
40
1.0196449
50
5.7947484
51
20.4452629
0
ARC
8
DEFAULT_255_2_778
10
13.3976912
20
3.739478
40
0.5488371
50
20.5073492
51
70.2054499
0
ARC
8
DEFAULT_255_2_778
10
13.1878624
20
3.2331364
40
1.096626
50
68.8490412
51
81.1494122
0
ARC
8
DEFAULT_255_2_778
10
13.0212042
20
2.2291697
40
2.1143047
50
80.8728624
51
87.7535722
0
ARC
8
DEFAULT_255_2_778
10
12.9537018
20
0.9204303
40
3.4247222
50
87.4833607
51
90.069248
0
ARC
8
DEFAULT_255_2_778
10
12.952573
20
2.1096843
40
2.2354678
50
90.0771558
51
99.8232882
0
ARC
8
DEFAULT_255_2_778
10
12.9656847
20
2.0191053
40
2.3269572
50
99.7608882
51
106.9717275
0
ARC
8
DEFAULT_255_2_778
10
12.9062223
20
2.2073716
40
2.1295338
50
106.9201266
51
112.7807358
0
ARC
8
DEFAULT_255_2_778
10
12.7967164
20
2.4754967
40
1.8399253
50
112.8696674
51
114.2587595
0
ARC
8
DEFAULT_255_2_778
10
12.6871559
20
2.7147149
40
1.5768171
50
114.2005685
51
117.6358519
0
ARC
8
DEFAULT_255_2_778
10
12.4921574
20
3.0860395
40
1.1574058
50
117.6104712
51
121.2644081
0
ARC
8
DEFAULT_255_2_778
10
12.3154559
20
3.378605
40
0.8156207
50
121.3203863
51
123.9918552
0
ARC
8
DEFAULT_255_2_778
10
12.7340991
20
2.6843985
40
1.0414776
50
118.634925
51
121.6527702
0
ARC
8
DEFAULT_255_2_778
10
12.7954494
20
2.5738375
40
1.1679171
50
117.7139095
51
118.6772554
0
ARC
8
DEFAULT_255_2_778
10
12.8844821
20
2.3961451
40
1.3666354
50
108.7652335
51
117.5538339
0
ARC
8
DEFAULT_255_2_778
10
12.8954503
20
2.3779859
40
1.3873651
50
95.8661769
51
108.9528749
0
ARC
8
DEFAULT_255_2_778
10
12.8785615
20
2.5159405
40
1.2484097
50
90.032073
51
95.7422293
0
ARC
8
DEFAULT_255_2_778
10
12.8897536
20
2.2476191
40
1.5167775
50
83.8131208
51
90.44918
0
ARC
8
DEFAULT_255_2_778
10
12.9966192
20
3.1765339
40
0.5817883
50
70.1164121
51
84.4170725
0
ARC
8
DEFAULT_255_2_778
10
13.1206757
20
3.5111114
40
0.2249818
50
359.2674689
51
70.8467392
0
ARC
8
DEFAULT_255_2_778
10
12.4959709
20
3.4250248
40
0.853733
50
1.0419859
51
5.5932916
0
ARC
8
DEFAULT_255_2_778
10
13.2332529
20
-4.0303164
40
7.4708907
50
89.8542096
51
92.6639686
0
ARC
8
DEFAULT_255_2_778
10
13.064639
20
-0.4990295
40
3.9355855
50
92.6013161
51
97.1556139
0
ARC
8
DEFAULT_255_2_778
10
12.8285426
20
1.3416362
40
2.0798525
50
97.0185418
51
104.6742074
0
ARC
8
DEFAULT_255_2_778
10
12.5641778
20
2.3242871
40
1.062306
50
104.3066862
51
119.0266803
0
ARC
8
DEFAULT_255_2_778
10
12.3439938
20
2.7194181
40
0.6099694
50
118.9512134
51
173.4083457
0
ARC
8
DEFAULT_255_2_778
10
12.8742689
20
2.613682
40
1.1497254
50
171.2068449
51
180.3305023
0
ARC
8
DEFAULT_255_2_778
10
12.6533064
20
2.5791955
40
0.9291613
50
178.2821224
51
200.1295793
0
ARC
8
DEFAULT_255_2_778
10
12.2689447
20
2.4519718
40
0.5246511
50
201.5301375
51
241.2866453
0
ARC
8
DEFAULT_255_2_778
10
12.4134536
20
2.711659
40
0.8218341
50
241.148726
51
257.1371961
0
ARC
8
DEFAULT_255_2_778
10
12.5586973
20
3.3167183
40
1.4440602
50
256.8633313
51
266.5107103
0
ARC
8
DEFAULT_255_2_778
10
12.6174123
20
4.0714529
40
2.2010057
50
266.1808492
51
270.0924233
0
ARC
8
DEFAULT_255_2_778
10
12.6312445
20
4.2561261
40
2.3856983
50
269.7530687
51
276.240278
0
ARC
8
DEFAULT_255_2_778
10
12.7403394
20
3.2961494
40
1.4195571
50
276.0747614
51
285.8950638
0
ARC
8
DEFAULT_255_2_778
10
12.9185197
20
2.6866365
40
0.7845623
50
285.5710836
51
301.8243429
0
ARC
8
DEFAULT_255_2_778
10
13.0801568
20
2.4234726
40
0.4757285
50
301.9968919
51
322.7549891
0
ARC
8
DEFAULT_255_2_778
10
13.8748379
20
2.3255233
40
0.4573021
50
204.5458802
51
227.4186602
0
ARC
8
DEFAULT_255_2_778
10
13.7952324
20
2.2709565
40
0.3639069
50
230.8361841
51
264.8781082
0
ARC
8
DEFAULT_255_2_778
10
13.9011918
20
3.003518
40
1.1037328
50
262.7941015
51
270.6214342
0
ARC
8
DEFAULT_255_2_778
10
13.9257449
20
5.6334468
40
3.733618
50
269.8069147
51
271.9643208
0
ARC
8
DEFAULT_255_2_778
10
14.0281501
20
2.8715328
40
0.9698473
50
271.5109302
51
277.7889465
0
ARC
8
DEFAULT_255_2_778
10
14.1162443
20
2.205971
40
0.2985014
50
278.3491272
51
284.555441
0
ARC
8
DEFAULT_255_2_778
10
14.1759715
20
3.1086524
40
0.6533814
50
261.7844427
51
271.3410253
0
ARC
8
DEFAULT_255_2_778
10
14.0902357
20
2.5646548
40
0.1029615
50
173.5118408
51
265.7496743
0
ARC
8
DEFAULT_255_2_778
10
15.0671917
20
2.6591517
40
1.0824343
50
179.2007856
51
184.3904032
0
ARC
8
DEFAULT_255_2_778
10
10.599596
20
1.6936789
40
2.6514887
50
89.7911127
51
95.5662223
0
ARC
8
DEFAULT_255_2_778
10
10.4979028
20
2.7029922
40
1.6370742
50
95.4502286
51
103.7762365
0
ARC
8
DEFAULT_255_2_778
10
10.3329514
20
3.361903
40
0.957844
50
103.5788736
51
116.2359517
0
ARC
8
DEFAULT_255_2_778
10
10.151796
20
3.7219474
40
0.5548177
50
115.8922142
51
137.5753779
0
ARC
8
DEFAULT_255_2_778
10
10.0733799
20
3.8021139
40
0.4428962
50
138.3871841
51
141.7925123
0
ARC
8
DEFAULT_255_2_778
10
9.3775769
20
3.9297108
40
0.3773196
50
22.8200907
51
60.4806984
0
ARC
8
DEFAULT_255_2_778
10
9.3021153
20
3.764291
40
0.5586721
50
62.1053341
51
77.2908891
0
ARC
8
DEFAULT_255_2_778
10
9.1566846
20
3.1565805
40
1.1835165
50
76.8953419
51
85.1135632
0
ARC
8
DEFAULT_255_2_778
10
9.049922
20
2.0083365
40
2.3366972
50
84.9035271
51
89.6861672
0
ARC
8
DEFAULT_255_2_778
10
9.0309694
20
1.0157447
40
3.3294053
50
89.4535772
51
90.0035566
0
ARC
8
DEFAULT_255_2_778
10
9.0215307
20
1.9725993
40
2.3725686
50
89.7770526
51
96.1874945
0
ARC
8
DEFAULT_255_2_778
10
8.9239113
20
2.8466718
40
1.4930691
50
96.0784683
51
104.9157341
0
ARC
8
DEFAULT_255_2_778
10
8.7627016
20
3.4388849
40
0.8793217
50
104.6978918
51
117.8912403
0
ARC
8
DEFAULT_255_2_778
10
8.5783264
20
3.7799899
40
0.4916023
50
117.4960782
51
139.0268248
0
ARC
8
DEFAULT_255_2_778
10
8.4870001
20
3.8677342
40
0.3651705
50
140.0255938
51
143.5772497
0
ARC
8
DEFAULT_255_2_778
10
9.3835694
20
3.2211798
40
1.0979985
50
168.7848081
51
181.5306671
0
ARC
8
DEFAULT_255_2_778
10
8.6205735
20
3.380949
40
0.3186075
50
107.4669924
51
170.28114
0
ARC
8
DEFAULT_255_2_778
10
8.7402553
20
3.0411043
40
0.6788142
50
93.7234372
51
108.4931458
0
ARC
8
DEFAULT_255_2_778
10
8.7920763
20
2.499914
40
1.2223396
50
89.8600147
51
94.4999917
0
ARC
8
DEFAULT_255_2_778
10
8.805887
20
2.9741566
40
0.7481718
50
78.2199779
51
90.8289679
0
ARC
8
DEFAULT_255_2_778
10
8.9002546
20
3.3985299
40
0.3135233
50
49.9518881
51
79.2694241
0
ARC
8
DEFAULT_255_2_778
10
8.8645245
20
3.4055537
40
0.3326666
50
1.0048395
51
44.4542812
0
ARC
8
DEFAULT_255_2_778
10
7.2982671
20
3.2521475
40
1.9055379
50
359.0859696
51
4.7936275
0
ARC
8
DEFAULT_255_2_778
10
10.9589103
20
3.2210555
40
1.0950372
50
168.7474515
51
181.5283014
0
ARC
8
DEFAULT_255_2_778
10
10.1993084
20
3.3806362
40
0.3190054
50
107.3985757
51
170.2363753
0
ARC
8
DEFAULT_255_2_778
10
10.3188188
20
3.0406894
40
0.6792477
50
93.7224112
51
108.443977
0
ARC
8
DEFAULT_255_2_778
10
10.3702939
20
2.5022801
40
1.2199734
50
89.8605695
51
94.4931964
0
ARC
8
DEFAULT_255_2_778
10
10.3842346
20
2.9770555
40
0.7452753
50
78.1961127
51
90.8435386
0
ARC
8
DEFAULT_255_2_778
10
10.4789942
20
3.4029668
40
0.3090375
50
49.9617006
51
79.2400352
0
ARC
8
DEFAULT_255_2_778
10
10.4456676
20
3.4116525
40
0.3253168
50
1.0169122
51
44.4753793
0
ARC
8
DEFAULT_255_2_778
10
8.8055421
20
3.2559105
40
1.9720165
50
359.0074382
51
4.6980036
0
ARC
8
DEFAULT_255_2_778
10
8.8298785
20
3.378719
40
2.6124245
50
359.4063117
51
6.7889461
0
ARC
8
DEFAULT_255_2_778
10
10.4229933
20
3.5777023
40
1.0070002
50
6.2619471
51
23.9449908
0
ARC
8
DEFAULT_255_2_778
10
10.8370003
20
3.7565424
40
0.5560594
50
24.4169407
51
69.1621115
0
ARC
8
DEFAULT_255_2_778
10
10.6996719
20
3.4155011
40
0.9236713
50
68.7260975
51
83.4073849
0
ARC
8
DEFAULT_255_2_778
10
10.6161605
20
2.7902614
40
1.5544049
50
82.995434
51
90.2616292
0
LINE
8
DEFAULT_255_2_778
10
29.1883627
20
3.72675
11
29.1883627
21
4.29115
0
LINE
8
DEFAULT_255_2_778
10
29.1883627
20
4.29115
11
28.6239627
21
4.29115
0
LINE
8
DEFAULT_255_2_778
10
28.6239627
20
4.29115
11
28.6239627
21
4.97695
0
LINE
8
DEFAULT_255_2_778
10
28.6239627
20
4.97695
11
28.1106627
21
4.87195
0
LINE
8
DEFAULT_255_2_778
10
28.1106627
20
4.87195
11
27.9966627
21
4.29115
0
LINE
8
DEFAULT_255_2_778
10
27.9966627
20
4.29115
11
27.5759627
21
4.29115
0
LINE
8
DEFAULT_255_2_778
10
27.5759627
20
4.29115
11
27.5759627
21
3.72675
0
LINE
8
DEFAULT_255_2_778
10
27.5759627
20
3.72675
11
27.9675627
21
3.72675
0
LINE
8
DEFAULT_255_2_778
10
27.9675627
20
3.72675
11
27.9675627
21
2.64915
0
LINE
8
DEFAULT_255_2_778
10
28.7967627
20
1.89985
11
29.1880627
21
1.90855
0
LINE
8
DEFAULT_255_2_778
10
29.1880627
20
1.90855
11
29.1880627
21
2.45995
0
LINE
8
DEFAULT_255_2_778
10
29.1880627
20
2.45995
11
28.9314627
21
2.45995
0
LINE
8
DEFAULT_255_2_778
10
28.6237627
20
2.74625
11
28.6237627
21
3.72655
0
LINE
8
DEFAULT_255_2_778
10
28.6237627
20
3.72655
11
29.1883627
21
3.72675
0
LINE
8
DEFAULT_255_2_778
10
27.0444627
20
3.61305
11
27.3600627
21
4.12635
0
LINE
8
DEFAULT_255_2_778
10
25.5037627
20
2.65335
11
25.1671627
21
2.16895
0
LINE
8
DEFAULT_255_2_778
10
26.3623627
20
3.38975
11
26.3623627
21
3.39025
0
LINE
8
DEFAULT_255_2_778
10
24.3689627
20
3.32275
11
23.3127627
21
3.32275
0
LINE
8
DEFAULT_255_2_778
10
23.8889627
20
3.79375
11
23.8889627
21
3.79405
0
LINE
8
DEFAULT_255_2_778
10
23.3127627
20
2.85155
11
24.9706627
21
2.85155
0
LINE
8
DEFAULT_255_2_778
10
24.9962627
20
2.18635
11
24.6636627
21
2.61605
0
LINE
8
DEFAULT_255_2_778
10
23.9146627
20
2.39725
11
23.9143627
21
2.39695
0
LINE
8
DEFAULT_255_2_778
10
20.7542627
20
3.00735
11
20.7542627
21
4.29115
0
LINE
8
DEFAULT_255_2_778
10
20.7542627
20
4.29115
11
20.0932627
21
4.29115
0
LINE
8
DEFAULT_255_2_778
10
20.0932627
20
4.29115
11
20.0932627
21
3.01935
0
LINE
8
DEFAULT_255_2_778
10
22.3575627
20
3.02375
11
22.3575627
21
4.29085
0
LINE
8
DEFAULT_255_2_778
10
22.3575627
20
4.29085
11
21.7096627
21
4.29085
0
LINE
8
DEFAULT_255_2_778
10
21.7096627
20
4.29085
11
21.7093627
21
3.01165
0
LINE
8
DEFAULT_255_2_778
10
18.4020627
20
2.43065
11
18.4020627
21
2.43065
0
LINE
8
DEFAULT_255_2_778
10
19.0082627
20
2.07685
11
19.0082627
21
1.21405
0
LINE
8
DEFAULT_255_2_778
10
19.0082627
20
1.21405
11
19.6691627
21
1.21405
0
LINE
8
DEFAULT_255_2_778
10
19.6691627
20
1.21405
11
19.6691627
21
4.26525
0
LINE
8
DEFAULT_255_2_778
10
19.6691627
20
4.26525
11
19.2272627
21
4.30305
0
LINE
8
DEFAULT_255_2_778
10
19.2272627
20
4.30305
11
19.0968627
21
4.10145
0
LINE
8
DEFAULT_255_2_778
10
15.7803627
20
2.43065
11
15.7803627
21
2.43065
0
LINE
8
DEFAULT_255_2_778
10
15.0781627
20
4.08055
11
15.0230627
21
4.29085
0
LINE
8
DEFAULT_255_2_778
10
15.0230627
20
4.29085
11
14.5092627
21
4.25275
0
LINE
8
DEFAULT_255_2_778
10
14.5092627
20
4.25275
11
14.5092627
21
1.21405
0
LINE
8
DEFAULT_255_2_778
10
14.5092627
20
1.21405
11
15.1699627
21
1.21405
0
LINE
8
DEFAULT_255_2_778
10
15.1699627
20
1.21405
11
15.1699627
21
2.09355
0
LINE
8
DEFAULT_255_2_778
10
15.9485627
20
4.34515
11
15.9488627
21
4.34515
0
LINE
8
DEFAULT_255_2_778
10
13.2942627
20
2.98565
11
13.3495627
21
2.98565
0
LINE
8
DEFAULT_255_2_778
10
13.3495627
20
2.98565
11
13.3495627
21
2.89735
0
LINE
8
DEFAULT_255_2_778
10
13.9848627
20
2.67425
11
13.9848627
21
3.39815
0
LINE
8
DEFAULT_255_2_778
10
11.8594627
20
4.05485
11
12.1875627
21
3.57095
0
LINE
8
DEFAULT_255_2_778
10
13.3495627
20
3.44055
11
13.2522627
21
3.44055
0
LINE
8
DEFAULT_255_2_778
10
14.1912627
20
1.91705
11
14.1912627
21
2.45545
0
LINE
8
DEFAULT_255_2_778
10
13.9848627
20
2.67425
11
13.9848627
21
2.67425
0
LINE
8
DEFAULT_255_2_778
10
8.1931627
20
4.08455
11
8.1383627
21
4.29085
0
LINE
8
DEFAULT_255_2_778
10
8.1383627
20
4.29085
11
7.6250627
21
4.25275
0
LINE
8
DEFAULT_255_2_778
10
7.6250627
20
4.25275
11
7.6250627
21
1.90835
0
LINE
8
DEFAULT_255_2_778
10
7.6250627
20
1.90835
11
8.2859627
21
1.90835
0
LINE
8
DEFAULT_255_2_778
10
8.2859627
20
1.90835
11
8.2859627
21
3.19185
0
LINE
8
DEFAULT_255_2_778
10
9.2035627
20
3.22175
11
9.2035627
21
1.90835
0
LINE
8
DEFAULT_255_2_778
10
9.2035627
20
1.90835
11
9.8642627
21
1.90835
0
LINE
8
DEFAULT_255_2_778
10
9.8642627
20
1.90835
11
9.8642627
21
3.19185
0
LINE
8
DEFAULT_255_2_778
10
10.7772627
20
3.22175
11
10.7772627
21
1.90805
0
LINE
8
DEFAULT_255_2_778
10
10.7772627
20
1.90805
11
11.4421627
21
1.90805
0
LINE
8
DEFAULT_255_2_778
10
11.4421627
20
1.90805
11
11.4421627
21
3.35165
0
LINE
8
DEFAULT_255_2_778
10
10.6090627
20
4.34465
11
10.6092627
21
4.34515
0
ARC
8
DEFAULT_255_2_778
10
4.4484758
20
2.0887256
40
0.0277795
50
249.2727392
51
358.3879729
0
ARC
8
DEFAULT_255_2_778
10
4.4510249
20
2.0861077
40
0.0252859
50
4.164824
51
104.1723852
0
ARC
8
DEFAULT_255_2_778
10
4.442685
20
1.9952237
40
0.1154203
50
88.9332107
51
90.0203235
0
ARC
8
DEFAULT_255_2_778
10
4.457275
20
2.0882077
40
0.0438007
50
357.8232564
51
104.8570482
0
ARC
8
DEFAULT_255_2_778
10
4.4608107
20
2.0840545
40
0.0403104
50
270.0475394
51
3.5408739
0
ARC
8
DEFAULT_255_2_778
10
4.4402409
20
2.0482555
40
0.107417
50
269.4149464
51
269.9997936
0
ARC
8
DEFAULT_255_2_778
10
4.4402126
20
2.0491024
40
0.1082638
50
270.0147967
51
315.8881461
0
ARC
8
DEFAULT_255_2_778
10
4.4396378
20
2.0493966
40
0.1088815
50
315.9875025
51
0.0445023
0
ARC
8
DEFAULT_255_2_778
10
4.4385108
20
2.0494773
40
0.1100085
50
0.0020308
51
2.1186153
0
ARC
8
DEFAULT_255_2_778
10
4.4393943
20
2.0565532
40
0.1090913
50
358.4194005
51
90.1314243
0
ARC
8
DEFAULT_255_2_778
10
4.4388444
20
2.0559185
40
0.109726
50
89.8435094
51
181.2399445
0
ARC
8
DEFAULT_255_2_778
10
4.4376622
20
2.049168
40
0.1086063
50
177.6907518
51
180.0001801
0
ARC
8
DEFAULT_255_2_778
10
4.4376436
20
2.0491971
40
0.1085876
50
180.0155488
51
224.2364413
0
ARC
8
DEFAULT_255_2_778
10
4.4373896
20
2.0493221
40
0.1084932
50
224.3772809
51
269.9655369
0
ARC
8
DEFAULT_255_2_778
10
4.4373235
20
2.0498592
40
0.1090304
50
270.0004443
51
270.9567694
0
ARC
8
DEFAULT_255_2_778
10
4.4366522
20
2.0531143
40
0.1348087
50
134.3923851
51
179.8173177
0
ARC
8
DEFAULT_255_2_778
10
4.4368407
20
2.0527911
40
0.1351717
50
89.9812793
51
134.3536798
0
ARC
8
DEFAULT_255_2_778
10
4.436896
20
2.0521052
40
0.1358577
50
89.0518639
51
90.0047029
0
ARC
8
DEFAULT_255_2_778
10
4.4408815
20
2.0536926
40
0.1342627
50
359.9366167
51
90.7414319
0
ARC
8
DEFAULT_255_2_778
10
4.4384687
20
2.0535193
40
0.1366754
50
270.0316059
51
0.0103736
0
ARC
8
DEFAULT_255_2_778
10
4.4385409
20
2.0535408
40
0.1366967
50
179.9986005
51
270.001349
0
LINE
8
DEFAULT_255_2_778
10
4.4426441
20
2.1106441
11
4.4103441
21
2.1106441
0
LINE
8
DEFAULT_255_2_778
10
4.4103441
20
2.1106441
11
4.4103441
21
2.0627441
0
LINE
8
DEFAULT_255_2_778
10
4.4103441
20
2.0627441
11
4.4386441
21
2.0627441
0
LINE
8
DEFAULT_255_2_778
10
4.4103441
20
1.9749441
11
4.3867441
21
1.9749441
0
LINE
8
DEFAULT_255_2_778
10
4.3867441
20
1.9749441
11
4.3867441
21
2.1305441
0
LINE
8
DEFAULT_255_2_778
10
4.3867441
20
2.1305441
11
4.4460441
21
2.1305441
0
LINE
8
DEFAULT_255_2_778
10
4.4608441
20
2.0437441
11
4.5053441
21
1.9749441
0
LINE
8
DEFAULT_255_2_778
10
4.5053441
20
1.9749441
11
4.4785441
21
1.9749441
0
LINE
8
DEFAULT_255_2_778
10
4.4785441
20
1.9749441
11
4.4378441
21
2.0426441
0
LINE
8
DEFAULT_255_2_778
10
4.4378441
20
2.0426441
11
4.4105441
21
2.0426441
0
LINE
8
DEFAULT_255_2_778
10
4.4105441
20
2.0426441
11
4.4103441
21
1.9749441
0
LINE
8
DEFAULT_255_2_778
10
4.4391441
20
1.9408441
11
4.4391441
21
1.9408441
0
LINE
8
DEFAULT_255_2_778
10
4.3018441
20
2.0535441
11
4.3018441
21
2.0535441
0
ARC
8
DEFAULT_255_2_778
10
5.9399809
20
5.5214655
40
0.9074528
50
43.5551261
51
90.0228133
0
ARC
8
DEFAULT_255_2_778
10
5.9416942
20
5.5198529
40
0.9073255
50
359.9788732
51
43.7034777
0
ARC
8
DEFAULT_255_2_778
10
5.9423455
20
0.6699717
40
0.9066748
50
313.5500101
51
0.0661347
0
ARC
8
DEFAULT_255_2_778
10
5.9408184
20
0.6680667
40
0.9063493
50
269.9242149
51
313.7029502
0
ARC
8
DEFAULT_255_2_778
10
1.0888867
20
0.6689435
40
0.9072257
50
224.2478657
51
270.0589183
0
ARC
8
DEFAULT_255_2_778
10
1.0865528
20
0.6697711
40
0.906134
50
179.9211389
51
224.3883227
0
ARC
8
DEFAULT_255_2_778
10
1.0869371
20
5.5206314
40
0.9065184
50
134.244392
51
180.0829915
0
ARC
8
DEFAULT_255_2_778
10
1.0884291
20
5.5221337
40
0.9064858
50
89.9121134
51
134.3782054
0
LINE
8
DEFAULT_255_2_778
10
1.0898196
20
6.4289183
11
5.9396196
21
6.4289183
0
LINE
8
DEFAULT_255_2_778
10
6.8490196
20
5.5195183
11
6.8490196
21
0.6710183
0
LINE
8
DEFAULT_255_2_778
10
5.9396196
20
-0.2382817
11
1.0898196
21
-0.2382817
0
LINE
8
DEFAULT_255_2_778
10
0.1804196
20
0.6710183
11
0.1804196
21
5.5193183
0
ARC
8
DEFAULT_255_2_778
10
5.1067767
20
3.8023
40
0.2093612
50
278.3847877
51
355.3739076
0
ARC
8
DEFAULT_255_2_778
10
5.0714318
20
3.8861895
40
0.2983753
50
270.0814259
51
282.7545877
0
ARC
8
DEFAULT_255_2_778
10
5.0713373
20
3.7869581
40
0.1991444
50
269.9503138
51
270.1491997
0
ARC
8
DEFAULT_255_2_778
10
5.0625085
20
3.8422263
40
0.2545599
50
215.1753843
51
271.9486688
0
ARC
8
DEFAULT_255_2_778
10
4.9978629
20
3.7868609
40
0.1700131
50
180.4874952
51
212.4735562
0
ARC
8
DEFAULT_255_2_778
10
5.0369043
20
3.91162
40
0.2096981
50
97.2417831
51
175.4885691
0
ARC
8
DEFAULT_255_2_778
10
5.0722732
20
3.8229852
40
0.3030294
50
90.0789096
51
101.7680326
0
LINE
8
DEFAULT_255_2_778
10
5.0718559
20
4.1260144
11
5.0723219
21
4.1260147
0
ARC
8
DEFAULT_255_2_778
10
5.0813159
20
3.8717759
40
0.2543979
50
35.9335949
51
92.0260659
0
ARC
8
DEFAULT_255_2_778
10
5.1436413
20
3.926815
40
0.1718196
50
0.4333205
51
33.2684098
0
ARC
8
DEFAULT_255_2_778
10
5.0924576
20
3.7483703
40
0.9952507
50
332.6750817
51
352.5484594
0
ARC
8
DEFAULT_255_2_778
10
4.4565514
20
3.8489666
40
1.6389238
50
351.9444321
51
0.2778508
0
ARC
8
DEFAULT_255_2_778
10
4.4980411
20
3.8646686
40
1.5974336
50
359.7218746
51
11.2156404
0
ARC
8
DEFAULT_255_2_778
10
5.2232873
20
4.0168555
40
0.8564769
50
10.6658419
51
34.6046968
0
ARC
8
DEFAULT_255_2_778
10
5.3563326
20
4.0875599
40
0.707028
50
36.0117889
51
68.5127952
0
ARC
8
DEFAULT_255_2_778
10
5.1861778
20
3.6796929
40
1.1489093
50
68.0674574
51
82.1781197
0
ARC
8
DEFAULT_255_2_778
10
5.0739801
20
2.9297398
40
1.9071759
50
81.9050446
51
90.063817
0
ARC
8
DEFAULT_255_2_778
10
5.0682899
20
2.957704
40
1.8792138
50
89.891276
51
98.6760068
0
ARC
8
DEFAULT_255_2_778
10
4.9484089
20
3.7121682
40
1.115309
50
98.4345246
51
112.9827421
0
ARC
8
DEFAULT_255_2_778
10
4.7900618
20
4.0813064
40
0.7136467
50
112.8505506
51
166.2653761
0
ARC
8
DEFAULT_255_2_778
10
5.4211278
20
3.8911835
40
1.3722507
50
164.8098959
51
178.0461354
0
ARC
8
DEFAULT_255_2_778
10
6.0731892
20
3.8470087
40
2.0255576
50
177.4261633
51
179.7198037
0
ARC
8
DEFAULT_255_2_778
10
5.6423458
20
3.8490357
40
1.5947094
50
179.7169267
51
191.349451
0
ARC
8
DEFAULT_255_2_778
10
4.9205591
20
3.6957279
40
0.8569071
50
190.7966338
51
215.0509135
0
ARC
8
DEFAULT_255_2_778
10
4.7921807
20
3.6271924
40
0.7126689
50
216.4678142
51
248.575485
0
ARC
8
DEFAULT_255_2_778
10
4.9606834
20
4.0328361
40
1.1518649
50
248.1433473
51
262.2495827
0
ARC
8
DEFAULT_255_2_778
10
5.0700824
20
4.7682782
40
1.8953646
50
261.970886
51
270.0536095
0
ARC
8
DEFAULT_255_2_778
10
5.079567
20
5.0272318
40
2.1543312
50
269.794918
51
270.0012562
0
ARC
8
DEFAULT_255_2_778
10
5.0904388
20
4.5783333
40
1.7054672
50
269.6363401
51
279.4405185
0
ARC
8
DEFAULT_255_2_778
10
5.1927317
20
3.9738976
40
1.0924407
50
279.3479088
51
293.0554807
0
ARC
8
DEFAULT_255_2_778
10
5.9159497
20
2.9078256
40
0.1700234
50
226.1003308
51
271.4650431
0
ARC
8
DEFAULT_255_2_778
10
5.9194726
20
2.9677543
40
0.229898
50
270.2053853
51
284.280258
0
ARC
8
DEFAULT_255_2_778
10
5.9038609
20
3.0202258
40
0.2846073
50
284.7204278
51
315.0636002
0
ARC
8
DEFAULT_255_2_778
10
5.8895488
20
3.0381418
40
0.3074039
50
314.5838987
51
315.063217
0
ARC
8
DEFAULT_255_2_778
10
5.9051401
20
3.025733
40
0.287611
50
314.6192697
51
344.4909648
0
ARC
8
DEFAULT_255_2_778
10
5.9377133
20
3.0138204
40
0.2530537
50
345.1179391
51
345.6189647
0
ARC
8
DEFAULT_255_2_778
10
5.9601556
20
3.0089079
40
0.2300961
50
345.4159182
51
359.7809035
0
ARC
8
DEFAULT_255_2_778
10
6.0213357
20
3.0124085
40
0.1689712
50
358.5144963
51
44.0134912
0
ARC
8
DEFAULT_255_2_778
10
4.4281002
20
1.6217215
40
0.2034508
50
180.0092742
51
231.5384012
0
ARC
8
DEFAULT_255_2_778
10
4.4312918
20
1.6216881
40
0.2066425
50
179.5490811
51
179.9998886
0
ARC
8
DEFAULT_255_2_778
10
2.7610604
20
2.6025272
40
1.4630735
50
359.4081516
51
12.2588005
0
ARC
8
DEFAULT_255_2_778
10
3.4053984
20
2.7516644
40
0.8018111
50
11.6209726
51
38.9631525
0
ARC
8
DEFAULT_255_2_778
10
3.4986477
20
2.802905
40
0.6973372
50
40.5075982
51
71.2617122
0
ARC
8
DEFAULT_255_2_778
10
3.3611571
20
2.4212954
40
1.1029146
50
70.8662411
51
85.2511713
0
ARC
8
DEFAULT_255_2_778
10
3.3054333
20
1.9089962
40
1.6181216
50
84.7865892
51
90.1124885
0
ARC
8
DEFAULT_255_2_778
10
3.3025207
20
1.6190866
40
1.9080283
50
90.0079372
51
91.3198455
0
ARC
8
DEFAULT_255_2_778
10
3.3042306
20
1.5329132
40
1.9942184
50
91.3119295
51
91.7377615
0
ARC
8
DEFAULT_255_2_778
10
3.2879127
20
2.5569235
40
0.9702962
50
92.608352
51
110.2542925
0
ARC
8
DEFAULT_255_2_778
10
3.412062
20
2.1790141
40
1.367892
50
109.6530099
51
115.5016346
0
ARC
8
DEFAULT_255_2_778
10
3.4709458
20
2.052162
40
1.5077377
50
115.4458667
51
119.6541909
0
ARC
8
DEFAULT_255_2_778
10
3.4213263
20
2.1377579
40
1.4088028
50
119.6228374
51
122.3803327
0
ARC
8
DEFAULT_255_2_778
10
3.2352626
20
2.4305346
40
1.0619056
50
122.3619751
51
124.2808599
0
ARC
8
DEFAULT_255_2_778
10
2.910671
20
2.9054314
40
0.486679
50
124.1960879
51
125.6880949
0
ARC
8
DEFAULT_255_2_778
10
2.5930466
20
3.3542005
40
0.0632224
50
270.5554928
51
302.2208872
0
ARC
8
DEFAULT_255_2_778
10
2.5938232
20
3.3511418
40
0.060161
50
246.795326
51
269.8441201
0
ARC
8
DEFAULT_255_2_778
10
2.5884184
20
3.3402409
40
0.048017
50
235.4190371
51
247.5977414
0
ARC
8
DEFAULT_255_2_778
10
2.2726063
20
2.8987332
40
0.494823
50
54.3285119
51
55.8490179
0
ARC
8
DEFAULT_255_2_778
10
1.931332
20
2.3980287
40
1.1007703
50
55.7791628
51
57.9878068
0
ARC
8
DEFAULT_255_2_778
10
1.7508889
20
2.111012
40
1.4397952
50
57.9537179
51
60.9149979
0
ARC
8
DEFAULT_255_2_778
10
1.7174519
20
2.0526201
40
1.5070779
50
60.8832213
51
64.5673011
0
ARC
8
DEFAULT_255_2_778
10
1.7846997
20
2.1990775
40
1.3459359
50
64.4751223
51
71.5673778
0
ARC
8
DEFAULT_255_2_778
10
1.9026543
20
2.5769595
40
0.9501749
50
71.110349
51
87.4785435
0
ARC
8
DEFAULT_255_2_778
10
1.8845204
20
1.5768963
40
1.9502393
50
88.2388891
51
89.5438882
0
ARC
8
DEFAULT_255_2_778
10
1.8854936
20
1.6696049
40
1.8575258
50
89.5511404
51
89.9997922
0
ARC
8
DEFAULT_255_2_778
10
1.8743741
20
2.0945453
40
1.4326288
50
89.5550184
51
100.7435987
0
ARC
8
DEFAULT_255_2_778
10
1.7663638
20
2.641474
40
0.8751623
50
100.4711361
51
119.3618146
0
ARC
8
DEFAULT_255_2_778
10
1.7023836
20
2.7905564
40
0.7140705
50
120.75306
51
168.4571905
0
ARC
8
DEFAULT_255_2_778
10
2.372785
20
2.6087159
40
1.4079877
50
166.6657595
51
179.9077321
0
ARC
8
DEFAULT_255_2_778
10
2.888805
20
2.5874922
40
1.9241491
50
179.3004842
51
180.0023184
0
ARC
8
DEFAULT_255_2_778
10
1.1582758
20
1.5254122
40
0.1954198
50
173.3878415
51
224.4594764
0
ARC
8
DEFAULT_255_2_778
10
1.106403
20
1.5092396
40
0.1491428
50
234.026921
51
273.0951378
0
ARC
8
DEFAULT_255_2_778
10
1.8299555
20
1.4097153
40
0.0494013
50
270.2323519
51
0.3469154
0
ARC
8
DEFAULT_255_2_778
10
1.8289501
20
1.409103
40
0.050414
50
1.0358312
51
55.9230573
0
ARC
8
DEFAULT_255_2_778
10
1.2140887
20
0.5803185
40
1.0823272
50
53.5450366
51
54.5873016
0
ARC
8
DEFAULT_255_2_778
10
1.970633
20
1.6232088
40
0.2063814
50
179.9756425
51
231.1794248
0
ARC
8
DEFAULT_255_2_778
10
1.9616596
20
1.6233263
40
0.1974079
50
179.6261411
51
180.0086355
0
ARC
8
DEFAULT_255_2_778
10
1.9569665
20
2.5499644
40
0.1943004
50
97.7916116
51
173.3947683
0
ARC
8
DEFAULT_255_2_778
10
1.9904121
20
2.4769508
40
0.2721679
50
90.3276068
51
102.6896088
0
ARC
8
DEFAULT_255_2_778
10
1.9899824
20
2.4847688
40
0.264348
50
90.000007
51
90.2441639
0
ARC
8
DEFAULT_255_2_778
10
1.9988076
20
2.5203396
40
0.2289474
50
27.0535728
51
92.2091325
0
ARC
8
DEFAULT_255_2_778
10
2.0693218
20
2.5695108
40
0.1442614
50
1.1135636
51
22.3938717
0
ARC
8
DEFAULT_255_2_778
10
2.4055573
20
1.5254842
40
0.1948964
50
173.3913218
51
224.580792
0
ARC
8
DEFAULT_255_2_778
10
2.3544042
20
1.5098559
40
0.1495584
50
234.1155029
51
273.0860693
0
ARC
8
DEFAULT_255_2_778
10
3.0414341
20
1.4099372
40
0.0494233
50
270.2570772
51
0.4373274
0
ARC
8
DEFAULT_255_2_778
10
3.0405361
20
1.4093854
40
0.0503284
50
1.0577136
51
56.2844477
0
ARC
8
DEFAULT_255_2_778
10
2.337064
20
0.4527228
40
1.2377446
50
53.7776831
51
54.6857193
0
ARC
8
DEFAULT_255_2_778
10
3.1819477
20
1.623262
40
0.2061983
50
179.9970668
51
231.1332513
0
ARC
8
DEFAULT_255_2_778
10
3.1864799
20
1.6232721
40
0.2107305
50
179.5534728
51
179.9998898
0
ARC
8
DEFAULT_255_2_778
10
3.1665372
20
2.5518337
40
0.1928842
50
97.601918
51
173.3368471
0
ARC
8
DEFAULT_255_2_778
10
3.2006839
20
2.4764418
40
0.2731758
50
90.2785457
51
102.615439
0
ARC
8
DEFAULT_255_2_778
10
3.2004983
20
2.4777168
40
0.2719
50
90.0000064
51
90.2407438
0
ARC
8
DEFAULT_255_2_778
10
3.2097539
20
2.5207683
40
0.2290357
50
27.5694229
51
92.3160166
0
ARC
8
DEFAULT_255_2_778
10
3.2804751
20
2.5711775
40
0.143513
50
1.2125233
51
22.7914369
0
ARC
8
DEFAULT_255_2_778
10
3.6179895
20
1.5259944
40
0.1953246
50
173.4088811
51
224.3083954
0
ARC
8
DEFAULT_255_2_778
10
3.5661156
20
1.5099946
40
0.1491026
50
233.8772144
51
273.1296066
0
ARC
8
DEFAULT_255_2_778
10
4.2897557
20
1.4105153
40
0.049401
50
269.8842008
51
0.3468881
0
ARC
8
DEFAULT_255_2_778
10
4.2887501
20
1.409903
40
0.050414
50
1.0358312
51
55.9230573
0
ARC
8
DEFAULT_255_2_778
10
3.6738887
20
0.5811185
40
1.0823272
50
53.5450366
51
54.5873016
0
ARC
8
DEFAULT_255_2_778
10
4.7954455
20
1.5551942
40
0.0316255
50
249.2789745
51
358.2246428
0
ARC
8
DEFAULT_255_2_778
10
4.7981095
20
1.5519811
40
0.0290324
50
4.4117616
51
104.4394202
0
ARC
8
DEFAULT_255_2_778
10
4.7886789
20
1.4467545
40
0.1333599
50
89.0585682
51
90.0099144
0
ARC
8
DEFAULT_255_2_778
10
4.8055226
20
1.5547247
40
0.0498778
50
357.5750999
51
104.9493561
0
ARC
8
DEFAULT_255_2_778
10
4.8096691
20
1.5496944
40
0.04578
50
269.9834823
51
3.6569491
0
ARC
8
DEFAULT_255_2_778
10
4.7852934
20
1.5105595
40
0.1238463
50
269.7513096
51
2.1077262
0
ARC
8
DEFAULT_255_2_778
10
4.785501
20
1.5188014
40
0.1236099
50
358.2907306
51
359.9957073
0
ARC
8
DEFAULT_255_2_778
10
4.7852983
20
1.5186866
40
0.1238125
50
0.048861
51
44.3357887
0
ARC
8
DEFAULT_255_2_778
10
4.7847597
20
1.5187846
40
0.1241299
50
44.1297117
51
90.0017824
0
ARC
8
DEFAULT_255_2_778
10
4.7836526
20
1.5161321
40
0.1267871
50
89.5014148
51
89.9998997
0
ARC
8
DEFAULT_255_2_778
10
4.783738
20
1.5183827
40
0.1245367
50
90.0391775
51
135.5369029
0
ARC
8
DEFAULT_255_2_778
10
4.7835958
20
1.518584
40
0.1242942
50
135.5572601
51
179.9179728
0
ARC
8
DEFAULT_255_2_778
10
4.7827064
20
1.5187714
40
0.1234047
50
180.0043807
51
181.6981792
0
ARC
8
DEFAULT_255_2_778
10
4.7833587
20
1.5107849
40
0.1240783
50
178.0003474
51
270.6452055
0
ARC
8
DEFAULT_255_2_778
10
4.7822002
20
1.5143994
40
0.153846
50
134.4020325
51
179.733735
0
ARC
8
DEFAULT_255_2_778
10
4.7818863
20
1.5144604
40
0.153583
50
90.0399155
51
134.3342874
0
ARC
8
DEFAULT_255_2_778
10
4.7817881
20
1.5161653
40
0.151878
50
88.8803319
51
90.0032923
0
ARC
8
DEFAULT_255_2_778
10
4.7847734
20
1.514332
40
0.1536824
50
359.9934239
51
90.0065388
0
ARC
8
DEFAULT_255_2_778
10
4.7846884
20
1.5142818
40
0.1537674
50
270.0251292
51
0.0121254
0
ARC
8
DEFAULT_255_2_778
10
4.7821206
20
1.5169072
40
0.156415
50
270.0047717
51
270.9653695
0
ARC
8
DEFAULT_255_2_778
10
4.7820273
20
1.5144092
40
0.153917
50
225.4009906
51
270.0395836
0
ARC
8
DEFAULT_255_2_778
10
4.7821008
20
1.5141003
40
0.153749
50
180.0356304
51
225.300663
0
ARC
8
DEFAULT_255_2_778
10
4.7823519
20
1.5140045
40
0.154
50
179.5870615
51
179.9999239
0
LINE
8
DEFAULT_255_2_778
10
4.8278559
20
3.7854144
11
4.8278559
21
3.9281144
0
LINE
8
DEFAULT_255_2_778
10
5.3154559
20
3.9281144
11
5.3154559
21
3.7854144
0
LINE
8
DEFAULT_255_2_778
10
6.1425559
20
3.1301144
11
5.9766559
21
3.2915144
0
LINE
8
DEFAULT_255_2_778
10
5.6205559
20
2.9687144
11
5.7980559
21
2.7853144
0
LINE
8
DEFAULT_255_2_778
10
6.1428559
20
3.1298144
11
6.1425559
21
3.1301144
0
LINE
8
DEFAULT_255_2_778
10
4.2246559
20
1.6233144
11
4.2240559
21
2.5874144
0
LINE
8
DEFAULT_255_2_778
10
0.9646559
20
2.5874144
11
0.9641559
21
1.5479144
0
LINE
8
DEFAULT_255_2_778
10
1.1144559
20
1.3603144
11
1.8301559
21
1.3603144
0
LINE
8
DEFAULT_255_2_778
10
1.7642559
20
1.6246144
11
1.7639559
21
2.5723144
0
LINE
8
DEFAULT_255_2_778
10
2.2135559
20
2.5723144
11
2.2119559
21
1.5479144
0
LINE
8
DEFAULT_255_2_778
10
2.3624559
20
1.3605144
11
3.0416559
21
1.3605144
0
LINE
8
DEFAULT_255_2_778
10
2.9757559
20
1.6249144
11
2.9749559
21
2.5742144
0
LINE
8
DEFAULT_255_2_778
10
3.4239559
20
2.5742144
11
3.4239559
21
1.5484144
0
LINE
8
DEFAULT_255_2_778
10
3.5742559
20
1.3611144
11
4.2896559
21
1.3611144
0
LINE
8
DEFAULT_255_2_778
10
4.3010559
20
1.4632144
11
4.3015559
21
1.4624144
0
LINE
8
DEFAULT_255_2_778
10
4.7886559
20
1.5801144
11
4.7519559
21
1.5801144
0
LINE
8
DEFAULT_255_2_778
10
4.7519559
20
1.5801144
11
4.7519559
21
1.5256144
0
LINE
8
DEFAULT_255_2_778
10
4.7519559
20
1.5256144
11
4.7842559
21
1.5256144
0
LINE
8
DEFAULT_255_2_778
10
4.7519559
20
1.4256144
11
4.7252559
21
1.4256144
0
LINE
8
DEFAULT_255_2_778
10
4.7252559
20
1.4256144
11
4.7252559
21
1.6029144
0
LINE
8
DEFAULT_255_2_778
10
4.7252559
20
1.6029144
11
4.7926559
21
1.6029144
0
LINE
8
DEFAULT_255_2_778
10
4.8096559
20
1.5039144
11
4.8601559
21
1.4256144
0
LINE
8
DEFAULT_255_2_778
10
4.8601559
20
1.4256144
11
4.8297559
21
1.4256144
0
LINE
8
DEFAULT_255_2_778
10
4.8297559
20
1.4256144
11
4.7834559
21
1.5026144
0
LINE
8
DEFAULT_255_2_778
10
4.7834559
20
1.5026144
11
4.7521559
21
1.5026144
0
LINE
8
DEFAULT_255_2_778
10
4.7521559
20
1.5026144
11
4.7519559
21
1.4256144
0
LINE
8
DEFAULT_255_2_778
10
4.7847559
20
1.3867144
11
4.7847559
21
1.3867144
0
LINE
8
DEFAULT_255_2_778
10
4.6283559
20
1.5151144
11
4.6283559
21
1.5151144
0
ENDSEC
0
EOF