0
SECTION
2
HEADER
9
$MEASUREMENT
70
1
0
ENDSEC
0
SECTION
2
TABLES
0
TABLE
2
LTYPE
0
LTYPE
72
65
70
64
2
CONTINUOUS
3
______
73
0
40
0
0
ENDTAB
0
TABLE
2
LAYER
0
LAYER
2
DEFAULT_255_2_778
70
0
62
255
6
CONTINUOUS
0
ENDTAB
0
ENDSEC
0
SECTION
2
ENTITIES
0
ARC
8
DEFAULT_255_2_778
10
16.8317482
20
4.9246406
40
16.5896676
50
178.7469296
51
180.0613514
0
ARC
8
DEFAULT_255_2_778
10
9.3934876
20
5.095709
40
9.1494485
50
176.3354732
51
178.7993079
0
ARC
8
DEFAULT_255_2_778
10
5.3307658
20
5.3601979
40
5.0781307
50
172.4550552
51
176.38378
0
ARC
8
DEFAULT_255_2_778
10
3.1369909
20
5.6557794
40
2.8645424
50
166.0777885
51
172.554489
0
ARC
8
DEFAULT_255_2_778
10
1.9299919
20
5.9608323
40
1.6196141
50
154.8072097
51
166.2788075
0
ARC
8
DEFAULT_255_2_778
10
1.3696798
20
6.2302819
40
0.9979172
50
111.629946
51
155.1123266
0
ARC
8
DEFAULT_255_2_778
10
1.691429
20
5.5030239
40
1.7928331
50
102.2820138
51
112.621277
0
ARC
8
DEFAULT_255_2_778
10
1.9939305
20
4.164489
40
3.1651
50
96.6940121
51
102.4782425
0
ARC
8
DEFAULT_255_2_778
10
2.2828293
20
1.765737
40
5.5811802
50
93.1302735
51
96.7690982
0
ARC
8
DEFAULT_255_2_778
10
2.5179659
20
-2.2947546
40
9.6484622
50
91.215288
51
93.2078099
0
ARC
8
DEFAULT_255_2_778
10
2.6709221
20
-9.2603431
40
16.6157287
50
89.940455
51
91.2331755
0
ARC
8
DEFAULT_255_2_778
10
5.3636472
20
-9.1872491
40
16.5426352
50
88.7447035
51
90.0615019
0
ARC
8
DEFAULT_255_2_778
10
5.5347117
20
-1.7650441
40
9.1184678
50
86.3243865
51
88.7976295
0
ARC
8
DEFAULT_255_2_778
10
5.7991769
20
2.2858507
40
5.0589533
50
82.4341205
51
86.3722724
0
ARC
8
DEFAULT_255_2_778
10
6.0943924
20
4.4708039
40
2.8541565
50
76.042122
51
82.5337142
0
ARC
8
DEFAULT_255_2_778
10
6.3988507
20
5.6722945
40
1.614714
50
64.7498183
51
76.2429205
0
ARC
8
DEFAULT_255_2_778
10
6.6665014
20
6.2280581
40
0.9978917
50
21.5614811
51
65.0371765
0
ARC
8
DEFAULT_255_2_778
10
5.9344939
20
5.9048013
40
1.797751
50
12.2510205
51
22.5694208
0
ARC
8
DEFAULT_255_2_778
10
4.5906341
20
5.6018617
40
3.1753082
50
6.6767572
51
12.4473487
0
ARC
8
DEFAULT_255_2_778
10
2.1830249
20
5.3126457
40
5.6002201
50
3.1220092
51
6.7517196
0
ARC
8
DEFAULT_255_2_778
10
-1.89272
20
5.0772618
40
9.6827441
50
1.2120272
51
3.1992883
0
ARC
8
DEFAULT_255_2_778
10
-8.883925
20
4.9241731
40
16.675624
50
359.940571
51
1.229806
0
ARC
8
DEFAULT_255_2_778
10
-8.8094134
20
2.2367079
40
16.601113
50
358.7478669
51
0.0613255
0
ARC
8
DEFAULT_255_2_778
10
-1.3643041
20
2.0656071
40
9.1540465
50
356.3377398
51
358.8002467
0
ARC
8
DEFAULT_255_2_778
10
2.7011414
20
1.8011113
40
5.0800103
50
352.4588115
51
356.385961
0
ARC
8
DEFAULT_255_2_778
10
4.8961579
20
1.5055122
40
2.8651892
50
346.0831683
51
352.5582151
0
ARC
8
DEFAULT_255_2_778
10
6.1036233
20
1.2004627
40
1.6198095
50
334.8144457
51
346.2842122
0
ARC
8
DEFAULT_255_2_778
10
6.6642833
20
0.930913
40
0.9977561
50
291.6352368
51
335.1208228
0
ARC
8
DEFAULT_255_2_778
10
6.3426322
20
1.6578224
40
1.792314
50
282.2844419
51
292.6257028
0
ARC
8
DEFAULT_255_2_778
10
6.0401319
20
2.996072
40
3.1643023
50
276.6954799
51
282.4807451
0
ARC
8
DEFAULT_255_2_778
10
5.7512196
20
5.3944752
40
5.5800379
50
273.1311083
51
276.7705004
0
ARC
8
DEFAULT_255_2_778
10
5.5161056
20
9.4537906
40
9.6461444
50
271.2156129
51
273.2085593
0
ARC
8
DEFAULT_255_2_778
10
5.3631656
20
16.4163418
40
16.6103741
50
269.9404101
51
271.2335361
0
ARC
8
DEFAULT_255_2_778
10
2.6701492
20
16.3539794
40
16.5480123
50
268.745227
51
270.0614262
0
ARC
8
DEFAULT_255_2_778
10
2.4990736
20
8.9278071
40
9.1198785
50
266.3254984
51
268.7980946
0
ARC
8
DEFAULT_255_2_778
10
2.2346232
20
4.8759575
40
5.0594123
50
262.4359317
51
266.3734123
0
ARC
8
DEFAULT_255_2_778
10
1.9394546
20
2.6907936
40
2.8544128
50
256.0447411
51
262.5354242
0
ARC
8
DEFAULT_255_2_778
10
1.6350334
20
1.4891986
40
1.614878
50
244.7536379
51
256.2453615
0
ARC
8
DEFAULT_255_2_778
10
1.3673652
20
0.9333162
40
0.9979414
50
201.5671035
51
245.0413349
0
ARC
8
DEFAULT_255_2_778
10
2.0991751
20
1.2565563
40
1.7976133
50
192.2549396
51
202.5744416
0
ARC
8
DEFAULT_255_2_778
10
3.4426163
20
1.5595055
40
3.1747646
50
186.6795453
51
192.451375
0
ARC
8
DEFAULT_255_2_778
10
5.8495122
20
1.8487576
40
5.5989725
50
183.1238007
51
186.7545322
0
ARC
8
DEFAULT_255_2_778
10
9.9229349
20
2.0841357
40
9.679178
50
181.2129283
51
183.2010672
0
ARC
8
DEFAULT_255_2_778
10
16.9086791
20
2.237208
40
16.6665979
50
179.9406347
51
181.2306799
0
LINE
8
DEFAULT_255_2_778
10
0.2420901
20
2.2544766
11
0.2420901
21
4.9068766
0
LINE
8
DEFAULT_255_2_778
10
2.6881901
20
7.3553766
11
5.3458901
21
7.3553766
0
LINE
8
DEFAULT_255_2_778
10
7.7916901
20
4.9068766
11
7.7916901
21
2.2544766
0
LINE
8
DEFAULT_255_2_778
10
5.3458901
20
-0.1940234
11
2.6878901
21
-0.1940234
0
LINE
8
DEFAULT_255_2_778
10
0.2420901
20
2.2544766
11
0.2420901
21
2.2544766
0
ARC
8
DEFAULT_255_2_778
10
18.7221428
20
3.2825164
40
17.0571754
50
171.0655462
51
173.5954121
0
ARC
8
DEFAULT_255_2_778
10
20.792613
20
3.0461204
40
19.1410938
50
173.5835503
51
175.4651196
0
ARC
8
DEFAULT_255_2_778
10
22.2922166
20
2.9244362
40
20.6456241
50
175.4575276
51
176.7648068
0
ARC
8
DEFAULT_255_2_778
10
23.2377161
20
2.8697095
40
21.5927053
50
176.7614094
51
177.6597905
0
ARC
8
DEFAULT_255_2_778
10
23.8836152
20
2.8432288
40
22.2391469
50
177.6595726
51
178.5954705
0
ARC
8
DEFAULT_255_2_778
10
24.2802589
20
2.8330607
40
22.6359205
50
178.5943496
51
179.3198443
0
ARC
8
DEFAULT_255_2_778
10
24.4049043
20
2.8314031
40
22.7605766
50
179.3193965
51
179.9998881
0
ARC
8
DEFAULT_255_2_778
10
24.318006
20
2.831398
40
22.6736783
50
179.9998749
51
180.406484
0
ARC
8
DEFAULT_255_2_778
10
24.0665866
20
2.8294429
40
22.4222514
50
180.4060459
51
180.9166158
0
ARC
8
DEFAULT_255_2_778
10
23.5928907
20
2.821787
40
21.9484937
50
180.9164146
51
181.3777431
0
ARC
8
DEFAULT_255_2_778
10
22.9730469
20
2.8068957
40
21.328471
50
181.3777872
51
181.7719379
0
ARC
8
DEFAULT_255_2_778
10
22.2695078
20
2.7852379
40
20.6245986
50
181.7722348
51
182.0579483
0
ARC
8
DEFAULT_255_2_778
10
21.4168026
20
2.7542243
40
19.7713297
50
182.0568682
51
182.4443328
0
ARC
8
DEFAULT_255_2_778
10
20.1935033
20
2.7018348
40
18.5469091
50
182.4438084
51
182.812669
0
ARC
8
DEFAULT_255_2_778
10
19.8194506
20
2.6843971
40
18.1724513
50
182.8156274
51
182.8659102
0
ARC
8
DEFAULT_255_2_778
10
18.617657
20
2.6237856
40
16.9691304
50
182.8643991
51
183.1684003
0
ARC
8
DEFAULT_255_2_778
10
17.2327633
20
2.5472196
40
15.5821219
50
183.1687507
51
183.4262795
0
ARC
8
DEFAULT_255_2_778
10
15.841322
20
2.4639842
40
14.1881933
50
183.4265695
51
183.6461025
0
ARC
8
DEFAULT_255_2_778
10
14.1916634
20
2.3583976
40
12.5351593
50
183.6439758
51
183.9238462
0
ARC
8
DEFAULT_255_2_778
10
12.0869022
20
2.2137977
40
10.4254368
50
183.9225765
51
184.2055238
0
ARC
8
DEFAULT_255_2_778
10
9.9184164
20
2.054637
40
8.251118
50
184.207554
51
184.4217617
0
ARC
8
DEFAULT_255_2_778
10
7.6170199
20
1.8763279
40
5.9428243
50
184.4184258
51
184.6546328
0
ARC
8
DEFAULT_255_2_778
10
5.2861361
20
1.6864285
40
3.6042176
50
184.6526712
51
184.8423997
0
ARC
8
DEFAULT_255_2_778
10
3.0584659
20
1.4974651
40
1.3685471
50
184.8323674
51
185.0007024
0
ARC
8
DEFAULT_255_2_778
10
9.6719594
20
2.6549611
40
6.9354701
50
190.0244855
51
190.608408
0
ARC
8
DEFAULT_255_2_778
10
13.7703387
20
3.3820365
40
11.0978428
50
189.6553613
51
190.0377776
0
ARC
8
DEFAULT_255_2_778
10
17.5760891
20
4.0308817
40
14.9585079
50
189.3798669
51
189.6605255
0
ARC
8
DEFAULT_255_2_778
10
21.5776067
20
4.6915706
40
19.0142017
50
189.056072
51
189.3789348
0
ARC
8
DEFAULT_255_2_778
10
25.6569977
20
5.3423227
40
23.1451712
50
188.7387248
51
189.0574092
0
ARC
8
DEFAULT_255_2_778
10
29.0032261
20
5.8569776
40
26.5307456
50
188.3969452
51
188.739355
0
ARC
8
DEFAULT_255_2_778
10
30.908184
20
6.1389082
40
28.456453
50
188.1133211
51
188.3984086
0
ARC
8
DEFAULT_255_2_778
10
31.5164813
20
6.2258545
40
29.0709326
50
187.8206196
51
188.1137669
0
ARC
8
DEFAULT_255_2_778
10
31.1610032
20
6.1774321
40
28.712172
50
187.4858421
51
187.821415
0
ARC
8
DEFAULT_255_2_778
10
29.5407304
20
5.9660311
40
27.078167
50
186.9450311
51
187.4889987
0
ARC
8
DEFAULT_255_2_778
10
26.33337
20
5.576689
40
23.847262
50
186.2974123
51
186.9482488
0
ARC
8
DEFAULT_255_2_778
10
20.9476295
20
4.9916649
40
18.429851
50
184.9891152
51
186.3262151
0
ARC
8
DEFAULT_255_2_778
10
15.9998778
20
4.5526449
40
13.4626669
50
184.1179679
51
184.9590342
0
ARC
8
DEFAULT_255_2_778
10
12.7948129
20
4.3240892
40
10.2494642
50
182.945885
51
184.1302146
0
ARC
8
DEFAULT_255_2_778
10
10.0415468
20
4.1821874
40
7.4925437
50
181.6790855
51
182.9442305
0
ARC
8
DEFAULT_255_2_778
10
7.8985196
20
4.1205667
40
5.3486312
50
180.0526689
51
181.691934
0
ARC
8
DEFAULT_255_2_778
10
6.157646
20
4.1201917
40
3.6077583
50
177.9109201
51
180.0721276
0
ARC
8
DEFAULT_255_2_778
10
4.8767808
20
4.1674581
40
2.3260214
50
175.2510985
51
177.9243028
0
ARC
8
DEFAULT_255_2_778
10
3.9651002
20
4.2446321
40
1.411082
50
171.4282774
51
175.3092389
0
ARC
8
DEFAULT_255_2_778
10
3.3429955
20
4.3395288
40
0.7817828
50
165.9140513
51
171.5098954
0
ARC
8
DEFAULT_255_2_778
10
2.9613266
20
4.43684
40
0.3879095
50
156.9420776
51
166.1349843
0
ARC
8
DEFAULT_255_2_778
10
2.7549613
20
4.5267494
40
0.1628281
50
139.4594692
51
157.6110698
0
ARC
8
DEFAULT_255_2_778
10
2.6812095
20
4.5918925
40
0.0644577
50
92.8291862
51
140.8530587
0
ARC
8
DEFAULT_255_2_778
10
2.6615548
20
4.597781
40
0.0607661
50
40.7091591
51
74.2707796
0
ARC
8
DEFAULT_255_2_778
10
2.478141
20
4.415513
40
0.3192169
50
33.901894
51
44.0384809
0
ARC
8
DEFAULT_255_2_778
10
1.9756764
20
4.0663998
40
0.9310336
50
29.9724608
51
34.4865863
0
ARC
8
DEFAULT_255_2_778
10
1.0124181
20
3.5064472
40
2.045218
50
27.2603573
51
30.0800248
0
ARC
8
DEFAULT_255_2_778
10
-0.5924849
20
2.6748835
40
3.8527586
50
25.5215276
51
27.3213955
0
ARC
8
DEFAULT_255_2_778
10
-2.9831237
20
1.5309144
40
6.5030068
50
24.2251445
51
25.5421214
0
ARC
8
DEFAULT_255_2_778
10
-6.8137993
20
-0.1918914
40
10.7032608
50
23.0491204
51
24.221292
0
ARC
8
DEFAULT_255_2_778
10
-13.1753312
20
-2.898951
40
17.6168172
50
22.0529005
51
23.0500503
0
ARC
8
DEFAULT_255_2_778
10
-20.2712811
20
-5.7861116
40
25.2776335
50
21.5985316
51
22.0793431
0
ARC
8
DEFAULT_255_2_778
10
-28.8726883
20
-9.1825382
40
34.525329
50
20.8856403
51
21.5848661
0
ARC
8
DEFAULT_255_2_778
10
-36.9530509
20
-12.2776954
40
43.178199
50
20.5858752
51
20.9003775
0
ARC
8
DEFAULT_255_2_778
10
-40.0317913
20
-13.4358332
40
46.4675641
50
20.376051
51
20.5879316
0
ARC
8
DEFAULT_255_2_778
10
-40.0345813
20
-13.4374247
40
46.4707336
50
20.203872
51
20.3766928
0
ARC
8
DEFAULT_255_2_778
10
-36.9341647
20
-12.2970012
40
43.1672283
50
20.0685734
51
20.2045516
0
ARC
8
DEFAULT_255_2_778
10
-31.9544464
20
-10.4777768
40
37.8656086
50
19.9768494
51
20.0685694
0
ARC
8
DEFAULT_255_2_778
10
-24.5641253
20
-7.7917905
40
30.0023161
50
19.883061
51
19.9777279
0
ARC
8
DEFAULT_255_2_778
10
-14.659074
20
-4.2097504
40
19.4694602
50
19.8106686
51
19.8836884
0
ARC
8
DEFAULT_255_2_778
10
-3.3755206
20
-0.1458264
40
7.4763766
50
19.7508575
51
19.8162828
0
ARC
8
DEFAULT_255_2_778
10
3.7923868
20
1.3162289
40
1.0725173
50
96.6059349
51
97.035084
0
ARC
8
DEFAULT_255_2_778
10
3.9719351
20
-0.2305791
40
2.629711
50
95.8388788
51
96.6148976
0
ARC
8
DEFAULT_255_2_778
10
4.0630711
20
-1.1125945
40
3.516422
50
94.7457819
51
95.8541066
0
ARC
8
DEFAULT_255_2_778
10
4.0603797
20
-1.0617096
40
3.4654891
50
92.8798593
51
94.7710411
0
ARC
8
DEFAULT_255_2_778
10
4.0221285
20
-0.2562998
40
2.6591757
50
90.1012788
51
92.9286056
0
ARC
8
DEFAULT_255_2_778
10
3.9896367
20
-0.9152236
40
3.3182116
50
83.3512309
51
89.5201195
0
ARC
8
DEFAULT_255_2_778
10
4.3749265
20
2.3900948
40
0.009487
50
263.3509772
51
270.0293464
0
ARC
8
DEFAULT_255_2_778
10
4.3661701
20
2.4162862
40
0.0367384
50
283.7966919
51
329.4614848
0
ARC
8
DEFAULT_255_2_778
10
4.1379842
20
2.5959729
40
0.3268869
50
322.6417024
51
332.1282902
0
ARC
8
DEFAULT_255_2_778
10
3.3640207
20
3.0205108
40
1.2096116
50
331.4903766
51
335.4226164
0
ARC
8
DEFAULT_255_2_778
10
1.8141328
20
3.7401234
40
2.9183992
50
335.230537
51
337.0517227
0
ARC
8
DEFAULT_255_2_778
10
-1.1188069
20
4.9822883
40
6.103538
50
337.0488747
51
338.4228477
0
ARC
8
DEFAULT_255_2_778
10
-7.3050416
20
7.4346709
40
12.7581353
50
338.3980739
51
339.2267292
0
ARC
8
DEFAULT_255_2_778
10
-21.6114802
20
12.8661394
40
28.0609137
50
339.217951
51
339.6910516
0
ARC
8
DEFAULT_255_2_778
10
-206.0063805
20
80.9783805
40
224.6334318
50
339.7222071
51
339.8287272
0
ARC
8
DEFAULT_255_2_778
10
77.4575161
20
-23.238157
40
77.3812785
50
159.7113906
51
159.7707175
0
ARC
8
DEFAULT_255_2_778
10
35.3003765
20
-7.6212766
40
32.4245301
50
159.1163305
51
159.7644411
0
ARC
8
DEFAULT_255_2_778
10
18.4823059
20
-1.2096957
40
14.4257575
50
158.1955751
51
159.0973166
0
ARC
8
DEFAULT_255_2_778
10
12.4661616
20
1.1973677
40
7.9459467
50
156.9995364
51
158.1971713
0
ARC
8
DEFAULT_255_2_778
10
9.0560895
20
2.6483842
40
4.2400027
50
155.0637665
51
157.0429999
0
ARC
8
DEFAULT_255_2_778
10
7.0182514
20
3.5985726
40
1.9915299
50
151.9512452
51
155.1339057
0
ARC
8
DEFAULT_255_2_778
10
5.9546228
20
4.1684702
40
0.7848531
50
146.3392433
51
152.1570774
0
ARC
8
DEFAULT_255_2_778
10
5.4877897
20
4.4833451
40
0.2217899
50
133.5417243
51
147.1988637
0
ARC
8
DEFAULT_255_2_778
10
5.3674158
20
4.6116808
40
0.0458538
50
103.4787772
51
134.9818956
0
ARC
8
DEFAULT_255_2_778
10
5.3523973
20
4.5884089
40
0.0680007
50
33.6960887
51
86.3486091
0
ARC
8
DEFAULT_255_2_778
10
5.2549046
20
4.5123007
40
0.1915604
50
20.6286668
51
36.4589496
0
ARC
8
DEFAULT_255_2_778
10
5.0293744
20
4.4226747
40
0.4342291
50
13.1316636
51
21.2122816
0
ARC
8
DEFAULT_255_2_778
10
4.6225899
20
4.3257829
40
0.8523916
50
7.8341115
51
13.2621319
0
ARC
8
DEFAULT_255_2_778
10
3.9855438
20
4.2351326
40
1.495851
50
4.5198267
51
7.9479256
0
ARC
8
DEFAULT_255_2_778
10
3.0738994
20
4.1620519
40
2.4104197
50
1.8717348
51
4.5438855
0
ARC
8
DEFAULT_255_2_778
10
1.8111042
20
4.1189247
40
3.6739503
50
359.9400538
51
1.9007193
0
ARC
8
DEFAULT_255_2_778
10
0.1188854
20
4.1201543
40
5.3661694
50
358.2853301
51
359.9458293
0
ARC
8
DEFAULT_255_2_778
10
-2.0767318
20
4.1842511
40
7.5627216
50
357.0063594
51
358.2976757
0
ARC
8
DEFAULT_255_2_778
10
-4.7632802
20
4.3239835
40
10.2529013
50
355.9115917
51
357.0106267
0
ARC
8
DEFAULT_255_2_778
10
-8.55329
20
4.5973363
40
14.0527554
50
354.7111484
51
355.9016187
0
ARC
8
DEFAULT_255_2_778
10
-13.6300066
20
5.0656847
40
19.1510296
50
353.6901783
51
354.7159388
0
ARC
8
DEFAULT_255_2_778
10
-18.8107614
20
5.6352487
40
24.362998
50
352.8628402
51
353.6978817
0
ARC
8
DEFAULT_255_2_778
10
-21.8877655
20
6.0153857
40
27.4633909
50
352.5117407
51
352.873503
0
ARC
8
DEFAULT_255_2_778
10
-23.0985817
20
6.1741658
40
28.6845733
50
352.1762955
51
352.5124823
0
ARC
8
DEFAULT_255_2_778
10
-23.3321837
20
6.2057041
40
28.920294
50
351.7495602
51
352.1773939
0
ARC
8
DEFAULT_255_2_778
10
-21.9772193
20
6.0087644
40
27.5510922
50
351.4109378
51
351.7505246
0
ARC
8
DEFAULT_255_2_778
10
-19.0829174
20
5.5708562
40
24.6238501
50
351.0587304
51
351.4126665
0
ARC
8
DEFAULT_255_2_778
10
-15.1602335
20
4.9537501
40
20.652922
50
350.7470825
51
351.0585524
0
ARC
8
DEFAULT_255_2_778
10
-11.3597467
20
4.335062
40
16.8024058
50
350.485383
51
350.7455375
0
ARC
8
DEFAULT_255_2_778
10
-7.2791376
20
3.649606
40
12.6646266
50
350.0904036
51
350.4921917
0
ARC
8
DEFAULT_255_2_778
10
-2.8519582
20
2.875248
40
8.170236
50
349.5892229
51
350.0968105
0
ARC
8
DEFAULT_255_2_778
10
-0.349433
20
2.4174838
40
5.626189
50
349.3547512
51
349.5689731
0
ARC
8
DEFAULT_255_2_778
10
4.5282328
20
1.536199
40
1.8185742
50
355.0149213
51
355.2261165
0
ARC
8
DEFAULT_255_2_778
10
1.9127442
20
1.7555672
40
4.4432461
50
355.2140363
51
355.4287579
0
ARC
8
DEFAULT_255_2_778
10
-0.2690481
20
1.930354
40
6.6320285
50
355.4257779
51
355.6210272
0
ARC
8
DEFAULT_255_2_778
10
-2.4613838
20
2.0980079
40
8.8307653
50
355.6225012
51
355.8866615
0
ARC
8
DEFAULT_255_2_778
10
-4.7819448
20
2.2649995
40
11.1573269
50
355.8861044
51
356.17782
0
ARC
8
DEFAULT_255_2_778
10
-6.696673
20
2.3935119
40
13.076363
50
356.175233
51
356.4054601
0
ARC
8
DEFAULT_255_2_778
10
-8.388826
20
2.499525
40
14.7718335
50
356.4065679
51
356.7185956
0
ARC
8
DEFAULT_255_2_778
10
-10.0636243
20
2.5957053
40
16.4493912
50
356.7180486
51
357.0297155
0
ARC
8
DEFAULT_255_2_778
10
-11.0593983
20
2.6480014
40
17.4465372
50
357.0276568
51
357.1338754
0
ARC
8
DEFAULT_255_2_778
10
-11.8700106
20
2.6880314
40
18.258137
50
357.13561
51
357.4502459
0
ARC
8
DEFAULT_255_2_778
10
-12.9334569
20
2.7354971
40
19.3226418
50
357.4499218
51
357.734085
0
ARC
8
DEFAULT_255_2_778
10
-13.8742471
20
2.7724424
40
20.2641571
50
357.7348765
51
358.1216205
0
ARC
8
DEFAULT_255_2_778
10
-14.76992
20
2.8018039
40
21.1603112
50
358.1216549
51
358.5592779
0
ARC
8
DEFAULT_255_2_778
10
-15.4088777
20
2.8181017
40
21.7994765
50
358.5586799
51
358.9001974
0
ARC
8
DEFAULT_255_2_778
10
-15.8730913
20
2.8268377
40
22.2637723
50
358.9006497
51
359.4016831
0
ARC
8
DEFAULT_255_2_778
10
-16.2107047
20
2.8305304
40
22.601406
50
359.4012598
51
359.9236803
0
ARC
8
DEFAULT_255_2_778
10
-16.6890975
20
2.831112
40
23.0797991
50
359.9238185
51
359.9994022
0
ARC
8
DEFAULT_255_2_778
10
-16.3602285
20
2.8308349
40
22.7509301
50
0.0000913
51
0.8230324
0
ARC
8
DEFAULT_255_2_778
10
-16.1813954
20
2.8336353
40
22.5720754
50
0.8224453
51
1.5965157
0
ARC
8
DEFAULT_255_2_778
10
-15.6686937
20
2.8486565
40
22.0591542
50
1.5946166
51
2.695991
0
ARC
8
DEFAULT_255_2_778
10
-14.7300912
20
2.8937173
40
21.119471
50
2.6936517
51
4.0108746
0
ARC
8
DEFAULT_255_2_778
10
-13.3678016
20
2.9907607
40
19.7537303
50
4.0064681
51
5.667481
0
ARC
8
DEFAULT_255_2_778
10
-11.4673919
20
3.1829452
40
17.8436314
50
5.656017
51
7.9976225
0
ARC
8
DEFAULT_255_2_778
10
-9.9482705
20
3.3902325
40
16.310446
50
8.019006
51
8.9648739
0
ARC
8
DEFAULT_255_2_778
10
5.0978492
20
5.8349101
40
0.097344
50
95.0809918
51
125.0992093
0
ARC
8
DEFAULT_255_2_778
10
5.2470827
20
5.5968951
40
0.3781744
50
122.8623078
51
133.5043317
0
ARC
8
DEFAULT_255_2_778
10
5.6690155
20
5.1408817
40
0.9994246
50
133.0521941
51
138.4041166
0
ARC
8
DEFAULT_255_2_778
10
6.5256384
20
4.3741659
40
2.1490533
50
138.2788973
51
141.5555533
0
ARC
8
DEFAULT_255_2_778
10
8.1106423
20
3.1114723
40
4.1755347
50
141.5079243
51
143.6979974
0
ARC
8
DEFAULT_255_2_778
10
11.5942808
20
0.5564782
40
8.4956882
50
143.7207174
51
145.466847
0
ARC
8
DEFAULT_255_2_778
10
15.8269023
20
-2.386649
40
13.6509466
50
145.3613208
51
145.5224362
0
ARC
8
DEFAULT_255_2_778
10
18.9882239
20
-4.5536238
40
17.4836643
50
145.5330238
51
145.8987217
0
ARC
8
DEFAULT_255_2_778
10
19.1164014
20
-4.6454113
40
17.6412632
50
145.8852731
51
145.9009743
0
ARC
8
DEFAULT_255_2_778
10
18.9949256
20
-4.5637562
40
17.4948948
50
145.8993819
51
145.9151498
0
ARC
8
DEFAULT_255_2_778
10
18.8728153
20
-4.4826719
40
17.348321
50
145.9109277
51
145.9267634
0
ARC
8
DEFAULT_255_2_778
10
92.5460759
20
-54.3089521
40
106.2887929
50
145.9285917
51
145.9311657
0
ARC
8
DEFAULT_255_2_778
10
25.8470403
20
-9.2014637
40
25.7689392
50
145.9343672
51
145.94494
0
ARC
8
DEFAULT_255_2_778
10
25.6608513
20
-9.0749365
40
25.5438276
50
145.9462049
51
145.9568262
0
ARC
8
DEFAULT_255_2_778
10
25.4753095
20
-8.9488812
40
25.3195166
50
145.9581429
51
145.9688131
0
ARC
8
DEFAULT_255_2_778
10
25.2904282
20
-8.823307
40
25.0960224
50
145.9701824
51
145.980902
0
ARC
8
DEFAULT_255_2_778
10
25.1062199
20
-8.6982223
40
24.8733602
50
145.9823248
51
145.9930943
0
ARC
8
DEFAULT_255_2_778
10
46.1166047
20
-22.8748872
40
50.2192495
50
145.9918679
51
145.9971791
0
ARC
8
DEFAULT_255_2_778
10
24.7420619
20
-8.4545624
40
24.4352071
50
146.0000609
51
146.0109293
0
ARC
8
DEFAULT_255_2_778
10
45.3248668
20
-22.3290699
40
49.2576528
50
146.0138785
51
146.0192467
0
ARC
8
DEFAULT_255_2_778
10
20.4511858
20
-5.5644505
40
19.2617787
50
146.0174313
51
146.0310993
0
ARC
8
DEFAULT_255_2_778
10
24.1996279
20
-8.0914364
40
23.7824506
50
146.0279246
51
146.038946
0
ARC
8
DEFAULT_255_2_778
10
44.1681351
20
-21.5375026
40
47.8560454
50
146.0420465
51
146.0474996
0
ARC
8
DEFAULT_255_2_778
10
20.0127042
20
-5.2742603
40
18.7359856
50
146.0457706
51
146.0596373
0
ARC
8
DEFAULT_255_2_778
10
43.4143263
20
-21.0251042
40
46.9445837
50
146.0579508
51
146.0634605
0
ARC
8
DEFAULT_255_2_778
10
19.7245412
20
-5.0849408
40
18.3912175
50
146.0617789
51
146.0757798
0
ARC
8
DEFAULT_255_2_778
10
42.6674174
20
-20.5175815
40
46.0415695
50
146.0741421
51
146.0797096
0
ARC
8
DEFAULT_255_2_778
10
19.4389125
20
-4.8973503
40
18.049516
50
146.0780775
51
146.0922151
0
ARC
8
DEFAULT_255_2_778
10
29.4442314
20
-11.6267844
40
30.1073635
50
146.0856362
51
146.0940733
0
LINE
8
DEFAULT_255_2_778
10
4.456487
20
5.1680351
11
4.4540255
21
5.1643721
0
ARC
8
DEFAULT_255_2_778
10
28.9540558
20
-11.2974893
40
29.5168489
50
146.1023777
51
146.1109051
0
ARC
8
DEFAULT_255_2_778
10
18.8783243
20
-4.5320732
40
17.3804898
50
146.1043068
51
146.118722
0
ARC
8
DEFAULT_255_2_778
10
-1730.5942789
20
1167.2402205
40
2088.255934
50
326.1795907
51
326.1869404
0
ARC
8
DEFAULT_255_2_778
10
-7.3496788
20
12.7423118
40
14.0241794
50
325.45816
51
326.1696095
0
ARC
8
DEFAULT_255_2_778
10
0.1058803
20
7.6096596
40
4.972689
50
324.1686384
51
325.463553
0
ARC
8
DEFAULT_255_2_778
10
2.5787171
20
5.8207498
40
1.920624
50
321.7373485
51
324.2505144
0
ARC
8
DEFAULT_255_2_778
10
3.6448522
20
4.9748281
40
0.5596785
50
315.9294302
51
322.144615
0
ARC
8
DEFAULT_255_2_778
10
3.988697
20
4.6362136
40
0.0772209
50
294.9268335
51
318.9951844
0
ARC
8
DEFAULT_255_2_778
10
4.017411
20
4.577788
40
0.0122181
50
271.0177586
51
288.2758055
0
ARC
8
DEFAULT_255_2_778
10
4.0270366
20
4.6068831
40
0.0423694
50
220.9854802
51
257.1698296
0
ARC
8
DEFAULT_255_2_778
10
4.2494426
20
4.8475792
40
0.3698623
50
219.0429514
51
226.5441573
0
ARC
8
DEFAULT_255_2_778
10
5.0200804
20
5.4865906
40
1.3709548
50
216.2768418
51
219.4975171
0
ARC
8
DEFAULT_255_2_778
10
6.9015513
20
6.878429
40
3.7112793
50
214.8668732
51
216.4128891
0
ARC
8
DEFAULT_255_2_778
10
11.2668265
20
9.9267901
40
9.0355744
50
214.0843885
51
214.902531
0
ARC
8
DEFAULT_255_2_778
10
19.2427334
20
15.3450571
40
18.6778024
50
214.1236876
51
214.1386074
0
ARC
8
DEFAULT_255_2_778
10
16.8616848
20
13.7312695
40
15.801398
50
214.1054058
51
214.1229059
0
ARC
8
DEFAULT_255_2_778
10
22.409214
20
17.4859097
40
22.5000846
50
214.0888198
51
214.1010141
0
ARC
8
DEFAULT_255_2_778
10
18.9893103
20
15.1709165
40
18.3703227
50
214.0726654
51
214.0874833
0
ARC
8
DEFAULT_255_2_778
10
18.8057644
20
15.0464361
40
18.1485471
50
214.0569022
51
214.0717812
0
ARC
8
DEFAULT_255_2_778
10
18.6231834
20
14.9226121
40
17.9279386
50
214.0408827
51
214.0558229
0
ARC
8
DEFAULT_255_2_778
10
27.0026573
20
20.5817705
40
28.0394003
50
214.0287473
51
214.0382216
0
ARC
8
DEFAULT_255_2_778
10
14.438202
20
12.0984786
40
12.8791966
50
214.0109294
51
214.0313852
0
ARC
8
DEFAULT_255_2_778
10
14.2835137
20
11.9958551
40
12.6935681
50
213.9969257
51
214.017507
0
ARC
8
DEFAULT_255_2_778
10
18.033394
20
14.5267199
40
17.2176013
50
213.9869329
51
214.0019781
0
ARC
8
DEFAULT_255_2_778
10
26.3715301
20
20.1476672
40
27.2734235
50
213.9767667
51
213.9861836
0
ARC
8
DEFAULT_255_2_778
10
26.0703697
20
19.9433925
40
26.9095217
50
213.9649795
51
213.9744414
0
ARC
8
DEFAULT_255_2_778
10
20.7342696
20
16.3487304
40
20.4755836
50
213.9522799
51
213.9646068
0
ARC
8
DEFAULT_255_2_778
10
20.4854342
20
16.1812695
40
20.1756466
50
213.9400663
51
213.9524666
0
ARC
8
DEFAULT_255_2_778
10
17.1402183
20
13.931733
40
16.1444086
50
213.9298666
51
213.9452261
0
ARC
8
DEFAULT_255_2_778
10
34.6291918
20
25.6975525
40
37.2228027
50
213.9238766
51
213.9304789
0
ARC
8
DEFAULT_255_2_778
10
16.3917424
20
13.432414
40
15.2446731
50
213.9082083
51
213.9268509
0
ARC
8
DEFAULT_255_2_778
10
20.8994538
20
16.4648423
40
20.6774515
50
213.9002082
51
213.913807
0
ARC
8
DEFAULT_255_2_778
10
20.5681722
20
16.2440304
40
20.279327
50
213.8907158
51
213.9044335
0
ARC
8
DEFAULT_255_2_778
10
17.6277505
20
14.2709837
40
16.7382835
50
213.8803649
51
213.8968056
0
ARC
8
DEFAULT_255_2_778
10
17.3466254
20
14.0849701
40
16.4011973
50
213.8717578
51
213.8883543
0
ARC
8
DEFAULT_255_2_778
10
41.732288
20
30.4564387
40
45.772706
50
213.8683968
51
213.8742786
0
ARC
8
DEFAULT_255_2_778
10
32.8268546
20
24.4774687
40
35.0463449
50
213.8576842
51
213.865825
0
ARC
8
DEFAULT_255_2_778
10
27.9865505
20
21.2307118
40
29.2179684
50
213.8535284
51
213.858671
0
ARC
8
DEFAULT_255_2_778
10
31.8717518
20
23.8386963
40
33.8973242
50
213.8478044
51
213.856068
0
ARC
8
DEFAULT_255_2_778
10
15.861133
20
13.1020384
40
14.6199868
50
213.8405564
51
213.850646
0
ARC
8
DEFAULT_255_2_778
10
83.2433731
20
58.2828279
40
95.7474793
50
213.839183
51
213.8421506
0
ARC
8
DEFAULT_255_2_778
10
-104.4498962
20
-67.5350376
40
130.214683
50
33.8326798
51
33.8348693
0
ARC
8
DEFAULT_255_2_778
10
85.1620057
20
59.5556441
40
98.049889
50
213.8268079
51
213.829724
0
ARC
8
DEFAULT_255_2_778
10
46.4155869
20
33.5883826
40
51.4067371
50
213.8189734
51
213.8244624
0
ARC
8
DEFAULT_255_2_778
10
-48.9144624
20
-30.1412463
40
63.2636338
50
33.7181459
51
34.0146338
0
ARC
8
DEFAULT_255_2_778
10
-10.9575258
20
-4.5563148
40
17.4890197
50
34.1000457
51
34.4659165
0
ARC
8
DEFAULT_255_2_778
10
-4.2706282
20
0.0521507
40
9.3679288
50
34.3724149
51
36.0337173
0
ARC
8
DEFAULT_255_2_778
10
-0.2450611
20
2.9806545
40
4.3898443
50
36.0322709
51
38.4220484
0
ARC
8
DEFAULT_255_2_778
10
1.539084
20
4.3981528
40
2.1111453
50
38.3734829
51
41.9570385
0
ARC
8
DEFAULT_255_2_778
10
2.4147775
20
5.1882241
40
0.9317209
50
41.8298407
51
47.6145021
0
ARC
8
DEFAULT_255_2_778
10
2.8153442
20
5.6318541
40
0.3340314
50
47.0675061
51
58.9638826
0
ARC
8
DEFAULT_255_2_778
10
2.9394354
20
5.842697
40
0.0894254
50
57.4392037
51
85.7079634
0
LINE
8
DEFAULT_255_2_778
10
1.695128
20
1.3781716
11
2.855028
21
1.3781716
0
LINE
8
DEFAULT_255_2_778
10
5.179928
20
1.3781716
11
6.339928
21
1.3781716
0
LINE
8
DEFAULT_255_2_778
10
6.162928
20
5.9318716
11
5.089228
21
5.9318716
0
LINE
8
DEFAULT_255_2_778
10
2.946128
20
5.9318716
11
1.871928
21
5.9315716
0
ARC
8
DEFAULT_255_2_778
10
3.5139944
20
1.6526096
40
0.2745028
50
269.9797101
51
359.9785444
0
ARC
8
DEFAULT_255_2_778
10
3.5139573
20
1.6525669
40
0.2744601
50
180.0125456
51
269.9874544
0
ARC
8
DEFAULT_255_2_778
10
3.5146422
20
1.6519623
40
0.2751455
50
90.1551314
51
179.8866141
0
ARC
8
DEFAULT_255_2_778
10
3.5133101
20
1.6519197
40
0.2751878
50
0.1222432
51
89.8777568
0
LINE
8
DEFAULT_255_2_778
10
3.7884972
20
1.6525068
11
3.7884972
21
1.6525068
0
ARC
8
DEFAULT_255_2_778
10
4.5206797
20
1.6523536
40
0.2742468
50
269.9888725
51
0.0320117
0
ARC
8
DEFAULT_255_2_778
10
4.5213288
20
1.6532092
40
0.2751033
50
180.1462938
51
269.8537062
0
ARC
8
DEFAULT_255_2_778
10
4.5213714
20
1.6519623
40
0.2751455
50
90.1551314
51
179.8866141
0
ARC
8
DEFAULT_255_2_778
10
4.520509
20
1.6526893
40
0.2744175
50
359.961893
51
89.9754773
0
LINE
8
DEFAULT_255_2_778
10
4.7949264
20
1.6525068
11
4.7949264
21
1.6525068
0
ARC
8
DEFAULT_255_2_778
10
-11.5975873
20
3.2520899
40
17.8959044
50
5.1106613
51
8.360175
0
ARC
8
DEFAULT_255_2_778
10
-14.1534354
20
3.0143552
40
20.4627711
50
3.0196416
51
5.1361851
0
ARC
8
DEFAULT_255_2_778
10
-15.7310625
20
2.927842
40
22.0427653
50
1.4552723
51
3.0281838
0
ARC
8
DEFAULT_255_2_778
10
-16.4836718
20
2.9069901
40
22.7956615
50
0.3453386
51
1.4596243
0
ARC
8
DEFAULT_255_2_778
10
-16.6357657
20
2.9055807
40
22.9477613
50
0.0000693
51
0.3465688
0
ARC
8
DEFAULT_255_2_778
10
-16.5997596
20
2.9056183
40
22.9117551
50
359.7979944
51
359.9999754
0
LINE
8
DEFAULT_255_2_778
10
6.3118532
20
2.8248393
11
6.3118487
21
2.8235716
0
ARC
8
DEFAULT_255_2_778
10
-16.2684673
20
2.9103967
40
22.580483
50
359.0739127
51
359.7796894
0
ARC
8
DEFAULT_255_2_778
10
-15.6959495
20
2.9012082
40
22.0078916
50
358.5543059
51
359.0737405
0
ARC
8
DEFAULT_255_2_778
10
-14.8235925
20
2.8788872
40
21.1352491
50
358.0021826
51
358.5551323
0
ARC
8
DEFAULT_255_2_778
10
-13.6294338
20
2.8373036
40
19.9403666
50
357.5644155
51
358.0019765
0
ARC
8
DEFAULT_255_2_778
10
-12.2453196
20
2.7782221
40
18.5549921
50
357.1476038
51
357.5650598
0
ARC
8
DEFAULT_255_2_778
10
-10.4032669
20
2.6858966
40
16.7106272
50
356.6994576
51
357.1494713
0
ARC
8
DEFAULT_255_2_778
10
-7.9789515
20
2.5457094
40
14.2822619
50
356.2668693
51
356.7009758
0
ARC
8
DEFAULT_255_2_778
10
-5.3090157
20
2.3717352
40
11.6066638
50
355.9270206
51
356.2657207
0
ARC
8
DEFAULT_255_2_778
10
-2.3538092
20
2.1606002
40
8.6439248
50
355.5678094
51
355.9316749
0
ARC
8
DEFAULT_255_2_778
10
0.958664
20
1.9038142
40
5.3215134
50
355.2782248
51
355.5681636
0
ARC
8
DEFAULT_255_2_778
10
4.1591906
20
1.638996
40
2.1100499
50
355.0430271
51
355.290737
0
ARC
8
DEFAULT_255_2_778
10
4.6028691
20
1.5297992
40
1.7433859
50
355.0105081
51
355.230985
0
ARC
8
DEFAULT_255_2_778
10
1.9535545
20
1.7522522
40
4.4020233
50
355.2124803
51
355.4293821
0
ARC
8
DEFAULT_255_2_778
10
-0.3098447
20
1.9335644
40
6.6726728
50
355.4262019
51
355.6204125
0
ARC
8
DEFAULT_255_2_778
10
-2.4840685
20
2.0996943
40
8.8532343
50
355.6229186
51
355.8866116
0
ARC
8
DEFAULT_255_2_778
10
-4.8023817
20
2.2664849
40
11.1775396
50
355.8862673
51
356.1776779
0
ARC
8
DEFAULT_255_2_778
10
-6.6953742
20
2.3935981
40
13.0747952
50
356.1748794
51
356.4053085
0
ARC
8
DEFAULT_255_2_778
10
-8.3920074
20
2.4998752
40
14.7747535
50
356.4065013
51
356.7187017
0
ARC
8
DEFAULT_255_2_778
10
-10.0474437
20
2.5950805
40
16.4329254
50
356.7176727
51
357.0298839
0
ARC
8
DEFAULT_255_2_778
10
-11.073671
20
2.6489973
40
17.4605678
50
357.0276845
51
357.1338961
0
ARC
8
DEFAULT_255_2_778
10
-11.8866322
20
2.6891642
40
18.2745205
50
357.1355674
51
357.4501517
0
ARC
8
DEFAULT_255_2_778
10
-12.9540137
20
2.7368164
40
19.3429652
50
357.4498001
51
357.7338709
0
ARC
8
DEFAULT_255_2_778
10
-13.8798485
20
2.7731652
40
20.2695131
50
357.7346852
51
358.1216047
0
ARC
8
DEFAULT_255_2_778
10
-14.7823152
20
2.8027659
40
21.1724653
50
358.1215954
51
358.5592768
0
ARC
8
DEFAULT_255_2_778
10
-15.414238
20
2.8189485
40
21.8045954
50
358.5585168
51
358.9001925
0
ARC
8
DEFAULT_255_2_778
10
-15.8812496
20
2.8278164
40
22.2716912
50
358.9004437
51
359.4016435
0
ARC
8
DEFAULT_255_2_778
10
-16.2313034
20
2.8316203
40
22.6217657
50
359.4012683
51
359.9235712
0
ARC
8
DEFAULT_255_2_778
10
-16.7202939
20
2.8321522
40
23.1107563
50
359.9238696
51
359.9994025
0
ARC
8
DEFAULT_255_2_778
10
-16.3699827
20
2.8319006
40
22.7604451
50
0.0000268
51
0.8224744
0
ARC
8
DEFAULT_255_2_778
10
-16.1932936
20
2.8346609
40
22.5837347
50
0.8219067
51
1.5953885
0
ARC
8
DEFAULT_255_2_778
10
-15.6813579
20
2.8496235
40
22.0715809
50
1.5935613
51
2.6939892
0
ARC
8
DEFAULT_255_2_778
10
-14.7395234
20
2.8947858
40
21.1286646
50
2.6916987
51
4.0078959
0
ARC
8
DEFAULT_255_2_778
10
-13.3769994
20
2.9917544
40
19.7626952
50
4.0035491
51
5.6631743
0
ARC
8
DEFAULT_255_2_778
10
-11.4754424
20
3.1838999
40
17.8514589
50
5.6517428
51
7.9913544
0
ARC
8
DEFAULT_255_2_778
10
-9.9558591
20
3.3910728
40
16.3178314
50
8.0127623
51
8.9577958
0
ARC
8
DEFAULT_255_2_778
10
1.5021033
20
4.5126562
40
2.0554865
50
38.8307931
51
41.7987621
0
ARC
8
DEFAULT_255_2_778
10
0.2018623
20
3.4632297
40
3.7263905
50
36.7797982
51
38.8649882
0
ARC
8
DEFAULT_255_2_778
10
-2.0028917
20
1.8120697
40
6.48089
50
35.3490375
51
36.8010795
0
ARC
8
DEFAULT_255_2_778
10
-5.6916127
20
-0.8089636
40
11.0059832
50
34.4633027
51
35.3682749
0
ARC
8
DEFAULT_255_2_778
10
-11.0349685
20
-4.4858902
40
17.4922147
50
34.1239158
51
34.4891654
0
ARC
8
DEFAULT_255_2_778
10
-11.1526789
20
-4.5701044
40
17.6369017
50
34.1201731
51
34.1358743
0
ARC
8
DEFAULT_255_2_778
10
-86.350492
20
-55.517743
40
108.4684656
50
34.1159992
51
34.1185418
0
ARC
8
DEFAULT_255_2_778
10
-25.2713149
20
-14.1336014
40
34.6896543
50
34.1004909
51
34.1084084
0
ARC
8
DEFAULT_255_2_778
10
-18.0754652
20
-9.260612
40
25.9990688
50
34.0882498
51
34.0987702
0
ARC
8
DEFAULT_255_2_778
10
-17.8886601
20
-9.1335768
40
25.7731619
50
34.0765501
51
34.0871184
0
ARC
8
DEFAULT_255_2_778
10
-17.7024886
20
-9.0070042
40
25.5480393
50
34.0647515
51
34.0753684
0
ARC
8
DEFAULT_255_2_778
10
-17.5169643
20
-8.8809034
40
25.3237172
50
34.052853
51
34.0635187
0
ARC
8
DEFAULT_255_2_778
10
-17.3321002
20
-8.7552835
40
25.1002116
50
34.0408531
51
34.0515683
0
ARC
8
DEFAULT_255_2_778
10
-17.1505041
20
-8.6340348
40
24.8818612
50
34.0328149
51
34.0435779
0
ARC
8
DEFAULT_255_2_778
10
-38.2103085
20
-22.8536923
40
50.2927645
50
34.0247599
51
34.030062
0
ARC
8
DEFAULT_255_2_778
10
-16.7837893
20
-8.3864077
40
24.4393693
50
34.0110999
51
34.0219638
0
ARC
8
DEFAULT_255_2_778
10
-37.4179386
20
-22.3071606
40
49.3302406
50
34.0028781
51
34.008237
0
ARC
8
DEFAULT_255_2_778
10
-12.497413
20
-5.4970037
40
19.2700682
50
33.9911207
51
34.0047794
0
ARC
8
DEFAULT_255_2_778
10
-36.6475177
20
-21.7800535
40
48.3967788
50
33.9847669
51
33.9901816
0
ARC
8
DEFAULT_255_2_778
10
-12.2053189
20
-5.3037712
40
18.9198564
50
33.9728249
51
33.9866144
0
ARC
8
DEFAULT_255_2_778
10
-35.8896825
20
-21.2645423
40
47.4802362
50
33.9691608
51
33.9746313
0
ARC
8
DEFAULT_255_2_778
10
-35.5059648
20
-21.0015553
40
47.0150613
50
33.9591465
51
33.9646465
0
ARC
8
DEFAULT_255_2_778
10
-11.7707328
20
-5.0172367
40
18.3993369
50
33.9469266
51
33.9609178
0
ARC
8
DEFAULT_255_2_778
10
-34.7585053
20
-20.4933995
40
46.1112351
50
33.9430971
51
33.9486548
0
ARC
8
DEFAULT_255_2_778
10
-11.4850909
20
-4.8295452
40
18.0575696
50
33.9306928
51
33.9448206
0
ARC
8
DEFAULT_255_2_778
10
-11.3445873
20
-4.7380746
40
17.8899342
50
33.9246108
51
33.9388062
0
LINE
8
DEFAULT_255_2_778
10
3.4999905
20
5.2463259
11
3.5024529
21
5.2426648
0
ARC
8
DEFAULT_255_2_778
10
-21.0285794
20
-11.2544519
40
29.5622462
50
33.9123158
51
33.920828
0
ARC
8
DEFAULT_255_2_778
10
-20.7898404
20
-11.0953705
40
29.2753634
50
33.9060645
51
33.9146205
0
ARC
8
DEFAULT_255_2_778
10
2369.7122199
20
1591.3895531
40
2848.6506534
50
213.8354009
51
213.8407873
0
ARC
8
DEFAULT_255_2_778
10
15.2278023
20
12.7734546
40
13.9327381
50
213.8484167
51
214.5747513
0
ARC
8
DEFAULT_255_2_778
10
7.7946019
20
7.6501938
40
4.9049883
50
214.5721316
51
215.8732787
0
ARC
8
DEFAULT_255_2_778
10
5.2021881
20
5.768468
40
1.7016449
50
215.6830255
51
218.9622401
0
ARC
8
DEFAULT_255_2_778
10
4.1716528
20
4.9290508
40
0.3725386
50
218.2410911
51
227.2569905
0
ARC
8
DEFAULT_255_2_778
10
3.9462838
20
4.6808156
40
0.0373908
50
222.7045849
51
258.5304535
0
ARC
8
DEFAULT_255_2_778
10
5.7668034
20
6.0609061
40
2.3126943
50
215.3932478
51
217.7770469
0
ARC
8
DEFAULT_255_2_778
10
9.0808692
20
8.4256492
40
6.3839371
50
214.265355
51
215.4674866
0
ARC
8
DEFAULT_255_2_778
10
20.2289939
20
16.0313084
40
19.87937
50
213.7826875
51
214.2910745
0
LINE
8
DEFAULT_255_2_778
10
3.7062053
20
4.977494
11
3.7048493
21
4.9795166
0
LINE
8
DEFAULT_255_2_778
10
3.7048493
20
4.9795166
11
3.7035024
21
4.981526
0
ARC
8
DEFAULT_255_2_778
10
-47.6379271
20
-29.3006286
40
61.7349861
50
33.7321805
51
34.0325847
0
ARC
8
DEFAULT_255_2_778
10
-10.7529511
20
-4.4213767
40
17.2436798
50
34.1165991
51
34.4904897
0
ARC
8
DEFAULT_255_2_778
10
-4.0427595
20
0.2085858
40
9.0912129
50
34.3875593
51
36.1482926
0
ARC
8
DEFAULT_255_2_778
10
-0.0976837
20
3.089643
40
4.206122
50
36.1575093
51
38.5970435
0
ARC
8
DEFAULT_255_2_778
10
1.5947282
20
4.4424858
40
2.0394571
50
38.5542055
51
42.1390687
0
ARC
8
DEFAULT_255_2_778
10
2.4459794
20
5.216473
40
0.8889499
50
41.9589961
51
48.1871515
0
ARC
8
DEFAULT_255_2_778
10
2.6952094
20
5.4876858
40
0.5206698
50
48.730797
51
49.3418867
0
ARC
8
DEFAULT_255_2_778
10
2.6038477
20
4.6672642
40
0.0680498
50
93.7063662
51
146.3075352
0
ARC
8
DEFAULT_255_2_778
10
2.7013335
20
4.5911794
40
0.1915898
50
143.5474472
51
159.3690002
0
ARC
8
DEFAULT_255_2_778
10
2.9357273
20
4.4985963
40
0.4435918
50
158.8449155
51
167.3010003
0
ARC
8
DEFAULT_255_2_778
10
3.3614904
20
4.3996302
40
0.8807006
50
167.1090795
51
172.3545766
0
ARC
8
DEFAULT_255_2_778
10
4.0370917
20
4.3067028
40
1.5626611
50
172.2732591
51
175.8690904
0
ARC
8
DEFAULT_255_2_778
10
4.9816693
20
4.2359896
40
2.5098798
50
175.812332
51
178.2489509
0
ARC
8
DEFAULT_255_2_778
10
6.1844997
20
4.1977099
40
3.7133185
50
178.2256958
51
180.0525596
0
ARC
8
DEFAULT_255_2_778
10
7.8325334
20
4.1993942
40
5.3613531
50
180.0544022
51
181.7167299
0
ARC
8
DEFAULT_255_2_778
10
10.0266445
20
4.2635194
40
7.5564007
50
181.7043327
51
182.9970813
0
ARC
8
DEFAULT_255_2_778
10
12.7127955
20
4.4033523
40
10.246189
50
182.9925857
51
184.0926978
0
ARC
8
DEFAULT_255_2_778
10
16.5051064
20
4.6771335
40
14.048369
50
184.1025865
51
185.2938662
0
ARC
8
DEFAULT_255_2_778
10
21.5881238
20
5.1465466
40
19.153015
50
185.2891735
51
186.3152327
0
ARC
8
DEFAULT_255_2_778
10
26.7728118
20
5.7170812
40
24.3689993
50
186.3076249
51
187.1418887
0
ARC
8
DEFAULT_255_2_778
10
29.8500991
20
6.0975707
40
27.4697164
50
187.1313508
51
187.4927954
0
ARC
8
DEFAULT_255_2_778
10
31.0565185
20
6.2558369
40
28.6864727
50
187.4919883
51
187.8279509
0
ARC
8
DEFAULT_255_2_778
10
31.3207626
20
6.2916046
40
28.953126
50
187.8268519
51
188.2544469
0
ARC
8
DEFAULT_255_2_778
10
29.9659988
20
6.0946696
40
27.5841233
50
188.2536323
51
188.5930133
0
ARC
8
DEFAULT_255_2_778
10
27.069049
20
5.6561372
40
24.6541698
50
188.5912412
51
188.9449534
0
ARC
8
DEFAULT_255_2_778
10
23.12814
20
5.0358127
40
20.664738
50
188.9448809
51
189.2563575
0
ARC
8
DEFAULT_255_2_778
10
19.3186556
20
4.4152347
40
16.8050376
50
189.2572657
51
189.5175309
0
ARC
8
DEFAULT_255_2_778
10
15.2692743
20
3.7347697
40
12.6988814
50
189.5106015
51
189.9115305
0
ARC
8
DEFAULT_255_2_778
10
10.8394189
20
2.959814
40
8.2017519
50
189.9053134
51
190.4112121
0
ARC
8
DEFAULT_255_2_778
10
8.2999318
20
2.495224
40
5.6201181
50
190.4313338
51
190.6458883
0
ARC
8
DEFAULT_255_2_778
10
9.6515713
20
2.6518569
40
6.9148018
50
190.0252883
51
190.6126295
0
ARC
8
DEFAULT_255_2_778
10
13.7449624
20
3.3782436
40
11.0721428
50
189.6561494
51
190.0392934
0
ARC
8
DEFAULT_255_2_778
10
17.5824483
20
4.032503
40
14.9650017
50
189.3807881
51
189.661163
0
ARC
8
DEFAULT_255_2_778
10
21.5464
20
4.6869275
40
18.9826109
50
189.0563088
51
189.3794838
0
ARC
8
DEFAULT_255_2_778
10
25.6156688
20
5.3360016
40
23.1033202
50
188.7384385
51
189.057448
0
ARC
8
DEFAULT_255_2_778
10
28.9303235
20
5.8459284
40
26.4569692
50
188.3963028
51
188.7393744
0
ARC
8
DEFAULT_255_2_778
10
30.8528408
20
6.1305842
40
28.4004457
50
188.1126824
51
188.398079
0
ARC
8
DEFAULT_255_2_778
10
31.4706893
20
6.2190049
40
29.0245891
50
187.820011
51
188.113363
0
ARC
8
DEFAULT_255_2_778
10
31.1490056
20
6.1752193
40
28.6999394
50
187.4847797
51
187.8207904
0
ARC
8
DEFAULT_255_2_778
10
29.5121261
20
5.9616327
40
27.0491845
50
186.9384173
51
187.4878677
0
ARC
8
DEFAULT_255_2_778
10
26.3010223
20
5.5721867
40
23.814551
50
186.2941982
51
186.9415819
0
ARC
8
DEFAULT_255_2_778
10
20.9388984
20
4.9901041
40
18.4209362
50
184.9859361
51
186.3231104
0
ARC
8
DEFAULT_255_2_778
10
15.9985689
20
4.5520178
40
13.461228
50
184.1150599
51
184.9558923
0
ARC
8
DEFAULT_255_2_778
10
12.7971358
20
4.3238683
40
10.2516767
50
182.9435139
51
184.1272009
0
ARC
8
DEFAULT_255_2_778
10
10.0439417
20
4.1820872
40
7.4948343
50
181.6774305
51
182.9418807
0
ARC
8
DEFAULT_255_2_778
10
7.9033874
20
4.1205981
40
5.3533975
50
180.0526553
51
181.6902375
0
ARC
8
DEFAULT_255_2_778
10
6.1752709
20
4.1200682
40
3.6252813
50
177.9526336
51
180.0693807
0
ARC
8
DEFAULT_255_2_778
10
4.9100266
20
4.1658057
40
2.3592108
50
175.3642568
51
177.9649364
0
ARC
8
DEFAULT_255_2_778
10
4.0030608
20
4.2407116
40
1.4491586
50
171.6753612
51
175.4179951
0
ARC
8
DEFAULT_255_2_778
10
3.3772731
20
4.333333
40
0.8165551
50
166.4147445
51
171.7485392
0
ARC
8
DEFAULT_255_2_778
10
2.9825205
20
4.4304091
40
0.410048
50
157.709274
51
166.6433251
0
ARC
8
DEFAULT_255_2_778
10
2.7658032
20
4.5210706
40
0.1751455
50
141.4883817
51
158.2602317
0
ARC
8
DEFAULT_255_2_778
10
2.682995
20
4.5894801
40
0.0677814
50
98.1817931
51
143.1511237
0
ARC
8
DEFAULT_255_2_778
10
2.3868506
20
4.482377
40
0.3352983
50
31.3001454
51
46.4462072
0
ARC
8
DEFAULT_255_2_778
10
2.5899404
20
4.6950315
40
0.0412509
50
47.3606919
51
76.6734704
0
ARC
8
DEFAULT_255_2_778
10
5.2949654
20
4.6766413
40
0.0608161
50
105.7585142
51
139.2990253
0
ARC
8
DEFAULT_255_2_778
10
5.4785315
20
4.4942888
40
0.3194343
50
135.9716827
51
146.1030114
0
ARC
8
DEFAULT_255_2_778
10
5.9813247
20
4.1450186
40
0.9316105
50
145.5187167
51
150.0305726
0
ARC
8
DEFAULT_255_2_778
10
6.945047
20
3.5848772
40
2.0462909
50
149.9233239
51
152.7417578
0
ARC
8
DEFAULT_255_2_778
10
8.5503383
20
2.7531917
40
3.8542324
50
152.6807844
51
154.4800837
0
ARC
8
DEFAULT_255_2_778
10
10.9427395
20
1.6084731
40
6.5063938
50
154.4595749
51
155.7759345
0
ARC
8
DEFAULT_255_2_778
10
14.7740733
20
-0.1145199
40
10.707325
50
155.7798934
51
156.9516667
0
ARC
8
DEFAULT_255_2_778
10
21.13732
20
-2.8221883
40
17.6226976
50
156.9507897
51
157.9476357
0
ARC
8
DEFAULT_255_2_778
10
28.2337566
20
-5.7094668
40
25.2840092
50
157.9212036
51
158.4018116
0
ARC
8
DEFAULT_255_2_778
10
36.8394986
20
-9.1075231
40
34.536335
50
158.4155143
51
159.1145471
0
ARC
8
DEFAULT_255_2_778
10
44.9052019
20
-12.197082
40
43.173513
50
159.0997767
51
159.4143267
0
ARC
8
DEFAULT_255_2_778
10
48.005131
20
-13.3631031
40
46.4854856
50
159.4123432
51
159.6241514
0
ARC
8
DEFAULT_255_2_778
10
48.021117
20
-13.3696753
40
46.5027598
50
159.6234183
51
159.7961276
0
ARC
8
DEFAULT_255_2_778
10
44.9861319
20
-12.2532
40
43.2689307
50
159.7956123
51
159.9312768
0
ARC
8
DEFAULT_255_2_778
10
40.0027067
20
-10.4323268
40
37.9632633
50
159.9316775
51
160.0231656
0
ARC
8
DEFAULT_255_2_778
10
32.7245909
20
-7.7869987
40
30.2193153
50
160.0225287
51
160.11652
0
ARC
8
DEFAULT_255_2_778
10
22.7939511
20
-4.1953744
40
19.6591366
50
160.1165775
51
160.1888959
0
ARC
8
DEFAULT_255_2_778
10
11.4656451
20
-0.1150348
40
7.6183855
50
160.18478
51
160.2489887
0
ARC
8
DEFAULT_255_2_778
10
4.1640899
20
1.3950289
40
1.0725173
50
82.964916
51
83.3940651
0
ARC
8
DEFAULT_255_2_778
10
3.9845417
20
-0.1517791
40
2.629711
50
83.3851024
51
84.1611212
0
ARC
8
DEFAULT_255_2_778
10
3.8934056
20
-1.0337945
40
3.516422
50
84.1458934
51
85.2542181
0
ARC
8
DEFAULT_255_2_778
10
3.896097
20
-0.9829096
40
3.4654891
50
85.2289589
51
87.1201407
0
ARC
8
DEFAULT_255_2_778
10
3.9343482
20
-0.1774998
40
2.6591757
50
87.0713944
51
89.8987212
0
ARC
8
DEFAULT_255_2_778
10
3.9416775
20
-0.3353648
40
2.8170376
50
90.053467
51
95.3126111
0
ARC
8
DEFAULT_255_2_778
10
3.7951169
20
1.3027074
40
1.0864062
50
96.6384076
51
97.0620973
0
ARC
8
DEFAULT_255_2_778
10
3.9723388
20
-0.2175773
40
2.6169855
50
95.8647956
51
96.6446294
0
ARC
8
DEFAULT_255_2_778
10
4.0634372
20
-1.0950544
40
3.4991785
50
94.7666809
51
95.8805103
0
ARC
8
DEFAULT_255_2_778
10
4.0608965
20
-1.045869
40
3.4499524
50
92.8927742
51
94.7925118
0
ARC
8
DEFAULT_255_2_778
10
4.0226418
20
-0.2438293
40
2.6470051
50
90.101583
51
92.9419211
0
ARC
8
DEFAULT_255_2_778
10
3.9909298
20
-0.8878009
40
3.2910835
50
83.3097139
51
89.5296107
0
ARC
8
DEFAULT_255_2_778
10
4.375443
20
2.3902811
40
0.0094729
50
263.3669282
51
270.0498126
0
ARC
8
DEFAULT_255_2_778
10
4.3667189
20
2.4165148
40
0.0367587
50
283.7423186
51
329.4355745
0
ARC
8
DEFAULT_255_2_778
10
4.139263
20
2.5957089
40
0.3260301
50
322.6302056
51
332.1435252
0
ARC
8
DEFAULT_255_2_778
10
3.3677075
20
3.0186954
40
1.2058974
50
331.5042028
51
335.4486718
0
ARC
8
DEFAULT_255_2_778
10
1.8214064
20
3.7358088
40
2.9103797
50
335.2561779
51
337.0823545
0
ARC
8
DEFAULT_255_2_778
10
-1.103973
20
4.9728842
40
6.0865723
50
337.0798844
51
338.4576426
0
ARC
8
DEFAULT_255_2_778
10
-7.2817351
20
7.4175879
40
12.7304648
50
338.4327707
51
339.263195
0
ARC
8
DEFAULT_255_2_778
10
-21.5961535
20
12.8416907
40
28.0380922
50
339.2543576
51
339.7278256
0
ARC
8
DEFAULT_255_2_778
10
-211.3070375
20
82.7790774
40
230.2297232
50
339.7591262
51
339.8630542
0
ARC
8
DEFAULT_255_2_778
10
75.5801018
20
-22.4977803
40
75.3639044
50
159.742715
51
159.8050539
0
ARC
8
DEFAULT_255_2_778
10
34.9775732
20
-7.48149
40
32.0735789
50
159.145457
51
159.7952731
0
ARC
8
DEFAULT_255_2_778
10
18.4481563
20
-1.1896208
40
14.3871663
50
158.229031
51
159.1265534
0
ARC
8
DEFAULT_255_2_778
10
12.4955757
20
1.187939
40
7.9773295
50
157.0443266
51
158.2303336
0
ARC
8
DEFAULT_255_2_778
10
9.1037518
20
2.628002
40
4.2924642
50
155.1377563
51
157.0863006
0
ARC
8
DEFAULT_255_2_778
10
7.0642846
20
3.575647
40
2.0435875
50
152.0994921
51
155.2036137
0
ARC
8
DEFAULT_255_2_778
10
5.9806361
20
4.1527366
40
0.8158641
50
146.5887468
51
152.3052328
0
ARC
8
DEFAULT_255_2_778
10
5.4958621
20
4.4765871
40
0.232902
50
134.0589699
51
147.4233887
0
ARC
8
DEFAULT_255_2_778
10
5.3698291
20
4.6080016
40
0.0508277
50
107.1413087
51
134.9778481
0
ARC
8
DEFAULT_255_2_778
10
5.2326376
20
4.6228764
40
0.1267712
50
15.4142334
51
57.9082122
0
ARC
8
DEFAULT_255_2_778
10
5.2774914
20
4.6811626
40
0.0540214
50
65.3896963
51
88.7723935
0
LINE
8
DEFAULT_255_2_778
10
6.2613487
20
1.4566716
11
5.2847487
21
1.4566716
0
LINE
8
DEFAULT_255_2_778
10
5.2847487
20
1.4566716
11
5.1797487
21
1.3781716
0
LINE
8
DEFAULT_255_2_778
10
5.1797487
20
1.3781716
11
6.3396487
21
1.3781716
0
LINE
8
DEFAULT_255_2_778
10
6.1629487
20
5.9318716
11
6.1081487
21
5.8540716
0
LINE
8
DEFAULT_255_2_778
10
3.0344487
20
5.8826716
11
3.0344487
21
5.8826716
0
LINE
8
DEFAULT_255_2_778
10
2.7765487
20
1.4569716
11
1.7639487
21
1.4569716
0
LINE
8
DEFAULT_255_2_778
10
1.7639487
20
1.4569716
11
1.6951487
21
1.3783716
0
LINE
8
DEFAULT_255_2_778
10
1.6951487
20
1.3783716
11
2.8550487
21
1.3783716
0
LINE
8
DEFAULT_255_2_778
10
2.5994487
20
4.7351716
11
2.5994487
21
4.7351716
0
LINE
8
DEFAULT_255_2_778
10
3.6808487
20
2.4695716
11
3.6615487
21
2.3808716
0
LINE
8
DEFAULT_255_2_778
10
5.2786487
20
4.7351716
11
5.2784487
21
4.7351716
0
ARC
8
DEFAULT_255_2_778
10
18.7187667
20
3.2817641
40
17.0537504
50
171.0611786
51
173.5923605
0
ARC
8
DEFAULT_255_2_778
10
20.7884643
20
3.045329
40
19.1369056
50
173.580454
51
175.4629888
0
ARC
8
DEFAULT_255_2_778
10
22.2868882
20
2.9236734
40
20.6402575
50
175.4553703
51
176.7633382
0
ARC
8
DEFAULT_255_2_778
10
23.2320963
20
2.8689197
40
21.5870492
50
176.7598888
51
177.6587209
0
ARC
8
DEFAULT_255_2_778
10
23.8781993
20
2.8424383
40
22.2336945
50
177.6585536
51
178.5948773
0
ARC
8
DEFAULT_255_2_778
10
24.2754406
20
2.832265
40
22.6310659
50
178.5937906
51
179.3195668
0
ARC
8
DEFAULT_255_2_778
10
24.3949455
20
2.8306346
40
22.7505819
50
179.319035
51
179.9999164
0
ARC
8
DEFAULT_255_2_778
10
24.2986933
20
2.830563
40
22.6543296
50
179.9997351
51
180.4065151
0
ARC
8
DEFAULT_255_2_778
10
24.0575464
20
2.8286744
40
22.4131754
50
180.4060611
51
180.916612
0
ARC
8
DEFAULT_255_2_778
10
23.5869052
20
2.8210595
40
21.9424727
50
180.9163899
51
181.3776367
0
ARC
8
DEFAULT_255_2_778
10
22.9560314
20
2.8058973
40
21.3114168
50
181.3776628
51
181.7719476
0
ARC
8
DEFAULT_255_2_778
10
22.2872603
20
2.7853406
40
20.6423299
50
181.7723153
51
182.0576503
0
ARC
8
DEFAULT_255_2_778
10
21.402938
20
2.7532365
40
19.7574251
50
182.0566882
51
182.4442421
0
ARC
8
DEFAULT_255_2_778
10
20.1833017
20
2.7010033
40
18.5366709
50
182.4437114
51
182.8125985
0
ARC
8
DEFAULT_255_2_778
10
19.8536151
20
2.685774
40
18.2066342
50
182.8156401
51
182.8658042
0
ARC
8
DEFAULT_255_2_778
10
18.610596
20
2.6231164
40
16.9620371
50
182.8643444
51
183.1683246
0
ARC
8
DEFAULT_255_2_778
10
17.1905857
20
2.544505
40
15.5398527
50
183.1682953
51
183.4263974
0
ARC
8
DEFAULT_255_2_778
10
15.8400399
20
2.4636106
40
14.1868863
50
183.4262653
51
183.6457094
0
ARC
8
DEFAULT_255_2_778
10
14.1965149
20
2.3585469
40
12.5400066
50
183.6441344
51
183.9237563
0
ARC
8
DEFAULT_255_2_778
10
12.0592474
20
2.2116947
40
10.3977001
50
183.9223397
51
184.2058979
0
ARC
8
DEFAULT_255_2_778
10
9.8230466
20
2.0473058
40
8.1554651
50
184.2063104
51
184.4229194
0
ARC
8
DEFAULT_255_2_778
10
7.6854489
20
1.8816417
40
6.0114576
50
184.4198338
51
184.6532235
0
ARC
8
DEFAULT_255_2_778
10
5.3064487
20
1.6880444
40
3.6245931
50
184.6538037
51
184.8423674
0
ARC
8
DEFAULT_255_2_778
10
2.9936856
20
1.4917873
40
1.3035179
50
184.8280629
51
185.0047032
0
ARC
8
DEFAULT_255_2_778
10
14.751584
20
2.327442
40
13.017524
50
183.6420241
51
183.8434432
0
ARC
8
DEFAULT_255_2_778
10
15.9748081
20
2.4055566
40
14.2432398
50
183.4584145
51
183.6430483
0
ARC
8
DEFAULT_255_2_778
10
17.0932266
20
2.4730226
40
15.3636911
50
183.2447246
51
183.4579502
0
ARC
8
DEFAULT_255_2_778
10
18.051039
20
2.527527
40
16.3230531
50
183.0628488
51
183.2454409
0
ARC
8
DEFAULT_255_2_778
10
18.8862715
20
2.5722342
40
17.1594811
50
182.87626
51
183.0629015
0
ARC
8
DEFAULT_255_2_778
10
19.8761285
20
2.6216998
40
18.1505733
50
182.5603621
51
182.8754175
0
ARC
8
DEFAULT_255_2_778
10
20.9009774
20
2.6676351
40
19.1764509
50
182.2757314
51
182.5606831
0
ARC
8
DEFAULT_255_2_778
10
21.8082756
20
2.7034634
40
20.0844562
50
181.8868229
51
182.2750827
0
ARC
8
DEFAULT_255_2_778
10
22.6779046
20
2.732129
40
20.9545575
50
181.4472007
51
181.8868699
0
ARC
8
DEFAULT_255_2_778
10
23.3028153
20
2.7482234
40
21.5796752
50
181.1047879
51
181.4480152
0
ARC
8
DEFAULT_255_2_778
10
23.7855186
20
2.7573347
40
22.0624642
50
180.5664787
51
181.1042752
0
ARC
8
DEFAULT_255_2_778
10
24.1449428
20
2.7610023
40
22.4219072
50
179.9996089
51
180.5667695
0
ARC
8
DEFAULT_255_2_778
10
24.2747472
20
2.7610864
40
22.5517117
50
179.1735165
51
179.999825
0
ARC
8
DEFAULT_255_2_778
10
24.1105339
20
2.7636743
40
22.3874781
50
178.3970684
51
179.174077
0
ARC
8
DEFAULT_255_2_778
10
23.634223
20
2.7777149
40
21.9109608
50
177.2945601
51
178.3989285
0
ARC
8
DEFAULT_255_2_778
10
22.7394067
20
2.8208333
40
21.0151067
50
175.9776355
51
177.2968336
0
ARC
8
DEFAULT_255_2_778
10
21.4308329
20
2.914314
40
19.703199
50
174.3210904
51
175.9818793
0
ARC
8
DEFAULT_255_2_778
10
19.571549
20
3.1029804
40
17.8343714
50
171.9435123
51
174.3331632
0
ARC
8
DEFAULT_255_2_778
10
18.0995568
20
3.3048966
40
16.3486101
50
171.0333918
51
171.9211688
0
ARC
8
DEFAULT_255_2_778
10
3.0048961
20
5.7238507
40
0.1306213
50
47.1304001
51
81.3074177
0
ARC
8
DEFAULT_255_2_778
10
2.8111234
20
5.4553823
40
0.4610067
50
49.0878257
51
52.1867301
0
ARC
8
DEFAULT_255_2_778
10
2.5075895
20
5.2773284
40
0.8023151
50
41.0073065
51
50.5485578
0
ARC
8
DEFAULT_255_2_778
10
2.9258975
20
5.7993776
40
0.1336895
50
46.8085262
51
81.4223462
0
ARC
8
DEFAULT_255_2_778
10
5.0975579
20
5.8346085
40
0.0973456
50
95.0805969
51
125.0966248
0
ARC
8
DEFAULT_255_2_778
10
5.2467784
20
5.5965942
40
0.3781684
50
122.860049
51
133.5015752
0
ARC
8
DEFAULT_255_2_778
10
5.6686949
20
5.1405554
40
0.9994262
50
133.0494734
51
138.4010302
0
ARC
8
DEFAULT_255_2_778
10
6.5252011
20
4.3738711
40
2.1489467
50
138.2760177
51
141.5526154
0
ARC
8
DEFAULT_255_2_778
10
8.1096708
20
3.1114883
40
4.1748164
50
141.5051866
51
143.6954938
0
ARC
8
DEFAULT_255_2_778
10
11.5915705
20
0.5575316
40
8.4929544
50
143.7181893
51
145.4647793
0
ARC
8
DEFAULT_255_2_778
10
15.8245123
20
-2.3860292
40
13.6487232
50
145.3592797
51
145.5204131
0
ARC
8
DEFAULT_255_2_778
10
18.9837722
20
-4.5516709
40
17.4789867
50
145.5312233
51
145.8972584
0
ARC
8
DEFAULT_255_2_778
10
33.7240898
20
-14.5400989
40
35.2847621
50
145.887236
51
145.8950862
0
ARC
8
DEFAULT_255_2_778
10
33.4838318
20
-14.3727796
40
34.9920081
50
145.9013531
51
145.9092367
0
ARC
8
DEFAULT_255_2_778
10
18.8733984
20
-4.4850361
40
17.3502329
50
145.9069697
51
145.9228039
0
ARC
8
DEFAULT_255_2_778
10
26.033891
20
-9.3289949
40
25.9952656
50
145.9226286
51
145.9331532
0
ARC
8
DEFAULT_255_2_778
10
25.8470621
20
-9.2020008
40
25.7693623
50
145.9343672
51
145.94494
0
ARC
8
DEFAULT_255_2_778
10
25.660867
20
-9.0754694
40
25.5442435
50
145.9462049
51
145.9568262
0
ARC
8
DEFAULT_255_2_778
10
25.4753192
20
-8.94941
40
25.3199254
50
145.9581429
51
145.9688131
0
ARC
8
DEFAULT_255_2_778
10
25.2930374
20
-8.8277291
40
25.1007645
50
145.966138
51
145.9768558
0
ARC
8
DEFAULT_255_2_778
10
25.1088106
20
-8.7026212
40
24.8780737
50
145.9782626
51
145.9890301
0
ARC
8
DEFAULT_255_2_778
10
46.1169299
20
-22.8756289
40
50.2200393
50
145.9918679
51
145.9971791
0
ARC
8
DEFAULT_255_2_778
10
24.7420481
20
-8.4550754
40
24.4355879
50
146.0000609
51
146.0109293
0
ARC
8
DEFAULT_255_2_778
10
20.5993452
20
-5.663257
40
19.4399664
50
146.0077027
51
146.021305
0
ARC
8
DEFAULT_255_2_778
10
44.9498224
20
-22.0765446
40
48.8056224
50
146.0195
51
146.0248943
0
ARC
8
DEFAULT_255_2_778
10
24.199597
20
-8.0919378
40
23.7828111
50
146.0279246
51
146.038946
0
ARC
8
DEFAULT_255_2_778
10
20.1590122
20
-5.3717804
40
18.91192
50
146.0357868
51
146.0495858
0
ARC
8
DEFAULT_255_2_778
10
43.7979991
20
-21.2884442
40
47.4100233
50
146.0478675
51
146.0533476
0
ARC
8
DEFAULT_255_2_778
10
19.8695816
20
-5.1815877
40
18.5656134
50
146.0516339
51
146.0655657
0
ARC
8
DEFAULT_255_2_778
10
43.0475145
20
-20.7783743
40
46.5026197
50
146.0638951
51
146.0694324
0
ARC
8
DEFAULT_255_2_778
10
19.582656
20
-4.9931043
40
18.222338
50
146.067767
51
146.0818342
0
ARC
8
DEFAULT_255_2_778
10
42.3040055
20
-20.2732311
40
45.603755
50
146.0802134
51
146.085809
0
ARC
8
DEFAULT_255_2_778
10
29.4442544
20
-11.6273223
40
30.1077898
50
146.0856362
51
146.0940733
0
LINE
8
DEFAULT_255_2_778
10
4.4561561
20
5.1677351
11
4.4536945
21
5.1640721
0
LINE
8
DEFAULT_255_2_778
10
4.4536945
20
5.1640721
11
4.4512445
21
5.1604256
0
ARC
8
DEFAULT_255_2_778
10
18.8781911
20
-4.5325061
40
17.3807282
50
146.1043068
51
146.118722
0
ARC
8
DEFAULT_255_2_778
10
-2074.13722
20
1397.4024754
40
2501.7729516
50
326.1795228
51
326.1856577
0
ARC
8
DEFAULT_255_2_778
10
-7.3726771
20
12.7572448
40
14.0514862
50
325.4593977
51
326.1694605
0
ARC
8
DEFAULT_255_2_778
10
0.1002741
20
7.612866
40
4.9790205
50
324.171478
51
325.4647137
0
ARC
8
DEFAULT_255_2_778
10
2.5767035
20
5.8215402
40
1.9226288
50
321.7430741
51
324.25348
0
ARC
8
DEFAULT_255_2_778
10
3.6441844
20
4.9747275
40
0.5600749
50
315.9402902
51
322.1503027
0
ARC
8
DEFAULT_255_2_778
10
3.9883798
20
4.6358989
40
0.0772173
50
294.9468162
51
319.007295
0
ARC
8
DEFAULT_255_2_778
10
4.0171202
20
4.5774658
40
0.012196
50
271.0199028
51
288.2926376
0
ARC
8
DEFAULT_255_2_778
10
4.4825179
20
4.9140278
40
0.5813982
50
216.8597065
51
225.5320564
0
ARC
8
DEFAULT_255_2_778
10
4.105676
20
4.5256653
40
0.0403856
50
221.0991414
51
256.0458875
0
ARC
8
DEFAULT_255_2_778
10
4.0865283
20
4.5277841
40
0.0423704
50
282.8303358
51
319.0138585
0
ARC
8
DEFAULT_255_2_778
10
3.8641
20
4.7685019
40
0.3698945
50
313.4559844
51
320.9565517
0
ARC
8
DEFAULT_255_2_778
10
3.0935061
20
5.4074814
40
1.3709327
50
320.5022177
51
323.7229549
0
ARC
8
DEFAULT_255_2_778
10
1.2113846
20
6.7998032
40
3.7120677
50
323.5869924
51
325.1326869
0
ARC
8
DEFAULT_255_2_778
10
-3.15529
20
9.8491836
40
9.0380939
50
325.097068
51
325.9149877
0
ARC
8
DEFAULT_255_2_778
10
-5.8174129
20
11.6659217
40
12.2610301
50
325.8555384
51
325.8782665
0
ARC
8
DEFAULT_255_2_778
10
-8.7482144
20
13.6522358
40
15.8015161
50
325.8770941
51
325.8945942
0
ARC
8
DEFAULT_255_2_778
10
-6.9513267
20
12.4358513
40
13.6316321
50
325.8930377
51
325.9131655
0
ARC
8
DEFAULT_255_2_778
10
-10.8758582
20
15.0918951
40
18.3704628
50
325.9125167
51
325.9273346
0
ARC
8
DEFAULT_255_2_778
10
-10.6923119
20
14.9674145
40
18.1486869
50
325.9282188
51
325.9430978
0
ARC
8
DEFAULT_255_2_778
10
-10.5097307
20
14.8435902
40
17.9280782
50
325.9441771
51
325.9591173
0
ARC
8
DEFAULT_255_2_778
10
-8.1087788
20
13.2227378
40
15.0312297
50
325.9556307
51
325.9733043
0
ARC
8
DEFAULT_255_2_778
10
-13.5476324
20
16.8961739
40
21.5944042
50
325.9706769
51
325.9828772
0
ARC
8
DEFAULT_255_2_778
10
-6.1700295
20
11.916812
40
12.6936698
50
325.982493
51
326.0030743
0
ARC
8
DEFAULT_255_2_778
10
-9.9199409
20
14.4476978
40
17.2177406
50
325.9980219
51
326.0130671
0
ARC
8
DEFAULT_255_2_778
10
-18.2581462
20
20.0686917
40
27.2736463
50
326.0138164
51
326.0232333
0
ARC
8
DEFAULT_255_2_778
10
-17.9569849
20
19.8644165
40
26.9097436
50
326.0255586
51
326.0350205
0
ARC
8
DEFAULT_255_2_778
10
-12.620842
20
16.2697256
40
20.4757539
50
326.0353932
51
326.0477201
0
ARC
8
DEFAULT_255_2_778
10
-12.3720058
20
16.1022641
40
20.175816
50
326.0475334
51
326.0599337
0
ARC
8
DEFAULT_255_2_778
10
-26.9038633
20
25.8843767
40
37.6933675
50
326.0569675
51
326.0635462
0
ARC
8
DEFAULT_255_2_778
10
-26.5158866
20
25.61863
40
37.2231207
50
326.0695211
51
326.0761234
0
ARC
8
DEFAULT_255_2_778
10
-17.106403
20
19.2906033
40
25.883707
50
326.0750632
51
326.0860432
0
ARC
8
DEFAULT_255_2_778
10
-12.786034
20
16.3858428
40
20.6776315
50
326.086193
51
326.0997918
0
ARC
8
DEFAULT_255_2_778
10
-12.4547509
20
16.1650299
40
20.2795053
50
326.0955665
51
326.1092842
0
ARC
8
DEFAULT_255_2_778
10
-22.4187803
20
22.8610276
40
32.2844319
50
326.1051721
51
326.1136961
0
ARC
8
DEFAULT_255_2_778
10
-9.233178
20
14.005952
40
16.4013443
50
326.1116457
51
326.1282422
0
ARC
8
DEFAULT_255_2_778
10
-33.6190622
20
30.3775694
40
45.77312
50
326.1257214
51
326.1316032
0
ARC
8
DEFAULT_255_2_778
10
-24.7135507
20
24.398547
40
35.0466648
50
326.134175
51
326.1423158
0
ARC
8
DEFAULT_255_2_778
10
-19.873204
20
21.1517615
40
29.2182371
50
326.141329
51
326.1464716
0
ARC
8
DEFAULT_255_2_778
10
-23.7584429
20
23.7597712
40
33.8976382
50
326.143932
51
326.1521956
0
ARC
8
DEFAULT_255_2_778
10
-7.7476765
20
13.0230144
40
14.6201232
50
326.149354
51
326.1594436
0
ARC
8
DEFAULT_255_2_778
10
-75.1305506
20
58.204229
40
95.748379
50
326.1578494
51
326.160817
0
ARC
8
DEFAULT_255_2_778
10
-38.9227106
20
33.9284823
40
52.1557243
50
326.1615794
51
326.167046
0
ARC
8
DEFAULT_255_2_778
10
-77.0492157
20
59.4770668
40
98.050828
50
326.170276
51
326.1731921
0
ARC
8
DEFAULT_255_2_778
10
-38.3024296
20
33.5095592
40
51.4072339
50
326.1755376
51
326.1810266
0
ARC
8
DEFAULT_255_2_778
10
56.9007227
20
-30.1364071
40
63.111145
50
145.9838726
51
146.2810807
0
ARC
8
DEFAULT_255_2_778
10
19.0446251
20
-4.6179454
40
17.4572999
50
145.5318172
51
145.8987098
0
ARC
8
DEFAULT_255_2_778
10
12.3774788
20
-0.0226264
40
9.3599325
50
143.9629454
51
145.6255114
0
ARC
8
DEFAULT_255_2_778
10
8.3564124
20
2.9029578
40
4.387205
50
141.5733702
51
143.9643529
0
ARC
8
DEFAULT_255_2_778
10
6.573528
20
4.3196923
40
2.1099684
50
138.0367921
51
141.6220473
0
ARC
8
DEFAULT_255_2_778
10
5.6985625
20
5.1092757
40
0.9314112
50
132.3775357
51
138.1638445
0
ARC
8
DEFAULT_255_2_778
10
5.2982343
20
5.5527655
40
0.3339855
50
121.0259048
51
132.9243534
0
ARC
8
DEFAULT_255_2_778
10
5.1742273
20
5.7635494
40
0.0894728
50
94.2881082
51
122.5486312
0
ARC
8
DEFAULT_255_2_778
10
1.83255
20
3.9721643
40
1.1006753
50
29.4634478
51
33.3630185
0
ARC
8
DEFAULT_255_2_778
10
0.8090214
20
3.3903287
40
2.2780191
50
27.0059578
51
29.5425597
0
ARC
8
DEFAULT_255_2_778
10
-0.8382856
20
2.5467875
40
4.128742
50
25.392566
51
27.0551746
0
ARC
8
DEFAULT_255_2_778
10
-3.2374206
20
1.4057761
40
6.7853853
50
24.1698764
51
25.4093467
0
ARC
8
DEFAULT_255_2_778
10
-6.6904723
20
-0.145428
40
10.5708574
50
23.1907726
51
24.177406
0
ARC
8
DEFAULT_255_2_778
10
-12.2842837
20
-2.5384903
40
16.6550554
50
22.1910944
51
23.180078
0
ARC
8
DEFAULT_255_2_778
10
-16.8638374
20
-4.4209134
40
21.6063877
50
22.1138867
51
22.2263835
0
ARC
8
DEFAULT_255_2_778
10
-20.1909554
20
-5.7679745
40
25.1958543
50
21.6218322
51
22.1036041
0
ARC
8
DEFAULT_255_2_778
10
-29.0300452
20
-9.2613255
40
34.7002187
50
20.878438
51
21.6061925
0
ARC
8
DEFAULT_255_2_778
10
-37.1522498
20
-12.3726476
40
43.3979431
50
20.589482
51
20.8947894
0
ARC
8
DEFAULT_255_2_778
10
-39.9952784
20
-13.4423342
40
46.4355473
50
20.3849507
51
20.5913972
0
ARC
8
DEFAULT_255_2_778
10
-39.6836284
20
-13.3272682
40
46.1033343
50
20.2001625
51
20.3858156
0
ARC
8
DEFAULT_255_2_778
10
-36.1293055
20
-12.0197753
40
42.3161521
50
20.0729812
51
20.2004863
0
ARC
8
DEFAULT_255_2_778
10
-30.7103049
20
-10.0395297
40
36.5466686
50
19.9857572
51
20.0728778
0
ARC
8
DEFAULT_255_2_778
10
-22.796581
20
-7.1626987
40
28.1262661
50
19.8843194
51
19.9882485
0
ARC
8
DEFAULT_255_2_778
10
-10.6176796
20
-2.7583676
40
15.1754447
50
19.7989646
51
19.8864505
0
ARC
8
DEFAULT_255_2_778
10
-0.0011414
20
1.0639925
40
3.8917698
50
19.7701032
51
19.7935918
0
ARC
8
DEFAULT_255_2_778
10
-31.5895424
20
-10.3904876
40
37.5407804
50
20.0312785
51
20.161461
0
ARC
8
DEFAULT_255_2_778
10
-35.5404633
20
-11.840431
40
41.7493563
50
20.1605645
51
20.2848293
0
ARC
8
DEFAULT_255_2_778
10
-37.3448692
20
-12.5070802
40
43.6729732
50
20.2844875
51
20.4658204
0
ARC
8
DEFAULT_255_2_778
10
-36.7650682
20
-12.2899764
40
43.0538588
50
20.4649236
51
20.6913957
0
ARC
8
DEFAULT_255_2_778
10
-33.2749033
20
-10.9697613
40
39.3223422
50
20.6886822
51
21.0487438
0
ARC
8
DEFAULT_255_2_778
10
-26.1490282
20
-8.2218863
40
31.6850078
50
21.0393773
51
21.6538344
0
ARC
8
DEFAULT_255_2_778
10
-18.8289546
20
-5.3186679
40
23.8102286
50
21.6604608
51
22.1741137
0
ARC
8
DEFAULT_255_2_778
10
-11.7007839
20
-2.4025763
40
16.1086536
50
22.1382272
51
23.2945057
0
ARC
8
DEFAULT_255_2_778
10
-5.6766339
20
0.1887189
40
9.5508198
50
23.3078889
51
24.4988661
0
ARC
8
DEFAULT_255_2_778
10
-2.0515586
20
1.8433924
40
5.5659603
50
24.4734049
51
26.1878153
0
ARC
8
DEFAULT_255_2_778
10
0.3202773
20
3.0119616
40
2.9218815
50
26.1507286
51
28.6217336
0
ARC
8
DEFAULT_255_2_778
10
1.7372392
20
3.7888729
40
1.3059147
50
28.4807295
51
32.8274173
0
ARC
8
DEFAULT_255_2_778
10
2.4658276
20
4.2629186
40
0.4367045
50
32.3854339
51
41.3326343
0
ARC
8
DEFAULT_255_2_778
10
2.7272047
20
4.4982911
40
0.0850922
50
38.5592597
51
67.021024
0
ARC
8
DEFAULT_255_2_778
10
2.7525849
20
4.5512543
40
0.0265599
50
72.8333762
51
80.7870615
0
ARC
8
DEFAULT_255_2_778
10
5.034401
20
4.4237641
40
0.4295769
50
13.6050818
51
20.9658498
0
ARC
8
DEFAULT_255_2_778
10
4.6976474
20
4.3403532
40
0.776504
50
8.9557129
51
13.7420589
0
ARC
8
DEFAULT_255_2_778
10
4.2082874
20
4.2616757
40
1.272147
50
5.7174269
51
9.0250362
0
ARC
8
DEFAULT_255_2_778
10
3.5122391
20
4.1913937
40
1.9717343
50
3.0742916
51
5.7345822
0
ARC
8
DEFAULT_255_2_778
10
2.6322997
20
4.1421201
40
2.8530506
50
1.3627588
51
3.1146736
0
ARC
8
DEFAULT_255_2_778
10
1.6360972
20
4.1177438
40
3.8495512
50
359.9684691
51
1.3728413
0
ARC
8
DEFAULT_255_2_778
10
0.1368476
20
4.1207134
40
5.3488025
50
358.2788995
51
359.9454966
0
ARC
8
DEFAULT_255_2_778
10
-2.2541014
20
4.192461
40
7.7408278
50
356.7985551
51
358.2796052
0
ARC
8
DEFAULT_255_2_778
10
-5.1542809
20
4.3513358
40
10.6453544
50
355.7902415
51
356.8165244
0
ARC
8
DEFAULT_255_2_778
10
-8.9826552
20
4.6364722
40
14.4843315
50
354.5859034
51
355.7770546
0
ARC
8
DEFAULT_255_2_778
10
-13.902342
20
5.0992276
40
19.4257333
50
353.6789972
51
354.5962191
0
ARC
8
DEFAULT_255_2_778
10
-18.8274307
20
5.6433832
40
24.3807916
50
352.850379
51
353.6822829
0
ARC
8
DEFAULT_255_2_778
10
-21.9340826
20
6.0280044
40
27.5111585
50
352.5007533
51
352.8608463
0
ARC
8
DEFAULT_255_2_778
10
-23.1688642
20
6.1902305
40
28.7565513
50
352.1669432
51
352.5013844
0
ARC
8
DEFAULT_255_2_778
10
-23.4442574
20
6.2276276
40
29.0344717
50
351.740782
51
352.167899
0
ARC
8
DEFAULT_255_2_778
10
-22.099014
20
6.0318454
40
27.6750563
50
351.4029828
51
351.7418273
0
ARC
8
DEFAULT_255_2_778
10
-19.166564
20
5.5874667
40
24.7091274
50
351.0351223
51
351.4053753
0
ARC
8
DEFAULT_255_2_778
10
-15.1259384
20
4.9503017
40
20.6185729
50
350.7281805
51
351.0343855
0
ARC
8
DEFAULT_255_2_778
10
-10.4555113
20
4.1865279
40
15.8861065
50
350.3372876
51
350.732881
0
ARC
8
DEFAULT_255_2_778
10
-5.6566564
20
3.3692641
40
11.0181575
50
349.9295647
51
350.3382843
0
ARC
8
DEFAULT_255_2_778
10
-1.5670589
20
2.6418644
40
6.8643743
50
349.3891149
51
349.9386744
0
ARC
8
DEFAULT_255_2_778
10
-9.6437562
20
4.0049585
40
15.1443822
50
350.325257
51
350.6007962
0
ARC
8
DEFAULT_255_2_778
10
-13.5579456
20
4.6525732
40
19.1117849
50
350.6017403
51
350.9204538
0
ARC
8
DEFAULT_255_2_778
10
-17.5418406
20
5.2896977
40
23.1463043
50
350.9193136
51
351.2350333
0
ARC
8
DEFAULT_255_2_778
10
-20.3086643
20
5.7173374
40
25.9459806
50
351.2327527
51
351.4605547
0
ARC
8
DEFAULT_255_2_778
10
-22.1990519
20
6.0009367
40
27.857523
50
351.4610666
51
351.8007572
0
ARC
8
DEFAULT_255_2_778
10
-23.1500625
20
6.1385521
40
28.8184387
50
351.7996051
51
352.148771
0
ARC
8
DEFAULT_255_2_778
10
-22.8309758
20
6.0948738
40
28.4963765
50
352.1481299
51
352.4847634
0
ARC
8
DEFAULT_255_2_778
10
-21.1620325
20
5.8761859
40
26.8131672
50
352.4816192
51
353.0373584
0
ARC
8
DEFAULT_255_2_778
10
-17.9562167
20
5.4858685
40
23.5836779
50
353.0344992
51
353.6797013
0
ARC
8
DEFAULT_255_2_778
10
-12.4841296
20
4.8903554
40
18.0792952
50
353.6463966
51
355.0617879
0
ARC
8
DEFAULT_255_2_778
10
-7.4965733
20
4.4512203
40
13.0724533
50
355.0975934
51
355.935734
0
ARC
8
DEFAULT_255_2_778
10
-4.4232048
20
4.2348945
40
9.9914818
50
355.9240111
51
357.0997337
0
ARC
8
DEFAULT_255_2_778
10
-1.7790199
20
4.1007099
40
7.3438944
50
357.1014766
51
358.3517037
0
ARC
8
DEFAULT_255_2_778
10
0.2802775
20
4.0425651
40
5.2837766
50
358.3396306
51
359.949597
0
ARC
8
DEFAULT_255_2_778
10
2.0134475
20
4.0428001
40
3.550608
50
359.9212005
51
2.1933756
0
ARC
8
DEFAULT_255_2_778
10
3.3481269
20
4.0950394
40
2.2149075
50
2.1644084
51
5.1897447
0
ARC
8
DEFAULT_255_2_778
10
4.24943
20
4.1776787
40
1.3098244
50
5.155897
51
9.1448665
0
ARC
8
DEFAULT_255_2_778
10
4.8401149
20
4.2743864
40
0.7112794
50
9.0159693
51
15.263166
0
ARC
8
DEFAULT_255_2_778
10
5.2048644
20
4.3757898
40
0.3327059
50
14.9522693
51
25.816651
0
ARC
8
DEFAULT_255_2_778
10
5.3870843
20
4.4663197
40
0.1292654
50
24.8686025
51
47.929842
0
ARC
8
DEFAULT_255_2_778
10
5.4334303
20
4.5166657
40
0.0608423
50
48.5606817
51
88.0154206
0
LINE
8
DEFAULT_255_2_778
10
1.6951373
20
1.3780716
11
1.7633373
21
1.4548716
0
LINE
8
DEFAULT_255_2_778
10
1.9507373
20
5.8529716
11
3.0246373
21
5.8529716
0
LINE
8
DEFAULT_255_2_778
10
2.9458373
20
5.9315716
11
1.8721373
21
5.9315716
0
LINE
8
DEFAULT_255_2_778
10
5.1675373
20
5.8527716
11
6.1152373
21
5.8527716
0
LINE
8
DEFAULT_255_2_778
10
6.1152373
20
5.8527716
11
6.1628373
21
5.9312716
0
LINE
8
DEFAULT_255_2_778
10
6.1628373
20
5.9312716
11
5.0889373
21
5.9315716
0
LINE
8
DEFAULT_255_2_778
10
3.6612373
20
2.3803716
11
3.6802373
21
2.4684716
0
LINE
8
DEFAULT_255_2_778
10
2.7568373
20
4.5774716
11
2.7518373
21
4.5774716
0
LINE
8
DEFAULT_255_2_778
10
5.1799373
20
1.3778716
11
5.2852373
21
1.4598716
0
LINE
8
DEFAULT_255_2_778
10
5.4355373
20
4.5774716
11
5.4355373
21
4.5774716
0
LINE
8
DEFAULT_255_2_778
10
9.3757349
20
2.6810175
11
9.1148349
21
2.6810175
0
LINE
8
DEFAULT_255_2_778
10
9.1148349
20
2.6810175
11
9.1148349
21
4.4714175
0
LINE
8
DEFAULT_255_2_778
10
9.1148349
20
4.4714175
11
10.8253349
21
4.4714175
0
LINE
8
DEFAULT_255_2_778
10
10.8253349
20
4.4714175
11
10.8253349
21
2.6810175
0
LINE
8
DEFAULT_255_2_778
10
10.8253349
20
2.6810175
11
10.5645349
21
2.6810175
0
LINE
8
DEFAULT_255_2_778
10
10.5645349
20
2.6810175
11
10.5645349
21
4.2103175
0
LINE
8
DEFAULT_255_2_778
10
10.5645349
20
4.2103175
11
9.3759349
21
4.2103175
0
LINE
8
DEFAULT_255_2_778
10
9.3759349
20
4.2103175
11
9.3757349
21
2.6810175
0
LINE
8
DEFAULT_255_2_778
10
9.839291
20
4.340933
11
10.100691
21
4.340933
0
LINE
8
DEFAULT_255_2_778
10
10.100691
20
4.340933
11
10.100691
21
2.680933
0
LINE
8
DEFAULT_255_2_778
10
10.100691
20
2.680933
11
9.839291
21
2.680933
0
LINE
8
DEFAULT_255_2_778
10
9.839291
20
2.680933
11
9.839291
21
4.340933
0
LINE
8
DEFAULT_255_2_778
10
13.070891
20
4.210233
11
11.735291
21
4.210233
0
LINE
8
DEFAULT_255_2_778
10
11.735291
20
4.210233
11
11.735291
21
2.940233
0
LINE
8
DEFAULT_255_2_778
10
11.735291
20
2.940233
11
13.070891
21
2.940233
0
LINE
8
DEFAULT_255_2_778
10
13.070891
20
2.940233
11
13.070891
21
2.678833
0
LINE
8
DEFAULT_255_2_778
10
13.070891
20
2.678833
11
11.474391
21
2.678833
0
LINE
8
DEFAULT_255_2_778
10
11.474391
20
2.678833
11
11.474391
21
4.473533
0
LINE
8
DEFAULT_255_2_778
10
11.474391
20
4.473533
11
13.070891
21
4.473533
0
LINE
8
DEFAULT_255_2_778
10
13.070891
20
4.473533
11
13.070891
21
4.210233
0
LINE
8
DEFAULT_255_2_778
10
11.6046131
20
3.7049175
11
12.3380131
21
3.7049175
0
LINE
8
DEFAULT_255_2_778
10
12.3380131
20
3.7049175
11
12.3380131
21
3.4435175
0
LINE
8
DEFAULT_255_2_778
10
12.3380131
20
3.4435175
11
11.6046131
21
3.4435175
0
LINE
8
DEFAULT_255_2_778
10
11.6046131
20
3.4435175
11
11.6046131
21
3.7049175
0
LINE
8
DEFAULT_255_2_778
10
13.8924131
20
2.6810175
11
13.6313131
21
2.6810175
0
LINE
8
DEFAULT_255_2_778
10
13.6313131
20
2.6810175
11
13.6313131
21
4.4714175
0
LINE
8
DEFAULT_255_2_778
10
13.6313131
20
4.4714175
11
15.3252131
21
4.4714175
0
LINE
8
DEFAULT_255_2_778
10
15.3252131
20
4.4714175
11
15.3252131
21
2.6810175
0
LINE
8
DEFAULT_255_2_778
10
15.3252131
20
2.6810175
11
15.0638131
21
2.6810175
0
LINE
8
DEFAULT_255_2_778
10
15.0638131
20
2.6810175
11
15.0638131
21
4.2103175
0
LINE
8
DEFAULT_255_2_778
10
15.0638131
20
4.2103175
11
13.8924131
21
4.2103175
0
LINE
8
DEFAULT_255_2_778
10
13.8924131
20
4.2103175
11
13.8924131
21
2.6810175
0
LINE
8
DEFAULT_255_2_778
10
14.3477635
20
4.340933
11
14.6091635
21
4.340933
0
LINE
8
DEFAULT_255_2_778
10
14.6091635
20
4.340933
11
14.6091635
21
2.680933
0
LINE
8
DEFAULT_255_2_778
10
14.6091635
20
2.680933
11
14.3477635
21
2.680933
0
LINE
8
DEFAULT_255_2_778
10
14.3477635
20
2.680933
11
14.3477635
21
4.340933
0
LINE
8
DEFAULT_255_2_778
10
17.5963635
20
4.210233
11
16.2770635
21
4.210233
0
LINE
8
DEFAULT_255_2_778
10
16.2770635
20
4.210233
11
16.2770635
21
2.940233
0
LINE
8
DEFAULT_255_2_778
10
16.2770635
20
2.940233
11
17.5960635
21
2.940233
0
LINE
8
DEFAULT_255_2_778
10
17.5960635
20
2.940233
11
17.5960635
21
2.678833
0
LINE
8
DEFAULT_255_2_778
10
17.5960635
20
2.678833
11
16.0164635
21
2.678833
0
LINE
8
DEFAULT_255_2_778
10
16.0164635
20
2.678833
11
16.0164635
21
4.473533
0
LINE
8
DEFAULT_255_2_778
10
16.0164635
20
4.473533
11
17.5960635
21
4.473533
0
LINE
8
DEFAULT_255_2_778
10
17.5960635
20
4.473533
11
17.5963635
21
4.210233
0
LINE
8
DEFAULT_255_2_778
10
18.5355635
20
2.680933
11
18.2747635
21
2.680933
0
LINE
8
DEFAULT_255_2_778
10
18.2747635
20
2.680933
11
18.2747635
21
4.471433
0
LINE
8
DEFAULT_255_2_778
10
18.2747635
20
4.471433
11
19.9516635
21
4.471433
0
LINE
8
DEFAULT_255_2_778
10
19.9516635
20
4.471433
11
19.9516635
21
2.680933
0
LINE
8
DEFAULT_255_2_778
10
19.9516635
20
2.680933
11
19.6902635
21
2.680933
0
LINE
8
DEFAULT_255_2_778
10
19.6902635
20
2.680933
11
19.6902635
21
4.210233
0
LINE
8
DEFAULT_255_2_778
10
19.6902635
20
4.210233
11
18.5355635
21
4.210233
0
LINE
8
DEFAULT_255_2_778
10
18.5355635
20
4.210233
11
18.5355635
21
2.680933
0
LINE
8
DEFAULT_255_2_778
10
18.489578
20
3.7048792
11
19.820478
21
3.7048792
0
LINE
8
DEFAULT_255_2_778
10
19.820478
20
3.7048792
11
19.820478
21
3.4434792
0
LINE
8
DEFAULT_255_2_778
10
19.820478
20
3.4434792
11
18.489578
21
3.4434792
0
LINE
8
DEFAULT_255_2_778
10
18.489578
20
3.4434792
11
18.489578
21
3.7048792
0
LINE
8
DEFAULT_255_2_778
10
22.197178
20
4.2075792
11
20.777178
21
4.2075792
0
LINE
8
DEFAULT_255_2_778
10
20.777178
20
4.2075792
11
20.777178
21
2.9376792
0
LINE
8
DEFAULT_255_2_778
10
20.777178
20
2.9376792
11
22.197178
21
2.9376792
0
LINE
8
DEFAULT_255_2_778
10
22.197178
20
2.9376792
11
22.197178
21
2.6761792
0
LINE
8
DEFAULT_255_2_778
10
22.197178
20
2.6761792
11
20.516278
21
2.6761792
0
LINE
8
DEFAULT_255_2_778
10
20.516278
20
2.6761792
11
20.516278
21
4.4708792
0
LINE
8
DEFAULT_255_2_778
10
20.516278
20
4.4708792
11
22.197178
21
4.4708792
0
LINE
8
DEFAULT_255_2_778
10
22.197178
20
4.4708792
11
22.197178
21
4.2075792
0
LINE
8
DEFAULT_255_2_778
10
22.799678
20
4.4758792
11
23.061078
21
4.4758792
0
LINE
8
DEFAULT_255_2_778
10
23.061078
20
4.4758792
11
23.061078
21
2.6809792
0
LINE
8
DEFAULT_255_2_778
10
23.061078
20
2.6809792
11
22.799678
21
2.6809792
0
LINE
8
DEFAULT_255_2_778
10
22.799678
20
2.6809792
11
22.799678
21
4.4758792
0
LINE
8
DEFAULT_255_2_778
10
24.293978
20
4.4843792
11
24.555378
21
4.4843792
0
LINE
8
DEFAULT_255_2_778
10
24.555378
20
4.4843792
11
24.555378
21
2.6809792
0
LINE
8
DEFAULT_255_2_778
10
24.555378
20
2.6809792
11
24.293978
21
2.6809792
0
LINE
8
DEFAULT_255_2_778
10
24.293978
20
2.6809792
11
24.293978
21
4.4843792
0
LINE
8
DEFAULT_255_2_778
10
22.9305947
20
3.704833
11
24.3211947
21
3.704833
0
LINE
8
DEFAULT_255_2_778
10
24.3211947
20
3.704833
11
24.3211947
21
3.443433
0
LINE
8
DEFAULT_255_2_778
10
24.3211947
20
3.443433
11
22.9305947
21
3.443433
0
LINE
8
DEFAULT_255_2_778
10
22.9305947
20
3.443433
11
22.9305947
21
3.704833
0
LINE
8
DEFAULT_255_2_778
10
26.6889947
20
4.207533
11
25.3025947
21
4.207533
0
LINE
8
DEFAULT_255_2_778
10
25.3025947
20
4.207533
11
25.3025947
21
2.937533
0
LINE
8
DEFAULT_255_2_778
10
25.3025947
20
2.937533
11
26.6889947
21
2.937533
0
LINE
8
DEFAULT_255_2_778
10
26.6889947
20
2.937533
11
26.6889947
21
2.676133
0
LINE
8
DEFAULT_255_2_778
10
26.6889947
20
2.676133
11
25.0413947
21
2.676133
0
LINE
8
DEFAULT_255_2_778
10
25.0413947
20
2.676133
11
25.0413947
21
4.470833
0
LINE
8
DEFAULT_255_2_778
10
25.0413947
20
4.470833
11
26.6889947
21
4.470833
0
LINE
8
DEFAULT_255_2_778
10
26.6889947
20
4.470833
11
26.6889947
21
4.207533
0
ARC
8
DEFAULT_255_2_778
10
27.5313157
20
3.2011188
40
1.700409
50
34.4087645
51
46.5286448
0
ARC
8
DEFAULT_255_2_778
10
28.0089176
20
3.5222948
40
1.124891
50
13.7083873
51
34.6588927
0
ARC
8
DEFAULT_255_2_778
10
28.1805016
20
3.5730979
40
0.9461953
50
0.0080582
51
13.1819281
0
ARC
8
DEFAULT_255_2_778
10
28.172912
20
3.5732733
40
0.9537848
50
357.4920153
51
359.9974571
0
ARC
8
DEFAULT_255_2_778
10
28.1490692
20
3.5758918
40
0.9777206
50
341.8601657
51
357.3998535
0
ARC
8
DEFAULT_255_2_778
10
27.9882922
20
3.6290398
40
1.147054
50
329.9214488
51
341.8376586
0
ARC
8
DEFAULT_255_2_778
10
27.8392027
20
3.7119884
40
1.317643
50
324.28162
51
330.0494219
0
ARC
8
DEFAULT_255_2_778
10
27.7663623
20
3.763832
40
1.4070482
50
318.7508081
51
324.2992393
0
ARC
8
DEFAULT_255_2_778
10
27.7917054
20
3.7406761
40
1.3727268
50
315.0812861
51
318.7800316
0
ARC
8
DEFAULT_255_2_778
10
27.9410857
20
3.5908217
40
1.1611365
50
312.0881359
51
315.1126404
0
ARC
8
DEFAULT_255_2_778
10
28.2368653
20
3.2620613
40
0.7189061
50
309.6520208
51
312.1564274
0
ARC
8
DEFAULT_255_2_778
10
28.5632292
20
2.8687025
40
0.2077855
50
308.2553598
51
309.5783031
0
ARC
8
DEFAULT_255_2_778
10
27.6891569
20
3.8234231
40
1.2418024
50
314.5217147
51
317.1275368
0
ARC
8
DEFAULT_255_2_778
10
27.6952201
20
3.8180028
40
1.2336711
50
317.120441
51
321.1157432
0
ARC
8
DEFAULT_255_2_778
10
27.7416883
20
3.7805958
40
1.1740174
50
321.1131934
51
324.5003484
0
ARC
8
DEFAULT_255_2_778
10
27.8813588
20
3.6854921
40
1.0050892
50
324.2905323
51
335.9372602
0
ARC
8
DEFAULT_255_2_778
10
28.1232638
20
3.5811926
40
0.7416867
50
335.674786
51
357.2290548
0
ARC
8
DEFAULT_255_2_778
10
28.2019636
20
3.5728843
40
0.6626925
50
357.6175991
51
0.0001484
0
ARC
8
DEFAULT_255_2_778
10
28.1902505
20
3.5725425
40
0.6744056
50
0.029188
51
9.1385349
0
ARC
8
DEFAULT_255_2_778
10
28.0509066
20
3.5410042
40
0.8170395
50
9.7701757
51
31.8847814
0
ARC
8
DEFAULT_255_2_778
10
27.6696726
20
3.3114623
40
1.2620135
50
31.5912274
51
44.4847794
0
ARC
8
DEFAULT_255_2_778
10
27.424415
20
3.0880417
40
1.5935932
50
44.0367751
51
44.7744204
0
LINE
8
DEFAULT_255_2_778
10
25.1718833
20
3.704837
11
25.9301833
21
3.704837
0
LINE
8
DEFAULT_255_2_778
10
25.9301833
20
3.704837
11
25.9301833
21
3.443437
0
LINE
8
DEFAULT_255_2_778
10
25.9301833
20
3.443437
11
25.1718833
21
3.443437
0
LINE
8
DEFAULT_255_2_778
10
25.1718833
20
3.443437
11
25.1718833
21
3.704837
0
LINE
8
DEFAULT_255_2_778
10
28.6564833
20
2.676637
11
27.3255833
21
2.676637
0
LINE
8
DEFAULT_255_2_778
10
27.3255833
20
2.676637
11
27.3255833
21
4.471337
0
LINE
8
DEFAULT_255_2_778
10
27.3255833
20
4.471337
11
28.6632833
21
4.471337
0
LINE
8
DEFAULT_255_2_778
10
28.6632833
20
4.471337
11
28.7011833
21
4.435137
0
LINE
8
DEFAULT_255_2_778
10
28.6918833
20
2.705537
11
28.6564833
21
2.676637
0
LINE
8
DEFAULT_255_2_778
10
27.5861833
20
2.938037
11
28.5598833
21
2.938037
0
LINE
8
DEFAULT_255_2_778
10
28.5556833
20
4.210437
11
27.5858833
21
4.210437
0
LINE
8
DEFAULT_255_2_778
10
27.5858833
20
4.210437
11
27.5861833
21
2.938037
0
ENDSEC
0
EOF