0
SECTION
2
HEADER
9
$MEASUREMENT
70
1
0
ENDSEC
0
SECTION
2
TABLES
0
TABLE
2
LTYPE
0
LTYPE
72
65
70
64
2
CONTINUOUS
3
______
73
0
40
0
0
ENDTAB
0
TABLE
2
LAYER
0
LAYER
2
DEFAULT_255_2_778
70
0
62
255
6
CONTINUOUS
0
ENDTAB
0
ENDSEC
0
SECTION
2
ENTITIES
0
ARC
8
DEFAULT_255_2_778
10
15.0261245
20
52.1731923
40
2.2467872
50
79.8590853
51
89.9989501
0
ARC
8
DEFAULT_255_2_778
10
15.0262069
20
52.1731917
40
2.2467877
50
90.0010517
51
100.1409141
0
ARC
8
DEFAULT_255_2_778
10
15.0262129
20
52.1619428
40
2.2421384
50
259.83768
51
269.9987941
0
ARC
8
DEFAULT_255_2_778
10
15.0261183
20
52.161945
40
2.2421406
50
270.0012097
51
280.1623138
0
ARC
8
DEFAULT_255_2_778
10
15.0233017
20
52.17606
40
2.2434014
50
100.0732305
51
125.6622417
0
ARC
8
DEFAULT_255_2_778
10
15.0275662
20
52.169317
40
2.2513662
50
125.650371
51
172.0862382
0
ARC
8
DEFAULT_255_2_778
10
15.0373455
20
52.1702161
40
2.2609297
50
172.1429273
51
180.0110656
0
ARC
8
DEFAULT_255_2_778
10
15.0201483
20
52.1678421
40
2.2437335
50
179.9505274
51
205.5344045
0
ARC
8
DEFAULT_255_2_778
10
15.0273248
20
52.1707705
40
2.2514713
50
205.5229246
51
251.9561006
0
ARC
8
DEFAULT_255_2_778
10
15.0283588
20
52.1810362
40
2.2615537
50
252.0117524
51
259.8783359
0
ARC
8
DEFAULT_255_2_778
10
15.0293297
20
52.1634988
40
2.2434014
50
280.0732305
51
305.6622417
0
ARC
8
DEFAULT_255_2_778
10
15.0250651
20
52.1702419
40
2.2513662
50
305.650371
51
352.0862382
0
ARC
8
DEFAULT_255_2_778
10
15.0152858
20
52.1693428
40
2.2609297
50
352.1429273
51
0.0110656
0
ARC
8
DEFAULT_255_2_778
10
15.0324831
20
52.1717168
40
2.2437335
50
359.9505274
51
25.5344045
0
ARC
8
DEFAULT_255_2_778
10
15.0253065
20
52.1687884
40
2.2514713
50
25.5229246
51
71.9561006
0
ARC
8
DEFAULT_255_2_778
10
15.0242726
20
52.1585227
40
2.2615537
50
72.0117524
51
79.8783359
0
LINE
8
DEFAULT_255_2_778
10
13.5810157
20
52.6706794
11
14.6309157
21
52.6706794
0
LINE
8
DEFAULT_255_2_778
10
14.6309157
20
52.6706794
11
14.6309157
21
54.3848794
0
LINE
8
DEFAULT_255_2_778
10
14.6309157
20
49.9546794
11
14.6309157
21
51.6688794
0
LINE
8
DEFAULT_255_2_778
10
14.6309157
20
51.6688794
11
13.5810157
21
51.6688794
0
LINE
8
DEFAULT_255_2_778
10
13.5810157
20
51.6688794
11
13.5810157
21
52.6706794
0
LINE
8
DEFAULT_255_2_778
10
16.4716157
20
51.6688794
11
15.4217157
21
51.6688794
0
LINE
8
DEFAULT_255_2_778
10
15.4217157
20
51.6688794
11
15.4217157
21
49.9546794
0
LINE
8
DEFAULT_255_2_778
10
15.4217157
20
54.3848794
11
15.4217157
21
52.6706794
0
LINE
8
DEFAULT_255_2_778
10
15.4217157
20
52.6706794
11
16.4716157
21
52.6706794
0
LINE
8
DEFAULT_255_2_778
10
16.4716157
20
52.6706794
11
16.4716157
21
51.6688794
0
ARC
8
DEFAULT_255_2_778
10
22.9149714
20
48.0385882
40
2.2508007
50
260.0093724
51
270.0245993
0
LINE
8
DEFAULT_255_2_778
10
22.9159377
20
45.7877878
11
22.9168457
21
45.7877884
0
ARC
8
DEFAULT_255_2_778
10
22.9149522
20
48.0393217
40
2.2515341
50
270.0481839
51
280.2496983
0
ARC
8
DEFAULT_255_2_778
10
22.9173997
20
48.0332408
40
2.2451151
50
280.2158497
51
305.7481227
0
ARC
8
DEFAULT_255_2_778
10
22.9141302
20
48.0385728
40
2.2513527
50
305.7363743
51
352.1031006
0
ARC
8
DEFAULT_255_2_778
10
22.9033346
20
48.0378812
40
2.261952
50
352.1580238
51
0.011075
0
ARC
8
DEFAULT_255_2_778
10
22.9208427
20
48.0402919
40
2.2444447
50
359.9496197
51
25.4884178
0
ARC
8
DEFAULT_255_2_778
10
22.9144291
20
48.0376742
40
2.2513605
50
25.4783155
51
71.8446321
0
ARC
8
DEFAULT_255_2_778
10
22.9130333
20
48.0266547
40
2.2622674
50
71.8980021
51
79.7500675
0
ARC
8
DEFAULT_255_2_778
10
22.9153493
20
48.0447496
40
2.2440493
50
79.7260464
51
90.0048316
0
ARC
8
DEFAULT_255_2_778
10
22.9151298
20
48.0407256
40
2.2480736
50
89.9992289
51
90.3751944
0
ARC
8
DEFAULT_255_2_778
10
22.915447
20
48.029401
40
2.2593999
50
90.3813589
51
99.9644629
0
ARC
8
DEFAULT_255_2_778
10
22.9120072
20
48.0442184
40
2.2441591
50
99.9358827
51
125.2557685
0
ARC
8
DEFAULT_255_2_778
10
22.9160479
20
48.0377232
40
2.2517955
50
125.2443265
51
172.0234106
0
ARC
8
DEFAULT_255_2_778
10
22.9254502
20
48.0387627
40
2.2609637
50
172.0825612
51
180.0112583
0
ARC
8
DEFAULT_255_2_778
10
22.9086563
20
48.036371
40
2.2441707
50
179.9502802
51
205.2718051
0
ARC
8
DEFAULT_255_2_778
10
22.9156689
20
48.0392415
40
2.2517375
50
205.26168
51
252.0410022
0
ARC
8
DEFAULT_255_2_778
10
22.9164191
20
48.0489797
40
2.2612336
50
252.0990022
51
260.0264113
0
LINE
8
DEFAULT_255_2_778
10
23.3155865
20
50.2528184
11
23.3155865
21
48.4857184
0
LINE
8
DEFAULT_255_2_778
10
23.3155865
20
48.4857184
11
24.3654865
21
48.4857184
0
LINE
8
DEFAULT_255_2_778
10
24.3654865
20
48.4857184
11
24.3654865
21
47.4840184
0
LINE
8
DEFAULT_255_2_778
10
24.3654865
20
47.4840184
11
23.3155865
21
47.4840184
0
LINE
8
DEFAULT_255_2_778
10
23.3155865
20
47.4840184
11
23.3155865
21
45.8237184
0
LINE
8
DEFAULT_255_2_778
10
21.4748865
20
48.4857184
11
22.5247865
21
48.4857184
0
LINE
8
DEFAULT_255_2_778
10
22.5247865
20
48.4857184
11
22.5247865
21
50.2547184
0
LINE
8
DEFAULT_255_2_778
10
22.5247865
20
45.8219184
11
22.5247865
21
47.4840184
0
LINE
8
DEFAULT_255_2_778
10
22.5247865
20
47.4840184
11
21.4748865
21
47.4840184
0
LINE
8
DEFAULT_255_2_778
10
21.4748865
20
47.4840184
11
21.4748865
21
48.4857184
0
ARC
8
DEFAULT_255_2_778
10
15.0261624
20
44.6729813
40
2.2471116
50
79.859793
51
89.9168326
0
ARC
8
DEFAULT_255_2_778
10
15.0261959
20
44.7487744
40
2.1713184
50
89.9148124
51
90
0
ARC
8
DEFAULT_255_2_778
10
15.0261905
20
44.6742533
40
2.2458394
50
89.999862
51
100.1430607
0
ARC
8
DEFAULT_255_2_778
10
15.0261905
20
44.665732
40
2.2458394
50
259.8569393
51
270.000138
0
ARC
8
DEFAULT_255_2_778
10
15.0261959
20
44.591211
40
2.1713183
50
270
51
270.0851876
0
ARC
8
DEFAULT_255_2_778
10
15.0261624
20
44.6670041
40
2.2471114
50
270.0831674
51
280.140207
0
ARC
8
DEFAULT_255_2_778
10
15.0230552
20
44.6766183
40
2.2432561
50
100.0735217
51
125.66446
0
ARC
8
DEFAULT_255_2_778
10
15.0275203
20
44.6696089
40
2.2515542
50
125.6527759
51
172.086288
0
ARC
8
DEFAULT_255_2_778
10
15.0371716
20
44.670528
40
2.2609881
50
172.1430299
51
180.0110306
0
ARC
8
DEFAULT_255_2_778
10
15.019697
20
44.6681704
40
2.2435144
50
179.950909
51
205.5356692
0
ARC
8
DEFAULT_255_2_778
10
15.0273169
20
44.671333
40
2.2517532
50
205.5247003
51
251.9524332
0
ARC
8
DEFAULT_255_2_778
10
15.0283905
20
44.681656
40
2.2619019
50
252.0075852
51
259.8731165
0
ARC
8
DEFAULT_255_2_778
10
15.0293882
20
44.6635056
40
2.2431013
50
280.0748299
51
305.6658885
0
ARC
8
DEFAULT_255_2_778
10
15.0248502
20
44.670658
40
2.2515582
50
305.6535875
51
352.0848796
0
ARC
8
DEFAULT_255_2_778
10
15.0155573
20
44.6696587
40
2.260626
50
352.1423999
51
0.0109996
0
ARC
8
DEFAULT_255_2_778
10
15.0323826
20
44.6720245
40
2.2438017
50
359.9506707
51
25.5338197
0
ARC
8
DEFAULT_255_2_778
10
15.0250566
20
44.6690249
40
2.251705
50
25.52234
51
71.9502366
0
ARC
8
DEFAULT_255_2_778
10
15.0240925
20
44.6589368
40
2.2615964
50
72.0061999
51
79.8721516
0
LINE
8
DEFAULT_255_2_778
10
14.6306834
20
45.1709927
11
14.6306834
21
46.8852927
0
LINE
8
DEFAULT_255_2_778
10
14.6306834
20
42.4549927
11
14.6306834
21
44.1692927
0
LINE
8
DEFAULT_255_2_778
10
14.6306834
20
44.1692927
11
13.5807834
21
44.1692927
0
LINE
8
DEFAULT_255_2_778
10
13.5807834
20
44.1692927
11
13.5807834
21
45.1709927
0
LINE
8
DEFAULT_255_2_778
10
13.5807834
20
45.1709927
11
14.6306834
21
45.1709927
0
LINE
8
DEFAULT_255_2_778
10
15.4217834
20
44.1692927
11
15.4217834
21
42.4549927
0
LINE
8
DEFAULT_255_2_778
10
15.4217834
20
46.8852927
11
15.4217834
21
45.1709927
0
LINE
8
DEFAULT_255_2_778
10
15.4217834
20
45.1709927
11
16.4715834
21
45.1709927
0
LINE
8
DEFAULT_255_2_778
10
16.4715834
20
45.1709927
11
16.4715834
21
44.1692927
0
LINE
8
DEFAULT_255_2_778
10
16.4715834
20
44.1692927
11
15.4217834
21
44.1692927
0
ARC
8
DEFAULT_255_2_778
10
15.0261624
20
37.172768
40
2.2471116
50
79.859793
51
89.9168326
0
ARC
8
DEFAULT_255_2_778
10
15.0261959
20
37.2485611
40
2.1713184
50
89.9148124
51
90
0
ARC
8
DEFAULT_255_2_778
10
15.0261905
20
37.1740401
40
2.2458394
50
89.999862
51
100.1430607
0
ARC
8
DEFAULT_255_2_778
10
15.0261573
20
37.1621687
40
2.2424642
50
270.0834701
51
280.1615769
0
ARC
8
DEFAULT_255_2_778
10
15.0261959
20
37.0910227
40
2.1713184
50
270
51
270.0851876
0
ARC
8
DEFAULT_255_2_778
10
15.0261966
20
37.1608986
40
2.2411942
50
259.835535
51
269.9999826
0
ARC
8
DEFAULT_255_2_778
10
15.0230637
20
37.176371
40
2.2432912
50
100.0735815
51
125.6640798
0
ARC
8
DEFAULT_255_2_778
10
15.0274583
20
37.1694219
40
2.2514993
50
125.6518379
51
172.0848717
0
ARC
8
DEFAULT_255_2_778
10
15.0368095
20
37.1704134
40
2.260626
50
172.1423998
51
180.0109996
0
ARC
8
DEFAULT_255_2_778
10
15.019916
20
37.1680421
40
2.2437335
50
179.9505274
51
205.5344045
0
ARC
8
DEFAULT_255_2_778
10
15.0270926
20
37.1709705
40
2.2514713
50
205.5229246
51
251.9561006
0
ARC
8
DEFAULT_255_2_778
10
15.0281265
20
37.1812362
40
2.2615537
50
252.0117524
51
259.8783359
0
ARC
8
DEFAULT_255_2_778
10
15.0296554
20
37.1630658
40
2.242733
50
280.0695695
51
305.664242
0
ARC
8
DEFAULT_255_2_778
10
15.0249106
20
37.1704356
40
2.251487
50
305.652994
51
352.0867618
0
ARC
8
DEFAULT_255_2_778
10
15.0152003
20
37.169544
40
2.2609831
50
352.143019
51
0.0110349
0
ARC
8
DEFAULT_255_2_778
10
15.0326262
20
37.1718985
40
2.243558
50
359.9509912
51
25.5352273
0
ARC
8
DEFAULT_255_2_778
10
15.025049
20
37.1687767
40
2.2517408
50
25.5237926
51
71.9503273
0
ARC
8
DEFAULT_255_2_778
10
15.0240925
20
37.1587237
40
2.2615963
50
72.0062001
51
79.8721517
0
LINE
8
DEFAULT_255_2_778
10
14.6306834
20
34.9548794
11
14.6306834
21
36.6690794
0
LINE
8
DEFAULT_255_2_778
10
14.6306834
20
36.6690794
11
13.5807834
21
36.6690794
0
LINE
8
DEFAULT_255_2_778
10
13.5807834
20
36.6690794
11
13.5807834
21
37.6707794
0
LINE
8
DEFAULT_255_2_778
10
13.5807834
20
37.6707794
11
14.6306834
21
37.6707794
0
LINE
8
DEFAULT_255_2_778
10
14.6306834
20
37.6707794
11
14.6306834
21
39.3850794
0
LINE
8
DEFAULT_255_2_778
10
15.4217834
20
36.6690794
11
15.4217834
21
34.9548794
0
LINE
8
DEFAULT_255_2_778
10
15.4217834
20
39.3850794
11
15.4217834
21
37.6707794
0
LINE
8
DEFAULT_255_2_778
10
15.4217834
20
37.6707794
11
16.4715834
21
37.6707794
0
LINE
8
DEFAULT_255_2_778
10
16.4715834
20
37.6707794
11
16.4715834
21
36.6690794
0
LINE
8
DEFAULT_255_2_778
10
16.4715834
20
36.6690794
11
15.4217834
21
36.6690794
0
ARC
8
DEFAULT_255_2_778
10
22.9149714
20
33.0384882
40
2.2508007
50
260.0093724
51
270.0245993
0
LINE
8
DEFAULT_255_2_778
10
22.9159377
20
30.7876878
11
22.9168457
21
30.7876884
0
ARC
8
DEFAULT_255_2_778
10
22.9149522
20
33.0392217
40
2.2515341
50
270.0481839
51
280.2496983
0
ARC
8
DEFAULT_255_2_778
10
22.9173997
20
33.0331408
40
2.2451151
50
280.2158497
51
305.7481227
0
ARC
8
DEFAULT_255_2_778
10
22.9141302
20
33.0384728
40
2.2513527
50
305.7363743
51
352.1031006
0
ARC
8
DEFAULT_255_2_778
10
22.9033346
20
33.0377812
40
2.261952
50
352.1580238
51
0.011075
0
ARC
8
DEFAULT_255_2_778
10
22.9208427
20
33.0401919
40
2.2444447
50
359.9496197
51
25.4884178
0
ARC
8
DEFAULT_255_2_778
10
22.9144291
20
33.0375742
40
2.2513605
50
25.4783155
51
71.8446321
0
ARC
8
DEFAULT_255_2_778
10
22.9130333
20
33.0265547
40
2.2622674
50
71.8980021
51
79.7500675
0
ARC
8
DEFAULT_255_2_778
10
22.9153493
20
33.0446496
40
2.2440493
50
79.7260464
51
90.0048316
0
ARC
8
DEFAULT_255_2_778
10
22.9151298
20
33.0406256
40
2.2480736
50
89.9992289
51
90.3751944
0
ARC
8
DEFAULT_255_2_778
10
22.915447
20
33.029301
40
2.2593999
50
90.3813589
51
99.9644629
0
ARC
8
DEFAULT_255_2_778
10
22.9120072
20
33.0441184
40
2.2441591
50
99.9358827
51
125.2557685
0
ARC
8
DEFAULT_255_2_778
10
22.9160479
20
33.0376232
40
2.2517955
50
125.2443265
51
172.0234106
0
ARC
8
DEFAULT_255_2_778
10
22.9254502
20
33.0386627
40
2.2609637
50
172.0825612
51
180.0112583
0
ARC
8
DEFAULT_255_2_778
10
22.9086563
20
33.036271
40
2.2441707
50
179.9502802
51
205.2718051
0
ARC
8
DEFAULT_255_2_778
10
22.9156689
20
33.0391415
40
2.2517375
50
205.26168
51
252.0410022
0
ARC
8
DEFAULT_255_2_778
10
22.9164191
20
33.0488797
40
2.2612336
50
252.0990022
51
260.0264113
0
LINE
8
DEFAULT_255_2_778
10
23.3155865
20
35.2527184
11
23.3155865
21
33.4856184
0
LINE
8
DEFAULT_255_2_778
10
23.3155865
20
33.4856184
11
24.3654865
21
33.4856184
0
LINE
8
DEFAULT_255_2_778
10
24.3654865
20
33.4856184
11
24.3654865
21
32.4839184
0
LINE
8
DEFAULT_255_2_778
10
24.3654865
20
32.4839184
11
23.3155865
21
32.4839184
0
LINE
8
DEFAULT_255_2_778
10
23.3155865
20
32.4839184
11
23.3155865
21
30.8236184
0
LINE
8
DEFAULT_255_2_778
10
21.4748865
20
33.4856184
11
22.5247865
21
33.4856184
0
LINE
8
DEFAULT_255_2_778
10
22.5247865
20
33.4856184
11
22.5247865
21
35.2546184
0
LINE
8
DEFAULT_255_2_778
10
22.5247865
20
30.8218184
11
22.5247865
21
32.4839184
0
LINE
8
DEFAULT_255_2_778
10
22.5247865
20
32.4839184
11
21.4748865
21
32.4839184
0
LINE
8
DEFAULT_255_2_778
10
21.4748865
20
32.4839184
11
21.4748865
21
33.4856184
0
ARC
8
DEFAULT_255_2_778
10
22.9149714
20
40.5386882
40
2.2508007
50
260.0093724
51
270.0245993
0
LINE
8
DEFAULT_255_2_778
10
22.9159377
20
38.2878878
11
22.9168457
21
38.2878884
0
ARC
8
DEFAULT_255_2_778
10
22.9149522
20
40.5394217
40
2.2515341
50
270.0481839
51
280.2496983
0
ARC
8
DEFAULT_255_2_778
10
22.9173997
20
40.5333408
40
2.2451151
50
280.2158497
51
305.7481227
0
ARC
8
DEFAULT_255_2_778
10
22.9141302
20
40.5386728
40
2.2513527
50
305.7363743
51
352.1031006
0
ARC
8
DEFAULT_255_2_778
10
22.9033346
20
40.5379812
40
2.261952
50
352.1580238
51
0.011075
0
ARC
8
DEFAULT_255_2_778
10
22.9208427
20
40.5403919
40
2.2444447
50
359.9496197
51
25.4884178
0
ARC
8
DEFAULT_255_2_778
10
22.9144291
20
40.5377742
40
2.2513605
50
25.4783155
51
71.8446321
0
ARC
8
DEFAULT_255_2_778
10
22.9130333
20
40.5267547
40
2.2622674
50
71.8980021
51
79.7500675
0
ARC
8
DEFAULT_255_2_778
10
22.9153493
20
40.5448496
40
2.2440493
50
79.7260464
51
90.0048316
0
ARC
8
DEFAULT_255_2_778
10
22.9151298
20
40.5408256
40
2.2480736
50
89.9992289
51
90.3751944
0
ARC
8
DEFAULT_255_2_778
10
22.915447
20
40.529501
40
2.2593999
50
90.3813589
51
99.9644629
0
ARC
8
DEFAULT_255_2_778
10
22.9120072
20
40.5443184
40
2.2441591
50
99.9358827
51
125.2557685
0
ARC
8
DEFAULT_255_2_778
10
22.9160479
20
40.5378232
40
2.2517955
50
125.2443265
51
172.0234106
0
ARC
8
DEFAULT_255_2_778
10
22.9254502
20
40.5388627
40
2.2609637
50
172.0825612
51
180.0112583
0
ARC
8
DEFAULT_255_2_778
10
22.9086563
20
40.536471
40
2.2441707
50
179.9502802
51
205.2718051
0
ARC
8
DEFAULT_255_2_778
10
22.9156689
20
40.5393415
40
2.2517375
50
205.26168
51
252.0410022
0
ARC
8
DEFAULT_255_2_778
10
22.9164191
20
40.5490797
40
2.2612336
50
252.0990022
51
260.0264113
0
LINE
8
DEFAULT_255_2_778
10
23.3155865
20
42.7529184
11
23.3155865
21
40.9858184
0
LINE
8
DEFAULT_255_2_778
10
23.3155865
20
40.9858184
11
24.3654865
21
40.9858184
0
LINE
8
DEFAULT_255_2_778
10
24.3654865
20
40.9858184
11
24.3654865
21
39.9841184
0
LINE
8
DEFAULT_255_2_778
10
24.3654865
20
39.9841184
11
23.3155865
21
39.9841184
0
LINE
8
DEFAULT_255_2_778
10
23.3155865
20
39.9841184
11
23.3155865
21
38.3238184
0
LINE
8
DEFAULT_255_2_778
10
21.4748865
20
40.9858184
11
22.5247865
21
40.9858184
0
LINE
8
DEFAULT_255_2_778
10
22.5247865
20
40.9858184
11
22.5247865
21
42.7548184
0
LINE
8
DEFAULT_255_2_778
10
22.5247865
20
38.3220184
11
22.5247865
21
39.9841184
0
LINE
8
DEFAULT_255_2_778
10
22.5247865
20
39.9841184
11
21.4748865
21
39.9841184
0
LINE
8
DEFAULT_255_2_778
10
21.4748865
20
39.9841184
11
21.4748865
21
40.9858184
0
ARC
8
DEFAULT_255_2_778
10
15.0261624
20
29.6729614
40
2.2471116
50
79.859793
51
89.9168326
0
ARC
8
DEFAULT_255_2_778
10
15.0261959
20
29.7487545
40
2.1713184
50
89.9148124
51
90
0
ARC
8
DEFAULT_255_2_778
10
15.0261905
20
29.6742335
40
2.2458394
50
89.999862
51
100.1430607
0
ARC
8
DEFAULT_255_2_778
10
15.0261966
20
29.661092
40
2.2411942
50
259.835535
51
269.9999826
0
ARC
8
DEFAULT_255_2_778
10
15.0261959
20
29.5912161
40
2.1713183
50
270
51
270.0851876
0
ARC
8
DEFAULT_255_2_778
10
15.0261573
20
29.6623621
40
2.2424643
50
270.0834701
51
280.1615769
0
ARC
8
DEFAULT_255_2_778
10
15.0293825
20
29.6633967
40
2.2432115
50
280.0744788
51
305.6640503
0
ARC
8
DEFAULT_255_2_778
10
15.0249746
20
29.6703431
40
2.2514251
50
305.6521207
51
352.0862461
0
ARC
8
DEFAULT_255_2_778
10
15.0152536
20
29.6694362
40
2.2609298
50
352.1429275
51
0.0110656
0
ARC
8
DEFAULT_255_2_778
10
15.0324071
20
29.671807
40
2.2437771
50
359.9506096
51
25.5339625
0
ARC
8
DEFAULT_255_2_778
10
15.0252733
20
29.6689194
40
2.2514589
50
25.5220169
51
71.9539947
0
ARC
8
DEFAULT_255_2_778
10
15.0243565
20
29.6589236
40
2.261248
50
72.0103676
51
79.8773716
0
ARC
8
DEFAULT_255_2_778
10
15.0230694
20
29.6761534
40
2.2434014
50
100.0732305
51
125.6622417
0
ARC
8
DEFAULT_255_2_778
10
15.0273339
20
29.6694104
40
2.2513662
50
125.650371
51
172.0862382
0
ARC
8
DEFAULT_255_2_778
10
15.0371132
20
29.6703095
40
2.2609297
50
172.1429273
51
180.0110656
0
ARC
8
DEFAULT_255_2_778
10
15.019916
20
29.6679355
40
2.2437335
50
179.9505274
51
205.5344045
0
ARC
8
DEFAULT_255_2_778
10
15.0270926
20
29.6708638
40
2.2514713
50
205.5229246
51
251.9561006
0
ARC
8
DEFAULT_255_2_778
10
15.0281265
20
29.6811296
40
2.2615537
50
252.0117524
51
259.8783359
0
LINE
8
DEFAULT_255_2_778
10
15.4217834
20
30.1707728
11
16.4715834
21
30.1707728
0
LINE
8
DEFAULT_255_2_778
10
16.4715834
20
30.1707728
11
16.4715834
21
29.1689728
0
LINE
8
DEFAULT_255_2_778
10
16.4715834
20
29.1689728
11
15.4217834
21
29.1689728
0
LINE
8
DEFAULT_255_2_778
10
15.4217834
20
29.1689728
11
15.4217834
21
27.4547728
0
LINE
8
DEFAULT_255_2_778
10
15.4217834
20
31.8849728
11
15.4217834
21
30.1707728
0
LINE
8
DEFAULT_255_2_778
10
14.6306834
20
30.1707728
11
14.6306834
21
31.8849728
0
LINE
8
DEFAULT_255_2_778
10
14.6306834
20
27.4547728
11
14.6306834
21
29.1689728
0
LINE
8
DEFAULT_255_2_778
10
14.6306834
20
29.1689728
11
13.5807834
21
29.1689728
0
LINE
8
DEFAULT_255_2_778
10
13.5807834
20
29.1689728
11
13.5807834
21
30.1707728
0
LINE
8
DEFAULT_255_2_778
10
13.5807834
20
30.1707728
11
14.6306834
21
30.1707728
0
ARC
8
DEFAULT_255_2_778
10
22.9149714
20
25.5386882
40
2.2508007
50
260.0093724
51
270.0245993
0
LINE
8
DEFAULT_255_2_778
10
22.9159377
20
23.2878878
11
22.9168457
21
23.2878884
0
ARC
8
DEFAULT_255_2_778
10
22.9149522
20
25.5394217
40
2.2515341
50
270.0481839
51
280.2496983
0
ARC
8
DEFAULT_255_2_778
10
22.9173997
20
25.5333408
40
2.2451151
50
280.2158497
51
305.7481227
0
ARC
8
DEFAULT_255_2_778
10
22.9141302
20
25.5386728
40
2.2513527
50
305.7363743
51
352.1031006
0
ARC
8
DEFAULT_255_2_778
10
22.9033346
20
25.5379812
40
2.261952
50
352.1580238
51
0.011075
0
ARC
8
DEFAULT_255_2_778
10
22.9208427
20
25.5403919
40
2.2444447
50
359.9496197
51
25.4884178
0
ARC
8
DEFAULT_255_2_778
10
22.9144291
20
25.5377742
40
2.2513605
50
25.4783155
51
71.8446321
0
ARC
8
DEFAULT_255_2_778
10
22.9130333
20
25.5267547
40
2.2622674
50
71.8980021
51
79.7500675
0
ARC
8
DEFAULT_255_2_778
10
22.9153493
20
25.5448496
40
2.2440493
50
79.7260464
51
90.0048316
0
ARC
8
DEFAULT_255_2_778
10
22.9151298
20
25.5408256
40
2.2480736
50
89.9992289
51
90.3751944
0
ARC
8
DEFAULT_255_2_778
10
22.915447
20
25.529501
40
2.2593999
50
90.3813589
51
99.9644629
0
ARC
8
DEFAULT_255_2_778
10
22.9120072
20
25.5443184
40
2.2441591
50
99.9358827
51
125.2557685
0
ARC
8
DEFAULT_255_2_778
10
22.9160479
20
25.5378232
40
2.2517955
50
125.2443265
51
172.0234106
0
ARC
8
DEFAULT_255_2_778
10
22.9254502
20
25.5388627
40
2.2609637
50
172.0825612
51
180.0112583
0
ARC
8
DEFAULT_255_2_778
10
22.9086563
20
25.536471
40
2.2441707
50
179.9502802
51
205.2718051
0
ARC
8
DEFAULT_255_2_778
10
22.9156689
20
25.5393415
40
2.2517375
50
205.26168
51
252.0410022
0
ARC
8
DEFAULT_255_2_778
10
22.9164191
20
25.5490797
40
2.2612336
50
252.0990022
51
260.0264113
0
LINE
8
DEFAULT_255_2_778
10
23.3155865
20
27.7529184
11
23.3155865
21
25.9858184
0
LINE
8
DEFAULT_255_2_778
10
23.3155865
20
25.9858184
11
24.3654865
21
25.9858184
0
LINE
8
DEFAULT_255_2_778
10
24.3654865
20
25.9858184
11
24.3654865
21
24.9841184
0
LINE
8
DEFAULT_255_2_778
10
24.3654865
20
24.9841184
11
23.3155865
21
24.9841184
0
LINE
8
DEFAULT_255_2_778
10
23.3155865
20
24.9841184
11
23.3155865
21
23.3238184
0
LINE
8
DEFAULT_255_2_778
10
21.4748865
20
25.9858184
11
22.5247865
21
25.9858184
0
LINE
8
DEFAULT_255_2_778
10
22.5247865
20
25.9858184
11
22.5247865
21
27.7548184
0
LINE
8
DEFAULT_255_2_778
10
22.5247865
20
23.3220184
11
22.5247865
21
24.9841184
0
LINE
8
DEFAULT_255_2_778
10
22.5247865
20
24.9841184
11
21.4748865
21
24.9841184
0
LINE
8
DEFAULT_255_2_778
10
21.4748865
20
24.9841184
11
21.4748865
21
25.9858184
0
ARC
8
DEFAULT_255_2_778
10
22.9149714
20
18.0384882
40
2.2508007
50
260.0093724
51
270.0245993
0
LINE
8
DEFAULT_255_2_778
10
22.9159377
20
15.7876878
11
22.9168457
21
15.7876884
0
ARC
8
DEFAULT_255_2_778
10
22.9149522
20
18.0392217
40
2.2515341
50
270.0481839
51
280.2496983
0
ARC
8
DEFAULT_255_2_778
10
22.9173997
20
18.0331408
40
2.2451151
50
280.2158497
51
305.7481227
0
ARC
8
DEFAULT_255_2_778
10
22.9141302
20
18.0384728
40
2.2513527
50
305.7363743
51
352.1031006
0
ARC
8
DEFAULT_255_2_778
10
22.9033346
20
18.0377812
40
2.261952
50
352.1580238
51
0.011075
0
ARC
8
DEFAULT_255_2_778
10
22.9208427
20
18.0401919
40
2.2444447
50
359.9496197
51
25.4884178
0
ARC
8
DEFAULT_255_2_778
10
22.9144291
20
18.0375742
40
2.2513605
50
25.4783155
51
71.8446321
0
ARC
8
DEFAULT_255_2_778
10
22.9130333
20
18.0265547
40
2.2622674
50
71.8980021
51
79.7500675
0
ARC
8
DEFAULT_255_2_778
10
22.9153493
20
18.0446496
40
2.2440493
50
79.7260464
51
90.0048316
0
ARC
8
DEFAULT_255_2_778
10
22.9151298
20
18.0406256
40
2.2480736
50
89.9992289
51
90.3751944
0
ARC
8
DEFAULT_255_2_778
10
22.915447
20
18.029301
40
2.2593999
50
90.3813589
51
99.9644629
0
ARC
8
DEFAULT_255_2_778
10
22.9120072
20
18.0441184
40
2.2441591
50
99.9358827
51
125.2557685
0
ARC
8
DEFAULT_255_2_778
10
22.9160479
20
18.0376232
40
2.2517955
50
125.2443265
51
172.0234106
0
ARC
8
DEFAULT_255_2_778
10
22.9254502
20
18.0386627
40
2.2609637
50
172.0825612
51
180.0112583
0
ARC
8
DEFAULT_255_2_778
10
22.9086563
20
18.036271
40
2.2441707
50
179.9502802
51
205.2718051
0
ARC
8
DEFAULT_255_2_778
10
22.9156689
20
18.0391415
40
2.2517375
50
205.26168
51
252.0410022
0
ARC
8
DEFAULT_255_2_778
10
22.9164191
20
18.0488797
40
2.2612336
50
252.0990022
51
260.0264113
0
LINE
8
DEFAULT_255_2_778
10
23.3155865
20
20.2527184
11
23.3155865
21
18.4856184
0
LINE
8
DEFAULT_255_2_778
10
23.3155865
20
18.4856184
11
24.3654865
21
18.4856184
0
LINE
8
DEFAULT_255_2_778
10
24.3654865
20
18.4856184
11
24.3654865
21
17.4839184
0
LINE
8
DEFAULT_255_2_778
10
24.3654865
20
17.4839184
11
23.3155865
21
17.4839184
0
LINE
8
DEFAULT_255_2_778
10
23.3155865
20
17.4839184
11
23.3155865
21
15.8236184
0
LINE
8
DEFAULT_255_2_778
10
21.4748865
20
18.4856184
11
22.5247865
21
18.4856184
0
LINE
8
DEFAULT_255_2_778
10
22.5247865
20
18.4856184
11
22.5247865
21
20.2546184
0
LINE
8
DEFAULT_255_2_778
10
22.5247865
20
15.8218184
11
22.5247865
21
17.4839184
0
LINE
8
DEFAULT_255_2_778
10
22.5247865
20
17.4839184
11
21.4748865
21
17.4839184
0
LINE
8
DEFAULT_255_2_778
10
21.4748865
20
17.4839184
11
21.4748865
21
18.4856184
0
ARC
8
DEFAULT_255_2_778
10
15.0261245
20
22.1730923
40
2.2467872
50
79.8590853
51
89.9989501
0
ARC
8
DEFAULT_255_2_778
10
15.0262069
20
22.1730917
40
2.2467877
50
90.0010517
51
100.1409141
0
ARC
8
DEFAULT_255_2_778
10
15.0262129
20
22.1618428
40
2.2421384
50
259.83768
51
269.9987941
0
ARC
8
DEFAULT_255_2_778
10
15.0261183
20
22.161845
40
2.2421406
50
270.0012097
51
280.1623138
0
ARC
8
DEFAULT_255_2_778
10
15.0296026
20
22.1632613
40
2.2429229
50
280.0683215
51
305.6624332
0
ARC
8
DEFAULT_255_2_778
10
15.0250012
20
22.1704278
40
2.2514281
50
305.6512444
51
352.086754
0
ARC
8
DEFAULT_255_2_778
10
15.0152325
20
22.169544
40
2.2609831
50
352.1430189
51
0.0110348
0
ARC
8
DEFAULT_255_2_778
10
15.0327021
20
22.1719017
40
2.2435144
50
359.950909
51
25.5356692
0
ARC
8
DEFAULT_255_2_778
10
15.0250822
20
22.1687391
40
2.2517532
50
25.5247003
51
71.9524332
0
ARC
8
DEFAULT_255_2_778
10
15.0240085
20
22.1584162
40
2.2619019
50
72.0075852
51
79.8731165
0
ARC
8
DEFAULT_255_2_778
10
15.023296
20
22.176371
40
2.2432912
50
100.0735815
51
125.6640798
0
ARC
8
DEFAULT_255_2_778
10
15.0276906
20
22.1694219
40
2.2514993
50
125.6518379
51
172.0848717
0
ARC
8
DEFAULT_255_2_778
10
15.0370418
20
22.1704134
40
2.260626
50
172.1423998
51
180.0109996
0
ARC
8
DEFAULT_255_2_778
10
15.0201483
20
22.1680421
40
2.2437335
50
179.9505274
51
205.5344045
0
ARC
8
DEFAULT_255_2_778
10
15.0273248
20
22.1709705
40
2.2514713
50
205.5229246
51
251.9561006
0
ARC
8
DEFAULT_255_2_778
10
15.0283588
20
22.1812362
40
2.2615537
50
252.0117524
51
259.8783359
0
LINE
8
DEFAULT_255_2_778
10
16.4716157
20
21.6690794
11
15.4217157
21
21.6690794
0
LINE
8
DEFAULT_255_2_778
10
15.4217157
20
21.6690794
11
15.4217157
21
19.9548794
0
LINE
8
DEFAULT_255_2_778
10
15.4217157
20
24.3850794
11
15.4217157
21
22.6707794
0
LINE
8
DEFAULT_255_2_778
10
15.4217157
20
22.6707794
11
16.4716157
21
22.6707794
0
LINE
8
DEFAULT_255_2_778
10
16.4716157
20
22.6707794
11
16.4716157
21
21.6690794
0
LINE
8
DEFAULT_255_2_778
10
14.6309157
20
21.6690794
11
13.5810157
21
21.6690794
0
LINE
8
DEFAULT_255_2_778
10
13.5810157
20
21.6690794
11
13.5810157
21
22.6707794
0
LINE
8
DEFAULT_255_2_778
10
13.5810157
20
22.6707794
11
14.6309157
21
22.6707794
0
LINE
8
DEFAULT_255_2_778
10
14.6309157
20
22.6707794
11
14.6309157
21
24.3850794
0
LINE
8
DEFAULT_255_2_778
10
14.6309157
20
19.9548794
11
14.6309157
21
21.6690794
0
LINE
8
DEFAULT_255_2_778
10
19.73397
20
28.5776441
11
19.73397
21
22.2075441
0
LINE
8
DEFAULT_255_2_778
10
19.73397
20
36.1261441
11
19.73397
21
29.7560441
0
LINE
8
DEFAULT_255_2_778
10
19.73397
20
43.6747441
11
19.73397
21
37.3046441
0
LINE
8
DEFAULT_255_2_778
10
19.73397
20
51.2233441
11
19.73397
21
44.8531441
0
LINE
8
DEFAULT_255_2_778
10
26.09557
20
44.8531441
11
26.09557
21
51.2233441
0
LINE
8
DEFAULT_255_2_778
10
26.09557
20
37.3046441
11
26.09557
21
43.6747441
0
LINE
8
DEFAULT_255_2_778
10
26.09557
20
29.7560441
11
26.09557
21
36.1261441
0
LINE
8
DEFAULT_255_2_778
10
26.09557
20
22.2075441
11
26.09557
21
28.5776441
0
LINE
8
DEFAULT_255_2_778
10
19.73397
20
21.0290441
11
19.73397
21
14.9735441
0
LINE
8
DEFAULT_255_2_778
10
19.73397
20
14.9735441
11
26.09557
21
14.9735441
0
LINE
8
DEFAULT_255_2_778
10
26.09557
20
14.9735441
11
26.09557
21
21.0290441
0
LINE
8
DEFAULT_255_2_778
10
11.85337
20
25.3589441
11
11.85337
21
19.1089441
0
LINE
8
DEFAULT_255_2_778
10
11.85337
20
32.8588441
11
11.85337
21
26.6088441
0
LINE
8
DEFAULT_255_2_778
10
11.85337
20
40.3589441
11
11.85337
21
34.1089441
0
LINE
8
DEFAULT_255_2_778
10
11.85337
20
47.8588441
11
11.85337
21
41.6088441
0
LINE
8
DEFAULT_255_2_778
10
11.85337
20
55.3590441
11
11.85337
21
49.1090441
0
LINE
8
DEFAULT_255_2_778
10
18.10327
20
49.1090441
11
18.10327
21
55.3590441
0
LINE
8
DEFAULT_255_2_778
10
18.10327
20
41.6088441
11
18.10327
21
47.8588441
0
LINE
8
DEFAULT_255_2_778
10
18.10327
20
34.1089441
11
18.10327
21
40.3589441
0
LINE
8
DEFAULT_255_2_778
10
18.10327
20
26.6088441
11
18.10327
21
32.8588441
0
LINE
8
DEFAULT_255_2_778
10
18.10327
20
19.1089441
11
18.10327
21
25.3589441
0
LINE
8
DEFAULT_255_2_778
10
11.35327
20
55.3590441
11
11.35327
21
49.1090441
0
LINE
8
DEFAULT_255_2_778
10
11.35327
20
17.6590441
11
11.35327
21
14.6589441
0
LINE
8
DEFAULT_255_2_778
10
11.35327
20
40.3589441
11
11.35327
21
34.1089441
0
LINE
8
DEFAULT_255_2_778
10
11.35327
20
47.8588441
11
11.35327
21
41.6088441
0
LINE
8
DEFAULT_255_2_778
10
11.35327
20
32.8588441
11
11.35327
21
26.6088441
0
LINE
8
DEFAULT_255_2_778
10
11.35327
20
25.3589441
11
11.35327
21
19.1089441
0
LINE
8
DEFAULT_255_2_778
10
22.10327
20
11.5408441
11
22.10327
21
11.5088441
0
LINE
8
DEFAULT_255_2_778
10
17.60327
20
11.5408441
11
17.60327
21
11.5088441
0
LINE
8
DEFAULT_255_2_778
10
13.85327
20
58.5088441
11
13.85327
21
56.5088441
0
LINE
8
DEFAULT_255_2_778
10
16.85347
20
58.5088441
11
16.85347
21
56.5088441
0
LINE
8
DEFAULT_255_2_778
10
25.85347
20
58.5088441
11
25.85347
21
56.5088441
0
LINE
8
DEFAULT_255_2_778
10
22.85337
20
58.5088441
11
22.85337
21
56.5088441
0
LINE
8
DEFAULT_255_2_778
10
22.85337
20
11.5088441
11
22.85337
21
13.5087441
0
LINE
8
DEFAULT_255_2_778
10
13.85327
20
11.5088441
11
13.85327
21
13.5087441
0
LINE
8
DEFAULT_255_2_778
10
16.85347
20
11.5088441
11
16.85347
21
13.5087441
0
LINE
8
DEFAULT_255_2_778
10
19.15347
20
49.1087441
11
11.35357
21
49.1087441
0
LINE
8
DEFAULT_255_2_778
10
11.35357
20
49.1087441
11
11.35357
21
47.8588441
0
LINE
8
DEFAULT_255_2_778
10
11.35357
20
47.8588441
11
19.15347
21
47.8588441
0
LINE
8
DEFAULT_255_2_778
10
19.15347
20
26.6088441
11
11.35357
21
26.6088441
0
LINE
8
DEFAULT_255_2_778
10
11.35357
20
26.6088441
11
11.35357
21
25.3589441
0
LINE
8
DEFAULT_255_2_778
10
11.35357
20
25.3589441
11
19.15347
21
25.3589441
0
LINE
8
DEFAULT_255_2_778
10
19.15347
20
17.6590441
11
11.35357
21
17.6590441
0
LINE
8
DEFAULT_255_2_778
10
11.35357
20
17.6590441
11
11.35357
21
19.1089441
0
LINE
8
DEFAULT_255_2_778
10
11.35357
20
19.1089441
11
19.15347
21
19.1089441
0
LINE
8
DEFAULT_255_2_778
10
19.15347
20
41.6088441
11
11.35357
21
41.6088441
0
LINE
8
DEFAULT_255_2_778
10
11.35357
20
41.6088441
11
11.35357
21
40.3589441
0
LINE
8
DEFAULT_255_2_778
10
11.35357
20
40.3589441
11
19.15347
21
40.3589441
0
LINE
8
DEFAULT_255_2_778
10
19.15347
20
34.1089441
11
11.35357
21
34.1089441
0
LINE
8
DEFAULT_255_2_778
10
11.35357
20
34.1089441
11
11.35357
21
32.8591441
0
LINE
8
DEFAULT_255_2_778
10
11.35357
20
32.8591441
11
19.15347
21
32.8591441
0
LINE
8
DEFAULT_255_2_778
10
19.15347
20
43.6750441
11
19.15347
21
37.3048441
0
LINE
8
DEFAULT_255_2_778
10
19.15347
20
21.0290441
11
19.15347
21
14.6589441
0
LINE
8
DEFAULT_255_2_778
10
19.15347
20
51.2233441
11
19.15347
21
44.8531441
0
LINE
8
DEFAULT_255_2_778
10
19.15347
20
36.1259441
11
19.15347
21
29.7558441
0
LINE
8
DEFAULT_255_2_778
10
19.15347
20
28.5770441
11
19.15347
21
22.2069441
0
LINE
8
DEFAULT_255_2_778
10
25.85347
20
59.0443441
11
25.85347
21
58.5086441
0
LINE
8
DEFAULT_255_2_778
10
25.85347
20
58.5086441
11
13.85327
21
58.5086441
0
LINE
8
DEFAULT_255_2_778
10
13.85327
20
58.5086441
11
13.85327
21
61.0086441
0
LINE
8
DEFAULT_255_2_778
10
13.85327
20
61.0086441
11
25.85327
21
61.0086441
0
LINE
8
DEFAULT_255_2_778
10
25.85327
20
61.0086441
11
25.85327
21
59.0446441
0
LINE
8
DEFAULT_255_2_778
10
25.85327
20
59.0446441
11
13.85327
21
59.0446441
0
LINE
8
DEFAULT_255_2_778
10
25.85327
20
13.5087441
11
25.85327
21
9.0087441
0
LINE
8
DEFAULT_255_2_778
10
25.85327
20
9.0087441
11
13.85327
21
9.0087441
0
LINE
8
DEFAULT_255_2_778
10
13.85327
20
9.0087441
11
13.85327
21
11.5088441
0
LINE
8
DEFAULT_255_2_778
10
13.85327
20
11.5088441
11
25.85327
21
11.5088441
0
LINE
8
DEFAULT_255_2_778
10
19.15317
20
55.3590441
11
19.15317
21
52.6089441
0
LINE
8
DEFAULT_255_2_778
10
19.15317
20
52.6089441
11
26.95307
21
52.6089441
0
LINE
8
DEFAULT_255_2_778
10
26.95307
20
52.6089441
11
26.95307
21
55.3590441
0
LINE
8
DEFAULT_255_2_778
10
26.95307
20
55.3590441
11
11.35327
21
55.3590441
0
LINE
8
DEFAULT_255_2_778
10
11.35327
20
55.3590441
11
11.35327
21
56.5088441
0
LINE
8
DEFAULT_255_2_778
10
11.35327
20
56.5088441
11
28.35327
21
56.5088441
0
LINE
8
DEFAULT_255_2_778
10
28.35327
20
56.5088441
11
28.35327
21
13.5087441
0
LINE
8
DEFAULT_255_2_778
10
28.35327
20
13.5087441
11
11.35327
21
13.5087441
0
LINE
8
DEFAULT_255_2_778
10
11.35327
20
13.5087441
11
11.35327
21
14.6586441
0
LINE
8
DEFAULT_255_2_778
10
11.35327
20
14.6586441
11
26.95337
21
14.6586441
0
LINE
8
DEFAULT_255_2_778
10
26.95337
20
14.6586441
11
26.95337
21
21.0287441
0
LINE
8
DEFAULT_255_2_778
10
26.95337
20
21.0287441
11
19.15347
21
21.0287441
0
LINE
8
DEFAULT_255_2_778
10
19.15347
20
21.0287441
11
19.15347
21
22.2075441
0
LINE
8
DEFAULT_255_2_778
10
19.15347
20
22.2075441
11
26.95337
21
22.2075441
0
LINE
8
DEFAULT_255_2_778
10
26.95337
20
22.2075441
11
26.95337
21
28.5776441
0
LINE
8
DEFAULT_255_2_778
10
26.95337
20
28.5776441
11
19.15347
21
28.5776441
0
LINE
8
DEFAULT_255_2_778
10
19.15347
20
28.5776441
11
19.15347
21
29.7563441
0
LINE
8
DEFAULT_255_2_778
10
19.15347
20
29.7563441
11
26.95337
21
29.7563441
0
LINE
8
DEFAULT_255_2_778
10
26.95337
20
29.7563441
11
26.95337
21
36.1264441
0
LINE
8
DEFAULT_255_2_778
10
26.95337
20
36.1264441
11
19.15347
21
36.1264441
0
LINE
8
DEFAULT_255_2_778
10
19.15347
20
36.1264441
11
19.15347
21
37.3051441
0
LINE
8
DEFAULT_255_2_778
10
19.15347
20
37.3051441
11
26.95337
21
37.3051441
0
LINE
8
DEFAULT_255_2_778
10
26.95337
20
37.3051441
11
26.95337
21
43.6752441
0
LINE
8
DEFAULT_255_2_778
10
26.95337
20
43.6752441
11
19.15347
21
43.6752441
0
LINE
8
DEFAULT_255_2_778
10
19.15347
20
43.6752441
11
19.15347
21
44.8539441
0
LINE
8
DEFAULT_255_2_778
10
19.15347
20
44.8539441
11
26.95337
21
44.8539441
0
LINE
8
DEFAULT_255_2_778
10
26.95337
20
44.8539441
11
26.95337
21
51.2240441
0
LINE
8
DEFAULT_255_2_778
10
26.95337
20
51.2240441
11
19.15347
21
51.2240441
0
LINE
8
DEFAULT_255_2_778
10
19.15347
20
51.2240441
11
19.15347
21
52.6097441
0
LINE
8
DEFAULT_255_2_778
10
25.98657
20
13.5098441
11
25.98657
21
13.0082441
0
LINE
8
DEFAULT_255_2_778
10
17.35347
20
9.0098441
11
17.35347
21
8.5097441
0
LINE
8
DEFAULT_255_2_778
10
17.35347
20
8.5097441
11
22.35357
21
8.5097441
0
LINE
8
DEFAULT_255_2_778
10
22.35357
20
8.5097441
11
22.35357
21
9.0098441
0
LINE
8
DEFAULT_255_2_778
10
25.85347
20
13.0082441
11
28.35517
21
13.0082441
0
LINE
8
DEFAULT_255_2_778
10
28.35517
20
13.0082441
11
28.35517
21
55.5082441
0
LINE
8
DEFAULT_255_2_778
10
21.95327
20
13.5087441
11
21.95327
21
13.0071441
0
LINE
8
DEFAULT_255_2_778
10
21.95327
20
13.0071441
11
22.85337
21
13.0071441
0
ARC
8
DEFAULT_255_2_778
10
13.2920166
20
81.2263144
40
0.0952397
50
136.4914442
51
158.8079986
0
ARC
8
DEFAULT_255_2_778
10
14.2385102
20
80.4820654
40
1.2989164
50
138.1816437
51
141.4310085
0
ARC
8
DEFAULT_255_2_778
10
16.5485464
20
78.4309719
40
4.3881252
50
136.4566722
51
138.3339257
0
ARC
8
DEFAULT_255_2_778
10
19.7269356
20
75.4223466
40
8.7646474
50
134.9406444
51
136.5141253
0
ARC
8
DEFAULT_255_2_778
10
13.1737704
20
79.675535
40
0.08909
50
46.6941834
51
69.3582948
0
ARC
8
DEFAULT_255_2_778
10
12.3525958
20
78.6325079
40
1.4162519
50
47.7434084
51
51.4667346
0
ARC
8
DEFAULT_255_2_778
10
9.9804212
20
75.9856432
40
4.9705365
50
46.2639996
51
48.0217459
0
ARC
8
DEFAULT_255_2_778
10
7.2963908
20
73.1652561
40
8.8639334
50
45.098828
51
46.3321056
0
LINE
8
DEFAULT_255_2_778
10
13.2032178
20
81.2588052
11
9.9533178
21
81.2588052
0
LINE
8
DEFAULT_255_2_778
10
13.2032178
20
79.7589052
11
13.2032178
21
81.2607052
0
LINE
8
DEFAULT_255_2_778
10
13.5358178
20
81.6263052
11
13.5533178
21
81.6438052
0
LINE
8
DEFAULT_255_2_778
10
9.6033178
20
79.4438052
11
9.9515178
21
79.7589052
0
LINE
8
DEFAULT_255_2_778
10
9.9515178
20
79.7589052
11
13.2051178
21
79.7589052
0
LINE
8
DEFAULT_255_2_778
10
9.6033178
20
81.6438052
11
9.6033178
21
79.4438052
0
LINE
8
DEFAULT_255_2_778
10
9.6033178
20
79.4438052
11
13.5533178
21
79.4438052
0
LINE
8
DEFAULT_255_2_778
10
13.5533178
20
79.4438052
11
13.5533178
21
81.6438052
0
LINE
8
DEFAULT_255_2_778
10
13.5533178
20
81.6438052
11
9.6033178
21
81.6438052
0
LINE
8
DEFAULT_255_2_778
10
9.6033178
20
81.6438052
11
9.6208178
21
81.6263052
0
LINE
8
DEFAULT_255_2_778
10
9.6208178
20
81.6263052
11
9.9533178
21
81.2607052
0
LINE
8
DEFAULT_255_2_778
10
9.9533178
20
81.2607052
11
9.9533178
21
79.7589052
0
ARC
8
DEFAULT_255_2_778
10
13.2920166
20
78.2262144
40
0.0952397
50
136.4914442
51
158.8079986
0
ARC
8
DEFAULT_255_2_778
10
14.2385102
20
77.4819654
40
1.2989164
50
138.1816437
51
141.4310085
0
ARC
8
DEFAULT_255_2_778
10
16.5485464
20
75.4308719
40
4.3881252
50
136.4566722
51
138.3339257
0
ARC
8
DEFAULT_255_2_778
10
19.7269356
20
72.4222466
40
8.7646474
50
134.9406444
51
136.5141253
0
ARC
8
DEFAULT_255_2_778
10
13.1737704
20
76.675435
40
0.08909
50
46.6941834
51
69.3582948
0
ARC
8
DEFAULT_255_2_778
10
12.3525958
20
75.6324079
40
1.4162519
50
47.7434084
51
51.4667346
0
ARC
8
DEFAULT_255_2_778
10
9.9804212
20
72.9855432
40
4.9705365
50
46.2639996
51
48.0217459
0
ARC
8
DEFAULT_255_2_778
10
7.2963908
20
70.1651561
40
8.8639334
50
45.098828
51
46.3321056
0
LINE
8
DEFAULT_255_2_778
10
13.2032178
20
78.2587052
11
9.9533178
21
78.2587052
0
LINE
8
DEFAULT_255_2_778
10
13.2032178
20
76.7588052
11
13.2032178
21
78.2606052
0
LINE
8
DEFAULT_255_2_778
10
13.5358178
20
78.6262052
11
13.5533178
21
78.6437052
0
LINE
8
DEFAULT_255_2_778
10
9.6033178
20
78.6437052
11
9.6208178
21
78.6262052
0
LINE
8
DEFAULT_255_2_778
10
9.6208178
20
78.6262052
11
9.9533178
21
78.2606052
0
LINE
8
DEFAULT_255_2_778
10
9.9533178
20
78.2606052
11
9.9533178
21
76.7588052
0
LINE
8
DEFAULT_255_2_778
10
9.6033178
20
76.4437052
11
9.9515178
21
76.7588052
0
LINE
8
DEFAULT_255_2_778
10
9.9515178
20
76.7588052
11
13.2051178
21
76.7588052
0
LINE
8
DEFAULT_255_2_778
10
13.5533178
20
76.4437052
11
9.6033178
21
76.4437052
0
LINE
8
DEFAULT_255_2_778
10
9.6033178
20
76.4437052
11
9.6033178
21
78.6437052
0
LINE
8
DEFAULT_255_2_778
10
9.6033178
20
78.6437052
11
13.5533178
21
78.6437052
0
LINE
8
DEFAULT_255_2_778
10
13.5533178
20
78.6437052
11
13.5533178
21
76.4437052
0
ARC
8
DEFAULT_255_2_778
10
13.2920166
20
75.2260769
40
0.0952397
50
136.4914442
51
158.8079986
0
ARC
8
DEFAULT_255_2_778
10
14.2385102
20
74.4818279
40
1.2989164
50
138.1816437
51
141.4310085
0
ARC
8
DEFAULT_255_2_778
10
16.5485464
20
72.4307344
40
4.3881252
50
136.4566722
51
138.3339257
0
ARC
8
DEFAULT_255_2_778
10
19.7269356
20
69.4221091
40
8.7646474
50
134.9406444
51
136.5141253
0
LINE
8
DEFAULT_255_2_778
10
13.2032178
20
75.2588677
11
9.9533178
21
75.2588677
0
LINE
8
DEFAULT_255_2_778
10
9.9533178
20
75.2588677
11
9.9533178
21
74.5539677
0
LINE
8
DEFAULT_255_2_778
10
9.9533178
20
73.7589677
11
13.2032178
21
73.7589677
0
LINE
8
DEFAULT_255_2_778
10
13.5533178
20
73.4088677
11
13.2032178
21
73.7589677
0
LINE
8
DEFAULT_255_2_778
10
13.2032178
20
73.7589677
11
13.2032178
21
74.5539677
0
LINE
8
DEFAULT_255_2_778
10
9.6033178
20
73.4088677
11
13.5533178
21
73.4088677
0
LINE
8
DEFAULT_255_2_778
10
13.5533178
20
73.4088677
11
13.5533178
21
74.5539677
0
LINE
8
DEFAULT_255_2_778
10
13.5533178
20
74.5539677
11
13.2032178
21
74.5539677
0
LINE
8
DEFAULT_255_2_778
10
13.2032178
20
74.5539677
11
13.2032178
21
75.2604677
0
LINE
8
DEFAULT_255_2_778
10
13.5358178
20
75.6260677
11
13.5533178
21
75.6435677
0
LINE
8
DEFAULT_255_2_778
10
9.9533178
20
74.5537677
11
9.9533178
21
73.7586677
0
LINE
8
DEFAULT_255_2_778
10
9.9533178
20
73.7586677
11
9.6033178
21
73.4086677
0
LINE
8
DEFAULT_255_2_778
10
9.6033178
20
73.4086677
11
9.6033178
21
74.5537677
0
LINE
8
DEFAULT_255_2_778
10
9.6033178
20
74.5537677
11
9.9533178
21
74.5537677
0
LINE
8
DEFAULT_255_2_778
10
9.9533178
20
72.2590052
11
9.9533178
21
70.7590052
0
LINE
8
DEFAULT_255_2_778
10
13.2032178
20
72.2590052
11
9.9533178
21
72.2590052
0
LINE
8
DEFAULT_255_2_778
10
9.9533178
20
72.2590052
11
9.6033178
21
72.6090052
0
LINE
8
DEFAULT_255_2_778
10
13.2032178
20
70.7590052
11
13.2032178
21
72.2590052
0
LINE
8
DEFAULT_255_2_778
10
13.2032178
20
72.2590052
11
13.5533178
21
72.6090052
0
LINE
8
DEFAULT_255_2_778
10
13.5533178
20
72.6090052
11
13.5533178
21
70.4090052
0
LINE
8
DEFAULT_255_2_778
10
13.5533178
20
70.4090052
11
9.6033178
21
70.4090052
0
LINE
8
DEFAULT_255_2_778
10
9.6033178
20
70.4090052
11
9.6033178
21
72.6090052
0
LINE
8
DEFAULT_255_2_778
10
9.6033178
20
72.6090052
11
13.5533178
21
72.6090052
0
LINE
8
DEFAULT_255_2_778
10
9.6033178
20
70.4090052
11
9.9533178
21
70.7590052
0
LINE
8
DEFAULT_255_2_778
10
9.9533178
20
70.7590052
11
13.2032178
21
70.7590052
0
LINE
8
DEFAULT_255_2_778
10
13.2032178
20
70.7590052
11
13.5533178
21
70.4090052
0
LINE
8
DEFAULT_255_2_778
10
17.2034178
20
70.7590052
11
20.4533178
21
70.7590052
0
LINE
8
DEFAULT_255_2_778
10
17.2034178
20
72.2590052
11
17.2034178
21
70.7590052
0
LINE
8
DEFAULT_255_2_778
10
17.2034178
20
70.7590052
11
16.8534178
21
70.4090052
0
LINE
8
DEFAULT_255_2_778
10
20.4533178
20
72.2590052
11
17.2034178
21
72.2590052
0
LINE
8
DEFAULT_255_2_778
10
17.2034178
20
72.2590052
11
16.8534178
21
72.6090052
0
LINE
8
DEFAULT_255_2_778
10
20.8034178
20
70.4090052
11
20.8034178
21
72.6090052
0
LINE
8
DEFAULT_255_2_778
10
20.8034178
20
72.6090052
11
16.8534178
21
72.6090052
0
LINE
8
DEFAULT_255_2_778
10
16.8534178
20
72.6090052
11
16.8534178
21
70.4090052
0
LINE
8
DEFAULT_255_2_778
10
16.8534178
20
70.4090052
11
20.8034178
21
70.4090052
0
LINE
8
DEFAULT_255_2_778
10
20.8034178
20
70.4090052
11
20.4533178
21
70.7590052
0
LINE
8
DEFAULT_255_2_778
10
20.4533178
20
70.7590052
11
20.4533178
21
72.2590052
0
LINE
8
DEFAULT_255_2_778
10
20.4533178
20
72.2590052
11
20.8034178
21
72.6090052
0
LINE
8
DEFAULT_255_2_778
10
17.2034178
20
73.7589677
11
20.4533178
21
73.7589677
0
LINE
8
DEFAULT_255_2_778
10
20.4533178
20
75.2588677
11
17.2034178
21
75.2588677
0
LINE
8
DEFAULT_255_2_778
10
16.8534178
20
75.6438677
11
16.8709178
21
75.6263677
0
LINE
8
DEFAULT_255_2_778
10
16.8709178
20
75.6263677
11
17.2034178
21
75.2607677
0
LINE
8
DEFAULT_255_2_778
10
17.2034178
20
75.2607677
11
17.2034178
21
74.5540677
0
LINE
8
DEFAULT_255_2_778
10
20.8034178
20
73.4089677
11
20.4533178
21
73.7589677
0
LINE
8
DEFAULT_255_2_778
10
20.4533178
20
73.7589677
11
20.4533178
21
74.5540677
0
LINE
8
DEFAULT_255_2_778
10
20.8034178
20
75.6438677
11
20.7859178
21
75.6263677
0
LINE
8
DEFAULT_255_2_778
10
20.7859178
20
75.6263677
11
20.4533178
21
75.2607677
0
LINE
8
DEFAULT_255_2_778
10
20.4533178
20
75.2607677
11
20.4533178
21
74.5542677
0
LINE
8
DEFAULT_255_2_778
10
20.4533178
20
74.5542677
11
20.8034178
21
74.5542677
0
LINE
8
DEFAULT_255_2_778
10
20.8034178
20
74.5542677
11
20.8034178
21
73.4091677
0
LINE
8
DEFAULT_255_2_778
10
20.8034178
20
73.4091677
11
16.8534178
21
73.4091677
0
LINE
8
DEFAULT_255_2_778
10
16.8534178
20
73.4091677
11
16.8534178
21
74.5542677
0
LINE
8
DEFAULT_255_2_778
10
16.8534178
20
74.5542677
11
17.2034178
21
74.5542677
0
LINE
8
DEFAULT_255_2_778
10
17.2034178
20
74.5542677
11
17.2034178
21
73.7589677
0
LINE
8
DEFAULT_255_2_778
10
17.2034178
20
73.7589677
11
16.8534178
21
73.4089677
0
ARC
8
DEFAULT_255_2_778
10
20.5422883
20
78.2263642
40
0.0951031
50
136.4878601
51
158.8606224
0
ARC
8
DEFAULT_255_2_778
10
21.4858902
20
77.484497
40
1.2950341
50
138.1741007
51
141.4338914
0
ARC
8
DEFAULT_255_2_778
10
23.79709
20
75.4318812
40
4.3861238
50
136.4490516
51
138.3270835
0
ARC
8
DEFAULT_255_2_778
10
27.0038887
20
72.3955101
40
8.8023517
50
134.9402028
51
136.5065649
0
ARC
8
DEFAULT_255_2_778
10
20.424198
20
76.6755591
40
0.0889177
50
46.6954322
51
69.4262621
0
ARC
8
DEFAULT_255_2_778
10
19.6064403
20
75.6365644
40
1.4107972
50
47.7362086
51
51.4739326
0
ARC
8
DEFAULT_255_2_778
10
17.2321951
20
72.9879313
40
4.9677805
50
46.2573773
51
48.0158939
0
ARC
8
DEFAULT_255_2_778
10
14.5164249
20
70.1348873
40
8.906715
50
45.0985134
51
46.3257942
0
ARC
8
DEFAULT_255_2_778
10
17.1146787
20
78.2263639
40
0.0951069
50
21.13868
51
43.510182
0
ARC
8
DEFAULT_255_2_778
10
16.1701928
20
77.4838487
40
1.2961334
50
38.5640149
51
41.8208666
0
ARC
8
DEFAULT_255_2_778
10
13.8530831
20
75.4263135
40
4.3949086
50
41.6681486
51
43.5422228
0
ARC
8
DEFAULT_255_2_778
10
10.6266637
20
72.372258
40
8.8375428
50
43.4847761
51
45.0445846
0
LINE
8
DEFAULT_255_2_778
10
20.4532855
20
78.2587052
11
17.2033855
21
78.2587052
0
LINE
8
DEFAULT_255_2_778
10
20.4535855
20
76.7588052
11
20.4535855
21
78.2606052
0
LINE
8
DEFAULT_255_2_778
10
20.7861855
20
78.6262052
11
20.8035855
21
78.6437052
0
LINE
8
DEFAULT_255_2_778
10
17.2018855
20
76.7588052
11
20.4553855
21
76.7588052
0
LINE
8
DEFAULT_255_2_778
10
20.8035855
20
76.4437052
11
16.8533855
21
76.4437052
0
LINE
8
DEFAULT_255_2_778
10
16.8533855
20
76.4437052
11
16.8533855
21
78.6437052
0
LINE
8
DEFAULT_255_2_778
10
16.8533855
20
78.6437052
11
20.8033855
21
78.6437052
0
LINE
8
DEFAULT_255_2_778
10
20.8033855
20
78.6437052
11
20.8033855
21
76.4437052
0
LINE
8
DEFAULT_255_2_778
10
16.8533855
20
76.4437052
11
17.2015855
21
76.7588052
0
LINE
8
DEFAULT_255_2_778
10
17.2015855
20
76.7588052
11
17.2033855
21
78.2606052
0
LINE
8
DEFAULT_255_2_778
10
16.8708855
20
78.6262052
11
16.8533855
21
78.6437052
0
ARC
8
DEFAULT_255_2_778
10
17.114711
20
81.2264639
40
0.0951069
50
21.13868
51
43.510182
0
ARC
8
DEFAULT_255_2_778
10
16.1702251
20
80.4839487
40
1.2961334
50
38.5640149
51
41.8208666
0
ARC
8
DEFAULT_255_2_778
10
13.8531154
20
78.4264135
40
4.3949086
50
41.6681486
51
43.5422228
0
ARC
8
DEFAULT_255_2_778
10
10.626696
20
75.372358
40
8.8375428
50
43.4847761
51
45.0445846
0
ARC
8
DEFAULT_255_2_778
10
20.5421166
20
81.2263144
40
0.0952397
50
136.4914442
51
158.8079986
0
ARC
8
DEFAULT_255_2_778
10
21.4886102
20
80.4820654
40
1.2989164
50
138.1816437
51
141.4310085
0
ARC
8
DEFAULT_255_2_778
10
23.7986464
20
78.4309719
40
4.3881252
50
136.4566722
51
138.3339257
0
ARC
8
DEFAULT_255_2_778
10
26.9770356
20
75.4223466
40
8.7646474
50
134.9406444
51
136.5141253
0
LINE
8
DEFAULT_255_2_778
10
20.4533178
20
81.2588052
11
17.2034178
21
81.2588052
0
LINE
8
DEFAULT_255_2_778
10
17.2016178
20
79.7589052
11
20.4552178
21
79.7589052
0
LINE
8
DEFAULT_255_2_778
10
16.8534178
20
79.4438052
11
17.2016178
21
79.7589052
0
LINE
8
DEFAULT_255_2_778
10
17.2016178
20
79.7589052
11
17.2034178
21
81.2607052
0
LINE
8
DEFAULT_255_2_778
10
16.8709178
20
81.6263052
11
16.8534178
21
81.6438052
0
LINE
8
DEFAULT_255_2_778
10
16.8534178
20
81.6438052
11
20.8034178
21
81.6438052
0
LINE
8
DEFAULT_255_2_778
10
20.8034178
20
81.6438052
11
20.8034178
21
79.4438052
0
LINE
8
DEFAULT_255_2_778
10
20.8034178
20
79.4438052
11
16.8534178
21
79.4438052
0
LINE
8
DEFAULT_255_2_778
10
16.8534178
20
79.4438052
11
16.8534178
21
81.6438052
0
LINE
8
DEFAULT_255_2_778
10
20.8034178
20
79.4438052
11
20.4533178
21
79.7589052
0
LINE
8
DEFAULT_255_2_778
10
20.4533178
20
79.7589052
11
20.4533178
21
81.2607052
0
LINE
8
DEFAULT_255_2_778
10
20.7859178
20
81.6263052
11
20.8034178
21
81.6438052
0
ARC
8
DEFAULT_255_2_778
10
3.9035401
20
66.5939405
40
0.7577168
50
70.6933232
51
90.9963317
0
ARC
8
DEFAULT_255_2_778
10
3.9795785
20
66.8259502
40
0.5136384
50
44.621892
51
70.1416106
0
ARC
8
DEFAULT_255_2_778
10
3.936802
20
66.7981239
40
0.5637238
50
7.990884
51
43.5808898
0
ARC
8
DEFAULT_255_2_778
10
3.5865442
20
66.727577
40
0.9206312
50
359.7240276
51
9.3085613
0
ARC
8
DEFAULT_255_2_778
10
3.7164356
20
66.4579851
40
0.7908368
50
341.7200799
51
0.9460608
0
ARC
8
DEFAULT_255_2_778
10
3.9771539
20
66.3756223
40
0.517454
50
314.9711191
51
341.3247362
0
ARC
8
DEFAULT_255_2_778
10
3.960433
20
66.4097197
40
0.5535301
50
279.8564682
51
313.7010569
0
ARC
8
DEFAULT_255_2_778
10
3.873015
20
66.801466
40
0.9546487
50
269.5828475
51
281.0009797
0
ARC
8
DEFAULT_255_2_778
10
3.8834175
20
66.5804921
40
0.5715895
50
268.7315739
51
288.7390561
0
ARC
8
DEFAULT_255_2_778
10
3.9650633
20
66.3327338
40
0.3107434
50
289.1588308
51
317.6358989
0
ARC
8
DEFAULT_255_2_778
10
3.8803746
20
66.3884608
40
0.4111761
50
319.8508217
51
351.3328212
0
ARC
8
DEFAULT_255_2_778
10
3.5149333
20
66.4649372
40
0.7842377
50
349.8325225
51
359.7666126
0
ARC
8
DEFAULT_255_2_778
10
3.5490178
20
66.7409208
40
0.7502506
50
359.0470143
51
14.5133918
0
ARC
8
DEFAULT_255_2_778
10
3.9280405
20
66.8412205
40
0.3581934
50
14.1753108
51
41.196593
0
ARC
8
DEFAULT_255_2_778
10
3.9460144
20
66.8344229
40
0.3495575
50
43.9764875
51
84.2708211
0
ARC
8
DEFAULT_255_2_778
10
3.8927555
20
66.5497166
40
0.6386312
50
82.0657971
51
90.2324476
0
LINE
8
DEFAULT_255_2_778
10
3.8662646
20
65.8468427
11
3.4916646
21
65.8468427
0
LINE
8
DEFAULT_255_2_778
10
3.4916646
20
65.8468427
11
3.4916646
21
67.3515427
0
LINE
8
DEFAULT_255_2_778
10
3.4916646
20
67.3515427
11
3.8903646
21
67.3515427
0
LINE
8
DEFAULT_255_2_778
10
4.5071646
20
66.7231427
11
4.5071646
21
66.4710427
0
LINE
8
DEFAULT_255_2_778
10
3.8660646
20
65.8468427
11
3.8662646
21
65.8468427
0
LINE
8
DEFAULT_255_2_778
10
3.8903646
20
67.1883427
11
3.7019646
21
67.1883427
0
LINE
8
DEFAULT_255_2_778
10
3.7019646
20
67.1883427
11
3.7019646
21
66.0090427
0
LINE
8
DEFAULT_255_2_778
10
3.7019646
20
66.0090427
11
3.8707646
21
66.0090427
0
LINE
8
DEFAULT_255_2_778
10
4.2991646
20
66.4617427
11
4.2991646
21
66.7284427
0
LINE
8
DEFAULT_255_2_778
10
3.8901646
20
67.1883427
11
3.8903646
21
67.1883427
0
ARC
8
DEFAULT_255_2_778
10
3.8806388
20
67.7068403
40
1.8024631
50
320.1873881
51
325.4836593
0
ARC
8
DEFAULT_255_2_778
10
4.7559125
20
67.105888
40
0.7407447
50
325.4215727
51
332.8753176
0
ARC
8
DEFAULT_255_2_778
10
5.061654
20
66.9450923
40
0.3953359
50
333.4136822
51
0.198433
0
ARC
8
DEFAULT_255_2_778
10
5.1636861
20
66.9599386
40
0.2936109
50
357.3691143
51
37.9895781
0
ARC
8
DEFAULT_255_2_778
10
5.2384961
20
67.0130928
40
0.2019768
50
39.1683087
51
91.8750279
0
ARC
8
DEFAULT_255_2_778
10
5.2170247
20
66.9666508
40
0.2487551
50
86.5746011
51
137.1383828
0
ARC
8
DEFAULT_255_2_778
10
5.2678252
20
66.9461357
40
0.3005811
50
140.8615585
51
177.0934988
0
ARC
8
DEFAULT_255_2_778
10
5.5231013
20
66.9092066
40
0.557915
50
174.6344476
51
180.1176013
0
ARC
8
DEFAULT_255_2_778
10
5.2384766
20
66.9232758
40
0.4770318
50
145.8714183
51
181.8276919
0
ARC
8
DEFAULT_255_2_778
10
5.19199
20
66.9439
40
0.4270748
50
135.3454066
51
144.6626797
0
ARC
8
DEFAULT_255_2_778
10
5.1984106
20
66.927849
40
0.4429771
50
91.7086072
51
134.4522079
0
ARC
8
DEFAULT_255_2_778
10
5.2310763
20
66.6849394
40
0.6872224
50
89.9573756
51
93.8274699
0
ARC
8
DEFAULT_255_2_778
10
5.2450347
20
66.8752562
40
0.4970872
50
64.417094
51
91.5501491
0
ARC
8
DEFAULT_255_2_778
10
5.2955259
20
67.0001097
40
0.3627678
50
46.2274744
51
63.0945838
0
ARC
8
DEFAULT_255_2_778
10
5.2748634
20
66.9866529
40
0.3868197
50
357.4082835
51
45.3963781
0
ARC
8
DEFAULT_255_2_778
10
5.1314125
20
66.9821269
40
0.5300336
50
335.0058785
51
358.5983173
0
ARC
8
DEFAULT_255_2_778
10
4.6163117
20
67.2072625
40
1.0921058
50
324.0443341
51
335.718939
0
ARC
8
DEFAULT_255_2_778
10
4.0044035
20
67.6332891
40
1.8376302
50
319.5499091
51
324.4942854
0
LINE
8
DEFAULT_255_2_778
10
5.7236875
20
66.0029614
11
5.7236875
21
65.8468614
0
LINE
8
DEFAULT_255_2_778
10
5.7236875
20
65.8468614
11
4.7883875
21
65.8468614
0
LINE
8
DEFAULT_255_2_778
10
4.7883875
20
65.8468614
11
4.7883875
21
65.9844614
0
LINE
8
DEFAULT_255_2_778
10
4.7883875
20
65.9844614
11
5.2651875
21
66.5527614
0
LINE
8
DEFAULT_255_2_778
10
4.9651875
20
66.9080614
11
4.7616875
21
66.9080614
0
LINE
8
DEFAULT_255_2_778
10
5.4027875
20
66.4410614
11
5.0304875
21
66.0029614
0
LINE
8
DEFAULT_255_2_778
10
5.0304875
20
66.0029614
11
5.7231875
21
66.0029614
0
LINE
8
DEFAULT_255_2_778
10
5.7231875
20
66.0029614
11
5.7236875
21
66.0029614
0
LINE
8
DEFAULT_255_2_778
10
6.344201
20
66.5641521
11
6.344201
21
66.4080521
0
LINE
8
DEFAULT_255_2_778
10
6.344201
20
66.4080521
11
5.869801
21
66.4080521
0
LINE
8
DEFAULT_255_2_778
10
5.869801
20
66.4080521
11
5.869801
21
66.5641521
0
LINE
8
DEFAULT_255_2_778
10
5.869801
20
66.5641521
11
6.344201
21
66.5641521
0
LINE
8
DEFAULT_255_2_778
10
6.344201
20
66.5641521
11
6.344201
21
66.5641521
0
ARC
8
DEFAULT_255_2_778
10
5.9328695
20
66.4763489
40
1.4948098
50
351.134451
51
0.4738999
0
ARC
8
DEFAULT_255_2_778
10
6.6747615
20
66.3553434
40
0.7431509
50
335.2011927
51
351.5370693
0
ARC
8
DEFAULT_255_2_778
10
6.9263886
20
66.2473219
40
0.4694789
50
326.9107676
51
334.2882418
0
ARC
8
DEFAULT_255_2_778
10
7.0143415
20
66.1933695
40
0.366346
50
269.7418419
51
326.470527
0
ARC
8
DEFAULT_255_2_778
10
6.9811238
20
66.4382017
40
0.6119892
50
269.9723215
51
272.9566913
0
ARC
8
DEFAULT_255_2_778
10
6.9667714
20
66.2538442
40
0.4278627
50
239.3608102
51
271.882699
0
ARC
8
DEFAULT_255_2_778
10
6.9383665
20
66.1849169
40
0.3542435
50
214.4722672
51
237.6318448
0
ARC
8
DEFAULT_255_2_778
10
7.1316387
20
66.3067039
40
0.5825788
50
192.3210755
51
213.5878638
0
ARC
8
DEFAULT_255_2_778
10
7.7256871
20
66.449173
40
1.1934109
50
181.8183318
51
192.9175549
0
ARC
8
DEFAULT_255_2_778
10
8.2898132
20
66.484381
40
1.7584552
50
180.7972844
51
182.3817092
0
ARC
8
DEFAULT_255_2_778
10
7.9862059
20
66.7307095
40
1.4547298
50
170.9878146
51
180.4843353
0
ARC
8
DEFAULT_255_2_778
10
7.2580843
20
66.8519058
40
0.7166341
50
154.3757172
51
171.4390545
0
ARC
8
DEFAULT_255_2_778
10
7.0184256
20
66.958133
40
0.4546743
50
146.3293854
51
153.3845589
0
ARC
8
DEFAULT_255_2_778
10
6.9440999
20
67.0040522
40
0.3673714
50
90.1329849
51
145.8627731
0
ARC
8
DEFAULT_255_2_778
10
6.9780703
20
66.7594133
40
0.6129991
50
89.9665502
51
93.2565911
0
ARC
8
DEFAULT_255_2_778
10
6.9920543
20
66.9255929
40
0.4470273
50
62.1770758
51
91.7467398
0
ARC
8
DEFAULT_255_2_778
10
7.0325958
20
67.0231527
40
0.3419606
50
34.8200506
51
60.554898
0
ARC
8
DEFAULT_255_2_778
10
6.8410487
20
66.9018158
40
0.5685783
50
12.4983289
51
33.8362745
0
ARC
8
DEFAULT_255_2_778
10
6.2425225
20
66.7565733
40
1.1844167
50
1.8753456
51
13.0920324
0
ARC
8
DEFAULT_255_2_778
10
5.6766321
20
66.7200546
40
1.7512913
50
1.0521472
51
2.4636071
0
ARC
8
DEFAULT_255_2_778
10
5.9069766
20
66.7623433
40
1.3173083
50
359.4680181
51
8.0262206
0
ARC
8
DEFAULT_255_2_778
10
6.689027
20
66.8786628
40
0.5267113
50
7.3751298
51
24.1739157
0
ARC
8
DEFAULT_255_2_778
10
6.893298
20
66.9612857
40
0.3066305
50
25.7199757
51
27.319104
0
ARC
8
DEFAULT_255_2_778
10
6.9877294
20
67.0190497
40
0.1963832
50
24.9895975
51
92.7147178
0
ARC
8
DEFAULT_255_2_778
10
6.9702862
20
67.020938
40
0.1944451
50
87.6001567
51
154.6749351
0
ARC
8
DEFAULT_255_2_778
10
7.2446651
20
66.8829573
40
0.5015305
50
153.8348135
51
171.8458901
0
ARC
8
DEFAULT_255_2_778
10
7.9459052
20
66.7666542
40
1.2122786
50
171.1054434
51
179.9074442
0
ARC
8
DEFAULT_255_2_778
10
8.0018215
20
66.4462503
40
1.2682526
50
179.4460214
51
188.6264623
0
ARC
8
DEFAULT_255_2_778
10
7.2741955
20
66.3302058
40
0.5314817
50
188.0234413
51
205.5100931
0
ARC
8
DEFAULT_255_2_778
10
6.9758539
20
66.1793707
40
0.1974135
50
203.2911999
51
271.3567497
0
ARC
8
DEFAULT_255_2_778
10
6.9876362
20
66.1747729
40
0.1928914
50
267.888174
51
335.4772682
0
ARC
8
DEFAULT_255_2_778
10
6.7056956
20
66.3158627
40
0.5080866
50
334.1981006
51
351.7032948
0
ARC
8
DEFAULT_255_2_778
10
5.9595299
20
66.4396355
40
1.2643899
50
351.0323386
51
359.9320741
0
ARC
8
DEFAULT_255_2_778
10
-38.4478593
20
66.9182325
40
45.6743014
50
359.3977361
51
359.398835
0
LINE
8
DEFAULT_255_2_778
10
7.4276281
20
66.7522125
11
7.4276281
21
66.4887125
0
LINE
8
DEFAULT_255_2_778
10
6.5315281
20
66.4599125
11
6.5315281
21
66.7184125
0
LINE
8
DEFAULT_255_2_778
10
7.4276281
20
66.7522125
11
7.4276281
21
66.7522125
0
LINE
8
DEFAULT_255_2_778
10
7.2242281
20
66.4390125
11
7.2242281
21
66.7501125
0
LINE
8
DEFAULT_255_2_778
10
6.7336281
20
66.7686125
11
6.7336281
21
66.4585125
0
LINE
8
DEFAULT_255_2_778
10
7.2239281
20
66.4390125
11
7.2242281
21
66.4390125
0
ARC
8
DEFAULT_255_2_778
10
8.1901383
20
66.9526593
40
0.3659344
50
327.9263402
51
0.9841945
0
ARC
8
DEFAULT_255_2_778
10
8.1702584
20
66.9674812
40
0.3906557
50
297.4298508
51
327.632542
0
ARC
8
DEFAULT_255_2_778
10
8.1839376
20
66.2481939
40
0.407975
50
33.3274467
51
65.9472905
0
ARC
8
DEFAULT_255_2_778
10
8.1964687
20
66.2587743
40
0.3916964
50
359.1179946
51
33.0414029
0
ARC
8
DEFAULT_255_2_778
10
8.1687778
20
66.2368905
40
0.4196405
50
321.6329307
51
2.1651852
0
ARC
8
DEFAULT_255_2_778
10
8.1969622
20
66.2250347
40
0.3902698
50
313.5430334
51
320.4292331
0
ARC
8
DEFAULT_255_2_778
10
8.1694523
20
66.2650711
40
0.4383087
50
270.7793375
51
312.5442399
0
ARC
8
DEFAULT_255_2_778
10
8.1414992
20
66.4964584
40
0.6705137
50
269.976034
51
272.8992708
0
ARC
8
DEFAULT_255_2_778
10
8.1270749
20
66.3148123
40
0.4890721
50
240.7067465
51
271.6572152
0
ARC
8
DEFAULT_255_2_778
10
8.0901268
20
66.230051
40
0.3971793
50
226.4586395
51
239.3724547
0
ARC
8
DEFAULT_255_2_778
10
8.1004028
20
66.2328037
40
0.4062915
50
178.0419515
51
225.6755893
0
ARC
8
DEFAULT_255_2_778
10
8.3043197
20
66.2527153
40
0.6100009
50
179.9972349
51
180.5663486
0
ARC
8
DEFAULT_255_2_778
10
8.0955249
20
66.2589941
40
0.4012548
50
147.5242623
51
180.8923809
0
ARC
8
DEFAULT_255_2_778
10
8.0896519
20
66.2617728
40
0.3948091
50
114.2146103
51
147.4068181
0
ARC
8
DEFAULT_255_2_778
10
8.0993998
20
66.9562189
40
0.3758729
50
211.6755584
51
242.8222197
0
ARC
8
DEFAULT_255_2_778
10
8.0979801
20
66.9521227
40
0.3725238
50
178.9506792
51
211.2540591
0
ARC
8
DEFAULT_255_2_778
10
8.1550203
20
66.9733638
40
0.4297435
50
147.684321
51
181.9227858
0
ARC
8
DEFAULT_255_2_778
10
8.0907006
20
67.0031362
40
0.3595884
50
134.2420921
51
146.214574
0
ARC
8
DEFAULT_255_2_778
10
8.1206356
20
66.9635796
40
0.4088585
50
88.7179065
51
133.3798105
0
ARC
8
DEFAULT_255_2_778
10
8.141373
20
66.756301
40
0.6161437
50
89.9957464
51
91.0777559
0
ARC
8
DEFAULT_255_2_778
10
8.1567349
20
66.9460276
40
0.4266921
50
53.9784916
51
92.0570724
0
ARC
8
DEFAULT_255_2_778
10
8.1771708
20
66.9887329
40
0.3802312
50
45.9125334
51
52.6845819
0
ARC
8
DEFAULT_255_2_778
10
8.165157
20
66.9866712
40
0.3901371
50
0.3741672
51
44.8558425
0
ARC
8
DEFAULT_255_2_778
10
7.9410461
20
66.9592009
40
0.6149727
50
359.97614
51
2.7978333
0
ARC
8
DEFAULT_255_2_778
10
8.0774713
20
66.2716718
40
0.3077858
50
357.3133529
51
37.6112358
0
ARC
8
DEFAULT_255_2_778
10
8.1273265
20
66.2996671
40
0.2513419
50
39.4921541
51
40.9645193
0
ARC
8
DEFAULT_255_2_778
10
8.1469916
20
66.3183084
40
0.2242746
50
40.6620227
51
92.0116959
0
ARC
8
DEFAULT_255_2_778
10
8.1292984
20
66.324687
40
0.2179791
50
87.4178449
51
140.3274099
0
ARC
8
DEFAULT_255_2_778
10
8.2088458
20
66.2731
40
0.3123367
50
142.3596925
51
182.1774879
0
ARC
8
DEFAULT_255_2_778
10
8.4049232
20
66.2572253
40
0.5082045
50
179.548197
51
179.9978084
0
ARC
8
DEFAULT_255_2_778
10
8.2227667
20
66.244317
40
0.3263041
50
177.7294136
51
208.9484223
0
ARC
8
DEFAULT_255_2_778
10
8.1263583
20
66.200289
40
0.2207809
50
211.0605293
51
221.3098705
0
ARC
8
DEFAULT_255_2_778
10
8.1275875
20
66.2104162
40
0.2284904
50
223.0141673
51
273.4704132
0
ARC
8
DEFAULT_255_2_778
10
8.1554578
20
66.2089721
40
0.2270618
50
266.4551865
51
317.1476324
0
ARC
8
DEFAULT_255_2_778
10
8.1052759
20
66.2301803
40
0.2788942
50
320.9678092
51
359.0447488
0
ARC
8
DEFAULT_255_2_778
10
7.8893822
20
66.2568069
40
0.4957367
50
356.3827858
51
0.0506059
0
ARC
8
DEFAULT_255_2_778
10
8.0705548
20
66.9684839
40
0.2836412
50
357.4662683
51
37.9830693
0
ARC
8
DEFAULT_255_2_778
10
8.145137
20
67.0255422
40
0.189743
50
38.2629935
51
91.1832643
0
ARC
8
DEFAULT_255_2_778
10
8.1339693
20
67.0268331
40
0.1885511
50
87.7965397
51
141.6412451
0
ARC
8
DEFAULT_255_2_778
10
8.2195486
20
66.9698041
40
0.2911694
50
143.2925072
51
182.7676397
0
ARC
8
DEFAULT_255_2_778
10
8.2159875
20
66.9420463
40
0.2875951
50
177.269906
51
214.8320999
0
ARC
8
DEFAULT_255_2_778
10
8.1526174
20
66.9082681
40
0.2164518
50
217.074502
51
220.1698071
0
ARC
8
DEFAULT_255_2_778
10
8.1348356
20
66.890921
40
0.1916825
50
219.6361557
51
271.9083537
0
ARC
8
DEFAULT_255_2_778
10
8.1486929
20
66.8887211
40
0.1895238
50
267.7398842
51
321.1146005
0
ARC
8
DEFAULT_255_2_778
10
8.0687386
20
66.9418025
40
0.2852212
50
322.8974634
51
2.8018598
0
LINE
8
DEFAULT_255_2_778
10
8.5560188
20
66.9589448
11
8.5560188
21
66.9589448
0
LINE
8
DEFAULT_255_2_778
10
8.3851188
20
66.2572448
11
8.3849188
21
66.2572448
0
LINE
8
DEFAULT_255_2_778
10
8.3536188
20
66.9557448
11
8.3539188
21
66.9559448
0
LINE
8
DEFAULT_255_2_778
10
9.8803552
20
67.3517427
11
9.8803552
21
67.1885427
0
LINE
8
DEFAULT_255_2_778
10
9.8803552
20
67.1885427
11
9.4403552
21
67.1885427
0
LINE
8
DEFAULT_255_2_778
10
9.4403552
20
67.1885427
11
9.4403552
21
65.8470427
0
LINE
8
DEFAULT_255_2_778
10
9.4403552
20
65.8470427
11
9.2299552
21
65.8470427
0
LINE
8
DEFAULT_255_2_778
10
9.2299552
20
65.8470427
11
9.2299552
21
67.1885427
0
LINE
8
DEFAULT_255_2_778
10
9.2299552
20
67.1885427
11
8.7910552
21
67.1885427
0
LINE
8
DEFAULT_255_2_778
10
8.7910552
20
67.1885427
11
8.7910552
21
67.3517427
0
LINE
8
DEFAULT_255_2_778
10
8.7910552
20
67.3517427
11
9.8800552
21
67.3517427
0
LINE
8
DEFAULT_255_2_778
10
9.8800552
20
67.3517427
11
9.8803552
21
67.3517427
0
ARC
8
DEFAULT_255_2_778
10
10.6085839
20
66.624572
40
0.7270127
50
73.5194991
51
90.9954802
0
ARC
8
DEFAULT_255_2_778
10
10.6986548
20
66.9333457
40
0.4053743
50
48.3130401
51
73.346313
0
ARC
8
DEFAULT_255_2_778
10
10.696117
20
66.9498523
40
0.3949449
50
5.0416538
51
46.4451706
0
ARC
8
DEFAULT_255_2_778
10
10.4201855
20
66.9007838
40
0.6745707
50
359.8293761
51
7.1340946
0
ARC
8
DEFAULT_255_2_778
10
10.6616122
20
66.8890351
40
0.4332504
50
327.3627273
51
1.2881779
0
ARC
8
DEFAULT_255_2_778
10
10.6786117
20
66.8872805
40
0.4180596
50
291.6358864
51
326.3086513
0
ARC
8
DEFAULT_255_2_778
10
10.6081643
20
66.9072823
40
0.2898608
50
267.1700169
51
312.7045543
0
ARC
8
DEFAULT_255_2_778
10
10.611571
20
66.88588
40
0.2720879
50
315.2348392
51
2.7164255
0
ARC
8
DEFAULT_255_2_778
10
10.5327848
20
66.9114329
40
0.3507967
50
357.9321251
51
25.7070067
0
ARC
8
DEFAULT_255_2_778
10
10.6431697
20
66.9489126
40
0.235503
50
29.1422646
51
86.177806
0
ARC
8
DEFAULT_255_2_778
10
10.5934607
20
66.6985231
40
0.489756
50
82.3251228
51
90.2348578
0
LINE
8
DEFAULT_255_2_778
10
10.9304531
20
65.846775
11
10.6327531
21
66.455575
0
LINE
8
DEFAULT_255_2_778
10
10.6327531
20
66.455575
11
10.3385531
21
66.455575
0
LINE
8
DEFAULT_255_2_778
10
10.3385531
20
66.455575
11
10.3385531
21
65.846775
0
LINE
8
DEFAULT_255_2_778
10
10.3385531
20
65.846775
11
10.1271531
21
65.846775
0
LINE
8
DEFAULT_255_2_778
10
10.1271531
20
65.846775
11
10.1271531
21
67.351475
0
LINE
8
DEFAULT_255_2_778
10
10.1271531
20
67.351475
11
10.5959531
21
67.351475
0
LINE
8
DEFAULT_255_2_778
10
10.8327531
20
66.498675
11
11.1566531
21
65.858975
0
LINE
8
DEFAULT_255_2_778
10
11.1566531
20
65.858975
11
11.1566531
21
65.846575
0
LINE
8
DEFAULT_255_2_778
10
11.1566531
20
65.846575
11
10.9304531
21
65.846575
0
LINE
8
DEFAULT_255_2_778
10
10.9304531
20
65.846575
11
10.9304531
21
65.846775
0
LINE
8
DEFAULT_255_2_778
10
10.3388531
20
67.188275
11
10.3388531
21
66.617775
0
LINE
8
DEFAULT_255_2_778
10
10.3388531
20
66.617775
11
10.5938531
21
66.617775
0
LINE
8
DEFAULT_255_2_778
10
10.5914531
20
67.188275
11
10.3388531
21
67.188275
0
LINE
8
DEFAULT_255_2_778
10
10.3388531
20
67.188275
11
10.3388531
21
67.188275
0
ARC
8
DEFAULT_255_2_778
10
2.1959877
20
1.754802
40
1.9928139
50
179.9264183
51
204.3120318
0
ARC
8
DEFAULT_255_2_778
10
2.2050113
20
1.7599949
40
2.0031756
50
204.34113
51
260.1955271
0
ARC
8
DEFAULT_255_2_778
10
2.202745
20
1.7709625
40
2.0136013
50
260.3122132
51
270.0122462
0
ARC
8
DEFAULT_255_2_778
10
28.7058283
20
1.7500755
40
1.9929158
50
269.926605
51
294.3113989
0
ARC
8
DEFAULT_255_2_778
10
28.7007752
20
1.7589187
40
2.0030556
50
294.3389823
51
350.1972101
0
ARC
8
DEFAULT_255_2_778
10
28.6901139
20
1.7565462
40
2.0131615
50
350.3154071
51
0.0175033
0
ARC
8
DEFAULT_255_2_778
10
29.1983721
20
80.8830259
40
5.1934526
50
73.1558533
51
90.001956
0
ARC
8
DEFAULT_255_2_778
10
29.1981999
20
80.8791995
40
5.1972788
50
90.0000562
51
91.8972112
0
ARC
8
DEFAULT_255_2_778
10
29.1982511
20
80.877979
40
5.1985004
50
91.897329
51
95.4636992
0
ARC
8
DEFAULT_255_2_778
10
1.7080787
20
80.8830259
40
5.1934526
50
89.998044
51
106.8441467
0
ARC
8
DEFAULT_255_2_778
10
1.7082509
20
80.8791995
40
5.1972788
50
88.1027888
51
89.9999438
0
ARC
8
DEFAULT_255_2_778
10
1.7081998
20
80.877979
40
5.1985004
50
84.5363008
51
88.102671
0
ARC
8
DEFAULT_255_2_778
10
0.2353696
20
74.4338941
40
0.0380958
50
91.608287
51
147.6811262
0
ARC
8
DEFAULT_255_2_778
10
0.4039495
20
73.8043613
40
0.6888314
50
97.0989339
51
104.2578028
0
ARC
8
DEFAULT_255_2_778
10
0.6825074
20
71.8047768
40
2.7076712
50
95.071412
51
97.7191175
0
ARC
8
DEFAULT_255_2_778
10
0.9945649
20
68.4350902
40
6.0917653
50
93.8601363
51
95.1933502
0
ARC
8
DEFAULT_255_2_778
10
1.346832
20
63.217316
40
11.3214173
50
92.710423
51
93.8611561
0
ARC
8
DEFAULT_255_2_778
10
1.7176207
20
55.5015584
40
19.0460779
50
91.8451844
51
92.7269983
0
ARC
8
DEFAULT_255_2_778
10
2.0100073
20
46.5365431
40
28.0158594
50
91.0773355
51
91.8524867
0
ARC
8
DEFAULT_255_2_778
10
2.1572317
20
39.07087
40
35.4829815
50
90.5257562
51
91.088363
0
ARC
8
DEFAULT_255_2_778
10
2.2008953
20
34.5362831
40
40.0177782
50
89.9967354
51
90.5286944
0
ARC
8
DEFAULT_255_2_778
10
2.2006225
20
87.765947
40
1.9929158
50
89.926605
51
114.3113989
0
ARC
8
DEFAULT_255_2_778
10
2.2056757
20
87.7571038
40
2.0030556
50
114.3389823
51
170.1972101
0
ARC
8
DEFAULT_255_2_778
10
2.2163369
20
87.7594762
40
2.0131615
50
170.3154071
51
180.0175033
0
ARC
8
DEFAULT_255_2_778
10
28.7103612
20
87.7614141
40
1.9929158
50
359.926605
51
24.3113989
0
ARC
8
DEFAULT_255_2_778
10
28.7015179
20
87.756361
40
2.0030556
50
24.3389823
51
80.1972101
0
ARC
8
DEFAULT_255_2_778
10
28.7038904
20
87.7456998
40
2.0131615
50
80.3154071
51
90.0175033
0
LINE
8
DEFAULT_255_2_778
10
21.9532754
20
4.0476612
11
21.9532754
21
-0.2309388
0
LINE
8
DEFAULT_255_2_778
10
21.9532754
20
-0.2309388
11
13.4532754
21
-0.2309388
0
LINE
8
DEFAULT_255_2_778
10
13.4532754
20
-0.2309388
11
13.4532754
21
4.4571612
0
LINE
8
DEFAULT_255_2_778
10
13.4532754
20
4.4571612
11
21.9532754
21
4.4571612
0
LINE
8
DEFAULT_255_2_778
10
21.9532754
20
4.4571612
11
21.9532754
21
4.0476612
0
LINE
8
DEFAULT_255_2_778
10
21.9532754
20
4.0476612
11
13.4532754
21
4.0476612
0
LINE
8
DEFAULT_255_2_778
10
0.2031754
20
62.8165612
11
0.2031754
21
1.7573612
0
LINE
8
DEFAULT_255_2_778
10
2.2031754
20
-0.2426388
11
11.5926754
21
-0.2426388
0
LINE
8
DEFAULT_255_2_778
10
29.2030754
20
62.8165612
11
0.2031754
21
62.8165612
0
LINE
8
DEFAULT_255_2_778
10
0.2031754
20
62.8165612
11
0.2031754
21
65.0073612
0
LINE
8
DEFAULT_255_2_778
10
17.9532754
20
88.5385612
11
18.2032754
21
88.5385612
0
LINE
8
DEFAULT_255_2_778
10
9.2032754
20
88.5385612
11
9.4532754
21
88.5385612
0
LINE
8
DEFAULT_255_2_778
10
9.4532754
20
89.7572612
11
9.2032754
21
89.7572612
0
LINE
8
DEFAULT_255_2_778
10
18.2032754
20
89.7572612
11
17.9532754
21
89.7572612
0
LINE
8
DEFAULT_255_2_778
10
13.2031754
20
-0.2426388
11
22.2032754
21
-0.2426388
0
LINE
8
DEFAULT_255_2_778
10
29.2033754
20
65.0073612
11
29.2033754
21
1.0514612
0
LINE
8
DEFAULT_255_2_778
10
29.2033754
20
1.0514612
11
23.2258754
21
1.0514612
0
LINE
8
DEFAULT_255_2_778
10
23.2258754
20
1.0514612
11
23.2258754
21
6.2545612
0
LINE
8
DEFAULT_255_2_778
10
23.2258754
20
6.2545612
11
11.5926754
21
6.2545612
0
LINE
8
DEFAULT_255_2_778
10
11.5926754
20
6.2545612
11
11.5926754
21
-0.2428388
0
LINE
8
DEFAULT_255_2_778
10
11.5926754
20
-0.2428388
11
13.2029754
21
-0.2428388
0
LINE
8
DEFAULT_255_2_778
10
13.2029754
20
-0.2428388
11
13.2029754
21
4.7572612
0
LINE
8
DEFAULT_255_2_778
10
13.2029754
20
4.7572612
11
22.2032754
21
4.7572612
0
LINE
8
DEFAULT_255_2_778
10
22.2032754
20
4.7572612
11
22.2032754
21
-0.2428388
0
LINE
8
DEFAULT_255_2_778
10
22.2032754
20
-0.2428388
11
28.7032754
21
-0.2428388
0
LINE
8
DEFAULT_255_2_778
10
30.7032754
20
1.7571612
11
30.7032754
21
65.0073612
0
LINE
8
DEFAULT_255_2_778
10
30.7032754
20
74.4577612
11
30.7032754
21
85.8536612
0
LINE
8
DEFAULT_255_2_778
10
28.7032754
20
86.0528612
11
28.7032754
21
89.7588612
0
LINE
8
DEFAULT_255_2_778
10
0.2031754
20
74.4542612
11
0.2031754
21
85.8536612
0
LINE
8
DEFAULT_255_2_778
10
2.2031754
20
86.0528612
11
2.2031754
21
89.7588612
0
LINE
8
DEFAULT_255_2_778
10
2.2031754
20
65.0073612
11
0.2031754
21
65.0073612
0
LINE
8
DEFAULT_255_2_778
10
0.2031754
20
65.0073612
11
0.2031754
21
74.4542612
0
LINE
8
DEFAULT_255_2_778
10
0.2031754
20
74.4542612
11
0.2031754
21
74.4542612
0
LINE
8
DEFAULT_255_2_778
10
2.2031754
20
74.5540612
11
2.2031754
21
65.0073612
0
LINE
8
DEFAULT_255_2_778
10
2.2031754
20
65.0073612
11
21.2031754
21
65.0073612
0
LINE
8
DEFAULT_255_2_778
10
28.7030754
20
72.4680612
11
28.7030754
21
74.5540612
0
LINE
8
DEFAULT_255_2_778
10
28.7030754
20
74.5540612
11
30.7024754
21
74.4569612
0
LINE
8
DEFAULT_255_2_778
10
9.6030754
20
75.6438612
11
13.5529754
21
75.6438612
0
LINE
8
DEFAULT_255_2_778
10
13.5529754
20
75.6438612
11
13.5529754
21
74.5543612
0
LINE
8
DEFAULT_255_2_778
10
13.5529754
20
74.5543612
11
16.8528754
21
74.5543612
0
LINE
8
DEFAULT_255_2_778
10
16.8528754
20
74.5543612
11
16.8528754
21
75.6438612
0
LINE
8
DEFAULT_255_2_778
10
16.8528754
20
75.6438612
11
20.8028754
21
75.6438612
0
LINE
8
DEFAULT_255_2_778
10
20.8028754
20
75.6438612
11
20.8028754
21
74.5543612
0
LINE
8
DEFAULT_255_2_778
10
20.8028754
20
74.5543612
11
28.7027754
21
74.5543612
0
LINE
8
DEFAULT_255_2_778
10
28.7027754
20
74.5543612
11
28.7027754
21
86.0525612
0
LINE
8
DEFAULT_255_2_778
10
28.7027754
20
86.0525612
11
18.2030754
21
86.0525612
0
LINE
8
DEFAULT_255_2_778
10
18.2030754
20
86.0525612
11
18.2030754
21
84.7571612
0
LINE
8
DEFAULT_255_2_778
10
18.2030754
20
84.7571612
11
9.2032754
21
84.7571612
0
LINE
8
DEFAULT_255_2_778
10
9.2032754
20
84.7571612
11
9.2032754
21
86.0525612
0
LINE
8
DEFAULT_255_2_778
10
9.2032754
20
86.0525612
11
2.2031754
21
86.0525612
0
LINE
8
DEFAULT_255_2_778
10
2.2031754
20
86.0525612
11
2.2031754
21
74.5540612
0
LINE
8
DEFAULT_255_2_778
10
2.2031754
20
74.5540612
11
9.6032754
21
74.5540612
0
LINE
8
DEFAULT_255_2_778
10
9.6032754
20
74.5540612
11
9.6032754
21
75.6435612
0
LINE
8
DEFAULT_255_2_778
10
9.6032754
20
75.6435612
11
9.6207754
21
75.6261612
0
LINE
8
DEFAULT_255_2_778
10
9.6207754
20
75.6261612
11
9.9533754
21
75.2604612
0
LINE
8
DEFAULT_255_2_778
10
28.7532754
20
72.5175612
11
21.2031754
21
65.0073612
0
LINE
8
DEFAULT_255_2_778
10
21.2031754
20
65.0073612
11
28.7530754
21
65.0073612
0
LINE
8
DEFAULT_255_2_778
10
30.7529754
20
65.0073612
11
28.7530754
21
65.0073612
0
LINE
8
DEFAULT_255_2_778
10
28.7530754
20
65.0073612
11
28.7530754
21
72.5178612
0
LINE
8
DEFAULT_255_2_778
10
28.7530754
20
72.5178612
11
30.7529754
21
74.5072612
0
LINE
8
DEFAULT_255_2_778
10
30.7529754
20
74.5072612
11
30.7529754
21
65.0073612
0
LINE
8
DEFAULT_255_2_778
10
17.9532754
20
86.1541612
11
9.4532754
21
86.1541612
0
LINE
8
DEFAULT_255_2_778
10
9.4532754
20
86.1541612
11
9.4532754
21
85.0066612
0
LINE
8
DEFAULT_255_2_778
10
9.4532754
20
85.0066612
11
17.9532754
21
85.0066612
0
LINE
8
DEFAULT_255_2_778
10
17.9532754
20
85.0066612
11
17.9532754
21
89.7588612
0
LINE
8
DEFAULT_255_2_778
10
17.9532754
20
89.7588612
11
9.4532754
21
89.7588612
0
LINE
8
DEFAULT_255_2_778
10
9.4532754
20
89.7588612
11
9.4532754
21
86.1541612
0
LINE
8
DEFAULT_255_2_778
10
9.2032754
20
86.0525612
11
9.2032754
21
89.7588612
0
LINE
8
DEFAULT_255_2_778
10
9.2032754
20
89.7588612
11
2.2031754
21
89.7588612
0
LINE
8
DEFAULT_255_2_778
10
0.2031754
20
87.7588612
11
0.2031754
21
85.8536612
0
LINE
8
DEFAULT_255_2_778
10
30.7032754
20
85.8536612
11
30.7032754
21
87.7588612
0
LINE
8
DEFAULT_255_2_778
10
28.7032754
20
89.7588612
11
18.2032754
21
89.7588612
0
LINE
8
DEFAULT_255_2_778
10
18.2032754
20
89.7588612
11
18.2032754
21
86.0525612
0
ENDSEC
0
EOF