0
SECTION
2
HEADER
9
$MEASUREMENT
70
1
0
ENDSEC
0
SECTION
2
TABLES
0
TABLE
2
LTYPE
0
LTYPE
72
65
70
64
2
CONTINUOUS
3
______
73
0
40
0
0
ENDTAB
0
TABLE
2
LAYER
0
LAYER
2
DEFAULT_255_2_778
70
0
62
255
6
CONTINUOUS
0
ENDTAB
0
ENDSEC
0
SECTION
2
ENTITIES
0
ARC
8
DEFAULT_255_2_778
10
15.0261245
20
52.1731923
40
2.2467872
50
79.8590853
51
89.9989501
0
ARC
8
DEFAULT_255_2_778
10
15.0262069
20
52.1731917
40
2.2467877
50
90.0010517
51
100.1409141
0
ARC
8
DEFAULT_255_2_778
10
15.0262129
20
52.1619428
40
2.2421384
50
259.83768
51
269.9987941
0
ARC
8
DEFAULT_255_2_778
10
15.0261183
20
52.161945
40
2.2421406
50
270.0012097
51
280.1623138
0
ARC
8
DEFAULT_255_2_778
10
15.0233017
20
52.17606
40
2.2434014
50
100.0732305
51
125.6622417
0
ARC
8
DEFAULT_255_2_778
10
15.0275662
20
52.169317
40
2.2513662
50
125.650371
51
172.0862382
0
ARC
8
DEFAULT_255_2_778
10
15.0373455
20
52.1702161
40
2.2609297
50
172.1429273
51
180.0110656
0
ARC
8
DEFAULT_255_2_778
10
15.0201483
20
52.1678421
40
2.2437335
50
179.9505274
51
205.5344045
0
ARC
8
DEFAULT_255_2_778
10
15.0273248
20
52.1707705
40
2.2514713
50
205.5229246
51
251.9561006
0
ARC
8
DEFAULT_255_2_778
10
15.0283588
20
52.1810362
40
2.2615537
50
252.0117524
51
259.8783359
0
ARC
8
DEFAULT_255_2_778
10
15.0293297
20
52.1634988
40
2.2434014
50
280.0732305
51
305.6622417
0
ARC
8
DEFAULT_255_2_778
10
15.0250651
20
52.1702419
40
2.2513662
50
305.650371
51
352.0862382
0
ARC
8
DEFAULT_255_2_778
10
15.0152858
20
52.1693428
40
2.2609297
50
352.1429273
51
0.0110656
0
ARC
8
DEFAULT_255_2_778
10
15.0324831
20
52.1717168
40
2.2437335
50
359.9505274
51
25.5344045
0
ARC
8
DEFAULT_255_2_778
10
15.0253065
20
52.1687884
40
2.2514713
50
25.5229246
51
71.9561006
0
ARC
8
DEFAULT_255_2_778
10
15.0242726
20
52.1585227
40
2.2615537
50
72.0117524
51
79.8783359
0
LINE
8
DEFAULT_255_2_778
10
13.5810157
20
52.6706794
11
14.6309157
21
52.6706794
0
LINE
8
DEFAULT_255_2_778
10
14.6309157
20
52.6706794
11
14.6309157
21
54.3848794
0
LINE
8
DEFAULT_255_2_778
10
14.6309157
20
49.9546794
11
14.6309157
21
51.6688794
0
LINE
8
DEFAULT_255_2_778
10
14.6309157
20
51.6688794
11
13.5810157
21
51.6688794
0
LINE
8
DEFAULT_255_2_778
10
13.5810157
20
51.6688794
11
13.5810157
21
52.6706794
0
LINE
8
DEFAULT_255_2_778
10
16.4716157
20
51.6688794
11
15.4217157
21
51.6688794
0
LINE
8
DEFAULT_255_2_778
10
15.4217157
20
51.6688794
11
15.4217157
21
49.9546794
0
LINE
8
DEFAULT_255_2_778
10
15.4217157
20
54.3848794
11
15.4217157
21
52.6706794
0
LINE
8
DEFAULT_255_2_778
10
15.4217157
20
52.6706794
11
16.4716157
21
52.6706794
0
LINE
8
DEFAULT_255_2_778
10
16.4716157
20
52.6706794
11
16.4716157
21
51.6688794
0
ARC
8
DEFAULT_255_2_778
10
22.9149714
20
48.0385882
40
2.2508007
50
260.0093724
51
270.0245993
0
LINE
8
DEFAULT_255_2_778
10
22.9159377
20
45.7877878
11
22.9168457
21
45.7877884
0
ARC
8
DEFAULT_255_2_778
10
22.9149522
20
48.0393217
40
2.2515341
50
270.0481839
51
280.2496983
0
ARC
8
DEFAULT_255_2_778
10
22.9173997
20
48.0332408
40
2.2451151
50
280.2158497
51
305.7481227
0
ARC
8
DEFAULT_255_2_778
10
22.9141302
20
48.0385728
40
2.2513527
50
305.7363743
51
352.1031006
0
ARC
8
DEFAULT_255_2_778
10
22.9033346
20
48.0378812
40
2.261952
50
352.1580238
51
0.011075
0
ARC
8
DEFAULT_255_2_778
10
22.9208427
20
48.0402919
40
2.2444447
50
359.9496197
51
25.4884178
0
ARC
8
DEFAULT_255_2_778
10
22.9144291
20
48.0376742
40
2.2513605
50
25.4783155
51
71.8446321
0
ARC
8
DEFAULT_255_2_778
10
22.9130333
20
48.0266547
40
2.2622674
50
71.8980021
51
79.7500675
0
ARC
8
DEFAULT_255_2_778
10
22.9153493
20
48.0447496
40
2.2440493
50
79.7260464
51
90.0048316
0
ARC
8
DEFAULT_255_2_778
10
22.9151298
20
48.0407256
40
2.2480736
50
89.9992289
51
90.3751944
0
ARC
8
DEFAULT_255_2_778
10
22.915447
20
48.029401
40
2.2593999
50
90.3813589
51
99.9644629
0
ARC
8
DEFAULT_255_2_778
10
22.9120072
20
48.0442184
40
2.2441591
50
99.9358827
51
125.2557685
0
ARC
8
DEFAULT_255_2_778
10
22.9160479
20
48.0377232
40
2.2517955
50
125.2443265
51
172.0234106
0
ARC
8
DEFAULT_255_2_778
10
22.9254502
20
48.0387627
40
2.2609637
50
172.0825612
51
180.0112583
0
ARC
8
DEFAULT_255_2_778
10
22.9086563
20
48.036371
40
2.2441707
50
179.9502802
51
205.2718051
0
ARC
8
DEFAULT_255_2_778
10
22.9156689
20
48.0392415
40
2.2517375
50
205.26168
51
252.0410022
0
ARC
8
DEFAULT_255_2_778
10
22.9164191
20
48.0489797
40
2.2612336
50
252.0990022
51
260.0264113
0
LINE
8
DEFAULT_255_2_778
10
23.3155865
20
50.2528184
11
23.3155865
21
48.4857184
0
LINE
8
DEFAULT_255_2_778
10
23.3155865
20
48.4857184
11
24.3654865
21
48.4857184
0
LINE
8
DEFAULT_255_2_778
10
24.3654865
20
48.4857184
11
24.3654865
21
47.4840184
0
LINE
8
DEFAULT_255_2_778
10
24.3654865
20
47.4840184
11
23.3155865
21
47.4840184
0
LINE
8
DEFAULT_255_2_778
10
23.3155865
20
47.4840184
11
23.3155865
21
45.8237184
0
LINE
8
DEFAULT_255_2_778
10
21.4748865
20
48.4857184
11
22.5247865
21
48.4857184
0
LINE
8
DEFAULT_255_2_778
10
22.5247865
20
48.4857184
11
22.5247865
21
50.2547184
0
LINE
8
DEFAULT_255_2_778
10
22.5247865
20
45.8219184
11
22.5247865
21
47.4840184
0
LINE
8
DEFAULT_255_2_778
10
22.5247865
20
47.4840184
11
21.4748865
21
47.4840184
0
LINE
8
DEFAULT_255_2_778
10
21.4748865
20
47.4840184
11
21.4748865
21
48.4857184
0
ARC
8
DEFAULT_255_2_778
10
15.0262219
20
44.6729617
40
2.2471116
50
79.859793
51
89.9168326
0
ARC
8
DEFAULT_255_2_778
10
15.0262554
20
44.7487548
40
2.1713184
50
89.9148124
51
90
0
ARC
8
DEFAULT_255_2_778
10
15.02625
20
44.6742337
40
2.2458394
50
89.999862
51
100.1430607
0
ARC
8
DEFAULT_255_2_778
10
15.02625
20
44.6657124
40
2.2458394
50
259.8569393
51
270.000138
0
ARC
8
DEFAULT_255_2_778
10
15.0262554
20
44.5911914
40
2.1713183
50
270
51
270.0851876
0
ARC
8
DEFAULT_255_2_778
10
15.0262219
20
44.6669845
40
2.2471114
50
270.0831674
51
280.140207
0
ARC
8
DEFAULT_255_2_778
10
15.0231147
20
44.6765987
40
2.2432561
50
100.0735217
51
125.66446
0
ARC
8
DEFAULT_255_2_778
10
15.0275798
20
44.6695893
40
2.2515542
50
125.6527759
51
172.086288
0
ARC
8
DEFAULT_255_2_778
10
15.0372311
20
44.6705083
40
2.2609881
50
172.1430299
51
180.0110306
0
ARC
8
DEFAULT_255_2_778
10
15.0197565
20
44.6681508
40
2.2435144
50
179.950909
51
205.5356692
0
ARC
8
DEFAULT_255_2_778
10
15.0273764
20
44.6713134
40
2.2517532
50
205.5247003
51
251.9524332
0
ARC
8
DEFAULT_255_2_778
10
15.02845
20
44.6816363
40
2.2619019
50
252.0075852
51
259.8731165
0
ARC
8
DEFAULT_255_2_778
10
15.0294477
20
44.663486
40
2.2431013
50
280.0748299
51
305.6658885
0
ARC
8
DEFAULT_255_2_778
10
15.0249097
20
44.6706384
40
2.2515582
50
305.6535875
51
352.0848796
0
ARC
8
DEFAULT_255_2_778
10
15.0156168
20
44.6696391
40
2.260626
50
352.1423999
51
0.0109996
0
ARC
8
DEFAULT_255_2_778
10
15.032442
20
44.6720049
40
2.2438017
50
359.9506707
51
25.5338197
0
ARC
8
DEFAULT_255_2_778
10
15.0251161
20
44.6690053
40
2.251705
50
25.52234
51
71.9502366
0
ARC
8
DEFAULT_255_2_778
10
15.0241519
20
44.6589172
40
2.2615964
50
72.0061999
51
79.8721516
0
ARC
8
DEFAULT_255_2_778
10
15.0262168
20
37.1774838
40
2.2424642
50
79.8384231
51
89.9165299
0
ARC
8
DEFAULT_255_2_778
10
15.0262554
20
37.2486298
40
2.1713184
50
89.9148124
51
90
0
ARC
8
DEFAULT_255_2_778
10
15.0262561
20
37.1787539
40
2.2411942
50
90.0000174
51
100.164465
0
ARC
8
DEFAULT_255_2_778
10
15.0262219
20
37.1668845
40
2.2471116
50
270.0831674
51
280.140207
0
ARC
8
DEFAULT_255_2_778
10
15.0262554
20
37.0910914
40
2.1713184
50
270
51
270.0851876
0
ARC
8
DEFAULT_255_2_778
10
15.02625
20
37.1656124
40
2.2458394
50
259.8569393
51
270.000138
0
ARC
8
DEFAULT_255_2_778
10
15.0231289
20
37.1762537
40
2.2434014
50
100.0732305
51
125.6622417
0
ARC
8
DEFAULT_255_2_778
10
15.0273934
20
37.1695106
40
2.2513662
50
125.650371
51
172.0862382
0
ARC
8
DEFAULT_255_2_778
10
15.0371727
20
37.1704097
40
2.2609297
50
172.1429273
51
180.0110656
0
ARC
8
DEFAULT_255_2_778
10
15.0199755
20
37.1680357
40
2.2437335
50
179.9505274
51
205.5344045
0
ARC
8
DEFAULT_255_2_778
10
15.027152
20
37.1709641
40
2.2514713
50
205.5229246
51
251.9561006
0
ARC
8
DEFAULT_255_2_778
10
15.028186
20
37.1812298
40
2.2615537
50
252.0117524
51
259.8783359
0
ARC
8
DEFAULT_255_2_778
10
15.029442
20
37.1634969
40
2.2432115
50
280.0744788
51
305.6640503
0
ARC
8
DEFAULT_255_2_778
10
15.0250341
20
37.1704433
40
2.2514251
50
305.6521207
51
352.0862461
0
ARC
8
DEFAULT_255_2_778
10
15.0153131
20
37.1695364
40
2.2609298
50
352.1429275
51
0.0110656
0
ARC
8
DEFAULT_255_2_778
10
15.0324666
20
37.1719073
40
2.2437771
50
359.9506096
51
25.5339625
0
ARC
8
DEFAULT_255_2_778
10
15.0253328
20
37.1690196
40
2.2514589
50
25.5220169
51
71.9539947
0
ARC
8
DEFAULT_255_2_778
10
15.024416
20
37.1590239
40
2.261248
50
72.0103676
51
79.8773716
0
ARC
8
DEFAULT_255_2_778
10
22.9149526
20
33.0433248
40
2.2555956
50
260.0327658
51
269.8874128
0
ARC
8
DEFAULT_255_2_778
10
22.9147861
20
32.9527594
40
2.1650301
50
269.8871097
51
270.0026253
0
ARC
8
DEFAULT_255_2_778
10
22.9149386
20
33.0392424
40
2.2515131
50
269.9986422
51
280.2516041
0
ARC
8
DEFAULT_255_2_778
10
22.9176755
20
33.0327363
40
2.2446243
50
280.2124137
51
305.7488417
0
ARC
8
DEFAULT_255_2_778
10
22.914037
20
33.0385994
40
2.2515086
50
305.7368202
51
352.1017382
0
ARC
8
DEFAULT_255_2_778
10
22.9036364
20
33.0378354
40
2.2617066
50
352.1571152
51
0.0110878
0
ARC
8
DEFAULT_255_2_778
10
22.9210339
20
33.0402339
40
2.2443098
50
359.9499407
51
25.4904176
0
ARC
8
DEFAULT_255_2_778
10
22.9143449
20
33.0374906
40
2.2515283
50
25.4801767
51
71.8428993
0
ARC
8
DEFAULT_255_2_778
10
22.9130872
20
33.0268169
40
2.2620636
50
71.8968781
51
79.7490719
0
ARC
8
DEFAULT_255_2_778
10
22.9146217
20
33.0360511
40
2.2527037
50
79.7456819
51
89.9985549
0
ARC
8
DEFAULT_255_2_778
10
22.914794
20
32.8871322
40
2.4016226
50
90.0027557
51
90.1019595
0
ARC
8
DEFAULT_255_2_778
10
22.9146431
20
33.0391678
40
2.249587
50
90.1050068
51
99.986127
0
ARC
8
DEFAULT_255_2_778
10
22.9123435
20
33.043618
40
2.2447542
50
99.9404746
51
125.2537791
0
ARC
8
DEFAULT_255_2_778
10
22.9159173
20
33.0377585
40
2.251602
50
125.2419789
51
172.0242488
0
ARC
8
DEFAULT_255_2_778
10
22.9257614
20
33.0387209
40
2.2612186
50
172.0830101
51
180.0113476
0
ARC
8
DEFAULT_255_2_778
10
22.9087364
20
33.036328
40
2.2441943
50
179.9503407
51
205.2716718
0
ARC
8
DEFAULT_255_2_778
10
22.915941
20
33.0393099
40
2.2519823
50
205.2620234
51
252.0372518
0
ARC
8
DEFAULT_255_2_778
10
22.9167391
20
33.0491364
40
2.2615771
50
252.0947929
51
260.0211575
0
LINE
8
DEFAULT_255_2_778
10
14.6307429
20
45.1709731
11
14.6307429
21
46.8852731
0
LINE
8
DEFAULT_255_2_778
10
14.6307429
20
42.4549731
11
14.6307429
21
44.1692731
0
LINE
8
DEFAULT_255_2_778
10
14.6307429
20
44.1692731
11
13.5808429
21
44.1692731
0
LINE
8
DEFAULT_255_2_778
10
13.5808429
20
44.1692731
11
13.5808429
21
45.1709731
0
LINE
8
DEFAULT_255_2_778
10
13.5808429
20
45.1709731
11
14.6307429
21
45.1709731
0
LINE
8
DEFAULT_255_2_778
10
15.4218429
20
44.1692731
11
15.4218429
21
42.4549731
0
LINE
8
DEFAULT_255_2_778
10
15.4218429
20
46.8852731
11
15.4218429
21
45.1709731
0
LINE
8
DEFAULT_255_2_778
10
15.4218429
20
45.1709731
11
16.4716429
21
45.1709731
0
LINE
8
DEFAULT_255_2_778
10
16.4716429
20
45.1709731
11
16.4716429
21
44.1692731
0
LINE
8
DEFAULT_255_2_778
10
16.4716429
20
44.1692731
11
15.4218429
21
44.1692731
0
LINE
8
DEFAULT_255_2_778
10
14.6307429
20
34.9548731
11
14.6307429
21
36.6691731
0
LINE
8
DEFAULT_255_2_778
10
14.6307429
20
36.6691731
11
13.5808429
21
36.6691731
0
LINE
8
DEFAULT_255_2_778
10
13.5808429
20
36.6691731
11
13.5808429
21
37.6708731
0
LINE
8
DEFAULT_255_2_778
10
13.5808429
20
37.6708731
11
14.6307429
21
37.6708731
0
LINE
8
DEFAULT_255_2_778
10
14.6307429
20
37.6708731
11
14.6307429
21
39.3850731
0
LINE
8
DEFAULT_255_2_778
10
15.4218429
20
36.6691731
11
15.4218429
21
34.9548731
0
LINE
8
DEFAULT_255_2_778
10
15.4218429
20
39.3850731
11
15.4218429
21
37.6708731
0
LINE
8
DEFAULT_255_2_778
10
15.4218429
20
37.6708731
11
16.4716429
21
37.6708731
0
LINE
8
DEFAULT_255_2_778
10
16.4716429
20
37.6708731
11
16.4716429
21
36.6691731
0
LINE
8
DEFAULT_255_2_778
10
16.4716429
20
36.6691731
11
15.4218429
21
36.6691731
0
LINE
8
DEFAULT_255_2_778
10
23.3156429
20
35.2527731
11
23.3156429
21
33.4856731
0
LINE
8
DEFAULT_255_2_778
10
23.3156429
20
33.4856731
11
24.3655429
21
33.4856731
0
LINE
8
DEFAULT_255_2_778
10
24.3655429
20
33.4856731
11
24.3655429
21
32.4839731
0
LINE
8
DEFAULT_255_2_778
10
24.3655429
20
32.4839731
11
23.3156429
21
32.4839731
0
LINE
8
DEFAULT_255_2_778
10
23.3156429
20
32.4839731
11
23.3156429
21
30.8236731
0
LINE
8
DEFAULT_255_2_778
10
21.4749429
20
33.4856731
11
22.5248429
21
33.4856731
0
LINE
8
DEFAULT_255_2_778
10
22.5248429
20
33.4856731
11
22.5248429
21
35.2546731
0
LINE
8
DEFAULT_255_2_778
10
22.5248429
20
30.8217731
11
22.5248429
21
32.4839731
0
LINE
8
DEFAULT_255_2_778
10
22.5248429
20
32.4839731
11
21.4749429
21
32.4839731
0
LINE
8
DEFAULT_255_2_778
10
21.4749429
20
32.4839731
11
21.4749429
21
33.4856731
0
ARC
8
DEFAULT_255_2_778
10
22.9149714
20
40.5386882
40
2.2508007
50
260.0093724
51
270.0245993
0
LINE
8
DEFAULT_255_2_778
10
22.9159377
20
38.2878878
11
22.9168457
21
38.2878884
0
ARC
8
DEFAULT_255_2_778
10
22.9149522
20
40.5394217
40
2.2515341
50
270.0481839
51
280.2496983
0
ARC
8
DEFAULT_255_2_778
10
22.9173997
20
40.5333408
40
2.2451151
50
280.2158497
51
305.7481227
0
ARC
8
DEFAULT_255_2_778
10
22.9141302
20
40.5386728
40
2.2513527
50
305.7363743
51
352.1031006
0
ARC
8
DEFAULT_255_2_778
10
22.9033346
20
40.5379812
40
2.261952
50
352.1580238
51
0.011075
0
ARC
8
DEFAULT_255_2_778
10
22.9208427
20
40.5403919
40
2.2444447
50
359.9496197
51
25.4884178
0
ARC
8
DEFAULT_255_2_778
10
22.9144291
20
40.5377742
40
2.2513605
50
25.4783155
51
71.8446321
0
ARC
8
DEFAULT_255_2_778
10
22.9130333
20
40.5267547
40
2.2622674
50
71.8980021
51
79.7500675
0
ARC
8
DEFAULT_255_2_778
10
22.9153493
20
40.5448496
40
2.2440493
50
79.7260464
51
90.0048316
0
ARC
8
DEFAULT_255_2_778
10
22.9151298
20
40.5408256
40
2.2480736
50
89.9992289
51
90.3751944
0
ARC
8
DEFAULT_255_2_778
10
22.915447
20
40.529501
40
2.2593999
50
90.3813589
51
99.9644629
0
ARC
8
DEFAULT_255_2_778
10
22.9120072
20
40.5443184
40
2.2441591
50
99.9358827
51
125.2557685
0
ARC
8
DEFAULT_255_2_778
10
22.9160479
20
40.5378232
40
2.2517955
50
125.2443265
51
172.0234106
0
ARC
8
DEFAULT_255_2_778
10
22.9254502
20
40.5388627
40
2.2609637
50
172.0825612
51
180.0112583
0
ARC
8
DEFAULT_255_2_778
10
22.9086563
20
40.536471
40
2.2441707
50
179.9502802
51
205.2718051
0
ARC
8
DEFAULT_255_2_778
10
22.9156689
20
40.5393415
40
2.2517375
50
205.26168
51
252.0410022
0
ARC
8
DEFAULT_255_2_778
10
22.9164191
20
40.5490797
40
2.2612336
50
252.0990022
51
260.0264113
0
LINE
8
DEFAULT_255_2_778
10
23.3155865
20
42.7529184
11
23.3155865
21
40.9858184
0
LINE
8
DEFAULT_255_2_778
10
23.3155865
20
40.9858184
11
24.3654865
21
40.9858184
0
LINE
8
DEFAULT_255_2_778
10
24.3654865
20
40.9858184
11
24.3654865
21
39.9841184
0
LINE
8
DEFAULT_255_2_778
10
24.3654865
20
39.9841184
11
23.3155865
21
39.9841184
0
LINE
8
DEFAULT_255_2_778
10
23.3155865
20
39.9841184
11
23.3155865
21
38.3238184
0
LINE
8
DEFAULT_255_2_778
10
21.4748865
20
40.9858184
11
22.5247865
21
40.9858184
0
LINE
8
DEFAULT_255_2_778
10
22.5247865
20
40.9858184
11
22.5247865
21
42.7548184
0
LINE
8
DEFAULT_255_2_778
10
22.5247865
20
38.3220184
11
22.5247865
21
39.9841184
0
LINE
8
DEFAULT_255_2_778
10
22.5247865
20
39.9841184
11
21.4748865
21
39.9841184
0
LINE
8
DEFAULT_255_2_778
10
21.4748865
20
39.9841184
11
21.4748865
21
40.9858184
0
ARC
8
DEFAULT_255_2_778
10
15.0261624
20
29.6729614
40
2.2471116
50
79.859793
51
89.9168326
0
ARC
8
DEFAULT_255_2_778
10
15.0261959
20
29.7487545
40
2.1713184
50
89.9148124
51
90
0
ARC
8
DEFAULT_255_2_778
10
15.0261905
20
29.6742335
40
2.2458394
50
89.999862
51
100.1430607
0
ARC
8
DEFAULT_255_2_778
10
15.0261966
20
29.661092
40
2.2411942
50
259.835535
51
269.9999826
0
ARC
8
DEFAULT_255_2_778
10
15.0261959
20
29.5912161
40
2.1713183
50
270
51
270.0851876
0
ARC
8
DEFAULT_255_2_778
10
15.0261573
20
29.6623621
40
2.2424643
50
270.0834701
51
280.1615769
0
ARC
8
DEFAULT_255_2_778
10
15.0293825
20
29.6633967
40
2.2432115
50
280.0744788
51
305.6640503
0
ARC
8
DEFAULT_255_2_778
10
15.0249746
20
29.6703431
40
2.2514251
50
305.6521207
51
352.0862461
0
ARC
8
DEFAULT_255_2_778
10
15.0152536
20
29.6694362
40
2.2609298
50
352.1429275
51
0.0110656
0
ARC
8
DEFAULT_255_2_778
10
15.0324071
20
29.671807
40
2.2437771
50
359.9506096
51
25.5339625
0
ARC
8
DEFAULT_255_2_778
10
15.0252733
20
29.6689194
40
2.2514589
50
25.5220169
51
71.9539947
0
ARC
8
DEFAULT_255_2_778
10
15.0243565
20
29.6589236
40
2.261248
50
72.0103676
51
79.8773716
0
ARC
8
DEFAULT_255_2_778
10
15.0230694
20
29.6761534
40
2.2434014
50
100.0732305
51
125.6622417
0
ARC
8
DEFAULT_255_2_778
10
15.0273339
20
29.6694104
40
2.2513662
50
125.650371
51
172.0862382
0
ARC
8
DEFAULT_255_2_778
10
15.0371132
20
29.6703095
40
2.2609297
50
172.1429273
51
180.0110656
0
ARC
8
DEFAULT_255_2_778
10
15.019916
20
29.6679355
40
2.2437335
50
179.9505274
51
205.5344045
0
ARC
8
DEFAULT_255_2_778
10
15.0270926
20
29.6708638
40
2.2514713
50
205.5229246
51
251.9561006
0
ARC
8
DEFAULT_255_2_778
10
15.0281265
20
29.6811296
40
2.2615537
50
252.0117524
51
259.8783359
0
LINE
8
DEFAULT_255_2_778
10
15.4217834
20
30.1707728
11
16.4715834
21
30.1707728
0
LINE
8
DEFAULT_255_2_778
10
16.4715834
20
30.1707728
11
16.4715834
21
29.1689728
0
LINE
8
DEFAULT_255_2_778
10
16.4715834
20
29.1689728
11
15.4217834
21
29.1689728
0
LINE
8
DEFAULT_255_2_778
10
15.4217834
20
29.1689728
11
15.4217834
21
27.4547728
0
LINE
8
DEFAULT_255_2_778
10
15.4217834
20
31.8849728
11
15.4217834
21
30.1707728
0
LINE
8
DEFAULT_255_2_778
10
14.6306834
20
30.1707728
11
14.6306834
21
31.8849728
0
LINE
8
DEFAULT_255_2_778
10
14.6306834
20
27.4547728
11
14.6306834
21
29.1689728
0
LINE
8
DEFAULT_255_2_778
10
14.6306834
20
29.1689728
11
13.5807834
21
29.1689728
0
LINE
8
DEFAULT_255_2_778
10
13.5807834
20
29.1689728
11
13.5807834
21
30.1707728
0
LINE
8
DEFAULT_255_2_778
10
13.5807834
20
30.1707728
11
14.6306834
21
30.1707728
0
ARC
8
DEFAULT_255_2_778
10
22.9149714
20
25.5386882
40
2.2508007
50
260.0093724
51
270.0245993
0
LINE
8
DEFAULT_255_2_778
10
22.9159377
20
23.2878878
11
22.9168457
21
23.2878884
0
ARC
8
DEFAULT_255_2_778
10
22.9149522
20
25.5394217
40
2.2515341
50
270.0481839
51
280.2496983
0
ARC
8
DEFAULT_255_2_778
10
22.9173997
20
25.5333408
40
2.2451151
50
280.2158497
51
305.7481227
0
ARC
8
DEFAULT_255_2_778
10
22.9141302
20
25.5386728
40
2.2513527
50
305.7363743
51
352.1031006
0
ARC
8
DEFAULT_255_2_778
10
22.9033346
20
25.5379812
40
2.261952
50
352.1580238
51
0.011075
0
ARC
8
DEFAULT_255_2_778
10
22.9208427
20
25.5403919
40
2.2444447
50
359.9496197
51
25.4884178
0
ARC
8
DEFAULT_255_2_778
10
22.9144291
20
25.5377742
40
2.2513605
50
25.4783155
51
71.8446321
0
ARC
8
DEFAULT_255_2_778
10
22.9130333
20
25.5267547
40
2.2622674
50
71.8980021
51
79.7500675
0
ARC
8
DEFAULT_255_2_778
10
22.9153493
20
25.5448496
40
2.2440493
50
79.7260464
51
90.0048316
0
ARC
8
DEFAULT_255_2_778
10
22.9151298
20
25.5408256
40
2.2480736
50
89.9992289
51
90.3751944
0
ARC
8
DEFAULT_255_2_778
10
22.915447
20
25.529501
40
2.2593999
50
90.3813589
51
99.9644629
0
ARC
8
DEFAULT_255_2_778
10
22.9120072
20
25.5443184
40
2.2441591
50
99.9358827
51
125.2557685
0
ARC
8
DEFAULT_255_2_778
10
22.9160479
20
25.5378232
40
2.2517955
50
125.2443265
51
172.0234106
0
ARC
8
DEFAULT_255_2_778
10
22.9254502
20
25.5388627
40
2.2609637
50
172.0825612
51
180.0112583
0
ARC
8
DEFAULT_255_2_778
10
22.9086563
20
25.536471
40
2.2441707
50
179.9502802
51
205.2718051
0
ARC
8
DEFAULT_255_2_778
10
22.9156689
20
25.5393415
40
2.2517375
50
205.26168
51
252.0410022
0
ARC
8
DEFAULT_255_2_778
10
22.9164191
20
25.5490797
40
2.2612336
50
252.0990022
51
260.0264113
0
LINE
8
DEFAULT_255_2_778
10
23.3155865
20
27.7529184
11
23.3155865
21
25.9858184
0
LINE
8
DEFAULT_255_2_778
10
23.3155865
20
25.9858184
11
24.3654865
21
25.9858184
0
LINE
8
DEFAULT_255_2_778
10
24.3654865
20
25.9858184
11
24.3654865
21
24.9841184
0
LINE
8
DEFAULT_255_2_778
10
24.3654865
20
24.9841184
11
23.3155865
21
24.9841184
0
LINE
8
DEFAULT_255_2_778
10
23.3155865
20
24.9841184
11
23.3155865
21
23.3238184
0
LINE
8
DEFAULT_255_2_778
10
21.4748865
20
25.9858184
11
22.5247865
21
25.9858184
0
LINE
8
DEFAULT_255_2_778
10
22.5247865
20
25.9858184
11
22.5247865
21
27.7548184
0
LINE
8
DEFAULT_255_2_778
10
22.5247865
20
23.3220184
11
22.5247865
21
24.9841184
0
LINE
8
DEFAULT_255_2_778
10
22.5247865
20
24.9841184
11
21.4748865
21
24.9841184
0
LINE
8
DEFAULT_255_2_778
10
21.4748865
20
24.9841184
11
21.4748865
21
25.9858184
0
ARC
8
DEFAULT_255_2_778
10
22.9149714
20
18.0384882
40
2.2508007
50
260.0093724
51
270.0245993
0
LINE
8
DEFAULT_255_2_778
10
22.9159377
20
15.7876878
11
22.9168457
21
15.7876884
0
ARC
8
DEFAULT_255_2_778
10
22.9149522
20
18.0392217
40
2.2515341
50
270.0481839
51
280.2496983
0
ARC
8
DEFAULT_255_2_778
10
22.9173997
20
18.0331408
40
2.2451151
50
280.2158497
51
305.7481227
0
ARC
8
DEFAULT_255_2_778
10
22.9141302
20
18.0384728
40
2.2513527
50
305.7363743
51
352.1031006
0
ARC
8
DEFAULT_255_2_778
10
22.9033346
20
18.0377812
40
2.261952
50
352.1580238
51
0.011075
0
ARC
8
DEFAULT_255_2_778
10
22.9208427
20
18.0401919
40
2.2444447
50
359.9496197
51
25.4884178
0
ARC
8
DEFAULT_255_2_778
10
22.9144291
20
18.0375742
40
2.2513605
50
25.4783155
51
71.8446321
0
ARC
8
DEFAULT_255_2_778
10
22.9130333
20
18.0265547
40
2.2622674
50
71.8980021
51
79.7500675
0
ARC
8
DEFAULT_255_2_778
10
22.9153493
20
18.0446496
40
2.2440493
50
79.7260464
51
90.0048316
0
ARC
8
DEFAULT_255_2_778
10
22.9151298
20
18.0406256
40
2.2480736
50
89.9992289
51
90.3751944
0
ARC
8
DEFAULT_255_2_778
10
22.915447
20
18.029301
40
2.2593999
50
90.3813589
51
99.9644629
0
ARC
8
DEFAULT_255_2_778
10
22.9120072
20
18.0441184
40
2.2441591
50
99.9358827
51
125.2557685
0
ARC
8
DEFAULT_255_2_778
10
22.9160479
20
18.0376232
40
2.2517955
50
125.2443265
51
172.0234106
0
ARC
8
DEFAULT_255_2_778
10
22.9254502
20
18.0386627
40
2.2609637
50
172.0825612
51
180.0112583
0
ARC
8
DEFAULT_255_2_778
10
22.9086563
20
18.036271
40
2.2441707
50
179.9502802
51
205.2718051
0
ARC
8
DEFAULT_255_2_778
10
22.9156689
20
18.0391415
40
2.2517375
50
205.26168
51
252.0410022
0
ARC
8
DEFAULT_255_2_778
10
22.9164191
20
18.0488797
40
2.2612336
50
252.0990022
51
260.0264113
0
LINE
8
DEFAULT_255_2_778
10
23.3155865
20
20.2527184
11
23.3155865
21
18.4856184
0
LINE
8
DEFAULT_255_2_778
10
23.3155865
20
18.4856184
11
24.3654865
21
18.4856184
0
LINE
8
DEFAULT_255_2_778
10
24.3654865
20
18.4856184
11
24.3654865
21
17.4839184
0
LINE
8
DEFAULT_255_2_778
10
24.3654865
20
17.4839184
11
23.3155865
21
17.4839184
0
LINE
8
DEFAULT_255_2_778
10
23.3155865
20
17.4839184
11
23.3155865
21
15.8236184
0
LINE
8
DEFAULT_255_2_778
10
21.4748865
20
18.4856184
11
22.5247865
21
18.4856184
0
LINE
8
DEFAULT_255_2_778
10
22.5247865
20
18.4856184
11
22.5247865
21
20.2546184
0
LINE
8
DEFAULT_255_2_778
10
22.5247865
20
15.8218184
11
22.5247865
21
17.4839184
0
LINE
8
DEFAULT_255_2_778
10
22.5247865
20
17.4839184
11
21.4748865
21
17.4839184
0
LINE
8
DEFAULT_255_2_778
10
21.4748865
20
17.4839184
11
21.4748865
21
18.4856184
0
ARC
8
DEFAULT_255_2_778
10
15.0261789
20
22.1730569
40
2.2467872
50
79.8590853
51
89.9989501
0
ARC
8
DEFAULT_255_2_778
10
15.0262612
20
22.1730569
40
2.2467872
50
90.0010499
51
100.1409147
0
ARC
8
DEFAULT_255_2_778
10
15.0262612
20
22.1665313
40
2.2467872
50
259.8590853
51
269.9989501
0
ARC
8
DEFAULT_255_2_778
10
15.0261788
20
22.1665318
40
2.2467877
50
270.0010517
51
280.1409141
0
ARC
8
DEFAULT_255_2_778
10
15.0293296
20
22.1636421
40
2.2433899
50
280.0746945
51
305.6627688
0
ARC
8
DEFAULT_255_2_778
10
15.025034
20
22.1704929
40
2.2514604
50
305.6499387
51
352.0843506
0
ARC
8
DEFAULT_255_2_778
10
15.0155946
20
22.1695102
40
2.2606756
50
352.1419663
51
0.0109952
0
ARC
8
DEFAULT_255_2_778
10
15.0326717
20
22.1718688
40
2.2435991
50
359.9508482
51
25.536401
0
ARC
8
DEFAULT_255_2_778
10
15.025221
20
22.1688153
40
2.2516384
50
25.5247803
51
71.9543729
0
ARC
8
DEFAULT_255_2_778
10
15.0243272
20
22.1589073
40
2.2613371
50
72.0106058
51
79.8773635
0
ARC
8
DEFAULT_255_2_778
10
15.023356
20
22.1762247
40
2.2434014
50
100.0732305
51
125.6622417
0
ARC
8
DEFAULT_255_2_778
10
15.0276206
20
22.1694816
40
2.2513662
50
125.650371
51
172.0862382
0
ARC
8
DEFAULT_255_2_778
10
15.0373999
20
22.1703807
40
2.2609297
50
172.1429273
51
180.0110656
0
ARC
8
DEFAULT_255_2_778
10
15.0202026
20
22.1680067
40
2.2437335
50
179.9505274
51
205.5344045
0
ARC
8
DEFAULT_255_2_778
10
15.0273792
20
22.1709351
40
2.2514713
50
205.5229246
51
251.9561006
0
ARC
8
DEFAULT_255_2_778
10
15.0284131
20
22.1812008
40
2.2615537
50
252.0117524
51
259.8783359
0
LINE
8
DEFAULT_255_2_778
10
16.47167
20
21.6690441
11
15.42177
21
21.6690441
0
LINE
8
DEFAULT_255_2_778
10
15.42177
20
21.6690441
11
15.42177
21
19.9548441
0
LINE
8
DEFAULT_255_2_778
10
15.42177
20
24.3850441
11
15.42177
21
22.6707441
0
LINE
8
DEFAULT_255_2_778
10
15.42177
20
22.6707441
11
16.47167
21
22.6707441
0
LINE
8
DEFAULT_255_2_778
10
16.47167
20
22.6707441
11
16.47167
21
21.6690441
0
LINE
8
DEFAULT_255_2_778
10
14.63097
20
21.6690441
11
13.58107
21
21.6690441
0
LINE
8
DEFAULT_255_2_778
10
13.58107
20
21.6690441
11
13.58107
21
22.6707441
0
LINE
8
DEFAULT_255_2_778
10
13.58107
20
22.6707441
11
14.63097
21
22.6707441
0
LINE
8
DEFAULT_255_2_778
10
14.63097
20
22.6707441
11
14.63097
21
24.3850441
0
LINE
8
DEFAULT_255_2_778
10
14.63097
20
19.9548441
11
14.63097
21
21.6690441
0
LINE
8
DEFAULT_255_2_778
10
19.73397
20
28.5776441
11
19.73397
21
22.2075441
0
LINE
8
DEFAULT_255_2_778
10
19.73397
20
36.1261441
11
19.73397
21
29.7560441
0
LINE
8
DEFAULT_255_2_778
10
19.73397
20
43.6747441
11
19.73397
21
37.3046441
0
LINE
8
DEFAULT_255_2_778
10
19.73397
20
51.2233441
11
19.73397
21
44.8531441
0
LINE
8
DEFAULT_255_2_778
10
26.09557
20
44.8531441
11
26.09557
21
51.2233441
0
LINE
8
DEFAULT_255_2_778
10
26.09557
20
37.3046441
11
26.09557
21
43.6747441
0
LINE
8
DEFAULT_255_2_778
10
26.09557
20
29.7560441
11
26.09557
21
36.1261441
0
LINE
8
DEFAULT_255_2_778
10
26.09557
20
22.2075441
11
26.09557
21
28.5776441
0
LINE
8
DEFAULT_255_2_778
10
19.73397
20
21.0290441
11
19.73397
21
14.9735441
0
LINE
8
DEFAULT_255_2_778
10
19.73397
20
14.9735441
11
26.09557
21
14.9735441
0
LINE
8
DEFAULT_255_2_778
10
26.09557
20
14.9735441
11
26.09557
21
21.0290441
0
LINE
8
DEFAULT_255_2_778
10
11.85337
20
25.3589441
11
11.85337
21
19.1089441
0
LINE
8
DEFAULT_255_2_778
10
11.85337
20
32.8588441
11
11.85337
21
26.6088441
0
LINE
8
DEFAULT_255_2_778
10
11.85337
20
40.3589441
11
11.85337
21
34.1089441
0
LINE
8
DEFAULT_255_2_778
10
11.85337
20
47.8588441
11
11.85337
21
41.6088441
0
LINE
8
DEFAULT_255_2_778
10
11.85337
20
55.3590441
11
11.85337
21
49.1090441
0
LINE
8
DEFAULT_255_2_778
10
18.10327
20
49.1090441
11
18.10327
21
55.3590441
0
LINE
8
DEFAULT_255_2_778
10
18.10327
20
41.6088441
11
18.10327
21
47.8588441
0
LINE
8
DEFAULT_255_2_778
10
18.10327
20
34.1089441
11
18.10327
21
40.3589441
0
LINE
8
DEFAULT_255_2_778
10
18.10327
20
26.6088441
11
18.10327
21
32.8588441
0
LINE
8
DEFAULT_255_2_778
10
18.10327
20
19.1089441
11
18.10327
21
25.3589441
0
LINE
8
DEFAULT_255_2_778
10
11.35327
20
55.3590441
11
11.35327
21
49.1090441
0
LINE
8
DEFAULT_255_2_778
10
11.35327
20
17.6590441
11
11.35327
21
14.6589441
0
LINE
8
DEFAULT_255_2_778
10
11.35327
20
40.3589441
11
11.35327
21
34.1089441
0
LINE
8
DEFAULT_255_2_778
10
11.35327
20
47.8588441
11
11.35327
21
41.6088441
0
LINE
8
DEFAULT_255_2_778
10
11.35327
20
32.8588441
11
11.35327
21
26.6088441
0
LINE
8
DEFAULT_255_2_778
10
11.35327
20
25.3589441
11
11.35327
21
19.1089441
0
LINE
8
DEFAULT_255_2_778
10
22.10327
20
11.5408441
11
22.10327
21
11.5088441
0
LINE
8
DEFAULT_255_2_778
10
17.60327
20
11.5408441
11
17.60327
21
11.5088441
0
LINE
8
DEFAULT_255_2_778
10
13.85327
20
58.5088441
11
13.85327
21
56.5088441
0
LINE
8
DEFAULT_255_2_778
10
16.85347
20
58.5088441
11
16.85347
21
56.5088441
0
LINE
8
DEFAULT_255_2_778
10
25.85347
20
58.5088441
11
25.85347
21
56.5088441
0
LINE
8
DEFAULT_255_2_778
10
22.85337
20
58.5088441
11
22.85337
21
56.5088441
0
LINE
8
DEFAULT_255_2_778
10
22.85337
20
11.5088441
11
22.85337
21
13.5087441
0
LINE
8
DEFAULT_255_2_778
10
13.85327
20
11.5088441
11
13.85327
21
13.5087441
0
LINE
8
DEFAULT_255_2_778
10
16.85347
20
11.5088441
11
16.85347
21
13.5087441
0
LINE
8
DEFAULT_255_2_778
10
19.15347
20
49.1087441
11
11.35357
21
49.1087441
0
LINE
8
DEFAULT_255_2_778
10
11.35357
20
49.1087441
11
11.35357
21
47.8588441
0
LINE
8
DEFAULT_255_2_778
10
11.35357
20
47.8588441
11
19.15347
21
47.8588441
0
LINE
8
DEFAULT_255_2_778
10
19.15347
20
26.6088441
11
11.35357
21
26.6088441
0
LINE
8
DEFAULT_255_2_778
10
11.35357
20
26.6088441
11
11.35357
21
25.3589441
0
LINE
8
DEFAULT_255_2_778
10
11.35357
20
25.3589441
11
19.15347
21
25.3589441
0
LINE
8
DEFAULT_255_2_778
10
19.15347
20
17.6590441
11
11.35357
21
17.6590441
0
LINE
8
DEFAULT_255_2_778
10
11.35357
20
17.6590441
11
11.35357
21
19.1089441
0
LINE
8
DEFAULT_255_2_778
10
11.35357
20
19.1089441
11
19.15347
21
19.1089441
0
LINE
8
DEFAULT_255_2_778
10
19.15347
20
41.6088441
11
11.35357
21
41.6088441
0
LINE
8
DEFAULT_255_2_778
10
11.35357
20
41.6088441
11
11.35357
21
40.3589441
0
LINE
8
DEFAULT_255_2_778
10
11.35357
20
40.3589441
11
19.15347
21
40.3589441
0
LINE
8
DEFAULT_255_2_778
10
19.15347
20
34.1089441
11
11.35357
21
34.1089441
0
LINE
8
DEFAULT_255_2_778
10
11.35357
20
34.1089441
11
11.35357
21
32.8591441
0
LINE
8
DEFAULT_255_2_778
10
11.35357
20
32.8591441
11
19.15347
21
32.8591441
0
LINE
8
DEFAULT_255_2_778
10
19.15347
20
43.6750441
11
19.15347
21
37.3048441
0
LINE
8
DEFAULT_255_2_778
10
19.15347
20
21.0290441
11
19.15347
21
14.6589441
0
LINE
8
DEFAULT_255_2_778
10
19.15347
20
51.2233441
11
19.15347
21
44.8531441
0
LINE
8
DEFAULT_255_2_778
10
19.15347
20
36.1259441
11
19.15347
21
29.7558441
0
LINE
8
DEFAULT_255_2_778
10
19.15347
20
28.5770441
11
19.15347
21
22.2069441
0
LINE
8
DEFAULT_255_2_778
10
25.85347
20
59.0443441
11
25.85347
21
58.5086441
0
LINE
8
DEFAULT_255_2_778
10
25.85347
20
58.5086441
11
13.85327
21
58.5086441
0
LINE
8
DEFAULT_255_2_778
10
13.85327
20
58.5086441
11
13.85327
21
61.0086441
0
LINE
8
DEFAULT_255_2_778
10
13.85327
20
61.0086441
11
25.85327
21
61.0086441
0
LINE
8
DEFAULT_255_2_778
10
25.85327
20
61.0086441
11
25.85327
21
59.0446441
0
LINE
8
DEFAULT_255_2_778
10
25.85327
20
59.0446441
11
13.85327
21
59.0446441
0
LINE
8
DEFAULT_255_2_778
10
25.85327
20
13.5087441
11
25.85327
21
9.0087441
0
LINE
8
DEFAULT_255_2_778
10
25.85327
20
9.0087441
11
13.85327
21
9.0087441
0
LINE
8
DEFAULT_255_2_778
10
13.85327
20
9.0087441
11
13.85327
21
11.5088441
0
LINE
8
DEFAULT_255_2_778
10
13.85327
20
11.5088441
11
25.85327
21
11.5088441
0
LINE
8
DEFAULT_255_2_778
10
19.15317
20
55.3590441
11
19.15317
21
52.6089441
0
LINE
8
DEFAULT_255_2_778
10
19.15317
20
52.6089441
11
26.95307
21
52.6089441
0
LINE
8
DEFAULT_255_2_778
10
26.95307
20
52.6089441
11
26.95307
21
55.3590441
0
LINE
8
DEFAULT_255_2_778
10
26.95307
20
55.3590441
11
11.35327
21
55.3590441
0
LINE
8
DEFAULT_255_2_778
10
11.35327
20
55.3590441
11
11.35327
21
56.5088441
0
LINE
8
DEFAULT_255_2_778
10
11.35327
20
56.5088441
11
28.35327
21
56.5088441
0
LINE
8
DEFAULT_255_2_778
10
28.35327
20
56.5088441
11
28.35327
21
13.5087441
0
LINE
8
DEFAULT_255_2_778
10
28.35327
20
13.5087441
11
11.35327
21
13.5087441
0
LINE
8
DEFAULT_255_2_778
10
11.35327
20
13.5087441
11
11.35327
21
14.6586441
0
LINE
8
DEFAULT_255_2_778
10
11.35327
20
14.6586441
11
26.95337
21
14.6586441
0
LINE
8
DEFAULT_255_2_778
10
26.95337
20
14.6586441
11
26.95337
21
21.0287441
0
LINE
8
DEFAULT_255_2_778
10
26.95337
20
21.0287441
11
19.15347
21
21.0287441
0
LINE
8
DEFAULT_255_2_778
10
19.15347
20
21.0287441
11
19.15347
21
22.2075441
0
LINE
8
DEFAULT_255_2_778
10
19.15347
20
22.2075441
11
26.95337
21
22.2075441
0
LINE
8
DEFAULT_255_2_778
10
26.95337
20
22.2075441
11
26.95337
21
28.5776441
0
LINE
8
DEFAULT_255_2_778
10
26.95337
20
28.5776441
11
19.15347
21
28.5776441
0
LINE
8
DEFAULT_255_2_778
10
19.15347
20
28.5776441
11
19.15347
21
29.7563441
0
LINE
8
DEFAULT_255_2_778
10
19.15347
20
29.7563441
11
26.95337
21
29.7563441
0
LINE
8
DEFAULT_255_2_778
10
26.95337
20
29.7563441
11
26.95337
21
36.1264441
0
LINE
8
DEFAULT_255_2_778
10
26.95337
20
36.1264441
11
19.15347
21
36.1264441
0
LINE
8
DEFAULT_255_2_778
10
19.15347
20
36.1264441
11
19.15347
21
37.3051441
0
LINE
8
DEFAULT_255_2_778
10
19.15347
20
37.3051441
11
26.95337
21
37.3051441
0
LINE
8
DEFAULT_255_2_778
10
26.95337
20
37.3051441
11
26.95337
21
43.6752441
0
LINE
8
DEFAULT_255_2_778
10
26.95337
20
43.6752441
11
19.15347
21
43.6752441
0
LINE
8
DEFAULT_255_2_778
10
19.15347
20
43.6752441
11
19.15347
21
44.8539441
0
LINE
8
DEFAULT_255_2_778
10
19.15347
20
44.8539441
11
26.95337
21
44.8539441
0
LINE
8
DEFAULT_255_2_778
10
26.95337
20
44.8539441
11
26.95337
21
51.2240441
0
LINE
8
DEFAULT_255_2_778
10
26.95337
20
51.2240441
11
19.15347
21
51.2240441
0
LINE
8
DEFAULT_255_2_778
10
19.15347
20
51.2240441
11
19.15347
21
52.6097441
0
LINE
8
DEFAULT_255_2_778
10
25.98657
20
13.5098441
11
25.98657
21
13.0082441
0
LINE
8
DEFAULT_255_2_778
10
17.35347
20
9.0098441
11
17.35347
21
8.5097441
0
LINE
8
DEFAULT_255_2_778
10
17.35347
20
8.5097441
11
22.35357
21
8.5097441
0
LINE
8
DEFAULT_255_2_778
10
22.35357
20
8.5097441
11
22.35357
21
9.0098441
0
LINE
8
DEFAULT_255_2_778
10
25.85347
20
13.0082441
11
28.35517
21
13.0082441
0
LINE
8
DEFAULT_255_2_778
10
28.35517
20
13.0082441
11
28.35517
21
55.5082441
0
LINE
8
DEFAULT_255_2_778
10
21.95327
20
13.5087441
11
21.95327
21
13.0071441
0
LINE
8
DEFAULT_255_2_778
10
21.95327
20
13.0071441
11
22.85337
21
13.0071441
0
ARC
8
DEFAULT_255_2_778
10
13.2920281
20
81.2262778
40
0.0952397
50
136.4914442
51
158.8079986
0
ARC
8
DEFAULT_255_2_778
10
14.2385217
20
80.4820288
40
1.2989164
50
138.1816437
51
141.4310085
0
ARC
8
DEFAULT_255_2_778
10
16.5485579
20
78.4309353
40
4.3881252
50
136.4566722
51
138.3339257
0
ARC
8
DEFAULT_255_2_778
10
19.7269472
20
75.42231
40
8.7646474
50
134.9406444
51
136.5141253
0
ARC
8
DEFAULT_255_2_778
10
13.173782
20
79.6754984
40
0.08909
50
46.6941834
51
69.3582948
0
ARC
8
DEFAULT_255_2_778
10
12.3526073
20
78.6324713
40
1.4162519
50
47.7434084
51
51.4667346
0
ARC
8
DEFAULT_255_2_778
10
9.9804328
20
75.9856066
40
4.9705365
50
46.2639996
51
48.0217459
0
ARC
8
DEFAULT_255_2_778
10
7.2964024
20
73.1652195
40
8.8639334
50
45.098828
51
46.3321056
0
ARC
8
DEFAULT_255_2_778
10
13.2920281
20
78.2261778
40
0.0952397
50
136.4914442
51
158.8079986
0
ARC
8
DEFAULT_255_2_778
10
14.2385217
20
77.4819288
40
1.2989164
50
138.1816437
51
141.4310085
0
ARC
8
DEFAULT_255_2_778
10
16.5485579
20
75.4308353
40
4.3881252
50
136.4566722
51
138.3339257
0
ARC
8
DEFAULT_255_2_778
10
19.7269472
20
72.42221
40
8.7646474
50
134.9406444
51
136.5141253
0
ARC
8
DEFAULT_255_2_778
10
13.173782
20
76.6753984
40
0.08909
50
46.6941834
51
69.3582948
0
ARC
8
DEFAULT_255_2_778
10
12.3526073
20
75.6323713
40
1.4162519
50
47.7434084
51
51.4667346
0
ARC
8
DEFAULT_255_2_778
10
9.9804328
20
72.9855066
40
4.9705365
50
46.2639996
51
48.0217459
0
ARC
8
DEFAULT_255_2_778
10
7.2964024
20
70.1651195
40
8.8639334
50
45.098828
51
46.3321056
0
ARC
8
DEFAULT_255_2_778
10
13.2920281
20
75.2260778
40
0.0952397
50
136.4914442
51
158.8079986
0
ARC
8
DEFAULT_255_2_778
10
14.2385217
20
74.4818288
40
1.2989164
50
138.1816437
51
141.4310085
0
ARC
8
DEFAULT_255_2_778
10
16.5485579
20
72.4307353
40
4.3881252
50
136.4566722
51
138.3339257
0
ARC
8
DEFAULT_255_2_778
10
19.7269472
20
69.42211
40
8.7646474
50
134.9406444
51
136.5141253
0
ARC
8
DEFAULT_255_2_778
10
20.5423321
20
78.2263276
40
0.0951031
50
136.4878601
51
158.8606224
0
ARC
8
DEFAULT_255_2_778
10
21.485934
20
77.4844604
40
1.2950341
50
138.1741007
51
141.4338914
0
ARC
8
DEFAULT_255_2_778
10
23.7971338
20
75.4318446
40
4.3861238
50
136.4490516
51
138.3270835
0
ARC
8
DEFAULT_255_2_778
10
27.0039326
20
72.3954735
40
8.8023517
50
134.9402028
51
136.5065649
0
ARC
8
DEFAULT_255_2_778
10
20.4242275
20
76.6754626
40
0.0889788
50
46.7098999
51
69.4311785
0
ARC
8
DEFAULT_255_2_778
10
19.6076066
20
75.6374648
40
1.4093721
50
47.7433192
51
51.4855452
0
ARC
8
DEFAULT_255_2_778
10
17.2498839
20
73.0065932
40
4.9421014
50
46.2549198
51
48.0226467
0
ARC
8
DEFAULT_255_2_778
10
14.5826871
20
70.2047091
40
8.8104901
50
45.0828507
51
46.3233354
0
ARC
8
DEFAULT_255_2_778
10
17.11473
20
78.2261523
40
0.0952494
50
21.2061668
51
43.5240661
0
ARC
8
DEFAULT_255_2_778
10
16.166529
20
77.4801677
40
1.3013409
50
38.5830398
51
41.8268859
0
ARC
8
DEFAULT_255_2_778
10
13.8428945
20
75.416357
40
4.4091619
50
41.6746553
51
43.5430772
0
ARC
8
DEFAULT_255_2_778
10
10.6190229
20
72.3645922
40
8.8483712
50
43.4858849
51
45.0442761
0
ARC
8
DEFAULT_255_2_778
10
17.11473
20
81.2262523
40
0.0952494
50
21.2061668
51
43.5240661
0
ARC
8
DEFAULT_255_2_778
10
16.166529
20
80.4802677
40
1.3013409
50
38.5830398
51
41.8268859
0
ARC
8
DEFAULT_255_2_778
10
13.8428945
20
78.416457
40
4.4091619
50
41.6746553
51
43.5430772
0
ARC
8
DEFAULT_255_2_778
10
10.6190229
20
75.3646922
40
8.8483712
50
43.4858849
51
45.0442761
0
ARC
8
DEFAULT_255_2_778
10
20.5421287
20
81.2262523
40
0.0952494
50
136.4759339
51
158.7938332
0
ARC
8
DEFAULT_255_2_778
10
21.4903296
20
80.4802677
40
1.3013409
50
138.1731141
51
141.4169602
0
ARC
8
DEFAULT_255_2_778
10
23.8139641
20
78.416457
40
4.4091619
50
136.4569228
51
138.3253447
0
ARC
8
DEFAULT_255_2_778
10
27.0378358
20
75.3646922
40
8.8483712
50
134.9557239
51
136.5141151
0
LINE
8
DEFAULT_255_2_778
10
13.2032293
20
81.2587686
11
9.9533293
21
81.2587686
0
LINE
8
DEFAULT_255_2_778
10
13.2032293
20
79.7588686
11
13.2032293
21
81.2606686
0
LINE
8
DEFAULT_255_2_778
10
13.5358293
20
81.6262686
11
13.5533293
21
81.6437686
0
LINE
8
DEFAULT_255_2_778
10
9.6033293
20
79.4437686
11
9.9515293
21
79.7588686
0
LINE
8
DEFAULT_255_2_778
10
9.9515293
20
79.7588686
11
13.2051293
21
79.7588686
0
LINE
8
DEFAULT_255_2_778
10
9.6033293
20
81.6437686
11
9.6033293
21
79.4437686
0
LINE
8
DEFAULT_255_2_778
10
9.6033293
20
79.4437686
11
13.5533293
21
79.4437686
0
LINE
8
DEFAULT_255_2_778
10
13.5533293
20
79.4437686
11
13.5533293
21
81.6437686
0
LINE
8
DEFAULT_255_2_778
10
13.5533293
20
81.6437686
11
9.6033293
21
81.6437686
0
LINE
8
DEFAULT_255_2_778
10
9.6033293
20
81.6437686
11
9.6208293
21
81.6262686
0
LINE
8
DEFAULT_255_2_778
10
9.6208293
20
81.6262686
11
9.9533293
21
81.2606686
0
LINE
8
DEFAULT_255_2_778
10
9.9533293
20
81.2606686
11
9.9533293
21
79.7588686
0
LINE
8
DEFAULT_255_2_778
10
13.2032293
20
78.2586686
11
9.9533293
21
78.2586686
0
LINE
8
DEFAULT_255_2_778
10
13.2032293
20
76.7587686
11
13.2032293
21
78.2605686
0
LINE
8
DEFAULT_255_2_778
10
13.5358293
20
78.6261686
11
13.5533293
21
78.6436686
0
LINE
8
DEFAULT_255_2_778
10
9.6033293
20
78.6436686
11
9.6208293
21
78.6261686
0
LINE
8
DEFAULT_255_2_778
10
9.6208293
20
78.6261686
11
9.9533293
21
78.2605686
0
LINE
8
DEFAULT_255_2_778
10
9.9533293
20
78.2605686
11
9.9533293
21
76.7587686
0
LINE
8
DEFAULT_255_2_778
10
9.6033293
20
76.4436686
11
9.9515293
21
76.7587686
0
LINE
8
DEFAULT_255_2_778
10
9.9515293
20
76.7587686
11
13.2051293
21
76.7587686
0
LINE
8
DEFAULT_255_2_778
10
13.5533293
20
76.4436686
11
9.6033293
21
76.4436686
0
LINE
8
DEFAULT_255_2_778
10
9.6033293
20
76.4436686
11
9.6033293
21
78.6436686
0
LINE
8
DEFAULT_255_2_778
10
9.6033293
20
78.6436686
11
13.5533293
21
78.6436686
0
LINE
8
DEFAULT_255_2_778
10
13.5533293
20
78.6436686
11
13.5533293
21
76.4436686
0
LINE
8
DEFAULT_255_2_778
10
13.2032293
20
75.2588686
11
9.9533293
21
75.2588686
0
LINE
8
DEFAULT_255_2_778
10
9.9533293
20
75.2588686
11
9.9533293
21
74.5539686
0
LINE
8
DEFAULT_255_2_778
10
9.9533293
20
73.7589686
11
13.2032293
21
73.7589686
0
LINE
8
DEFAULT_255_2_778
10
13.5533293
20
73.4088686
11
13.2032293
21
73.7589686
0
LINE
8
DEFAULT_255_2_778
10
13.2032293
20
73.7589686
11
13.2032293
21
74.5539686
0
LINE
8
DEFAULT_255_2_778
10
9.6033293
20
73.4088686
11
13.5533293
21
73.4088686
0
LINE
8
DEFAULT_255_2_778
10
13.5533293
20
73.4088686
11
13.5533293
21
74.5539686
0
LINE
8
DEFAULT_255_2_778
10
13.5533293
20
74.5539686
11
13.2032293
21
74.5539686
0
LINE
8
DEFAULT_255_2_778
10
13.2032293
20
74.5539686
11
13.2032293
21
75.2604686
0
LINE
8
DEFAULT_255_2_778
10
13.5358293
20
75.6260686
11
13.5533293
21
75.6435686
0
LINE
8
DEFAULT_255_2_778
10
9.9533293
20
74.5537686
11
9.9533293
21
73.7586686
0
LINE
8
DEFAULT_255_2_778
10
9.9533293
20
73.7586686
11
9.6033293
21
73.4085686
0
LINE
8
DEFAULT_255_2_778
10
9.6033293
20
73.4085686
11
9.6033293
21
74.5537686
0
LINE
8
DEFAULT_255_2_778
10
9.6033293
20
74.5537686
11
9.9533293
21
74.5537686
0
LINE
8
DEFAULT_255_2_778
10
9.9533293
20
72.2589686
11
9.9533293
21
70.7590686
0
LINE
8
DEFAULT_255_2_778
10
13.2032293
20
72.2589686
11
9.9533293
21
72.2589686
0
LINE
8
DEFAULT_255_2_778
10
9.9533293
20
72.2589686
11
9.6033293
21
72.6090686
0
LINE
8
DEFAULT_255_2_778
10
13.2032293
20
70.7590686
11
13.2032293
21
72.2589686
0
LINE
8
DEFAULT_255_2_778
10
13.2032293
20
72.2589686
11
13.5533293
21
72.6090686
0
LINE
8
DEFAULT_255_2_778
10
13.5533293
20
72.6090686
11
13.5533293
21
70.4090686
0
LINE
8
DEFAULT_255_2_778
10
13.5533293
20
70.4090686
11
9.6033293
21
70.4090686
0
LINE
8
DEFAULT_255_2_778
10
9.6033293
20
70.4090686
11
9.6033293
21
72.6090686
0
LINE
8
DEFAULT_255_2_778
10
9.6033293
20
72.6090686
11
13.5533293
21
72.6090686
0
LINE
8
DEFAULT_255_2_778
10
9.6033293
20
70.4090686
11
9.9533293
21
70.7590686
0
LINE
8
DEFAULT_255_2_778
10
9.9533293
20
70.7590686
11
13.2032293
21
70.7590686
0
LINE
8
DEFAULT_255_2_778
10
13.2032293
20
70.7590686
11
13.5533293
21
70.4090686
0
LINE
8
DEFAULT_255_2_778
10
17.2035293
20
70.7590686
11
20.4533293
21
70.7590686
0
LINE
8
DEFAULT_255_2_778
10
17.2035293
20
72.2589686
11
17.2035293
21
70.7590686
0
LINE
8
DEFAULT_255_2_778
10
17.2035293
20
70.7590686
11
16.8534293
21
70.4090686
0
LINE
8
DEFAULT_255_2_778
10
20.4533293
20
72.2589686
11
17.2035293
21
72.2589686
0
LINE
8
DEFAULT_255_2_778
10
17.2035293
20
72.2589686
11
16.8534293
21
72.6090686
0
LINE
8
DEFAULT_255_2_778
10
20.8034293
20
70.4090686
11
20.8034293
21
72.6090686
0
LINE
8
DEFAULT_255_2_778
10
20.8034293
20
72.6090686
11
16.8534293
21
72.6090686
0
LINE
8
DEFAULT_255_2_778
10
16.8534293
20
72.6090686
11
16.8534293
21
70.4090686
0
LINE
8
DEFAULT_255_2_778
10
16.8534293
20
70.4090686
11
20.8034293
21
70.4090686
0
LINE
8
DEFAULT_255_2_778
10
20.8034293
20
70.4090686
11
20.4533293
21
70.7590686
0
LINE
8
DEFAULT_255_2_778
10
20.4533293
20
70.7590686
11
20.4533293
21
72.2589686
0
LINE
8
DEFAULT_255_2_778
10
20.4533293
20
72.2589686
11
20.8034293
21
72.6090686
0
LINE
8
DEFAULT_255_2_778
10
17.2035293
20
73.7589686
11
20.4533293
21
73.7589686
0
LINE
8
DEFAULT_255_2_778
10
20.4533293
20
75.2588686
11
17.2035293
21
75.2588686
0
LINE
8
DEFAULT_255_2_778
10
16.8534293
20
75.6437686
11
16.8709293
21
75.6263686
0
LINE
8
DEFAULT_255_2_778
10
16.8709293
20
75.6263686
11
17.2035293
21
75.2606686
0
LINE
8
DEFAULT_255_2_778
10
17.2035293
20
75.2606686
11
17.2035293
21
74.5539686
0
LINE
8
DEFAULT_255_2_778
10
20.8034293
20
73.4088686
11
20.4533293
21
73.7589686
0
LINE
8
DEFAULT_255_2_778
10
20.4533293
20
73.7589686
11
20.4533293
21
74.5539686
0
LINE
8
DEFAULT_255_2_778
10
20.8034293
20
75.6437686
11
20.7859293
21
75.6263686
0
LINE
8
DEFAULT_255_2_778
10
20.7859293
20
75.6263686
11
20.4533293
21
75.2606686
0
LINE
8
DEFAULT_255_2_778
10
20.4533293
20
75.2606686
11
20.4533293
21
74.5542686
0
LINE
8
DEFAULT_255_2_778
10
20.4533293
20
74.5542686
11
20.8034293
21
74.5542686
0
LINE
8
DEFAULT_255_2_778
10
20.8034293
20
74.5542686
11
20.8034293
21
73.4091686
0
LINE
8
DEFAULT_255_2_778
10
20.8034293
20
73.4091686
11
16.8534293
21
73.4091686
0
LINE
8
DEFAULT_255_2_778
10
16.8534293
20
73.4091686
11
16.8534293
21
74.5542686
0
LINE
8
DEFAULT_255_2_778
10
16.8534293
20
74.5542686
11
17.2035293
21
74.5542686
0
LINE
8
DEFAULT_255_2_778
10
17.2035293
20
74.5542686
11
17.2035293
21
73.7589686
0
LINE
8
DEFAULT_255_2_778
10
17.2035293
20
73.7589686
11
16.8534293
21
73.4088686
0
LINE
8
DEFAULT_255_2_778
10
20.4533293
20
78.2586686
11
17.2035293
21
78.2586686
0
LINE
8
DEFAULT_255_2_778
10
20.4536293
20
76.7587686
11
20.4536293
21
78.2605686
0
LINE
8
DEFAULT_255_2_778
10
20.7862293
20
78.6261686
11
20.8036293
21
78.6436686
0
LINE
8
DEFAULT_255_2_778
10
17.2019293
20
76.7587686
11
20.4554293
21
76.7587686
0
LINE
8
DEFAULT_255_2_778
10
20.8036293
20
76.4436686
11
16.8534293
21
76.4436686
0
LINE
8
DEFAULT_255_2_778
10
16.8534293
20
76.4436686
11
16.8534293
21
78.6436686
0
LINE
8
DEFAULT_255_2_778
10
16.8534293
20
78.6436686
11
20.8034293
21
78.6436686
0
LINE
8
DEFAULT_255_2_778
10
20.8034293
20
78.6436686
11
20.8034293
21
76.4436686
0
LINE
8
DEFAULT_255_2_778
10
16.8534293
20
76.4436686
11
17.2016293
21
76.7587686
0
LINE
8
DEFAULT_255_2_778
10
17.2016293
20
76.7587686
11
17.2035293
21
78.2605686
0
LINE
8
DEFAULT_255_2_778
10
16.8709293
20
78.6261686
11
16.8534293
21
78.6436686
0
LINE
8
DEFAULT_255_2_778
10
20.4533293
20
81.2587686
11
17.2035293
21
81.2587686
0
LINE
8
DEFAULT_255_2_778
10
17.2016293
20
79.7588686
11
20.4552293
21
79.7588686
0
LINE
8
DEFAULT_255_2_778
10
16.8534293
20
79.4437686
11
17.2016293
21
79.7588686
0
LINE
8
DEFAULT_255_2_778
10
17.2016293
20
79.7588686
11
17.2035293
21
81.2606686
0
LINE
8
DEFAULT_255_2_778
10
16.8709293
20
81.6262686
11
16.8534293
21
81.6437686
0
LINE
8
DEFAULT_255_2_778
10
16.8534293
20
81.6437686
11
20.8034293
21
81.6437686
0
LINE
8
DEFAULT_255_2_778
10
20.8034293
20
81.6437686
11
20.8034293
21
79.4437686
0
LINE
8
DEFAULT_255_2_778
10
20.8034293
20
79.4437686
11
16.8534293
21
79.4437686
0
LINE
8
DEFAULT_255_2_778
10
16.8534293
20
79.4437686
11
16.8534293
21
81.6437686
0
LINE
8
DEFAULT_255_2_778
10
20.8034293
20
79.4437686
11
20.4533293
21
79.7588686
0
LINE
8
DEFAULT_255_2_778
10
20.4533293
20
79.7588686
11
20.4533293
21
81.2606686
0
LINE
8
DEFAULT_255_2_778
10
20.7859293
20
81.6262686
11
20.8034293
21
81.6437686
0
ARC
8
DEFAULT_255_2_778
10
3.9298105
20
66.6667161
40
0.6848931
50
60.8176109
51
91.1254253
0
ARC
8
DEFAULT_255_2_778
10
3.9708703
20
66.7548865
40
0.587937
50
26.5385939
51
60.1214904
0
ARC
8
DEFAULT_255_2_778
10
3.7844104
20
66.664092
40
0.79532
50
359.887052
51
26.3885684
0
ARC
8
DEFAULT_255_2_778
10
3.5329281
20
66.6455876
40
1.0469379
50
0.2183326
51
0.926927
0
ARC
8
DEFAULT_255_2_778
10
3.7431235
20
66.5396782
40
0.8368487
50
338.4115849
51
0.944798
0
ARC
8
DEFAULT_255_2_778
10
3.8973349
20
66.4890434
40
0.6748937
50
332.7929524
51
337.5916986
0
ARC
8
DEFAULT_255_2_778
10
3.9790949
20
66.4398447
40
0.5797207
50
299.3179603
51
333.4229417
0
ARC
8
DEFAULT_255_2_778
10
3.9177977
20
66.5698669
40
0.7231758
50
270.2123586
51
298.5082078
0
ARC
8
DEFAULT_255_2_778
10
3.8973878
20
66.8126568
40
0.9662366
50
270.6208964
51
271.3693317
0
ARC
8
DEFAULT_255_2_778
10
3.9125846
20
66.5238514
40
0.5150573
50
268.4729001
51
296.9382406
0
ARC
8
DEFAULT_255_2_778
10
3.9550475
20
66.4198475
40
0.4032078
50
298.2544041
51
318.2915706
0
ARC
8
DEFAULT_255_2_778
10
3.875807
20
66.4769837
40
0.5004804
50
319.4441823
51
351.5030831
0
ARC
8
DEFAULT_255_2_778
10
3.505305
20
66.5523201
40
0.8782696
50
350.2135292
51
0.349476
0
ARC
8
DEFAULT_255_2_778
10
3.606746
20
66.658345
40
0.7769173
50
359.0583544
51
16.7830781
0
ARC
8
DEFAULT_255_2_778
10
3.9043013
20
66.7453525
40
0.4669205
50
17.1042586
51
39.7751168
0
ARC
8
DEFAULT_255_2_778
10
3.9491849
20
66.7706061
40
0.4163721
50
41.0558685
51
88.6722678
0
ARC
8
DEFAULT_255_2_778
10
3.9153792
20
66.5318141
40
0.6564921
50
86.2047868
51
89.4606942
0
ARC
8
DEFAULT_255_2_778
10
3.9843414
20
67.7850974
40
1.8332886
50
318.1927057
51
323.5221614
0
ARC
8
DEFAULT_255_2_778
10
4.8871982
20
67.1189521
40
0.7112829
50
323.4319123
51
331.2264788
0
ARC
8
DEFAULT_255_2_778
10
5.1986478
20
66.9480261
40
0.3560132
50
331.2113275
51
359.7828956
0
ARC
8
DEFAULT_255_2_778
10
5.2855832
20
66.9568327
40
0.2692668
50
357.8385303
51
42.7980792
0
ARC
8
DEFAULT_255_2_778
10
5.3041396
20
66.965788
40
0.2496396
50
44.1836961
51
92.5670973
0
ARC
8
DEFAULT_255_2_778
10
5.2789329
20
66.903002
40
0.3124899
50
87.4275177
51
125.1733766
0
ARC
8
DEFAULT_255_2_778
10
5.2479068
20
66.9620487
40
0.2465036
50
127.1850162
51
135.7757917
0
ARC
8
DEFAULT_255_2_778
10
5.2920627
20
66.9317376
40
0.299425
50
137.512759
51
180.2753137
0
ARC
8
DEFAULT_255_2_778
10
5.4951765
20
66.908269
40
0.5030179
50
177.4899009
51
180.0218569
0
ARC
8
DEFAULT_255_2_778
10
5.2448231
20
66.9259245
40
0.4443233
50
134.2716334
51
182.3020595
0
ARC
8
DEFAULT_255_2_778
10
5.2574624
20
66.8950368
40
0.4754277
50
92.3132848
51
132.763669
0
ARC
8
DEFAULT_255_2_778
10
5.2922915
20
66.6416759
40
0.7304014
50
89.9476851
51
94.241354
0
ARC
8
DEFAULT_255_2_778
10
5.3062538
20
66.8177538
40
0.5544826
50
66.7501104
51
91.3739694
0
ARC
8
DEFAULT_255_2_778
10
5.3643145
20
66.9724526
40
0.389504
50
48.0366279
51
65.6143615
0
ARC
8
DEFAULT_255_2_778
10
5.3715129
20
66.9848642
40
0.3754734
50
357.6055048
51
47.5869914
0
ARC
8
DEFAULT_255_2_778
10
5.2619794
20
66.9821613
40
0.4848529
50
333.6632631
51
358.46545
0
ARC
8
DEFAULT_255_2_778
10
4.7577875
20
67.2160692
40
1.0405781
50
322.2978874
51
334.4371153
0
ARC
8
DEFAULT_255_2_778
10
4.1042236
20
67.7027714
40
1.8553817
50
317.1085414
51
322.7491185
0
ARC
8
DEFAULT_255_2_778
10
6.1189116
20
66.4762625
40
1.4273008
50
350.7265833
51
0.4983596
0
ARC
8
DEFAULT_255_2_778
10
6.8280475
20
66.3549741
40
0.7079086
50
333.7641641
51
351.165984
0
ARC
8
DEFAULT_255_2_778
10
7.061128
20
66.2486161
40
0.4518866
50
324.9926397
51
332.7959399
0
ARC
8
DEFAULT_255_2_778
10
7.1182394
20
66.2143186
40
0.3854602
50
273.0501832
51
324.2982416
0
ARC
8
DEFAULT_255_2_778
10
7.0739422
20
66.4782605
40
0.6520846
50
269.8959847
51
275.7037882
0
ARC
8
DEFAULT_255_2_778
10
7.0593344
20
66.3206916
40
0.4946968
50
244.5583795
51
271.5549585
0
ARC
8
DEFAULT_255_2_778
10
7.0098538
20
66.1963635
40
0.3612746
50
215.6156356
51
243.1740282
0
ARC
8
DEFAULT_255_2_778
10
7.1958044
20
66.3167566
40
0.5826451
50
192.3016926
51
214.5914129
0
ARC
8
DEFAULT_255_2_778
10
7.7711474
20
66.4552096
40
1.1743452
50
181.4670895
51
192.9209371
0
ARC
8
DEFAULT_255_2_778
10
8.2929353
20
66.485701
40
1.6968291
50
180.7673276
51
182.0452536
0
ARC
8
DEFAULT_255_2_778
10
7.9843364
20
66.7308454
40
1.388134
50
170.5087647
51
180.5146432
0
ARC
8
DEFAULT_255_2_778
10
7.2893682
20
66.8528423
40
0.6825864
50
152.8027525
51
170.9896481
0
ARC
8
DEFAULT_255_2_778
10
7.0705773
20
66.9561632
40
0.4408365
50
144.6405676
51
151.749678
0
ARC
8
DEFAULT_255_2_778
10
7.0222083
20
66.9838271
40
0.3854189
50
93.6966808
51
143.8332676
0
ARC
8
DEFAULT_255_2_778
10
7.0691973
20
66.7145944
40
0.6577841
50
89.8727256
51
96.2699551
0
ARC
8
DEFAULT_255_2_778
10
7.0838714
20
66.8559731
40
0.5165729
50
66.3349098
51
91.4656819
0
ARC
8
DEFAULT_255_2_778
10
7.1422309
20
67.0073302
40
0.3545942
50
36.2043243
51
65.1550684
0
ARC
8
DEFAULT_255_2_778
10
6.9806898
20
66.9023305
40
0.5470685
50
12.7203506
51
35.0845568
0
ARC
8
DEFAULT_255_2_778
10
6.4050993
20
66.7591927
40
1.1401226
50
1.906413
51
13.3678295
0
ARC
8
DEFAULT_255_2_778
10
5.8246094
20
66.7222234
40
1.7216114
50
0.4876853
51
2.4934115
0
ARC
8
DEFAULT_255_2_778
10
6.183337
20
66.7623262
40
1.1715824
50
359.4156212
51
8.8931467
0
ARC
8
DEFAULT_255_2_778
10
6.8744427
20
66.8770384
40
0.471096
50
8.1033534
51
27.5105222
0
ARC
8
DEFAULT_255_2_778
10
7.050111
20
66.9590946
40
0.2775146
50
29.2379232
51
31.568179
0
ARC
8
DEFAULT_255_2_778
10
7.0867158
20
66.9813527
40
0.2346744
50
31.6167183
51
93.9234788
0
ARC
8
DEFAULT_255_2_778
10
7.054575
20
66.9842625
40
0.2317733
50
86.0208881
51
148.6409819
0
ARC
8
DEFAULT_255_2_778
10
7.2494752
20
66.8820562
40
0.4516129
50
150.4364125
51
170.8545566
0
ARC
8
DEFAULT_255_2_778
10
7.8761615
20
66.7658742
40
1.0889036
50
170.060065
51
180.0524683
0
ARC
8
DEFAULT_255_2_778
10
7.9283514
20
66.4468159
40
1.1411588
50
179.3843768
51
189.4654297
0
ARC
8
DEFAULT_255_2_778
10
7.2689311
20
66.3306285
40
0.4716496
50
188.7168217
51
208.8732112
0
ARC
8
DEFAULT_255_2_778
10
7.1077411
20
66.2515565
40
0.2924416
50
210.5567626
51
211.4492633
0
ARC
8
DEFAULT_255_2_778
10
7.0609398
20
66.217039
40
0.2345599
50
210.2208196
51
272.8881603
0
ARC
8
DEFAULT_255_2_778
10
7.0862637
20
66.2137149
40
0.2313324
50
266.6531451
51
328.3351527
0
ARC
8
DEFAULT_255_2_778
10
6.9038765
20
66.3137917
40
0.4392306
50
329.7134965
51
350.5352521
0
ARC
8
DEFAULT_255_2_778
10
6.2573122
20
66.4378225
40
1.0975057
50
349.6988452
51
359.8043003
0
ARC
8
DEFAULT_255_2_778
10
5.6945844
20
66.4580999
40
1.660401
50
359.1708995
51
359.2917956
0
ARC
8
DEFAULT_255_2_778
10
8.3545545
20
66.9533007
40
0.3491485
50
326.0430845
51
0.9151311
0
ARC
8
DEFAULT_255_2_778
10
8.3082936
20
66.9877598
40
0.406777
50
295.522287
51
325.6567939
0
ARC
8
DEFAULT_255_2_778
10
8.3199184
20
66.222792
40
0.4302216
50
35.525217
51
67.6438749
0
ARC
8
DEFAULT_255_2_778
10
8.3674681
20
66.2573889
40
0.3714202
50
359.2731298
51
35.4438127
0
ARC
8
DEFAULT_255_2_778
10
8.3454929
20
66.2356818
40
0.3937325
50
311.6498748
51
2.4739125
0
ARC
8
DEFAULT_255_2_778
10
8.295393
20
66.3095443
40
0.48236
50
272.4395782
51
310.2657342
0
ARC
8
DEFAULT_255_2_778
10
8.2609541
20
66.5655993
40
0.7400224
50
269.9461428
51
274.2600189
0
ARC
8
DEFAULT_255_2_778
10
8.2467914
20
66.3967124
40
0.5712941
50
245.8008143
51
271.3507464
0
ARC
8
DEFAULT_255_2_778
10
8.1937403
20
66.2582913
40
0.4233728
50
228.3830646
51
244.6706069
0
ARC
8
DEFAULT_255_2_778
10
8.1765213
20
66.2356514
40
0.3950171
50
177.5732812
51
228.0692845
0
ARC
8
DEFAULT_255_2_778
10
8.1648477
20
66.2565691
40
0.3830122
50
145.6690953
51
180.6271066
0
ARC
8
DEFAULT_255_2_778
10
8.1900082
20
66.2375792
40
0.414502
50
112.2648091
51
145.4628738
0
ARC
8
DEFAULT_255_2_778
10
8.2024162
20
66.9757462
40
0.3929824
50
213.5118182
51
244.455663
0
ARC
8
DEFAULT_255_2_778
10
8.1707907
20
66.9530226
40
0.3540712
50
179.1496991
51
213.27143
0
ARC
8
DEFAULT_255_2_778
10
8.2151032
20
66.9743256
40
0.3986679
50
140.269463
51
182.3070814
0
ARC
8
DEFAULT_255_2_778
10
8.1913277
20
66.9836727
40
0.3744941
50
132.4097204
51
139.0441423
0
ARC
8
DEFAULT_255_2_778
10
8.2317409
20
66.9281953
40
0.442776
50
91.0621277
51
131.4292298
0
ARC
8
DEFAULT_255_2_778
10
8.2599286
20
66.6968605
40
0.6750167
50
89.971999
51
93.0907439
0
ARC
8
DEFAULT_255_2_778
10
8.2743341
20
66.880489
40
0.4915896
50
60.6658717
51
91.6407679
0
ARC
8
DEFAULT_255_2_778
10
8.3108672
20
66.9641611
40
0.4008528
50
47.6008932
51
59.3589984
0
ARC
8
DEFAULT_255_2_778
10
8.3161027
20
66.9768697
40
0.387966
50
357.3630059
51
46.9063262
0
ARC
8
DEFAULT_255_2_778
10
8.0140986
20
66.9580917
40
0.68956
50
0.015399
51
0.07714
0
ARC
8
DEFAULT_255_2_778
10
8.2708846
20
66.2677904
40
0.2768773
50
357.8031763
51
44.7677486
0
ARC
8
DEFAULT_255_2_778
10
8.2699331
20
66.258371
40
0.28425
50
45.9807619
51
92.3740839
0
ARC
8
DEFAULT_255_2_778
10
8.2454087
20
66.2635838
40
0.2790846
50
87.3815747
51
134.166269
0
ARC
8
DEFAULT_255_2_778
10
8.2529234
20
66.2693673
40
0.2803301
50
136.0919742
51
182.4923179
0
ARC
8
DEFAULT_255_2_778
10
8.2398279
20
66.2426949
40
0.267362
50
176.8949514
51
224.4163419
0
ARC
8
DEFAULT_255_2_778
10
8.2387988
20
66.2659746
40
0.283451
50
227.9252604
51
270.9611897
0
ARC
8
DEFAULT_255_2_778
10
8.2601451
20
66.4629725
40
0.4806955
50
268.022032
51
270.0135148
0
ARC
8
DEFAULT_255_2_778
10
8.2741998
20
66.2858183
40
0.3038612
50
267.3703005
51
305.6102694
0
ARC
8
DEFAULT_255_2_778
10
8.3049436
20
66.2283053
40
0.2393531
50
307.6438479
51
313.9820901
0
ARC
8
DEFAULT_255_2_778
10
8.2813757
20
66.2432401
40
0.2665474
50
315.3981937
51
2.9971871
0
ARC
8
DEFAULT_255_2_778
10
8.2499046
20
66.9692578
40
0.2461371
50
87.5891269
51
134.3130955
0
ARC
8
DEFAULT_255_2_778
10
8.2640382
20
66.9690828
40
0.2563305
50
136.5468257
51
182.9978569
0
ARC
8
DEFAULT_255_2_778
10
8.2624901
20
66.9445345
40
0.2546755
50
177.4923908
51
223.2061848
0
ARC
8
DEFAULT_255_2_778
10
8.2490149
20
66.9428472
40
0.2438296
50
225.085354
51
272.6429687
0
ARC
8
DEFAULT_255_2_778
10
8.271697
20
66.9421001
40
0.2430923
50
267.302977
51
314.9897243
0
ARC
8
DEFAULT_255_2_778
10
8.2574912
20
66.9446961
40
0.2551037
50
316.8343508
51
2.4670736
0
ARC
8
DEFAULT_255_2_778
10
8.2579932
20
66.9656867
40
0.2545621
50
357.7464945
51
44.0490365
0
ARC
8
DEFAULT_255_2_778
10
8.2676194
20
66.9714429
40
0.2436546
50
44.6499972
51
91.801772
0
LINE
8
DEFAULT_255_2_778
10
3.9081584
20
65.8467771
11
3.4916584
21
65.8467771
0
LINE
8
DEFAULT_255_2_778
10
3.4916584
20
65.8467771
11
3.4916584
21
67.3514771
0
LINE
8
DEFAULT_255_2_778
10
3.4916584
20
67.3514771
11
3.9163584
21
67.3514771
0
LINE
8
DEFAULT_255_2_778
10
4.5798584
20
66.6495771
11
4.5798584
21
66.5534771
0
LINE
8
DEFAULT_255_2_778
10
3.9078584
20
65.8464771
11
3.9081584
21
65.8467771
0
LINE
8
DEFAULT_255_2_778
10
3.9215584
20
67.1882771
11
3.6900584
21
67.1882771
0
LINE
8
DEFAULT_255_2_778
10
3.6900584
20
67.1882771
11
3.6900584
21
66.0089771
0
LINE
8
DEFAULT_255_2_778
10
3.6900584
20
66.0089771
11
3.8988584
21
66.0089771
0
LINE
8
DEFAULT_255_2_778
10
4.3835584
20
66.5576771
11
4.3835584
21
66.6455771
0
LINE
8
DEFAULT_255_2_778
10
3.9215584
20
67.1882771
11
3.9215584
21
67.1882771
0
LINE
8
DEFAULT_255_2_778
10
5.8160584
20
66.0028771
11
5.8160584
21
65.8467771
0
LINE
8
DEFAULT_255_2_778
10
5.8160584
20
65.8467771
11
4.8299584
21
65.8467771
0
LINE
8
DEFAULT_255_2_778
10
4.8299584
20
65.8467771
11
4.8299584
21
65.9843771
0
LINE
8
DEFAULT_255_2_778
10
4.8299584
20
65.9843771
11
5.3508584
21
66.5629771
0
LINE
8
DEFAULT_255_2_778
10
4.9921584
20
66.9080771
11
4.8008584
21
66.9080771
0
LINE
8
DEFAULT_255_2_778
10
5.4635584
20
66.4399771
11
5.0606584
21
66.0028771
0
LINE
8
DEFAULT_255_2_778
10
5.0606584
20
66.0028771
11
5.8160584
21
66.0028771
0
LINE
8
DEFAULT_255_2_778
10
5.8160584
20
66.0028771
11
5.8160584
21
66.0028771
0
LINE
8
DEFAULT_255_2_778
10
6.4361584
20
66.5640771
11
6.4361584
21
66.4079771
0
LINE
8
DEFAULT_255_2_778
10
6.4361584
20
66.4079771
11
5.9319584
21
66.4079771
0
LINE
8
DEFAULT_255_2_778
10
5.9319584
20
66.4079771
11
5.9319584
21
66.5640771
0
LINE
8
DEFAULT_255_2_778
10
5.9319584
20
66.5640771
11
6.4361584
21
66.5640771
0
LINE
8
DEFAULT_255_2_778
10
6.4361584
20
66.5640771
11
6.4361584
21
66.5640771
0
LINE
8
DEFAULT_255_2_778
10
7.5461584
20
66.7368771
11
7.5461584
21
66.4886771
0
LINE
8
DEFAULT_255_2_778
10
6.5962584
20
66.4629771
11
6.5962584
21
66.7183771
0
LINE
8
DEFAULT_255_2_778
10
7.5461584
20
66.7368771
11
7.5461584
21
66.7368771
0
LINE
8
DEFAULT_255_2_778
10
7.3548584
20
66.4370771
11
7.3548584
21
66.7503771
0
LINE
8
DEFAULT_255_2_778
10
6.7872584
20
66.7648771
11
6.7872584
21
66.4590771
0
LINE
8
DEFAULT_255_2_778
10
7.3548584
20
66.4375771
11
7.3548584
21
66.4370771
0
LINE
8
DEFAULT_255_2_778
10
8.7036584
20
66.9582771
11
8.7036584
21
66.9588771
0
LINE
8
DEFAULT_255_2_778
10
8.5475584
20
66.2571771
11
8.5475584
21
66.2571771
0
LINE
8
DEFAULT_255_2_778
10
8.2599584
20
67.2149771
11
8.2602584
21
67.2151771
0
LINE
8
DEFAULT_255_2_778
10
10.0689584
20
67.3517771
11
10.0689584
21
67.1884771
0
LINE
8
DEFAULT_255_2_778
10
10.0689584
20
67.1884771
11
9.5852584
21
67.1884771
0
LINE
8
DEFAULT_255_2_778
10
9.5852584
20
67.1884771
11
9.5852584
21
65.8470771
0
LINE
8
DEFAULT_255_2_778
10
9.5852584
20
65.8470771
11
9.3878584
21
65.8470771
0
LINE
8
DEFAULT_255_2_778
10
9.3878584
20
65.8470771
11
9.3878584
21
67.1884771
0
LINE
8
DEFAULT_255_2_778
10
9.3878584
20
67.1884771
11
8.9052584
21
67.1884771
0
LINE
8
DEFAULT_255_2_778
10
8.9052584
20
67.1884771
11
8.9052584
21
67.3517771
0
LINE
8
DEFAULT_255_2_778
10
8.9052584
20
67.3517771
11
10.0689584
21
67.3517771
0
LINE
8
DEFAULT_255_2_778
10
10.0689584
20
67.3517771
11
10.0689584
21
67.3517771
0
LINE
8
DEFAULT_255_2_778
10
11.1852584
20
65.8467771
11
11.0415584
21
66.2394771
0
LINE
8
DEFAULT_255_2_778
10
11.0415584
20
66.2394771
11
10.4110584
21
66.2394771
0
LINE
8
DEFAULT_255_2_778
10
10.4110584
20
66.2394771
11
10.2694584
21
65.8467771
0
LINE
8
DEFAULT_255_2_778
10
10.2694584
20
65.8467771
11
10.0649584
21
65.8467771
0
LINE
8
DEFAULT_255_2_778
10
10.0649584
20
65.8467771
11
10.6396584
21
67.3514771
0
LINE
8
DEFAULT_255_2_778
10
10.6396584
20
67.3514771
11
10.8131584
21
67.3514771
0
LINE
8
DEFAULT_255_2_778
10
10.8131584
20
67.3514771
11
11.3889584
21
65.8464771
0
LINE
8
DEFAULT_255_2_778
10
11.3889584
20
65.8464771
11
11.1852584
21
65.8464771
0
LINE
8
DEFAULT_255_2_778
10
11.1852584
20
65.8464771
11
11.1852584
21
65.8467771
0
LINE
8
DEFAULT_255_2_778
10
10.7264584
20
67.1067771
11
10.4710584
21
66.4029771
0
LINE
8
DEFAULT_255_2_778
10
10.4710584
20
66.4029771
11
10.9827584
21
66.4029771
0
LINE
8
DEFAULT_255_2_778
10
10.9827584
20
66.4029771
11
10.7264584
21
67.1067771
0
LINE
8
DEFAULT_255_2_778
10
10.7264584
20
67.1067771
11
10.7264584
21
67.1067771
0
ARC
8
DEFAULT_255_2_778
10
2.1959877
20
1.754802
40
1.9928139
50
179.9264183
51
204.3120318
0
ARC
8
DEFAULT_255_2_778
10
2.2050113
20
1.7599949
40
2.0031756
50
204.34113
51
260.1955271
0
ARC
8
DEFAULT_255_2_778
10
2.202745
20
1.7709625
40
2.0136013
50
260.3122132
51
270.0122462
0
ARC
8
DEFAULT_255_2_778
10
28.7058283
20
1.7500755
40
1.9929158
50
269.926605
51
294.3113989
0
ARC
8
DEFAULT_255_2_778
10
28.7007752
20
1.7589187
40
2.0030556
50
294.3389823
51
350.1972101
0
ARC
8
DEFAULT_255_2_778
10
28.6901139
20
1.7565462
40
2.0131615
50
350.3154071
51
0.0175033
0
ARC
8
DEFAULT_255_2_778
10
29.1983721
20
80.8830259
40
5.1934526
50
73.1558533
51
90.001956
0
ARC
8
DEFAULT_255_2_778
10
29.1981999
20
80.8791995
40
5.1972788
50
90.0000562
51
91.8972112
0
ARC
8
DEFAULT_255_2_778
10
29.1982511
20
80.877979
40
5.1985004
50
91.897329
51
95.4636992
0
ARC
8
DEFAULT_255_2_778
10
1.7080787
20
80.8830259
40
5.1934526
50
89.998044
51
106.8441467
0
ARC
8
DEFAULT_255_2_778
10
1.7082509
20
80.8791995
40
5.1972788
50
88.1027888
51
89.9999438
0
ARC
8
DEFAULT_255_2_778
10
1.7081998
20
80.877979
40
5.1985004
50
84.5363008
51
88.102671
0
ARC
8
DEFAULT_255_2_778
10
0.2353696
20
74.4338941
40
0.0380958
50
91.608287
51
147.6811262
0
ARC
8
DEFAULT_255_2_778
10
0.4039495
20
73.8043613
40
0.6888314
50
97.0989339
51
104.2578028
0
ARC
8
DEFAULT_255_2_778
10
0.6825074
20
71.8047768
40
2.7076712
50
95.071412
51
97.7191175
0
ARC
8
DEFAULT_255_2_778
10
0.9945649
20
68.4350902
40
6.0917653
50
93.8601363
51
95.1933502
0
ARC
8
DEFAULT_255_2_778
10
1.346832
20
63.217316
40
11.3214173
50
92.710423
51
93.8611561
0
ARC
8
DEFAULT_255_2_778
10
1.7176207
20
55.5015584
40
19.0460779
50
91.8451844
51
92.7269983
0
ARC
8
DEFAULT_255_2_778
10
2.0100073
20
46.5365431
40
28.0158594
50
91.0773355
51
91.8524867
0
ARC
8
DEFAULT_255_2_778
10
2.1572317
20
39.07087
40
35.4829815
50
90.5257562
51
91.088363
0
ARC
8
DEFAULT_255_2_778
10
2.2008953
20
34.5362831
40
40.0177782
50
89.9967354
51
90.5286944
0
ARC
8
DEFAULT_255_2_778
10
2.2006225
20
87.765947
40
1.9929158
50
89.926605
51
114.3113989
0
ARC
8
DEFAULT_255_2_778
10
2.2056757
20
87.7571038
40
2.0030556
50
114.3389823
51
170.1972101
0
ARC
8
DEFAULT_255_2_778
10
2.2163369
20
87.7594762
40
2.0131615
50
170.3154071
51
180.0175033
0
ARC
8
DEFAULT_255_2_778
10
28.7103612
20
87.7614141
40
1.9929158
50
359.926605
51
24.3113989
0
ARC
8
DEFAULT_255_2_778
10
28.7015179
20
87.756361
40
2.0030556
50
24.3389823
51
80.1972101
0
ARC
8
DEFAULT_255_2_778
10
28.7038904
20
87.7456998
40
2.0131615
50
80.3154071
51
90.0175033
0
LINE
8
DEFAULT_255_2_778
10
21.9532754
20
4.0476612
11
21.9532754
21
-0.2309388
0
LINE
8
DEFAULT_255_2_778
10
21.9532754
20
-0.2309388
11
13.4532754
21
-0.2309388
0
LINE
8
DEFAULT_255_2_778
10
13.4532754
20
-0.2309388
11
13.4532754
21
4.4571612
0
LINE
8
DEFAULT_255_2_778
10
13.4532754
20
4.4571612
11
21.9532754
21
4.4571612
0
LINE
8
DEFAULT_255_2_778
10
21.9532754
20
4.4571612
11
21.9532754
21
4.0476612
0
LINE
8
DEFAULT_255_2_778
10
21.9532754
20
4.0476612
11
13.4532754
21
4.0476612
0
LINE
8
DEFAULT_255_2_778
10
0.2031754
20
62.8165612
11
0.2031754
21
1.7573612
0
LINE
8
DEFAULT_255_2_778
10
2.2031754
20
-0.2426388
11
11.5926754
21
-0.2426388
0
LINE
8
DEFAULT_255_2_778
10
29.2030754
20
62.8165612
11
0.2031754
21
62.8165612
0
LINE
8
DEFAULT_255_2_778
10
0.2031754
20
62.8165612
11
0.2031754
21
65.0073612
0
LINE
8
DEFAULT_255_2_778
10
17.9532754
20
88.5385612
11
18.2032754
21
88.5385612
0
LINE
8
DEFAULT_255_2_778
10
9.2032754
20
88.5385612
11
9.4532754
21
88.5385612
0
LINE
8
DEFAULT_255_2_778
10
9.4532754
20
89.7572612
11
9.2032754
21
89.7572612
0
LINE
8
DEFAULT_255_2_778
10
18.2032754
20
89.7572612
11
17.9532754
21
89.7572612
0
LINE
8
DEFAULT_255_2_778
10
13.2031754
20
-0.2426388
11
22.2032754
21
-0.2426388
0
LINE
8
DEFAULT_255_2_778
10
29.2033754
20
65.0073612
11
29.2033754
21
1.0514612
0
LINE
8
DEFAULT_255_2_778
10
29.2033754
20
1.0514612
11
23.2258754
21
1.0514612
0
LINE
8
DEFAULT_255_2_778
10
23.2258754
20
1.0514612
11
23.2258754
21
6.2545612
0
LINE
8
DEFAULT_255_2_778
10
23.2258754
20
6.2545612
11
11.5926754
21
6.2545612
0
LINE
8
DEFAULT_255_2_778
10
11.5926754
20
6.2545612
11
11.5926754
21
-0.2428388
0
LINE
8
DEFAULT_255_2_778
10
11.5926754
20
-0.2428388
11
13.2029754
21
-0.2428388
0
LINE
8
DEFAULT_255_2_778
10
13.2029754
20
-0.2428388
11
13.2029754
21
4.7572612
0
LINE
8
DEFAULT_255_2_778
10
13.2029754
20
4.7572612
11
22.2032754
21
4.7572612
0
LINE
8
DEFAULT_255_2_778
10
22.2032754
20
4.7572612
11
22.2032754
21
-0.2428388
0
LINE
8
DEFAULT_255_2_778
10
22.2032754
20
-0.2428388
11
28.7032754
21
-0.2428388
0
LINE
8
DEFAULT_255_2_778
10
30.7032754
20
1.7571612
11
30.7032754
21
65.0073612
0
LINE
8
DEFAULT_255_2_778
10
30.7032754
20
74.4577612
11
30.7032754
21
85.8536612
0
LINE
8
DEFAULT_255_2_778
10
28.7032754
20
86.0528612
11
28.7032754
21
89.7588612
0
LINE
8
DEFAULT_255_2_778
10
0.2031754
20
74.4542612
11
0.2031754
21
85.8536612
0
LINE
8
DEFAULT_255_2_778
10
2.2031754
20
86.0528612
11
2.2031754
21
89.7588612
0
LINE
8
DEFAULT_255_2_778
10
2.2031754
20
65.0073612
11
0.2031754
21
65.0073612
0
LINE
8
DEFAULT_255_2_778
10
0.2031754
20
65.0073612
11
0.2031754
21
74.4542612
0
LINE
8
DEFAULT_255_2_778
10
0.2031754
20
74.4542612
11
0.2031754
21
74.4542612
0
LINE
8
DEFAULT_255_2_778
10
2.2031754
20
74.5540612
11
2.2031754
21
65.0073612
0
LINE
8
DEFAULT_255_2_778
10
2.2031754
20
65.0073612
11
21.2031754
21
65.0073612
0
LINE
8
DEFAULT_255_2_778
10
28.7030754
20
72.4680612
11
28.7030754
21
74.5540612
0
LINE
8
DEFAULT_255_2_778
10
28.7030754
20
74.5540612
11
30.7024754
21
74.4569612
0
LINE
8
DEFAULT_255_2_778
10
9.6030754
20
75.6438612
11
13.5529754
21
75.6438612
0
LINE
8
DEFAULT_255_2_778
10
13.5529754
20
75.6438612
11
13.5529754
21
74.5543612
0
LINE
8
DEFAULT_255_2_778
10
13.5529754
20
74.5543612
11
16.8528754
21
74.5543612
0
LINE
8
DEFAULT_255_2_778
10
16.8528754
20
74.5543612
11
16.8528754
21
75.6438612
0
LINE
8
DEFAULT_255_2_778
10
16.8528754
20
75.6438612
11
20.8028754
21
75.6438612
0
LINE
8
DEFAULT_255_2_778
10
20.8028754
20
75.6438612
11
20.8028754
21
74.5543612
0
LINE
8
DEFAULT_255_2_778
10
20.8028754
20
74.5543612
11
28.7027754
21
74.5543612
0
LINE
8
DEFAULT_255_2_778
10
28.7027754
20
74.5543612
11
28.7027754
21
86.0525612
0
LINE
8
DEFAULT_255_2_778
10
28.7027754
20
86.0525612
11
18.2030754
21
86.0525612
0
LINE
8
DEFAULT_255_2_778
10
18.2030754
20
86.0525612
11
18.2030754
21
84.7571612
0
LINE
8
DEFAULT_255_2_778
10
18.2030754
20
84.7571612
11
9.2032754
21
84.7571612
0
LINE
8
DEFAULT_255_2_778
10
9.2032754
20
84.7571612
11
9.2032754
21
86.0525612
0
LINE
8
DEFAULT_255_2_778
10
9.2032754
20
86.0525612
11
2.2031754
21
86.0525612
0
LINE
8
DEFAULT_255_2_778
10
2.2031754
20
86.0525612
11
2.2031754
21
74.5540612
0
LINE
8
DEFAULT_255_2_778
10
2.2031754
20
74.5540612
11
9.6032754
21
74.5540612
0
LINE
8
DEFAULT_255_2_778
10
9.6032754
20
74.5540612
11
9.6032754
21
75.6435612
0
LINE
8
DEFAULT_255_2_778
10
9.6032754
20
75.6435612
11
9.6207754
21
75.6261612
0
LINE
8
DEFAULT_255_2_778
10
9.6207754
20
75.6261612
11
9.9533754
21
75.2604612
0
LINE
8
DEFAULT_255_2_778
10
28.7532754
20
72.5175612
11
21.2031754
21
65.0073612
0
LINE
8
DEFAULT_255_2_778
10
21.2031754
20
65.0073612
11
28.7530754
21
65.0073612
0
LINE
8
DEFAULT_255_2_778
10
30.7529754
20
65.0073612
11
28.7530754
21
65.0073612
0
LINE
8
DEFAULT_255_2_778
10
28.7530754
20
65.0073612
11
28.7530754
21
72.5178612
0
LINE
8
DEFAULT_255_2_778
10
28.7530754
20
72.5178612
11
30.7529754
21
74.5072612
0
LINE
8
DEFAULT_255_2_778
10
30.7529754
20
74.5072612
11
30.7529754
21
65.0073612
0
LINE
8
DEFAULT_255_2_778
10
17.9532754
20
86.1541612
11
9.4532754
21
86.1541612
0
LINE
8
DEFAULT_255_2_778
10
9.4532754
20
86.1541612
11
9.4532754
21
85.0066612
0
LINE
8
DEFAULT_255_2_778
10
9.4532754
20
85.0066612
11
17.9532754
21
85.0066612
0
LINE
8
DEFAULT_255_2_778
10
17.9532754
20
85.0066612
11
17.9532754
21
89.7588612
0
LINE
8
DEFAULT_255_2_778
10
17.9532754
20
89.7588612
11
9.4532754
21
89.7588612
0
LINE
8
DEFAULT_255_2_778
10
9.4532754
20
89.7588612
11
9.4532754
21
86.1541612
0
LINE
8
DEFAULT_255_2_778
10
9.2032754
20
86.0525612
11
9.2032754
21
89.7588612
0
LINE
8
DEFAULT_255_2_778
10
9.2032754
20
89.7588612
11
2.2031754
21
89.7588612
0
LINE
8
DEFAULT_255_2_778
10
0.2031754
20
87.7588612
11
0.2031754
21
85.8536612
0
LINE
8
DEFAULT_255_2_778
10
30.7032754
20
85.8536612
11
30.7032754
21
87.7588612
0
LINE
8
DEFAULT_255_2_778
10
28.7032754
20
89.7588612
11
18.2032754
21
89.7588612
0
LINE
8
DEFAULT_255_2_778
10
18.2032754
20
89.7588612
11
18.2032754
21
86.0525612
0
ENDSEC
0
EOF