0
SECTION
2
HEADER
9
$MEASUREMENT
70
1
0
ENDSEC
0
SECTION
2
TABLES
0
TABLE
2
LTYPE
0
LTYPE
72
65
70
64
2
CONTINUOUS
3
______
73
0
40
0
0
ENDTAB
0
TABLE
2
LAYER
0
LAYER
2
DEFAULT_255_2_778
70
0
62
255
6
CONTINUOUS
0
ENDTAB
0
ENDSEC
0
SECTION
2
ENTITIES
0
ARC
8
DEFAULT_255_2_778
10
15.0261245
20
52.1731923
40
2.2467872
50
79.8590853
51
89.9989501
0
ARC
8
DEFAULT_255_2_778
10
15.0262069
20
52.1731917
40
2.2467877
50
90.0010517
51
100.1409141
0
ARC
8
DEFAULT_255_2_778
10
15.0262129
20
52.1619428
40
2.2421384
50
259.83768
51
269.9987941
0
ARC
8
DEFAULT_255_2_778
10
15.0261183
20
52.161945
40
2.2421406
50
270.0012097
51
280.1623138
0
ARC
8
DEFAULT_255_2_778
10
15.0233017
20
52.17606
40
2.2434014
50
100.0732305
51
125.6622417
0
ARC
8
DEFAULT_255_2_778
10
15.0275662
20
52.169317
40
2.2513662
50
125.650371
51
172.0862382
0
ARC
8
DEFAULT_255_2_778
10
15.0373455
20
52.1702161
40
2.2609297
50
172.1429273
51
180.0110656
0
ARC
8
DEFAULT_255_2_778
10
15.0201483
20
52.1678421
40
2.2437335
50
179.9505274
51
205.5344045
0
ARC
8
DEFAULT_255_2_778
10
15.0273248
20
52.1707705
40
2.2514713
50
205.5229246
51
251.9561006
0
ARC
8
DEFAULT_255_2_778
10
15.0283588
20
52.1810362
40
2.2615537
50
252.0117524
51
259.8783359
0
ARC
8
DEFAULT_255_2_778
10
15.0293297
20
52.1634988
40
2.2434014
50
280.0732305
51
305.6622417
0
ARC
8
DEFAULT_255_2_778
10
15.0250651
20
52.1702419
40
2.2513662
50
305.650371
51
352.0862382
0
ARC
8
DEFAULT_255_2_778
10
15.0152858
20
52.1693428
40
2.2609297
50
352.1429273
51
0.0110656
0
ARC
8
DEFAULT_255_2_778
10
15.0324831
20
52.1717168
40
2.2437335
50
359.9505274
51
25.5344045
0
ARC
8
DEFAULT_255_2_778
10
15.0253065
20
52.1687884
40
2.2514713
50
25.5229246
51
71.9561006
0
ARC
8
DEFAULT_255_2_778
10
15.0242726
20
52.1585227
40
2.2615537
50
72.0117524
51
79.8783359
0
LINE
8
DEFAULT_255_2_778
10
13.5810157
20
52.6706794
11
14.6309157
21
52.6706794
0
LINE
8
DEFAULT_255_2_778
10
14.6309157
20
52.6706794
11
14.6309157
21
54.3848794
0
LINE
8
DEFAULT_255_2_778
10
14.6309157
20
49.9546794
11
14.6309157
21
51.6688794
0
LINE
8
DEFAULT_255_2_778
10
14.6309157
20
51.6688794
11
13.5810157
21
51.6688794
0
LINE
8
DEFAULT_255_2_778
10
13.5810157
20
51.6688794
11
13.5810157
21
52.6706794
0
LINE
8
DEFAULT_255_2_778
10
16.4716157
20
51.6688794
11
15.4217157
21
51.6688794
0
LINE
8
DEFAULT_255_2_778
10
15.4217157
20
51.6688794
11
15.4217157
21
49.9546794
0
LINE
8
DEFAULT_255_2_778
10
15.4217157
20
54.3848794
11
15.4217157
21
52.6706794
0
LINE
8
DEFAULT_255_2_778
10
15.4217157
20
52.6706794
11
16.4716157
21
52.6706794
0
LINE
8
DEFAULT_255_2_778
10
16.4716157
20
52.6706794
11
16.4716157
21
51.6688794
0
ARC
8
DEFAULT_255_2_778
10
22.9149714
20
48.0385882
40
2.2508007
50
260.0093724
51
270.0245993
0
LINE
8
DEFAULT_255_2_778
10
22.9159377
20
45.7877878
11
22.9168457
21
45.7877884
0
ARC
8
DEFAULT_255_2_778
10
22.9149522
20
48.0393217
40
2.2515341
50
270.0481839
51
280.2496983
0
ARC
8
DEFAULT_255_2_778
10
22.9173997
20
48.0332408
40
2.2451151
50
280.2158497
51
305.7481227
0
ARC
8
DEFAULT_255_2_778
10
22.9141302
20
48.0385728
40
2.2513527
50
305.7363743
51
352.1031006
0
ARC
8
DEFAULT_255_2_778
10
22.9033346
20
48.0378812
40
2.261952
50
352.1580238
51
0.011075
0
ARC
8
DEFAULT_255_2_778
10
22.9208427
20
48.0402919
40
2.2444447
50
359.9496197
51
25.4884178
0
ARC
8
DEFAULT_255_2_778
10
22.9144291
20
48.0376742
40
2.2513605
50
25.4783155
51
71.8446321
0
ARC
8
DEFAULT_255_2_778
10
22.9130333
20
48.0266547
40
2.2622674
50
71.8980021
51
79.7500675
0
ARC
8
DEFAULT_255_2_778
10
22.9153493
20
48.0447496
40
2.2440493
50
79.7260464
51
90.0048316
0
ARC
8
DEFAULT_255_2_778
10
22.9151298
20
48.0407256
40
2.2480736
50
89.9992289
51
90.3751944
0
ARC
8
DEFAULT_255_2_778
10
22.915447
20
48.029401
40
2.2593999
50
90.3813589
51
99.9644629
0
ARC
8
DEFAULT_255_2_778
10
22.9120072
20
48.0442184
40
2.2441591
50
99.9358827
51
125.2557685
0
ARC
8
DEFAULT_255_2_778
10
22.9160479
20
48.0377232
40
2.2517955
50
125.2443265
51
172.0234106
0
ARC
8
DEFAULT_255_2_778
10
22.9254502
20
48.0387627
40
2.2609637
50
172.0825612
51
180.0112583
0
ARC
8
DEFAULT_255_2_778
10
22.9086563
20
48.036371
40
2.2441707
50
179.9502802
51
205.2718051
0
ARC
8
DEFAULT_255_2_778
10
22.9156689
20
48.0392415
40
2.2517375
50
205.26168
51
252.0410022
0
ARC
8
DEFAULT_255_2_778
10
22.9164191
20
48.0489797
40
2.2612336
50
252.0990022
51
260.0264113
0
LINE
8
DEFAULT_255_2_778
10
23.3155865
20
50.2528184
11
23.3155865
21
48.4857184
0
LINE
8
DEFAULT_255_2_778
10
23.3155865
20
48.4857184
11
24.3654865
21
48.4857184
0
LINE
8
DEFAULT_255_2_778
10
24.3654865
20
48.4857184
11
24.3654865
21
47.4840184
0
LINE
8
DEFAULT_255_2_778
10
24.3654865
20
47.4840184
11
23.3155865
21
47.4840184
0
LINE
8
DEFAULT_255_2_778
10
23.3155865
20
47.4840184
11
23.3155865
21
45.8237184
0
LINE
8
DEFAULT_255_2_778
10
21.4748865
20
48.4857184
11
22.5247865
21
48.4857184
0
LINE
8
DEFAULT_255_2_778
10
22.5247865
20
48.4857184
11
22.5247865
21
50.2547184
0
LINE
8
DEFAULT_255_2_778
10
22.5247865
20
45.8219184
11
22.5247865
21
47.4840184
0
LINE
8
DEFAULT_255_2_778
10
22.5247865
20
47.4840184
11
21.4748865
21
47.4840184
0
LINE
8
DEFAULT_255_2_778
10
21.4748865
20
47.4840184
11
21.4748865
21
48.4857184
0
ARC
8
DEFAULT_255_2_778
10
15.0262219
20
44.6729617
40
2.2471116
50
79.859793
51
89.9168326
0
ARC
8
DEFAULT_255_2_778
10
15.0262554
20
44.7487548
40
2.1713184
50
89.9148124
51
90
0
ARC
8
DEFAULT_255_2_778
10
15.02625
20
44.6742337
40
2.2458394
50
89.999862
51
100.1430607
0
ARC
8
DEFAULT_255_2_778
10
15.02625
20
44.6657124
40
2.2458394
50
259.8569393
51
270.000138
0
ARC
8
DEFAULT_255_2_778
10
15.0262554
20
44.5911914
40
2.1713183
50
270
51
270.0851876
0
ARC
8
DEFAULT_255_2_778
10
15.0262219
20
44.6669845
40
2.2471114
50
270.0831674
51
280.140207
0
ARC
8
DEFAULT_255_2_778
10
15.0231147
20
44.6765987
40
2.2432561
50
100.0735217
51
125.66446
0
ARC
8
DEFAULT_255_2_778
10
15.0275798
20
44.6695893
40
2.2515542
50
125.6527759
51
172.086288
0
ARC
8
DEFAULT_255_2_778
10
15.0372311
20
44.6705083
40
2.2609881
50
172.1430299
51
180.0110306
0
ARC
8
DEFAULT_255_2_778
10
15.0197565
20
44.6681508
40
2.2435144
50
179.950909
51
205.5356692
0
ARC
8
DEFAULT_255_2_778
10
15.0273764
20
44.6713134
40
2.2517532
50
205.5247003
51
251.9524332
0
ARC
8
DEFAULT_255_2_778
10
15.02845
20
44.6816363
40
2.2619019
50
252.0075852
51
259.8731165
0
ARC
8
DEFAULT_255_2_778
10
15.0294477
20
44.663486
40
2.2431013
50
280.0748299
51
305.6658885
0
ARC
8
DEFAULT_255_2_778
10
15.0249097
20
44.6706384
40
2.2515582
50
305.6535875
51
352.0848796
0
ARC
8
DEFAULT_255_2_778
10
15.0156168
20
44.6696391
40
2.260626
50
352.1423999
51
0.0109996
0
ARC
8
DEFAULT_255_2_778
10
15.032442
20
44.6720049
40
2.2438017
50
359.9506707
51
25.5338197
0
ARC
8
DEFAULT_255_2_778
10
15.0251161
20
44.6690053
40
2.251705
50
25.52234
51
71.9502366
0
ARC
8
DEFAULT_255_2_778
10
15.0241519
20
44.6589172
40
2.2615964
50
72.0061999
51
79.8721516
0
ARC
8
DEFAULT_255_2_778
10
15.0262168
20
37.1774838
40
2.2424642
50
79.8384231
51
89.9165299
0
ARC
8
DEFAULT_255_2_778
10
15.0262554
20
37.2486298
40
2.1713184
50
89.9148124
51
90
0
ARC
8
DEFAULT_255_2_778
10
15.0262561
20
37.1787539
40
2.2411942
50
90.0000174
51
100.164465
0
ARC
8
DEFAULT_255_2_778
10
15.0262219
20
37.1668845
40
2.2471116
50
270.0831674
51
280.140207
0
ARC
8
DEFAULT_255_2_778
10
15.0262554
20
37.0910914
40
2.1713184
50
270
51
270.0851876
0
ARC
8
DEFAULT_255_2_778
10
15.02625
20
37.1656124
40
2.2458394
50
259.8569393
51
270.000138
0
ARC
8
DEFAULT_255_2_778
10
15.0231289
20
37.1762537
40
2.2434014
50
100.0732305
51
125.6622417
0
ARC
8
DEFAULT_255_2_778
10
15.0273934
20
37.1695106
40
2.2513662
50
125.650371
51
172.0862382
0
ARC
8
DEFAULT_255_2_778
10
15.0371727
20
37.1704097
40
2.2609297
50
172.1429273
51
180.0110656
0
ARC
8
DEFAULT_255_2_778
10
15.0199755
20
37.1680357
40
2.2437335
50
179.9505274
51
205.5344045
0
ARC
8
DEFAULT_255_2_778
10
15.027152
20
37.1709641
40
2.2514713
50
205.5229246
51
251.9561006
0
ARC
8
DEFAULT_255_2_778
10
15.028186
20
37.1812298
40
2.2615537
50
252.0117524
51
259.8783359
0
ARC
8
DEFAULT_255_2_778
10
15.029442
20
37.1634969
40
2.2432115
50
280.0744788
51
305.6640503
0
ARC
8
DEFAULT_255_2_778
10
15.0250341
20
37.1704433
40
2.2514251
50
305.6521207
51
352.0862461
0
ARC
8
DEFAULT_255_2_778
10
15.0153131
20
37.1695364
40
2.2609298
50
352.1429275
51
0.0110656
0
ARC
8
DEFAULT_255_2_778
10
15.0324666
20
37.1719073
40
2.2437771
50
359.9506096
51
25.5339625
0
ARC
8
DEFAULT_255_2_778
10
15.0253328
20
37.1690196
40
2.2514589
50
25.5220169
51
71.9539947
0
ARC
8
DEFAULT_255_2_778
10
15.024416
20
37.1590239
40
2.261248
50
72.0103676
51
79.8773716
0
ARC
8
DEFAULT_255_2_778
10
22.9149526
20
33.0433248
40
2.2555956
50
260.0327658
51
269.8874128
0
ARC
8
DEFAULT_255_2_778
10
22.9147861
20
32.9527594
40
2.1650301
50
269.8871097
51
270.0026253
0
ARC
8
DEFAULT_255_2_778
10
22.9149386
20
33.0392424
40
2.2515131
50
269.9986422
51
280.2516041
0
ARC
8
DEFAULT_255_2_778
10
22.9176755
20
33.0327363
40
2.2446243
50
280.2124137
51
305.7488417
0
ARC
8
DEFAULT_255_2_778
10
22.914037
20
33.0385994
40
2.2515086
50
305.7368202
51
352.1017382
0
ARC
8
DEFAULT_255_2_778
10
22.9036364
20
33.0378354
40
2.2617066
50
352.1571152
51
0.0110878
0
ARC
8
DEFAULT_255_2_778
10
22.9210339
20
33.0402339
40
2.2443098
50
359.9499407
51
25.4904176
0
ARC
8
DEFAULT_255_2_778
10
22.9143449
20
33.0374906
40
2.2515283
50
25.4801767
51
71.8428993
0
ARC
8
DEFAULT_255_2_778
10
22.9130872
20
33.0268169
40
2.2620636
50
71.8968781
51
79.7490719
0
ARC
8
DEFAULT_255_2_778
10
22.9146217
20
33.0360511
40
2.2527037
50
79.7456819
51
89.9985549
0
ARC
8
DEFAULT_255_2_778
10
22.914794
20
32.8871322
40
2.4016226
50
90.0027557
51
90.1019595
0
ARC
8
DEFAULT_255_2_778
10
22.9146431
20
33.0391678
40
2.249587
50
90.1050068
51
99.986127
0
ARC
8
DEFAULT_255_2_778
10
22.9123435
20
33.043618
40
2.2447542
50
99.9404746
51
125.2537791
0
ARC
8
DEFAULT_255_2_778
10
22.9159173
20
33.0377585
40
2.251602
50
125.2419789
51
172.0242488
0
ARC
8
DEFAULT_255_2_778
10
22.9257614
20
33.0387209
40
2.2612186
50
172.0830101
51
180.0113476
0
ARC
8
DEFAULT_255_2_778
10
22.9087364
20
33.036328
40
2.2441943
50
179.9503407
51
205.2716718
0
ARC
8
DEFAULT_255_2_778
10
22.915941
20
33.0393099
40
2.2519823
50
205.2620234
51
252.0372518
0
ARC
8
DEFAULT_255_2_778
10
22.9167391
20
33.0491364
40
2.2615771
50
252.0947929
51
260.0211575
0
LINE
8
DEFAULT_255_2_778
10
14.6307429
20
45.1709731
11
14.6307429
21
46.8852731
0
LINE
8
DEFAULT_255_2_778
10
14.6307429
20
42.4549731
11
14.6307429
21
44.1692731
0
LINE
8
DEFAULT_255_2_778
10
14.6307429
20
44.1692731
11
13.5808429
21
44.1692731
0
LINE
8
DEFAULT_255_2_778
10
13.5808429
20
44.1692731
11
13.5808429
21
45.1709731
0
LINE
8
DEFAULT_255_2_778
10
13.5808429
20
45.1709731
11
14.6307429
21
45.1709731
0
LINE
8
DEFAULT_255_2_778
10
15.4218429
20
44.1692731
11
15.4218429
21
42.4549731
0
LINE
8
DEFAULT_255_2_778
10
15.4218429
20
46.8852731
11
15.4218429
21
45.1709731
0
LINE
8
DEFAULT_255_2_778
10
15.4218429
20
45.1709731
11
16.4716429
21
45.1709731
0
LINE
8
DEFAULT_255_2_778
10
16.4716429
20
45.1709731
11
16.4716429
21
44.1692731
0
LINE
8
DEFAULT_255_2_778
10
16.4716429
20
44.1692731
11
15.4218429
21
44.1692731
0
LINE
8
DEFAULT_255_2_778
10
14.6307429
20
34.9548731
11
14.6307429
21
36.6691731
0
LINE
8
DEFAULT_255_2_778
10
14.6307429
20
36.6691731
11
13.5808429
21
36.6691731
0
LINE
8
DEFAULT_255_2_778
10
13.5808429
20
36.6691731
11
13.5808429
21
37.6708731
0
LINE
8
DEFAULT_255_2_778
10
13.5808429
20
37.6708731
11
14.6307429
21
37.6708731
0
LINE
8
DEFAULT_255_2_778
10
14.6307429
20
37.6708731
11
14.6307429
21
39.3850731
0
LINE
8
DEFAULT_255_2_778
10
15.4218429
20
36.6691731
11
15.4218429
21
34.9548731
0
LINE
8
DEFAULT_255_2_778
10
15.4218429
20
39.3850731
11
15.4218429
21
37.6708731
0
LINE
8
DEFAULT_255_2_778
10
15.4218429
20
37.6708731
11
16.4716429
21
37.6708731
0
LINE
8
DEFAULT_255_2_778
10
16.4716429
20
37.6708731
11
16.4716429
21
36.6691731
0
LINE
8
DEFAULT_255_2_778
10
16.4716429
20
36.6691731
11
15.4218429
21
36.6691731
0
LINE
8
DEFAULT_255_2_778
10
23.3156429
20
35.2527731
11
23.3156429
21
33.4856731
0
LINE
8
DEFAULT_255_2_778
10
23.3156429
20
33.4856731
11
24.3655429
21
33.4856731
0
LINE
8
DEFAULT_255_2_778
10
24.3655429
20
33.4856731
11
24.3655429
21
32.4839731
0
LINE
8
DEFAULT_255_2_778
10
24.3655429
20
32.4839731
11
23.3156429
21
32.4839731
0
LINE
8
DEFAULT_255_2_778
10
23.3156429
20
32.4839731
11
23.3156429
21
30.8236731
0
LINE
8
DEFAULT_255_2_778
10
21.4749429
20
33.4856731
11
22.5248429
21
33.4856731
0
LINE
8
DEFAULT_255_2_778
10
22.5248429
20
33.4856731
11
22.5248429
21
35.2546731
0
LINE
8
DEFAULT_255_2_778
10
22.5248429
20
30.8217731
11
22.5248429
21
32.4839731
0
LINE
8
DEFAULT_255_2_778
10
22.5248429
20
32.4839731
11
21.4749429
21
32.4839731
0
LINE
8
DEFAULT_255_2_778
10
21.4749429
20
32.4839731
11
21.4749429
21
33.4856731
0
ARC
8
DEFAULT_255_2_778
10
22.9149714
20
40.5386882
40
2.2508007
50
260.0093724
51
270.0245993
0
LINE
8
DEFAULT_255_2_778
10
22.9159377
20
38.2878878
11
22.9168457
21
38.2878884
0
ARC
8
DEFAULT_255_2_778
10
22.9149522
20
40.5394217
40
2.2515341
50
270.0481839
51
280.2496983
0
ARC
8
DEFAULT_255_2_778
10
22.9173997
20
40.5333408
40
2.2451151
50
280.2158497
51
305.7481227
0
ARC
8
DEFAULT_255_2_778
10
22.9141302
20
40.5386728
40
2.2513527
50
305.7363743
51
352.1031006
0
ARC
8
DEFAULT_255_2_778
10
22.9033346
20
40.5379812
40
2.261952
50
352.1580238
51
0.011075
0
ARC
8
DEFAULT_255_2_778
10
22.9208427
20
40.5403919
40
2.2444447
50
359.9496197
51
25.4884178
0
ARC
8
DEFAULT_255_2_778
10
22.9144291
20
40.5377742
40
2.2513605
50
25.4783155
51
71.8446321
0
ARC
8
DEFAULT_255_2_778
10
22.9130333
20
40.5267547
40
2.2622674
50
71.8980021
51
79.7500675
0
ARC
8
DEFAULT_255_2_778
10
22.9153493
20
40.5448496
40
2.2440493
50
79.7260464
51
90.0048316
0
ARC
8
DEFAULT_255_2_778
10
22.9151298
20
40.5408256
40
2.2480736
50
89.9992289
51
90.3751944
0
ARC
8
DEFAULT_255_2_778
10
22.915447
20
40.529501
40
2.2593999
50
90.3813589
51
99.9644629
0
ARC
8
DEFAULT_255_2_778
10
22.9120072
20
40.5443184
40
2.2441591
50
99.9358827
51
125.2557685
0
ARC
8
DEFAULT_255_2_778
10
22.9160479
20
40.5378232
40
2.2517955
50
125.2443265
51
172.0234106
0
ARC
8
DEFAULT_255_2_778
10
22.9254502
20
40.5388627
40
2.2609637
50
172.0825612
51
180.0112583
0
ARC
8
DEFAULT_255_2_778
10
22.9086563
20
40.536471
40
2.2441707
50
179.9502802
51
205.2718051
0
ARC
8
DEFAULT_255_2_778
10
22.9156689
20
40.5393415
40
2.2517375
50
205.26168
51
252.0410022
0
ARC
8
DEFAULT_255_2_778
10
22.9164191
20
40.5490797
40
2.2612336
50
252.0990022
51
260.0264113
0
LINE
8
DEFAULT_255_2_778
10
23.3155865
20
42.7529184
11
23.3155865
21
40.9858184
0
LINE
8
DEFAULT_255_2_778
10
23.3155865
20
40.9858184
11
24.3654865
21
40.9858184
0
LINE
8
DEFAULT_255_2_778
10
24.3654865
20
40.9858184
11
24.3654865
21
39.9841184
0
LINE
8
DEFAULT_255_2_778
10
24.3654865
20
39.9841184
11
23.3155865
21
39.9841184
0
LINE
8
DEFAULT_255_2_778
10
23.3155865
20
39.9841184
11
23.3155865
21
38.3238184
0
LINE
8
DEFAULT_255_2_778
10
21.4748865
20
40.9858184
11
22.5247865
21
40.9858184
0
LINE
8
DEFAULT_255_2_778
10
22.5247865
20
40.9858184
11
22.5247865
21
42.7548184
0
LINE
8
DEFAULT_255_2_778
10
22.5247865
20
38.3220184
11
22.5247865
21
39.9841184
0
LINE
8
DEFAULT_255_2_778
10
22.5247865
20
39.9841184
11
21.4748865
21
39.9841184
0
LINE
8
DEFAULT_255_2_778
10
21.4748865
20
39.9841184
11
21.4748865
21
40.9858184
0
ARC
8
DEFAULT_255_2_778
10
15.0261624
20
29.6729614
40
2.2471116
50
79.859793
51
89.9168326
0
ARC
8
DEFAULT_255_2_778
10
15.0261959
20
29.7487545
40
2.1713184
50
89.9148124
51
90
0
ARC
8
DEFAULT_255_2_778
10
15.0261905
20
29.6742335
40
2.2458394
50
89.999862
51
100.1430607
0
ARC
8
DEFAULT_255_2_778
10
15.0261966
20
29.661092
40
2.2411942
50
259.835535
51
269.9999826
0
ARC
8
DEFAULT_255_2_778
10
15.0261959
20
29.5912161
40
2.1713183
50
270
51
270.0851876
0
ARC
8
DEFAULT_255_2_778
10
15.0261573
20
29.6623621
40
2.2424643
50
270.0834701
51
280.1615769
0
ARC
8
DEFAULT_255_2_778
10
15.0293825
20
29.6633967
40
2.2432115
50
280.0744788
51
305.6640503
0
ARC
8
DEFAULT_255_2_778
10
15.0249746
20
29.6703431
40
2.2514251
50
305.6521207
51
352.0862461
0
ARC
8
DEFAULT_255_2_778
10
15.0152536
20
29.6694362
40
2.2609298
50
352.1429275
51
0.0110656
0
ARC
8
DEFAULT_255_2_778
10
15.0324071
20
29.671807
40
2.2437771
50
359.9506096
51
25.5339625
0
ARC
8
DEFAULT_255_2_778
10
15.0252733
20
29.6689194
40
2.2514589
50
25.5220169
51
71.9539947
0
ARC
8
DEFAULT_255_2_778
10
15.0243565
20
29.6589236
40
2.261248
50
72.0103676
51
79.8773716
0
ARC
8
DEFAULT_255_2_778
10
15.0230694
20
29.6761534
40
2.2434014
50
100.0732305
51
125.6622417
0
ARC
8
DEFAULT_255_2_778
10
15.0273339
20
29.6694104
40
2.2513662
50
125.650371
51
172.0862382
0
ARC
8
DEFAULT_255_2_778
10
15.0371132
20
29.6703095
40
2.2609297
50
172.1429273
51
180.0110656
0
ARC
8
DEFAULT_255_2_778
10
15.019916
20
29.6679355
40
2.2437335
50
179.9505274
51
205.5344045
0
ARC
8
DEFAULT_255_2_778
10
15.0270926
20
29.6708638
40
2.2514713
50
205.5229246
51
251.9561006
0
ARC
8
DEFAULT_255_2_778
10
15.0281265
20
29.6811296
40
2.2615537
50
252.0117524
51
259.8783359
0
LINE
8
DEFAULT_255_2_778
10
15.4217834
20
30.1707728
11
16.4715834
21
30.1707728
0
LINE
8
DEFAULT_255_2_778
10
16.4715834
20
30.1707728
11
16.4715834
21
29.1689728
0
LINE
8
DEFAULT_255_2_778
10
16.4715834
20
29.1689728
11
15.4217834
21
29.1689728
0
LINE
8
DEFAULT_255_2_778
10
15.4217834
20
29.1689728
11
15.4217834
21
27.4547728
0
LINE
8
DEFAULT_255_2_778
10
15.4217834
20
31.8849728
11
15.4217834
21
30.1707728
0
LINE
8
DEFAULT_255_2_778
10
14.6306834
20
30.1707728
11
14.6306834
21
31.8849728
0
LINE
8
DEFAULT_255_2_778
10
14.6306834
20
27.4547728
11
14.6306834
21
29.1689728
0
LINE
8
DEFAULT_255_2_778
10
14.6306834
20
29.1689728
11
13.5807834
21
29.1689728
0
LINE
8
DEFAULT_255_2_778
10
13.5807834
20
29.1689728
11
13.5807834
21
30.1707728
0
LINE
8
DEFAULT_255_2_778
10
13.5807834
20
30.1707728
11
14.6306834
21
30.1707728
0
ARC
8
DEFAULT_255_2_778
10
22.9149714
20
25.5386882
40
2.2508007
50
260.0093724
51
270.0245993
0
LINE
8
DEFAULT_255_2_778
10
22.9159377
20
23.2878878
11
22.9168457
21
23.2878884
0
ARC
8
DEFAULT_255_2_778
10
22.9149522
20
25.5394217
40
2.2515341
50
270.0481839
51
280.2496983
0
ARC
8
DEFAULT_255_2_778
10
22.9173997
20
25.5333408
40
2.2451151
50
280.2158497
51
305.7481227
0
ARC
8
DEFAULT_255_2_778
10
22.9141302
20
25.5386728
40
2.2513527
50
305.7363743
51
352.1031006
0
ARC
8
DEFAULT_255_2_778
10
22.9033346
20
25.5379812
40
2.261952
50
352.1580238
51
0.011075
0
ARC
8
DEFAULT_255_2_778
10
22.9208427
20
25.5403919
40
2.2444447
50
359.9496197
51
25.4884178
0
ARC
8
DEFAULT_255_2_778
10
22.9144291
20
25.5377742
40
2.2513605
50
25.4783155
51
71.8446321
0
ARC
8
DEFAULT_255_2_778
10
22.9130333
20
25.5267547
40
2.2622674
50
71.8980021
51
79.7500675
0
ARC
8
DEFAULT_255_2_778
10
22.9153493
20
25.5448496
40
2.2440493
50
79.7260464
51
90.0048316
0
ARC
8
DEFAULT_255_2_778
10
22.9151298
20
25.5408256
40
2.2480736
50
89.9992289
51
90.3751944
0
ARC
8
DEFAULT_255_2_778
10
22.915447
20
25.529501
40
2.2593999
50
90.3813589
51
99.9644629
0
ARC
8
DEFAULT_255_2_778
10
22.9120072
20
25.5443184
40
2.2441591
50
99.9358827
51
125.2557685
0
ARC
8
DEFAULT_255_2_778
10
22.9160479
20
25.5378232
40
2.2517955
50
125.2443265
51
172.0234106
0
ARC
8
DEFAULT_255_2_778
10
22.9254502
20
25.5388627
40
2.2609637
50
172.0825612
51
180.0112583
0
ARC
8
DEFAULT_255_2_778
10
22.9086563
20
25.536471
40
2.2441707
50
179.9502802
51
205.2718051
0
ARC
8
DEFAULT_255_2_778
10
22.9156689
20
25.5393415
40
2.2517375
50
205.26168
51
252.0410022
0
ARC
8
DEFAULT_255_2_778
10
22.9164191
20
25.5490797
40
2.2612336
50
252.0990022
51
260.0264113
0
LINE
8
DEFAULT_255_2_778
10
23.3155865
20
27.7529184
11
23.3155865
21
25.9858184
0
LINE
8
DEFAULT_255_2_778
10
23.3155865
20
25.9858184
11
24.3654865
21
25.9858184
0
LINE
8
DEFAULT_255_2_778
10
24.3654865
20
25.9858184
11
24.3654865
21
24.9841184
0
LINE
8
DEFAULT_255_2_778
10
24.3654865
20
24.9841184
11
23.3155865
21
24.9841184
0
LINE
8
DEFAULT_255_2_778
10
23.3155865
20
24.9841184
11
23.3155865
21
23.3238184
0
LINE
8
DEFAULT_255_2_778
10
21.4748865
20
25.9858184
11
22.5247865
21
25.9858184
0
LINE
8
DEFAULT_255_2_778
10
22.5247865
20
25.9858184
11
22.5247865
21
27.7548184
0
LINE
8
DEFAULT_255_2_778
10
22.5247865
20
23.3220184
11
22.5247865
21
24.9841184
0
LINE
8
DEFAULT_255_2_778
10
22.5247865
20
24.9841184
11
21.4748865
21
24.9841184
0
LINE
8
DEFAULT_255_2_778
10
21.4748865
20
24.9841184
11
21.4748865
21
25.9858184
0
ARC
8
DEFAULT_255_2_778
10
22.9149714
20
18.0384882
40
2.2508007
50
260.0093724
51
270.0245993
0
LINE
8
DEFAULT_255_2_778
10
22.9159377
20
15.7876878
11
22.9168457
21
15.7876884
0
ARC
8
DEFAULT_255_2_778
10
22.9149522
20
18.0392217
40
2.2515341
50
270.0481839
51
280.2496983
0
ARC
8
DEFAULT_255_2_778
10
22.9173997
20
18.0331408
40
2.2451151
50
280.2158497
51
305.7481227
0
ARC
8
DEFAULT_255_2_778
10
22.9141302
20
18.0384728
40
2.2513527
50
305.7363743
51
352.1031006
0
ARC
8
DEFAULT_255_2_778
10
22.9033346
20
18.0377812
40
2.261952
50
352.1580238
51
0.011075
0
ARC
8
DEFAULT_255_2_778
10
22.9208427
20
18.0401919
40
2.2444447
50
359.9496197
51
25.4884178
0
ARC
8
DEFAULT_255_2_778
10
22.9144291
20
18.0375742
40
2.2513605
50
25.4783155
51
71.8446321
0
ARC
8
DEFAULT_255_2_778
10
22.9130333
20
18.0265547
40
2.2622674
50
71.8980021
51
79.7500675
0
ARC
8
DEFAULT_255_2_778
10
22.9153493
20
18.0446496
40
2.2440493
50
79.7260464
51
90.0048316
0
ARC
8
DEFAULT_255_2_778
10
22.9151298
20
18.0406256
40
2.2480736
50
89.9992289
51
90.3751944
0
ARC
8
DEFAULT_255_2_778
10
22.915447
20
18.029301
40
2.2593999
50
90.3813589
51
99.9644629
0
ARC
8
DEFAULT_255_2_778
10
22.9120072
20
18.0441184
40
2.2441591
50
99.9358827
51
125.2557685
0
ARC
8
DEFAULT_255_2_778
10
22.9160479
20
18.0376232
40
2.2517955
50
125.2443265
51
172.0234106
0
ARC
8
DEFAULT_255_2_778
10
22.9254502
20
18.0386627
40
2.2609637
50
172.0825612
51
180.0112583
0
ARC
8
DEFAULT_255_2_778
10
22.9086563
20
18.036271
40
2.2441707
50
179.9502802
51
205.2718051
0
ARC
8
DEFAULT_255_2_778
10
22.9156689
20
18.0391415
40
2.2517375
50
205.26168
51
252.0410022
0
ARC
8
DEFAULT_255_2_778
10
22.9164191
20
18.0488797
40
2.2612336
50
252.0990022
51
260.0264113
0
LINE
8
DEFAULT_255_2_778
10
23.3155865
20
20.2527184
11
23.3155865
21
18.4856184
0
LINE
8
DEFAULT_255_2_778
10
23.3155865
20
18.4856184
11
24.3654865
21
18.4856184
0
LINE
8
DEFAULT_255_2_778
10
24.3654865
20
18.4856184
11
24.3654865
21
17.4839184
0
LINE
8
DEFAULT_255_2_778
10
24.3654865
20
17.4839184
11
23.3155865
21
17.4839184
0
LINE
8
DEFAULT_255_2_778
10
23.3155865
20
17.4839184
11
23.3155865
21
15.8236184
0
LINE
8
DEFAULT_255_2_778
10
21.4748865
20
18.4856184
11
22.5247865
21
18.4856184
0
LINE
8
DEFAULT_255_2_778
10
22.5247865
20
18.4856184
11
22.5247865
21
20.2546184
0
LINE
8
DEFAULT_255_2_778
10
22.5247865
20
15.8218184
11
22.5247865
21
17.4839184
0
LINE
8
DEFAULT_255_2_778
10
22.5247865
20
17.4839184
11
21.4748865
21
17.4839184
0
LINE
8
DEFAULT_255_2_778
10
21.4748865
20
17.4839184
11
21.4748865
21
18.4856184
0
ARC
8
DEFAULT_255_2_778
10
15.0261789
20
22.1730569
40
2.2467872
50
79.8590853
51
89.9989501
0
ARC
8
DEFAULT_255_2_778
10
15.0262612
20
22.1730569
40
2.2467872
50
90.0010499
51
100.1409147
0
ARC
8
DEFAULT_255_2_778
10
15.0262612
20
22.1665313
40
2.2467872
50
259.8590853
51
269.9989501
0
ARC
8
DEFAULT_255_2_778
10
15.0261788
20
22.1665318
40
2.2467877
50
270.0010517
51
280.1409141
0
ARC
8
DEFAULT_255_2_778
10
15.0293296
20
22.1636421
40
2.2433899
50
280.0746945
51
305.6627688
0
ARC
8
DEFAULT_255_2_778
10
15.025034
20
22.1704929
40
2.2514604
50
305.6499387
51
352.0843506
0
ARC
8
DEFAULT_255_2_778
10
15.0155946
20
22.1695102
40
2.2606756
50
352.1419663
51
0.0109952
0
ARC
8
DEFAULT_255_2_778
10
15.0326717
20
22.1718688
40
2.2435991
50
359.9508482
51
25.536401
0
ARC
8
DEFAULT_255_2_778
10
15.025221
20
22.1688153
40
2.2516384
50
25.5247803
51
71.9543729
0
ARC
8
DEFAULT_255_2_778
10
15.0243272
20
22.1589073
40
2.2613371
50
72.0106058
51
79.8773635
0
ARC
8
DEFAULT_255_2_778
10
15.023356
20
22.1762247
40
2.2434014
50
100.0732305
51
125.6622417
0
ARC
8
DEFAULT_255_2_778
10
15.0276206
20
22.1694816
40
2.2513662
50
125.650371
51
172.0862382
0
ARC
8
DEFAULT_255_2_778
10
15.0373999
20
22.1703807
40
2.2609297
50
172.1429273
51
180.0110656
0
ARC
8
DEFAULT_255_2_778
10
15.0202026
20
22.1680067
40
2.2437335
50
179.9505274
51
205.5344045
0
ARC
8
DEFAULT_255_2_778
10
15.0273792
20
22.1709351
40
2.2514713
50
205.5229246
51
251.9561006
0
ARC
8
DEFAULT_255_2_778
10
15.0284131
20
22.1812008
40
2.2615537
50
252.0117524
51
259.8783359
0
LINE
8
DEFAULT_255_2_778
10
16.47167
20
21.6690441
11
15.42177
21
21.6690441
0
LINE
8
DEFAULT_255_2_778
10
15.42177
20
21.6690441
11
15.42177
21
19.9548441
0
LINE
8
DEFAULT_255_2_778
10
15.42177
20
24.3850441
11
15.42177
21
22.6707441
0
LINE
8
DEFAULT_255_2_778
10
15.42177
20
22.6707441
11
16.47167
21
22.6707441
0
LINE
8
DEFAULT_255_2_778
10
16.47167
20
22.6707441
11
16.47167
21
21.6690441
0
LINE
8
DEFAULT_255_2_778
10
14.63097
20
21.6690441
11
13.58107
21
21.6690441
0
LINE
8
DEFAULT_255_2_778
10
13.58107
20
21.6690441
11
13.58107
21
22.6707441
0
LINE
8
DEFAULT_255_2_778
10
13.58107
20
22.6707441
11
14.63097
21
22.6707441
0
LINE
8
DEFAULT_255_2_778
10
14.63097
20
22.6707441
11
14.63097
21
24.3850441
0
LINE
8
DEFAULT_255_2_778
10
14.63097
20
19.9548441
11
14.63097
21
21.6690441
0
LINE
8
DEFAULT_255_2_778
10
19.73397
20
28.5776441
11
19.73397
21
22.2075441
0
LINE
8
DEFAULT_255_2_778
10
19.73397
20
36.1261441
11
19.73397
21
29.7560441
0
LINE
8
DEFAULT_255_2_778
10
19.73397
20
43.6747441
11
19.73397
21
37.3046441
0
LINE
8
DEFAULT_255_2_778
10
19.73397
20
51.2233441
11
19.73397
21
44.8531441
0
LINE
8
DEFAULT_255_2_778
10
26.09557
20
44.8531441
11
26.09557
21
51.2233441
0
LINE
8
DEFAULT_255_2_778
10
26.09557
20
37.3046441
11
26.09557
21
43.6747441
0
LINE
8
DEFAULT_255_2_778
10
26.09557
20
29.7560441
11
26.09557
21
36.1261441
0
LINE
8
DEFAULT_255_2_778
10
26.09557
20
22.2075441
11
26.09557
21
28.5776441
0
LINE
8
DEFAULT_255_2_778
10
19.73397
20
21.0290441
11
19.73397
21
14.9735441
0
LINE
8
DEFAULT_255_2_778
10
19.73397
20
14.9735441
11
26.09557
21
14.9735441
0
LINE
8
DEFAULT_255_2_778
10
26.09557
20
14.9735441
11
26.09557
21
21.0290441
0
LINE
8
DEFAULT_255_2_778
10
11.85337
20
25.3589441
11
11.85337
21
19.1089441
0
LINE
8
DEFAULT_255_2_778
10
11.85337
20
32.8588441
11
11.85337
21
26.6088441
0
LINE
8
DEFAULT_255_2_778
10
11.85337
20
40.3589441
11
11.85337
21
34.1089441
0
LINE
8
DEFAULT_255_2_778
10
11.85337
20
47.8588441
11
11.85337
21
41.6088441
0
LINE
8
DEFAULT_255_2_778
10
11.85337
20
55.3590441
11
11.85337
21
49.1090441
0
LINE
8
DEFAULT_255_2_778
10
18.10327
20
49.1090441
11
18.10327
21
55.3590441
0
LINE
8
DEFAULT_255_2_778
10
18.10327
20
41.6088441
11
18.10327
21
47.8588441
0
LINE
8
DEFAULT_255_2_778
10
18.10327
20
34.1089441
11
18.10327
21
40.3589441
0
LINE
8
DEFAULT_255_2_778
10
18.10327
20
26.6088441
11
18.10327
21
32.8588441
0
LINE
8
DEFAULT_255_2_778
10
18.10327
20
19.1089441
11
18.10327
21
25.3589441
0
LINE
8
DEFAULT_255_2_778
10
11.35327
20
55.3590441
11
11.35327
21
49.1090441
0
LINE
8
DEFAULT_255_2_778
10
11.35327
20
17.6590441
11
11.35327
21
14.6589441
0
LINE
8
DEFAULT_255_2_778
10
11.35327
20
40.3589441
11
11.35327
21
34.1089441
0
LINE
8
DEFAULT_255_2_778
10
11.35327
20
47.8588441
11
11.35327
21
41.6088441
0
LINE
8
DEFAULT_255_2_778
10
11.35327
20
32.8588441
11
11.35327
21
26.6088441
0
LINE
8
DEFAULT_255_2_778
10
11.35327
20
25.3589441
11
11.35327
21
19.1089441
0
LINE
8
DEFAULT_255_2_778
10
22.10327
20
11.5408441
11
22.10327
21
11.5088441
0
LINE
8
DEFAULT_255_2_778
10
17.60327
20
11.5408441
11
17.60327
21
11.5088441
0
LINE
8
DEFAULT_255_2_778
10
13.85327
20
58.5088441
11
13.85327
21
56.5088441
0
LINE
8
DEFAULT_255_2_778
10
16.85347
20
58.5088441
11
16.85347
21
56.5088441
0
LINE
8
DEFAULT_255_2_778
10
25.85347
20
58.5088441
11
25.85347
21
56.5088441
0
LINE
8
DEFAULT_255_2_778
10
22.85337
20
58.5088441
11
22.85337
21
56.5088441
0
LINE
8
DEFAULT_255_2_778
10
22.85337
20
11.5088441
11
22.85337
21
13.5087441
0
LINE
8
DEFAULT_255_2_778
10
13.85327
20
11.5088441
11
13.85327
21
13.5087441
0
LINE
8
DEFAULT_255_2_778
10
16.85347
20
11.5088441
11
16.85347
21
13.5087441
0
LINE
8
DEFAULT_255_2_778
10
19.15347
20
49.1087441
11
11.35357
21
49.1087441
0
LINE
8
DEFAULT_255_2_778
10
11.35357
20
49.1087441
11
11.35357
21
47.8588441
0
LINE
8
DEFAULT_255_2_778
10
11.35357
20
47.8588441
11
19.15347
21
47.8588441
0
LINE
8
DEFAULT_255_2_778
10
19.15347
20
26.6088441
11
11.35357
21
26.6088441
0
LINE
8
DEFAULT_255_2_778
10
11.35357
20
26.6088441
11
11.35357
21
25.3589441
0
LINE
8
DEFAULT_255_2_778
10
11.35357
20
25.3589441
11
19.15347
21
25.3589441
0
LINE
8
DEFAULT_255_2_778
10
19.15347
20
17.6590441
11
11.35357
21
17.6590441
0
LINE
8
DEFAULT_255_2_778
10
11.35357
20
17.6590441
11
11.35357
21
19.1089441
0
LINE
8
DEFAULT_255_2_778
10
11.35357
20
19.1089441
11
19.15347
21
19.1089441
0
LINE
8
DEFAULT_255_2_778
10
19.15347
20
41.6088441
11
11.35357
21
41.6088441
0
LINE
8
DEFAULT_255_2_778
10
11.35357
20
41.6088441
11
11.35357
21
40.3589441
0
LINE
8
DEFAULT_255_2_778
10
11.35357
20
40.3589441
11
19.15347
21
40.3589441
0
LINE
8
DEFAULT_255_2_778
10
19.15347
20
34.1089441
11
11.35357
21
34.1089441
0
LINE
8
DEFAULT_255_2_778
10
11.35357
20
34.1089441
11
11.35357
21
32.8591441
0
LINE
8
DEFAULT_255_2_778
10
11.35357
20
32.8591441
11
19.15347
21
32.8591441
0
LINE
8
DEFAULT_255_2_778
10
19.15347
20
43.6750441
11
19.15347
21
37.3048441
0
LINE
8
DEFAULT_255_2_778
10
19.15347
20
21.0290441
11
19.15347
21
14.6589441
0
LINE
8
DEFAULT_255_2_778
10
19.15347
20
51.2233441
11
19.15347
21
44.8531441
0
LINE
8
DEFAULT_255_2_778
10
19.15347
20
36.1259441
11
19.15347
21
29.7558441
0
LINE
8
DEFAULT_255_2_778
10
19.15347
20
28.5770441
11
19.15347
21
22.2069441
0
LINE
8
DEFAULT_255_2_778
10
25.85347
20
59.0443441
11
25.85347
21
58.5086441
0
LINE
8
DEFAULT_255_2_778
10
25.85347
20
58.5086441
11
13.85327
21
58.5086441
0
LINE
8
DEFAULT_255_2_778
10
13.85327
20
58.5086441
11
13.85327
21
61.0086441
0
LINE
8
DEFAULT_255_2_778
10
13.85327
20
61.0086441
11
25.85327
21
61.0086441
0
LINE
8
DEFAULT_255_2_778
10
25.85327
20
61.0086441
11
25.85327
21
59.0446441
0
LINE
8
DEFAULT_255_2_778
10
25.85327
20
59.0446441
11
13.85327
21
59.0446441
0
LINE
8
DEFAULT_255_2_778
10
25.85327
20
13.5087441
11
25.85327
21
9.0087441
0
LINE
8
DEFAULT_255_2_778
10
25.85327
20
9.0087441
11
13.85327
21
9.0087441
0
LINE
8
DEFAULT_255_2_778
10
13.85327
20
9.0087441
11
13.85327
21
11.5088441
0
LINE
8
DEFAULT_255_2_778
10
13.85327
20
11.5088441
11
25.85327
21
11.5088441
0
LINE
8
DEFAULT_255_2_778
10
19.15317
20
55.3590441
11
19.15317
21
52.6089441
0
LINE
8
DEFAULT_255_2_778
10
19.15317
20
52.6089441
11
26.95307
21
52.6089441
0
LINE
8
DEFAULT_255_2_778
10
26.95307
20
52.6089441
11
26.95307
21
55.3590441
0
LINE
8
DEFAULT_255_2_778
10
26.95307
20
55.3590441
11
11.35327
21
55.3590441
0
LINE
8
DEFAULT_255_2_778
10
11.35327
20
55.3590441
11
11.35327
21
56.5088441
0
LINE
8
DEFAULT_255_2_778
10
11.35327
20
56.5088441
11
28.35327
21
56.5088441
0
LINE
8
DEFAULT_255_2_778
10
28.35327
20
56.5088441
11
28.35327
21
13.5087441
0
LINE
8
DEFAULT_255_2_778
10
28.35327
20
13.5087441
11
11.35327
21
13.5087441
0
LINE
8
DEFAULT_255_2_778
10
11.35327
20
13.5087441
11
11.35327
21
14.6586441
0
LINE
8
DEFAULT_255_2_778
10
11.35327
20
14.6586441
11
26.95337
21
14.6586441
0
LINE
8
DEFAULT_255_2_778
10
26.95337
20
14.6586441
11
26.95337
21
21.0287441
0
LINE
8
DEFAULT_255_2_778
10
26.95337
20
21.0287441
11
19.15347
21
21.0287441
0
LINE
8
DEFAULT_255_2_778
10
19.15347
20
21.0287441
11
19.15347
21
22.2075441
0
LINE
8
DEFAULT_255_2_778
10
19.15347
20
22.2075441
11
26.95337
21
22.2075441
0
LINE
8
DEFAULT_255_2_778
10
26.95337
20
22.2075441
11
26.95337
21
28.5776441
0
LINE
8
DEFAULT_255_2_778
10
26.95337
20
28.5776441
11
19.15347
21
28.5776441
0
LINE
8
DEFAULT_255_2_778
10
19.15347
20
28.5776441
11
19.15347
21
29.7563441
0
LINE
8
DEFAULT_255_2_778
10
19.15347
20
29.7563441
11
26.95337
21
29.7563441
0
LINE
8
DEFAULT_255_2_778
10
26.95337
20
29.7563441
11
26.95337
21
36.1264441
0
LINE
8
DEFAULT_255_2_778
10
26.95337
20
36.1264441
11
19.15347
21
36.1264441
0
LINE
8
DEFAULT_255_2_778
10
19.15347
20
36.1264441
11
19.15347
21
37.3051441
0
LINE
8
DEFAULT_255_2_778
10
19.15347
20
37.3051441
11
26.95337
21
37.3051441
0
LINE
8
DEFAULT_255_2_778
10
26.95337
20
37.3051441
11
26.95337
21
43.6752441
0
LINE
8
DEFAULT_255_2_778
10
26.95337
20
43.6752441
11
19.15347
21
43.6752441
0
LINE
8
DEFAULT_255_2_778
10
19.15347
20
43.6752441
11
19.15347
21
44.8539441
0
LINE
8
DEFAULT_255_2_778
10
19.15347
20
44.8539441
11
26.95337
21
44.8539441
0
LINE
8
DEFAULT_255_2_778
10
26.95337
20
44.8539441
11
26.95337
21
51.2240441
0
LINE
8
DEFAULT_255_2_778
10
26.95337
20
51.2240441
11
19.15347
21
51.2240441
0
LINE
8
DEFAULT_255_2_778
10
19.15347
20
51.2240441
11
19.15347
21
52.6097441
0
LINE
8
DEFAULT_255_2_778
10
25.98657
20
13.5098441
11
25.98657
21
13.0082441
0
LINE
8
DEFAULT_255_2_778
10
17.35347
20
9.0098441
11
17.35347
21
8.5097441
0
LINE
8
DEFAULT_255_2_778
10
17.35347
20
8.5097441
11
22.35357
21
8.5097441
0
LINE
8
DEFAULT_255_2_778
10
22.35357
20
8.5097441
11
22.35357
21
9.0098441
0
LINE
8
DEFAULT_255_2_778
10
25.85347
20
13.0082441
11
28.35517
21
13.0082441
0
LINE
8
DEFAULT_255_2_778
10
28.35517
20
13.0082441
11
28.35517
21
55.5082441
0
LINE
8
DEFAULT_255_2_778
10
21.95327
20
13.5087441
11
21.95327
21
13.0071441
0
LINE
8
DEFAULT_255_2_778
10
21.95327
20
13.0071441
11
22.85337
21
13.0071441
0
ARC
8
DEFAULT_255_2_778
10
13.2920281
20
81.2262778
40
0.0952397
50
136.4914442
51
158.8079986
0
ARC
8
DEFAULT_255_2_778
10
14.2385217
20
80.4820288
40
1.2989164
50
138.1816437
51
141.4310085
0
ARC
8
DEFAULT_255_2_778
10
16.5485579
20
78.4309353
40
4.3881252
50
136.4566722
51
138.3339257
0
ARC
8
DEFAULT_255_2_778
10
19.7269472
20
75.42231
40
8.7646474
50
134.9406444
51
136.5141253
0
ARC
8
DEFAULT_255_2_778
10
13.173782
20
79.6754984
40
0.08909
50
46.6941834
51
69.3582948
0
ARC
8
DEFAULT_255_2_778
10
12.3526073
20
78.6324713
40
1.4162519
50
47.7434084
51
51.4667346
0
ARC
8
DEFAULT_255_2_778
10
9.9804328
20
75.9856066
40
4.9705365
50
46.2639996
51
48.0217459
0
ARC
8
DEFAULT_255_2_778
10
7.2964024
20
73.1652195
40
8.8639334
50
45.098828
51
46.3321056
0
ARC
8
DEFAULT_255_2_778
10
13.2920281
20
78.2261778
40
0.0952397
50
136.4914442
51
158.8079986
0
ARC
8
DEFAULT_255_2_778
10
14.2385217
20
77.4819288
40
1.2989164
50
138.1816437
51
141.4310085
0
ARC
8
DEFAULT_255_2_778
10
16.5485579
20
75.4308353
40
4.3881252
50
136.4566722
51
138.3339257
0
ARC
8
DEFAULT_255_2_778
10
19.7269472
20
72.42221
40
8.7646474
50
134.9406444
51
136.5141253
0
ARC
8
DEFAULT_255_2_778
10
13.173782
20
76.6753984
40
0.08909
50
46.6941834
51
69.3582948
0
ARC
8
DEFAULT_255_2_778
10
12.3526073
20
75.6323713
40
1.4162519
50
47.7434084
51
51.4667346
0
ARC
8
DEFAULT_255_2_778
10
9.9804328
20
72.9855066
40
4.9705365
50
46.2639996
51
48.0217459
0
ARC
8
DEFAULT_255_2_778
10
7.2964024
20
70.1651195
40
8.8639334
50
45.098828
51
46.3321056
0
ARC
8
DEFAULT_255_2_778
10
13.2920281
20
75.2260778
40
0.0952397
50
136.4914442
51
158.8079986
0
ARC
8
DEFAULT_255_2_778
10
14.2385217
20
74.4818288
40
1.2989164
50
138.1816437
51
141.4310085
0
ARC
8
DEFAULT_255_2_778
10
16.5485579
20
72.4307353
40
4.3881252
50
136.4566722
51
138.3339257
0
ARC
8
DEFAULT_255_2_778
10
19.7269472
20
69.42211
40
8.7646474
50
134.9406444
51
136.5141253
0
ARC
8
DEFAULT_255_2_778
10
20.5423321
20
78.2263276
40
0.0951031
50
136.4878601
51
158.8606224
0
ARC
8
DEFAULT_255_2_778
10
21.485934
20
77.4844604
40
1.2950341
50
138.1741007
51
141.4338914
0
ARC
8
DEFAULT_255_2_778
10
23.7971338
20
75.4318446
40
4.3861238
50
136.4490516
51
138.3270835
0
ARC
8
DEFAULT_255_2_778
10
27.0039326
20
72.3954735
40
8.8023517
50
134.9402028
51
136.5065649
0
ARC
8
DEFAULT_255_2_778
10
20.4242275
20
76.6754626
40
0.0889788
50
46.7098999
51
69.4311785
0
ARC
8
DEFAULT_255_2_778
10
19.6076066
20
75.6374648
40
1.4093721
50
47.7433192
51
51.4855452
0
ARC
8
DEFAULT_255_2_778
10
17.2498839
20
73.0065932
40
4.9421014
50
46.2549198
51
48.0226467
0
ARC
8
DEFAULT_255_2_778
10
14.5826871
20
70.2047091
40
8.8104901
50
45.0828507
51
46.3233354
0
ARC
8
DEFAULT_255_2_778
10
17.11473
20
78.2261523
40
0.0952494
50
21.2061668
51
43.5240661
0
ARC
8
DEFAULT_255_2_778
10
16.166529
20
77.4801677
40
1.3013409
50
38.5830398
51
41.8268859
0
ARC
8
DEFAULT_255_2_778
10
13.8428945
20
75.416357
40
4.4091619
50
41.6746553
51
43.5430772
0
ARC
8
DEFAULT_255_2_778
10
10.6190229
20
72.3645922
40
8.8483712
50
43.4858849
51
45.0442761
0
ARC
8
DEFAULT_255_2_778
10
17.11473
20
81.2262523
40
0.0952494
50
21.2061668
51
43.5240661
0
ARC
8
DEFAULT_255_2_778
10
16.166529
20
80.4802677
40
1.3013409
50
38.5830398
51
41.8268859
0
ARC
8
DEFAULT_255_2_778
10
13.8428945
20
78.416457
40
4.4091619
50
41.6746553
51
43.5430772
0
ARC
8
DEFAULT_255_2_778
10
10.6190229
20
75.3646922
40
8.8483712
50
43.4858849
51
45.0442761
0
ARC
8
DEFAULT_255_2_778
10
20.5421287
20
81.2262523
40
0.0952494
50
136.4759339
51
158.7938332
0
ARC
8
DEFAULT_255_2_778
10
21.4903296
20
80.4802677
40
1.3013409
50
138.1731141
51
141.4169602
0
ARC
8
DEFAULT_255_2_778
10
23.8139641
20
78.416457
40
4.4091619
50
136.4569228
51
138.3253447
0
ARC
8
DEFAULT_255_2_778
10
27.0378358
20
75.3646922
40
8.8483712
50
134.9557239
51
136.5141151
0
LINE
8
DEFAULT_255_2_778
10
13.2032293
20
81.2587686
11
9.9533293
21
81.2587686
0
LINE
8
DEFAULT_255_2_778
10
13.2032293
20
79.7588686
11
13.2032293
21
81.2606686
0
LINE
8
DEFAULT_255_2_778
10
13.5358293
20
81.6262686
11
13.5533293
21
81.6437686
0
LINE
8
DEFAULT_255_2_778
10
9.6033293
20
79.4437686
11
9.9515293
21
79.7588686
0
LINE
8
DEFAULT_255_2_778
10
9.9515293
20
79.7588686
11
13.2051293
21
79.7588686
0
LINE
8
DEFAULT_255_2_778
10
9.6033293
20
81.6437686
11
9.6033293
21
79.4437686
0
LINE
8
DEFAULT_255_2_778
10
9.6033293
20
79.4437686
11
13.5533293
21
79.4437686
0
LINE
8
DEFAULT_255_2_778
10
13.5533293
20
79.4437686
11
13.5533293
21
81.6437686
0
LINE
8
DEFAULT_255_2_778
10
13.5533293
20
81.6437686
11
9.6033293
21
81.6437686
0
LINE
8
DEFAULT_255_2_778
10
9.6033293
20
81.6437686
11
9.6208293
21
81.6262686
0
LINE
8
DEFAULT_255_2_778
10
9.6208293
20
81.6262686
11
9.9533293
21
81.2606686
0
LINE
8
DEFAULT_255_2_778
10
9.9533293
20
81.2606686
11
9.9533293
21
79.7588686
0
LINE
8
DEFAULT_255_2_778
10
13.2032293
20
78.2586686
11
9.9533293
21
78.2586686
0
LINE
8
DEFAULT_255_2_778
10
13.2032293
20
76.7587686
11
13.2032293
21
78.2605686
0
LINE
8
DEFAULT_255_2_778
10
13.5358293
20
78.6261686
11
13.5533293
21
78.6436686
0
LINE
8
DEFAULT_255_2_778
10
9.6033293
20
78.6436686
11
9.6208293
21
78.6261686
0
LINE
8
DEFAULT_255_2_778
10
9.6208293
20
78.6261686
11
9.9533293
21
78.2605686
0
LINE
8
DEFAULT_255_2_778
10
9.9533293
20
78.2605686
11
9.9533293
21
76.7587686
0
LINE
8
DEFAULT_255_2_778
10
9.6033293
20
76.4436686
11
9.9515293
21
76.7587686
0
LINE
8
DEFAULT_255_2_778
10
9.9515293
20
76.7587686
11
13.2051293
21
76.7587686
0
LINE
8
DEFAULT_255_2_778
10
13.5533293
20
76.4436686
11
9.6033293
21
76.4436686
0
LINE
8
DEFAULT_255_2_778
10
9.6033293
20
76.4436686
11
9.6033293
21
78.6436686
0
LINE
8
DEFAULT_255_2_778
10
9.6033293
20
78.6436686
11
13.5533293
21
78.6436686
0
LINE
8
DEFAULT_255_2_778
10
13.5533293
20
78.6436686
11
13.5533293
21
76.4436686
0
LINE
8
DEFAULT_255_2_778
10
13.2032293
20
75.2588686
11
9.9533293
21
75.2588686
0
LINE
8
DEFAULT_255_2_778
10
9.9533293
20
75.2588686
11
9.9533293
21
74.5539686
0
LINE
8
DEFAULT_255_2_778
10
9.9533293
20
73.7589686
11
13.2032293
21
73.7589686
0
LINE
8
DEFAULT_255_2_778
10
13.5533293
20
73.4088686
11
13.2032293
21
73.7589686
0
LINE
8
DEFAULT_255_2_778
10
13.2032293
20
73.7589686
11
13.2032293
21
74.5539686
0
LINE
8
DEFAULT_255_2_778
10
9.6033293
20
73.4088686
11
13.5533293
21
73.4088686
0
LINE
8
DEFAULT_255_2_778
10
13.5533293
20
73.4088686
11
13.5533293
21
74.5539686
0
LINE
8
DEFAULT_255_2_778
10
13.5533293
20
74.5539686
11
13.2032293
21
74.5539686
0
LINE
8
DEFAULT_255_2_778
10
13.2032293
20
74.5539686
11
13.2032293
21
75.2604686
0
LINE
8
DEFAULT_255_2_778
10
13.5358293
20
75.6260686
11
13.5533293
21
75.6435686
0
LINE
8
DEFAULT_255_2_778
10
9.9533293
20
74.5537686
11
9.9533293
21
73.7586686
0
LINE
8
DEFAULT_255_2_778
10
9.9533293
20
73.7586686
11
9.6033293
21
73.4085686
0
LINE
8
DEFAULT_255_2_778
10
9.6033293
20
73.4085686
11
9.6033293
21
74.5537686
0
LINE
8
DEFAULT_255_2_778
10
9.6033293
20
74.5537686
11
9.9533293
21
74.5537686
0
LINE
8
DEFAULT_255_2_778
10
9.9533293
20
72.2589686
11
9.9533293
21
70.7590686
0
LINE
8
DEFAULT_255_2_778
10
13.2032293
20
72.2589686
11
9.9533293
21
72.2589686
0
LINE
8
DEFAULT_255_2_778
10
9.9533293
20
72.2589686
11
9.6033293
21
72.6090686
0
LINE
8
DEFAULT_255_2_778
10
13.2032293
20
70.7590686
11
13.2032293
21
72.2589686
0
LINE
8
DEFAULT_255_2_778
10
13.2032293
20
72.2589686
11
13.5533293
21
72.6090686
0
LINE
8
DEFAULT_255_2_778
10
13.5533293
20
72.6090686
11
13.5533293
21
70.4090686
0
LINE
8
DEFAULT_255_2_778
10
13.5533293
20
70.4090686
11
9.6033293
21
70.4090686
0
LINE
8
DEFAULT_255_2_778
10
9.6033293
20
70.4090686
11
9.6033293
21
72.6090686
0
LINE
8
DEFAULT_255_2_778
10
9.6033293
20
72.6090686
11
13.5533293
21
72.6090686
0
LINE
8
DEFAULT_255_2_778
10
9.6033293
20
70.4090686
11
9.9533293
21
70.7590686
0
LINE
8
DEFAULT_255_2_778
10
9.9533293
20
70.7590686
11
13.2032293
21
70.7590686
0
LINE
8
DEFAULT_255_2_778
10
13.2032293
20
70.7590686
11
13.5533293
21
70.4090686
0
LINE
8
DEFAULT_255_2_778
10
17.2035293
20
70.7590686
11
20.4533293
21
70.7590686
0
LINE
8
DEFAULT_255_2_778
10
17.2035293
20
72.2589686
11
17.2035293
21
70.7590686
0
LINE
8
DEFAULT_255_2_778
10
17.2035293
20
70.7590686
11
16.8534293
21
70.4090686
0
LINE
8
DEFAULT_255_2_778
10
20.4533293
20
72.2589686
11
17.2035293
21
72.2589686
0
LINE
8
DEFAULT_255_2_778
10
17.2035293
20
72.2589686
11
16.8534293
21
72.6090686
0
LINE
8
DEFAULT_255_2_778
10
20.8034293
20
70.4090686
11
20.8034293
21
72.6090686
0
LINE
8
DEFAULT_255_2_778
10
20.8034293
20
72.6090686
11
16.8534293
21
72.6090686
0
LINE
8
DEFAULT_255_2_778
10
16.8534293
20
72.6090686
11
16.8534293
21
70.4090686
0
LINE
8
DEFAULT_255_2_778
10
16.8534293
20
70.4090686
11
20.8034293
21
70.4090686
0
LINE
8
DEFAULT_255_2_778
10
20.8034293
20
70.4090686
11
20.4533293
21
70.7590686
0
LINE
8
DEFAULT_255_2_778
10
20.4533293
20
70.7590686
11
20.4533293
21
72.2589686
0
LINE
8
DEFAULT_255_2_778
10
20.4533293
20
72.2589686
11
20.8034293
21
72.6090686
0
LINE
8
DEFAULT_255_2_778
10
17.2035293
20
73.7589686
11
20.4533293
21
73.7589686
0
LINE
8
DEFAULT_255_2_778
10
20.4533293
20
75.2588686
11
17.2035293
21
75.2588686
0
LINE
8
DEFAULT_255_2_778
10
16.8534293
20
75.6437686
11
16.8709293
21
75.6263686
0
LINE
8
DEFAULT_255_2_778
10
16.8709293
20
75.6263686
11
17.2035293
21
75.2606686
0
LINE
8
DEFAULT_255_2_778
10
17.2035293
20
75.2606686
11
17.2035293
21
74.5539686
0
LINE
8
DEFAULT_255_2_778
10
20.8034293
20
73.4088686
11
20.4533293
21
73.7589686
0
LINE
8
DEFAULT_255_2_778
10
20.4533293
20
73.7589686
11
20.4533293
21
74.5539686
0
LINE
8
DEFAULT_255_2_778
10
20.8034293
20
75.6437686
11
20.7859293
21
75.6263686
0
LINE
8
DEFAULT_255_2_778
10
20.7859293
20
75.6263686
11
20.4533293
21
75.2606686
0
LINE
8
DEFAULT_255_2_778
10
20.4533293
20
75.2606686
11
20.4533293
21
74.5542686
0
LINE
8
DEFAULT_255_2_778
10
20.4533293
20
74.5542686
11
20.8034293
21
74.5542686
0
LINE
8
DEFAULT_255_2_778
10
20.8034293
20
74.5542686
11
20.8034293
21
73.4091686
0
LINE
8
DEFAULT_255_2_778
10
20.8034293
20
73.4091686
11
16.8534293
21
73.4091686
0
LINE
8
DEFAULT_255_2_778
10
16.8534293
20
73.4091686
11
16.8534293
21
74.5542686
0
LINE
8
DEFAULT_255_2_778
10
16.8534293
20
74.5542686
11
17.2035293
21
74.5542686
0
LINE
8
DEFAULT_255_2_778
10
17.2035293
20
74.5542686
11
17.2035293
21
73.7589686
0
LINE
8
DEFAULT_255_2_778
10
17.2035293
20
73.7589686
11
16.8534293
21
73.4088686
0
LINE
8
DEFAULT_255_2_778
10
20.4533293
20
78.2586686
11
17.2035293
21
78.2586686
0
LINE
8
DEFAULT_255_2_778
10
20.4536293
20
76.7587686
11
20.4536293
21
78.2605686
0
LINE
8
DEFAULT_255_2_778
10
20.7862293
20
78.6261686
11
20.8036293
21
78.6436686
0
LINE
8
DEFAULT_255_2_778
10
17.2019293
20
76.7587686
11
20.4554293
21
76.7587686
0
LINE
8
DEFAULT_255_2_778
10
20.8036293
20
76.4436686
11
16.8534293
21
76.4436686
0
LINE
8
DEFAULT_255_2_778
10
16.8534293
20
76.4436686
11
16.8534293
21
78.6436686
0
LINE
8
DEFAULT_255_2_778
10
16.8534293
20
78.6436686
11
20.8034293
21
78.6436686
0
LINE
8
DEFAULT_255_2_778
10
20.8034293
20
78.6436686
11
20.8034293
21
76.4436686
0
LINE
8
DEFAULT_255_2_778
10
16.8534293
20
76.4436686
11
17.2016293
21
76.7587686
0
LINE
8
DEFAULT_255_2_778
10
17.2016293
20
76.7587686
11
17.2035293
21
78.2605686
0
LINE
8
DEFAULT_255_2_778
10
16.8709293
20
78.6261686
11
16.8534293
21
78.6436686
0
LINE
8
DEFAULT_255_2_778
10
20.4533293
20
81.2587686
11
17.2035293
21
81.2587686
0
LINE
8
DEFAULT_255_2_778
10
17.2016293
20
79.7588686
11
20.4552293
21
79.7588686
0
LINE
8
DEFAULT_255_2_778
10
16.8534293
20
79.4437686
11
17.2016293
21
79.7588686
0
LINE
8
DEFAULT_255_2_778
10
17.2016293
20
79.7588686
11
17.2035293
21
81.2606686
0
LINE
8
DEFAULT_255_2_778
10
16.8709293
20
81.6262686
11
16.8534293
21
81.6437686
0
LINE
8
DEFAULT_255_2_778
10
16.8534293
20
81.6437686
11
20.8034293
21
81.6437686
0
LINE
8
DEFAULT_255_2_778
10
20.8034293
20
81.6437686
11
20.8034293
21
79.4437686
0
LINE
8
DEFAULT_255_2_778
10
20.8034293
20
79.4437686
11
16.8534293
21
79.4437686
0
LINE
8
DEFAULT_255_2_778
10
16.8534293
20
79.4437686
11
16.8534293
21
81.6437686
0
LINE
8
DEFAULT_255_2_778
10
20.8034293
20
79.4437686
11
20.4533293
21
79.7588686
0
LINE
8
DEFAULT_255_2_778
10
20.4533293
20
79.7588686
11
20.4533293
21
81.2606686
0
LINE
8
DEFAULT_255_2_778
10
20.7859293
20
81.6262686
11
20.8034293
21
81.6437686
0
ARC
8
DEFAULT_255_2_778
10
3.9298407
20
66.6667546
40
0.6848931
50
60.8176109
51
91.1254253
0
ARC
8
DEFAULT_255_2_778
10
3.9709005
20
66.754925
40
0.587937
50
26.5385939
51
60.1214904
0
ARC
8
DEFAULT_255_2_778
10
3.7842343
20
66.664082
40
0.7955264
50
359.8838125
51
26.3850905
0
ARC
8
DEFAULT_255_2_778
10
3.5319401
20
66.6455242
40
1.047956
50
0.2182251
51
0.9264673
0
ARC
8
DEFAULT_255_2_778
10
3.7426148
20
66.5397467
40
0.8373871
50
338.4187151
51
0.9421376
0
ARC
8
DEFAULT_255_2_778
10
3.8964123
20
66.4892766
40
0.6758759
50
332.8076663
51
337.6016544
0
ARC
8
DEFAULT_255_2_778
10
3.9796659
20
66.4394729
40
0.5790982
50
299.2911829
51
333.4264593
0
ARC
8
DEFAULT_255_2_778
10
3.9181873
20
66.5684523
40
0.7217275
50
270.1842543
51
298.5381955
0
ARC
8
DEFAULT_255_2_778
10
3.897967
20
66.8082902
40
0.9618258
50
270.5910423
51
271.3429036
0
ARC
8
DEFAULT_255_2_778
10
3.9126148
20
66.52389
40
0.5150573
50
268.4729001
51
296.9382406
0
ARC
8
DEFAULT_255_2_778
10
3.9550777
20
66.419886
40
0.4032078
50
298.2544041
51
318.2915706
0
ARC
8
DEFAULT_255_2_778
10
3.8758372
20
66.4770222
40
0.5004804
50
319.4441823
51
351.5030831
0
ARC
8
DEFAULT_255_2_778
10
3.5053352
20
66.5523586
40
0.8782696
50
350.2135292
51
0.349476
0
ARC
8
DEFAULT_255_2_778
10
3.6072127
20
66.6583711
40
0.7764807
50
359.0587379
51
16.7877921
0
ARC
8
DEFAULT_255_2_778
10
3.9043153
20
66.7452631
40
0.4669509
50
17.1096142
51
39.7764798
0
ARC
8
DEFAULT_255_2_778
10
3.9493821
20
66.7709465
40
0.4159823
50
41.0292327
51
88.6940272
0
ARC
8
DEFAULT_255_2_778
10
3.9157144
20
66.5325773
40
0.6556648
50
86.2267036
51
89.4866688
0
ARC
8
DEFAULT_255_2_778
10
3.9878776
20
67.7829471
40
1.8292162
50
318.1706035
51
323.5099663
0
ARC
8
DEFAULT_255_2_778
10
4.8882601
20
67.1183289
40
0.7101082
50
323.4199637
51
331.2261412
0
ARC
8
DEFAULT_255_2_778
10
5.1981041
20
66.9481122
40
0.3565873
50
331.2349488
51
359.7755984
0
ARC
8
DEFAULT_255_2_778
10
5.2856134
20
66.9568712
40
0.2692668
50
357.8385303
51
42.7980792
0
ARC
8
DEFAULT_255_2_778
10
5.3041698
20
66.9658265
40
0.2496396
50
44.1836961
51
92.5670973
0
ARC
8
DEFAULT_255_2_778
10
5.2789631
20
66.9030406
40
0.3124899
50
87.4275177
51
125.1733766
0
ARC
8
DEFAULT_255_2_778
10
5.247937
20
66.9620873
40
0.2465036
50
127.1850162
51
135.7757917
0
ARC
8
DEFAULT_255_2_778
10
5.2924633
20
66.9316326
40
0.2997951
50
137.5403279
51
180.2665324
0
ARC
8
DEFAULT_255_2_778
10
5.4952433
20
66.9082073
40
0.5030545
50
177.4899888
51
180.0218302
0
ARC
8
DEFAULT_255_2_778
10
5.2448534
20
66.9258631
40
0.4443233
50
134.2716334
51
182.3020595
0
ARC
8
DEFAULT_255_2_778
10
5.2575267
20
66.895264
40
0.475239
50
92.3183173
51
132.7903135
0
ARC
8
DEFAULT_255_2_778
10
5.2923218
20
66.6422956
40
0.7298203
50
89.9476467
51
94.2447405
0
ARC
8
DEFAULT_255_2_778
10
5.3062789
20
66.8182287
40
0.5540463
50
66.7301469
51
91.3745215
0
ARC
8
DEFAULT_255_2_778
10
5.3642282
20
66.9725354
40
0.3894747
50
48.0097004
51
65.5935925
0
ARC
8
DEFAULT_255_2_778
10
5.3717388
20
66.9848842
40
0.3752813
50
357.5918329
51
47.6006634
0
ARC
8
DEFAULT_255_2_778
10
5.2622449
20
66.9821122
40
0.4846181
50
333.65666
51
358.4632472
0
ARC
8
DEFAULT_255_2_778
10
4.7577427
20
67.2162156
40
1.0407068
50
322.2954777
51
334.4318791
0
ARC
8
DEFAULT_255_2_778
10
4.1037319
20
67.703294
40
1.8560935
50
317.1085583
51
322.7468394
0
ARC
8
DEFAULT_255_2_778
10
8.5031333
20
66.6278885
40
0.5627359
50
89.6787299
51
116.7499198
0
ARC
8
DEFAULT_255_2_778
10
8.4536796
20
66.7457676
40
0.4353042
50
117.9209065
51
134.1104813
0
ARC
8
DEFAULT_255_2_778
10
8.5106568
20
66.7007195
40
0.5073973
50
135.1894005
51
170.1108469
0
ARC
8
DEFAULT_255_2_778
10
8.7976231
20
66.6282952
40
0.8028413
50
168.5360372
51
175.0395349
0
ARC
8
DEFAULT_255_2_778
10
8.3022654
20
66.4274183
40
0.4071446
50
87.6053597
51
138.4031387
0
ARC
8
DEFAULT_255_2_778
10
8.3224479
20
66.2211368
40
0.6130787
50
89.9961946
51
90.2963641
0
ARC
8
DEFAULT_255_2_778
10
8.3376617
20
66.4436723
40
0.390838
50
40.1758132
51
92.2248871
0
ARC
8
DEFAULT_255_2_778
10
8.2398454
20
66.3714822
40
0.5122103
50
2.2595199
51
39.2868694
0
ARC
8
DEFAULT_255_2_778
10
7.9867655
20
66.3387137
40
0.7667233
50
359.9553018
51
3.9609635
0
ARC
8
DEFAULT_255_2_778
10
8.1441389
20
66.3247863
40
0.6094955
50
336.7070384
51
1.2531268
0
ARC
8
DEFAULT_255_2_778
10
8.292928
20
66.2695081
40
0.4510467
50
317.7287809
51
335.6827099
0
ARC
8
DEFAULT_255_2_778
10
8.3066388
20
66.2624754
40
0.4361892
50
267.4574165
51
317.200928
0
ARC
8
DEFAULT_255_2_778
10
8.2762096
20
66.2561034
40
0.4295308
50
217.838064
51
271.4780215
0
ARC
8
DEFAULT_255_2_778
10
8.4215557
20
66.3731143
40
0.6161042
50
184.4559014
51
218.1402207
0
ARC
8
DEFAULT_255_2_778
10
8.7222081
20
66.4183635
40
0.9196208
50
179.9032974
51
185.8113973
0
ARC
8
DEFAULT_255_2_778
10
9.2874297
20
66.5057956
40
1.4848943
50
169.257911
51
180.4854144
0
ARC
8
DEFAULT_255_2_778
10
8.6649047
20
66.629303
40
0.8502746
50
149.895162
51
169.6158388
0
ARC
8
DEFAULT_255_2_778
10
8.4757131
20
66.7288895
40
0.6367121
50
141.1584422
51
149.1084504
0
ARC
8
DEFAULT_255_2_778
10
8.4394231
20
66.7499228
40
0.5952892
50
98.3778866
51
140.5445985
0
ARC
8
DEFAULT_255_2_778
10
8.5177602
20
66.394085
40
0.9590867
50
90.6196053
51
99.9107066
0
ARC
8
DEFAULT_255_2_778
10
8.2898394
20
66.3695709
40
0.3051452
50
89.8968616
51
126.2303057
0
ARC
8
DEFAULT_255_2_778
10
8.2847399
20
66.3609855
40
0.3091932
50
124.5275072
51
159.7869209
0
ARC
8
DEFAULT_255_2_778
10
8.5619791
20
66.3843555
40
0.5675408
50
178.6814111
51
201.5607464
0
ARC
8
DEFAULT_255_2_778
10
8.3865602
20
66.3232163
40
0.382004
50
202.7011726
51
216.1975752
0
ARC
8
DEFAULT_255_2_778
10
8.2882301
20
66.2343618
40
0.2505492
50
213.0783648
51
269.716105
0
ARC
8
DEFAULT_255_2_778
10
8.2969877
20
66.2272453
40
0.2436349
50
267.6478607
51
322.4661681
0
ARC
8
DEFAULT_255_2_778
10
8.1847885
20
66.3024389
40
0.378519
50
323.7872706
51
359.3735076
0
ARC
8
DEFAULT_255_2_778
10
7.955946
20
66.3275484
40
0.6080427
50
357.2428783
51
0.0251798
0
ARC
8
DEFAULT_255_2_778
10
8.1394034
20
66.3412874
40
0.4247989
50
358.1826582
51
27.7082468
0
ARC
8
DEFAULT_255_2_778
10
8.2432638
20
66.3859661
40
0.3121966
50
29.3118436
51
38.0564106
0
ARC
8
DEFAULT_255_2_778
10
8.2973869
20
66.4340308
40
0.2399928
50
36.9861163
51
91.7187619
0
LINE
8
DEFAULT_255_2_778
10
3.9081887
20
65.8468156
11
3.4916887
21
65.8468156
0
LINE
8
DEFAULT_255_2_778
10
3.4916887
20
65.8468156
11
3.4916887
21
67.3515156
0
LINE
8
DEFAULT_255_2_778
10
3.4916887
20
67.3515156
11
3.9163887
21
67.3515156
0
LINE
8
DEFAULT_255_2_778
10
4.5798887
20
66.6495156
11
4.5798887
21
66.5535156
0
LINE
8
DEFAULT_255_2_778
10
3.9078887
20
65.8465156
11
3.9081887
21
65.8468156
0
LINE
8
DEFAULT_255_2_778
10
3.9215887
20
67.1882156
11
3.6900887
21
67.1882156
0
LINE
8
DEFAULT_255_2_778
10
3.6900887
20
67.1882156
11
3.6900887
21
66.0090156
0
LINE
8
DEFAULT_255_2_778
10
3.6900887
20
66.0090156
11
3.8988887
21
66.0090156
0
LINE
8
DEFAULT_255_2_778
10
4.3835887
20
66.5577156
11
4.3835887
21
66.6456156
0
LINE
8
DEFAULT_255_2_778
10
3.9215887
20
67.1882156
11
3.9215887
21
67.1882156
0
LINE
8
DEFAULT_255_2_778
10
5.8160887
20
66.0029156
11
5.8160887
21
65.8468156
0
LINE
8
DEFAULT_255_2_778
10
5.8160887
20
65.8468156
11
4.8299887
21
65.8468156
0
LINE
8
DEFAULT_255_2_778
10
4.8299887
20
65.8468156
11
4.8299887
21
65.9844156
0
LINE
8
DEFAULT_255_2_778
10
4.8299887
20
65.9844156
11
5.3508887
21
66.5630156
0
LINE
8
DEFAULT_255_2_778
10
4.9921887
20
66.9080156
11
4.8008887
21
66.9080156
0
LINE
8
DEFAULT_255_2_778
10
5.4635887
20
66.4400156
11
5.0606887
21
66.0029156
0
LINE
8
DEFAULT_255_2_778
10
5.0606887
20
66.0029156
11
5.8160887
21
66.0029156
0
LINE
8
DEFAULT_255_2_778
10
5.8160887
20
66.0029156
11
5.8160887
21
66.0029156
0
LINE
8
DEFAULT_255_2_778
10
6.4361887
20
66.5641156
11
6.4361887
21
66.4080156
0
LINE
8
DEFAULT_255_2_778
10
6.4361887
20
66.4080156
11
5.9319887
21
66.4080156
0
LINE
8
DEFAULT_255_2_778
10
5.9319887
20
66.4080156
11
5.9319887
21
66.5641156
0
LINE
8
DEFAULT_255_2_778
10
5.9319887
20
66.5641156
11
6.4361887
21
66.5641156
0
LINE
8
DEFAULT_255_2_778
10
6.4361887
20
66.5641156
11
6.4361887
21
66.5641156
0
LINE
8
DEFAULT_255_2_778
10
7.2310887
20
67.3589156
11
7.2310887
21
65.8468156
0
LINE
8
DEFAULT_255_2_778
10
7.2310887
20
65.8468156
11
7.0386887
21
65.8468156
0
LINE
8
DEFAULT_255_2_778
10
7.0386887
20
65.8468156
11
7.0386887
21
67.1210156
0
LINE
8
DEFAULT_255_2_778
10
7.0386887
20
67.1210156
11
6.6531887
21
66.9795156
0
LINE
8
DEFAULT_255_2_778
10
6.6531887
20
66.9795156
11
6.6531887
21
67.1530156
0
LINE
8
DEFAULT_255_2_778
10
6.6531887
20
67.1530156
11
7.2008887
21
67.3586156
0
LINE
8
DEFAULT_255_2_778
10
7.2008887
20
67.3586156
11
7.2307887
21
67.3586156
0
LINE
8
DEFAULT_255_2_778
10
7.2307887
20
67.3586156
11
7.2310887
21
67.3589156
0
LINE
8
DEFAULT_255_2_778
10
8.5073887
20
67.3528156
11
8.5414887
21
67.3528156
0
LINE
8
DEFAULT_255_2_778
10
8.5414887
20
67.3528156
11
8.5414887
21
67.1906156
0
LINE
8
DEFAULT_255_2_778
10
8.5414887
20
67.1906156
11
8.5062887
21
67.1906156
0
LINE
8
DEFAULT_255_2_778
10
7.8025887
20
66.4199156
11
7.8025887
21
66.4932156
0
LINE
8
DEFAULT_255_2_778
10
8.5073887
20
67.3531156
11
8.5073887
21
67.3528156
0
LINE
8
DEFAULT_255_2_778
10
7.9945887
20
66.4678156
11
7.9945887
21
66.3974156
0
LINE
8
DEFAULT_255_2_778
10
8.2901887
20
66.6739156
11
8.2903887
21
66.6747156
0
LINE
8
DEFAULT_255_2_778
10
10.1858887
20
67.3517156
11
10.1858887
21
65.8468156
0
LINE
8
DEFAULT_255_2_778
10
10.1858887
20
65.8468156
11
9.9863887
21
65.8468156
0
LINE
8
DEFAULT_255_2_778
10
9.9863887
20
65.8468156
11
9.2288887
21
67.0064156
0
LINE
8
DEFAULT_255_2_778
10
9.2288887
20
67.0064156
11
9.2288887
21
65.8468156
0
LINE
8
DEFAULT_255_2_778
10
9.2288887
20
65.8468156
11
9.0293887
21
65.8468156
0
LINE
8
DEFAULT_255_2_778
10
9.0293887
20
65.8468156
11
9.0293887
21
67.3515156
0
LINE
8
DEFAULT_255_2_778
10
9.0293887
20
67.3515156
11
9.2288887
21
67.3515156
0
LINE
8
DEFAULT_255_2_778
10
9.2288887
20
67.3515156
11
9.9884887
21
66.1868156
0
LINE
8
DEFAULT_255_2_778
10
9.9884887
20
66.1868156
11
9.9884887
21
67.3515156
0
LINE
8
DEFAULT_255_2_778
10
9.9884887
20
67.3515156
11
10.1858887
21
67.3515156
0
LINE
8
DEFAULT_255_2_778
10
10.1858887
20
67.3515156
11
10.1858887
21
67.3517156
0
LINE
8
DEFAULT_255_2_778
10
11.5312887
20
65.8468156
11
11.3876887
21
66.2394156
0
LINE
8
DEFAULT_255_2_778
10
11.3876887
20
66.2394156
11
10.7573887
21
66.2394156
0
LINE
8
DEFAULT_255_2_778
10
10.7573887
20
66.2394156
11
10.6158887
21
65.8468156
0
LINE
8
DEFAULT_255_2_778
10
10.6158887
20
65.8468156
11
10.4112887
21
65.8468156
0
LINE
8
DEFAULT_255_2_778
10
10.4112887
20
65.8468156
11
10.9859887
21
67.3515156
0
LINE
8
DEFAULT_255_2_778
10
10.9859887
20
67.3515156
11
11.1595887
21
67.3515156
0
LINE
8
DEFAULT_255_2_778
10
11.1595887
20
67.3515156
11
11.7352887
21
65.8465156
0
LINE
8
DEFAULT_255_2_778
10
11.7352887
20
65.8465156
11
11.5315887
21
65.8465156
0
LINE
8
DEFAULT_255_2_778
10
11.5315887
20
65.8465156
11
11.5312887
21
65.8468156
0
LINE
8
DEFAULT_255_2_778
10
11.0724887
20
67.1067156
11
10.8171887
21
66.4029156
0
LINE
8
DEFAULT_255_2_778
10
10.8171887
20
66.4029156
11
11.3288887
21
66.4029156
0
LINE
8
DEFAULT_255_2_778
10
11.3288887
20
66.4029156
11
11.0724887
21
67.1067156
0
LINE
8
DEFAULT_255_2_778
10
11.0724887
20
67.1067156
11
11.0724887
21
67.1067156
0
ARC
8
DEFAULT_255_2_778
10
2.1959877
20
1.754802
40
1.9928139
50
179.9264183
51
204.3120318
0
ARC
8
DEFAULT_255_2_778
10
2.2050113
20
1.7599949
40
2.0031756
50
204.34113
51
260.1955271
0
ARC
8
DEFAULT_255_2_778
10
2.202745
20
1.7709625
40
2.0136013
50
260.3122132
51
270.0122462
0
ARC
8
DEFAULT_255_2_778
10
28.7058283
20
1.7500755
40
1.9929158
50
269.926605
51
294.3113989
0
ARC
8
DEFAULT_255_2_778
10
28.7007752
20
1.7589187
40
2.0030556
50
294.3389823
51
350.1972101
0
ARC
8
DEFAULT_255_2_778
10
28.6901139
20
1.7565462
40
2.0131615
50
350.3154071
51
0.0175033
0
ARC
8
DEFAULT_255_2_778
10
29.1983721
20
80.8830259
40
5.1934526
50
73.1558533
51
90.001956
0
ARC
8
DEFAULT_255_2_778
10
29.1981999
20
80.8791995
40
5.1972788
50
90.0000562
51
91.8972112
0
ARC
8
DEFAULT_255_2_778
10
29.1982511
20
80.877979
40
5.1985004
50
91.897329
51
95.4636992
0
ARC
8
DEFAULT_255_2_778
10
1.7080787
20
80.8830259
40
5.1934526
50
89.998044
51
106.8441467
0
ARC
8
DEFAULT_255_2_778
10
1.7082509
20
80.8791995
40
5.1972788
50
88.1027888
51
89.9999438
0
ARC
8
DEFAULT_255_2_778
10
1.7081998
20
80.877979
40
5.1985004
50
84.5363008
51
88.102671
0
ARC
8
DEFAULT_255_2_778
10
0.2353696
20
74.4338941
40
0.0380958
50
91.608287
51
147.6811262
0
ARC
8
DEFAULT_255_2_778
10
0.4039495
20
73.8043613
40
0.6888314
50
97.0989339
51
104.2578028
0
ARC
8
DEFAULT_255_2_778
10
0.6825074
20
71.8047768
40
2.7076712
50
95.071412
51
97.7191175
0
ARC
8
DEFAULT_255_2_778
10
0.9945649
20
68.4350902
40
6.0917653
50
93.8601363
51
95.1933502
0
ARC
8
DEFAULT_255_2_778
10
1.346832
20
63.217316
40
11.3214173
50
92.710423
51
93.8611561
0
ARC
8
DEFAULT_255_2_778
10
1.7176207
20
55.5015584
40
19.0460779
50
91.8451844
51
92.7269983
0
ARC
8
DEFAULT_255_2_778
10
2.0100073
20
46.5365431
40
28.0158594
50
91.0773355
51
91.8524867
0
ARC
8
DEFAULT_255_2_778
10
2.1572317
20
39.07087
40
35.4829815
50
90.5257562
51
91.088363
0
ARC
8
DEFAULT_255_2_778
10
2.2008953
20
34.5362831
40
40.0177782
50
89.9967354
51
90.5286944
0
ARC
8
DEFAULT_255_2_778
10
2.2006225
20
87.765947
40
1.9929158
50
89.926605
51
114.3113989
0
ARC
8
DEFAULT_255_2_778
10
2.2056757
20
87.7571038
40
2.0030556
50
114.3389823
51
170.1972101
0
ARC
8
DEFAULT_255_2_778
10
2.2163369
20
87.7594762
40
2.0131615
50
170.3154071
51
180.0175033
0
ARC
8
DEFAULT_255_2_778
10
28.7103612
20
87.7614141
40
1.9929158
50
359.926605
51
24.3113989
0
ARC
8
DEFAULT_255_2_778
10
28.7015179
20
87.756361
40
2.0030556
50
24.3389823
51
80.1972101
0
ARC
8
DEFAULT_255_2_778
10
28.7038904
20
87.7456998
40
2.0131615
50
80.3154071
51
90.0175033
0
LINE
8
DEFAULT_255_2_778
10
21.9532754
20
4.0476612
11
21.9532754
21
-0.2309388
0
LINE
8
DEFAULT_255_2_778
10
21.9532754
20
-0.2309388
11
13.4532754
21
-0.2309388
0
LINE
8
DEFAULT_255_2_778
10
13.4532754
20
-0.2309388
11
13.4532754
21
4.4571612
0
LINE
8
DEFAULT_255_2_778
10
13.4532754
20
4.4571612
11
21.9532754
21
4.4571612
0
LINE
8
DEFAULT_255_2_778
10
21.9532754
20
4.4571612
11
21.9532754
21
4.0476612
0
LINE
8
DEFAULT_255_2_778
10
21.9532754
20
4.0476612
11
13.4532754
21
4.0476612
0
LINE
8
DEFAULT_255_2_778
10
0.2031754
20
62.8165612
11
0.2031754
21
1.7573612
0
LINE
8
DEFAULT_255_2_778
10
2.2031754
20
-0.2426388
11
11.5926754
21
-0.2426388
0
LINE
8
DEFAULT_255_2_778
10
29.2030754
20
62.8165612
11
0.2031754
21
62.8165612
0
LINE
8
DEFAULT_255_2_778
10
0.2031754
20
62.8165612
11
0.2031754
21
65.0073612
0
LINE
8
DEFAULT_255_2_778
10
17.9532754
20
88.5385612
11
18.2032754
21
88.5385612
0
LINE
8
DEFAULT_255_2_778
10
9.2032754
20
88.5385612
11
9.4532754
21
88.5385612
0
LINE
8
DEFAULT_255_2_778
10
9.4532754
20
89.7572612
11
9.2032754
21
89.7572612
0
LINE
8
DEFAULT_255_2_778
10
18.2032754
20
89.7572612
11
17.9532754
21
89.7572612
0
LINE
8
DEFAULT_255_2_778
10
13.2031754
20
-0.2426388
11
22.2032754
21
-0.2426388
0
LINE
8
DEFAULT_255_2_778
10
29.2033754
20
65.0073612
11
29.2033754
21
1.0514612
0
LINE
8
DEFAULT_255_2_778
10
29.2033754
20
1.0514612
11
23.2258754
21
1.0514612
0
LINE
8
DEFAULT_255_2_778
10
23.2258754
20
1.0514612
11
23.2258754
21
6.2545612
0
LINE
8
DEFAULT_255_2_778
10
23.2258754
20
6.2545612
11
11.5926754
21
6.2545612
0
LINE
8
DEFAULT_255_2_778
10
11.5926754
20
6.2545612
11
11.5926754
21
-0.2428388
0
LINE
8
DEFAULT_255_2_778
10
11.5926754
20
-0.2428388
11
13.2029754
21
-0.2428388
0
LINE
8
DEFAULT_255_2_778
10
13.2029754
20
-0.2428388
11
13.2029754
21
4.7572612
0
LINE
8
DEFAULT_255_2_778
10
13.2029754
20
4.7572612
11
22.2032754
21
4.7572612
0
LINE
8
DEFAULT_255_2_778
10
22.2032754
20
4.7572612
11
22.2032754
21
-0.2428388
0
LINE
8
DEFAULT_255_2_778
10
22.2032754
20
-0.2428388
11
28.7032754
21
-0.2428388
0
LINE
8
DEFAULT_255_2_778
10
30.7032754
20
1.7571612
11
30.7032754
21
65.0073612
0
LINE
8
DEFAULT_255_2_778
10
30.7032754
20
74.4577612
11
30.7032754
21
85.8536612
0
LINE
8
DEFAULT_255_2_778
10
28.7032754
20
86.0528612
11
28.7032754
21
89.7588612
0
LINE
8
DEFAULT_255_2_778
10
0.2031754
20
74.4542612
11
0.2031754
21
85.8536612
0
LINE
8
DEFAULT_255_2_778
10
2.2031754
20
86.0528612
11
2.2031754
21
89.7588612
0
LINE
8
DEFAULT_255_2_778
10
2.2031754
20
65.0073612
11
0.2031754
21
65.0073612
0
LINE
8
DEFAULT_255_2_778
10
0.2031754
20
65.0073612
11
0.2031754
21
74.4542612
0
LINE
8
DEFAULT_255_2_778
10
0.2031754
20
74.4542612
11
0.2031754
21
74.4542612
0
LINE
8
DEFAULT_255_2_778
10
2.2031754
20
74.5540612
11
2.2031754
21
65.0073612
0
LINE
8
DEFAULT_255_2_778
10
2.2031754
20
65.0073612
11
21.2031754
21
65.0073612
0
LINE
8
DEFAULT_255_2_778
10
28.7030754
20
72.4680612
11
28.7030754
21
74.5540612
0
LINE
8
DEFAULT_255_2_778
10
28.7030754
20
74.5540612
11
30.7024754
21
74.4569612
0
LINE
8
DEFAULT_255_2_778
10
9.6030754
20
75.6438612
11
13.5529754
21
75.6438612
0
LINE
8
DEFAULT_255_2_778
10
13.5529754
20
75.6438612
11
13.5529754
21
74.5543612
0
LINE
8
DEFAULT_255_2_778
10
13.5529754
20
74.5543612
11
16.8528754
21
74.5543612
0
LINE
8
DEFAULT_255_2_778
10
16.8528754
20
74.5543612
11
16.8528754
21
75.6438612
0
LINE
8
DEFAULT_255_2_778
10
16.8528754
20
75.6438612
11
20.8028754
21
75.6438612
0
LINE
8
DEFAULT_255_2_778
10
20.8028754
20
75.6438612
11
20.8028754
21
74.5543612
0
LINE
8
DEFAULT_255_2_778
10
20.8028754
20
74.5543612
11
28.7027754
21
74.5543612
0
LINE
8
DEFAULT_255_2_778
10
28.7027754
20
74.5543612
11
28.7027754
21
86.0525612
0
LINE
8
DEFAULT_255_2_778
10
28.7027754
20
86.0525612
11
18.2030754
21
86.0525612
0
LINE
8
DEFAULT_255_2_778
10
18.2030754
20
86.0525612
11
18.2030754
21
84.7571612
0
LINE
8
DEFAULT_255_2_778
10
18.2030754
20
84.7571612
11
9.2032754
21
84.7571612
0
LINE
8
DEFAULT_255_2_778
10
9.2032754
20
84.7571612
11
9.2032754
21
86.0525612
0
LINE
8
DEFAULT_255_2_778
10
9.2032754
20
86.0525612
11
2.2031754
21
86.0525612
0
LINE
8
DEFAULT_255_2_778
10
2.2031754
20
86.0525612
11
2.2031754
21
74.5540612
0
LINE
8
DEFAULT_255_2_778
10
2.2031754
20
74.5540612
11
9.6032754
21
74.5540612
0
LINE
8
DEFAULT_255_2_778
10
9.6032754
20
74.5540612
11
9.6032754
21
75.6435612
0
LINE
8
DEFAULT_255_2_778
10
9.6032754
20
75.6435612
11
9.6207754
21
75.6261612
0
LINE
8
DEFAULT_255_2_778
10
9.6207754
20
75.6261612
11
9.9533754
21
75.2604612
0
LINE
8
DEFAULT_255_2_778
10
28.7532754
20
72.5175612
11
21.2031754
21
65.0073612
0
LINE
8
DEFAULT_255_2_778
10
21.2031754
20
65.0073612
11
28.7530754
21
65.0073612
0
LINE
8
DEFAULT_255_2_778
10
30.7529754
20
65.0073612
11
28.7530754
21
65.0073612
0
LINE
8
DEFAULT_255_2_778
10
28.7530754
20
65.0073612
11
28.7530754
21
72.5178612
0
LINE
8
DEFAULT_255_2_778
10
28.7530754
20
72.5178612
11
30.7529754
21
74.5072612
0
LINE
8
DEFAULT_255_2_778
10
30.7529754
20
74.5072612
11
30.7529754
21
65.0073612
0
LINE
8
DEFAULT_255_2_778
10
17.9532754
20
86.1541612
11
9.4532754
21
86.1541612
0
LINE
8
DEFAULT_255_2_778
10
9.4532754
20
86.1541612
11
9.4532754
21
85.0066612
0
LINE
8
DEFAULT_255_2_778
10
9.4532754
20
85.0066612
11
17.9532754
21
85.0066612
0
LINE
8
DEFAULT_255_2_778
10
17.9532754
20
85.0066612
11
17.9532754
21
89.7588612
0
LINE
8
DEFAULT_255_2_778
10
17.9532754
20
89.7588612
11
9.4532754
21
89.7588612
0
LINE
8
DEFAULT_255_2_778
10
9.4532754
20
89.7588612
11
9.4532754
21
86.1541612
0
LINE
8
DEFAULT_255_2_778
10
9.2032754
20
86.0525612
11
9.2032754
21
89.7588612
0
LINE
8
DEFAULT_255_2_778
10
9.2032754
20
89.7588612
11
2.2031754
21
89.7588612
0
LINE
8
DEFAULT_255_2_778
10
0.2031754
20
87.7588612
11
0.2031754
21
85.8536612
0
LINE
8
DEFAULT_255_2_778
10
30.7032754
20
85.8536612
11
30.7032754
21
87.7588612
0
LINE
8
DEFAULT_255_2_778
10
28.7032754
20
89.7588612
11
18.2032754
21
89.7588612
0
LINE
8
DEFAULT_255_2_778
10
18.2032754
20
89.7588612
11
18.2032754
21
86.0525612
0
ENDSEC
0
EOF