0
SECTION
2
HEADER
9
$MEASUREMENT
70
1
0
ENDSEC
0
SECTION
2
TABLES
0
TABLE
2
LTYPE
0
LTYPE
72
65
70
64
2
CONTINUOUS
3
______
73
0
40
0
0
ENDTAB
0
TABLE
2
LAYER
0
LAYER
2
DEFAULT_255_2_778
70
0
62
255
6
CONTINUOUS
0
ENDTAB
0
ENDSEC
0
SECTION
2
ENTITIES
0
ARC
8
DEFAULT_255_2_778
10
7.8117526
20
5.8347564
40
6.9873489
50
188.9691814
51
196.7300496
0
ARC
8
DEFAULT_255_2_778
10
7.1676153
20
5.6403884
40
6.3145255
50
196.723539
51
205.6779007
0
ARC
8
DEFAULT_255_2_778
10
6.6717749
20
5.4011605
40
5.763992
50
205.6704508
51
216.3685749
0
ARC
8
DEFAULT_255_2_778
10
6.3231358
20
5.1421152
40
5.3296535
50
216.3486529
51
231.3624756
0
ARC
8
DEFAULT_255_2_778
10
6.2024395
20
5.0032983
40
5.1458661
50
231.4471099
51
261.4190978
0
ARC
8
DEFAULT_255_2_778
10
6.2524782
20
5.2472544
40
5.3945734
50
261.2801866
51
264.879859
0
ARC
8
DEFAULT_255_2_778
10
25.7354428
20
53.4963846
40
1.000222
50
29.9676567
51
89.9828257
0
ARC
8
DEFAULT_255_2_778
10
25.7362523
20
53.4967201
40
0.9993531
50
359.9890271
51
29.974178
0
ARC
8
DEFAULT_255_2_778
10
25.7359358
20
53.4963625
40
0.9996696
50
329.9390168
51
0.0051404
0
ARC
8
DEFAULT_255_2_778
10
25.7355746
20
53.4968142
40
1.0002085
50
269.9985002
51
329.9269841
0
ARC
8
DEFAULT_255_2_778
10
25.7351971
20
53.1143836
40
0.6177781
50
269.9022009
51
270.0325852
0
ARC
8
DEFAULT_255_2_778
10
25.7369585
20
13.5006537
40
0.9962528
50
48.2982327
51
89.9779071
0
ARC
8
DEFAULT_255_2_778
10
25.7379885
20
13.4980271
40
0.9975319
50
1.6322939
51
48.4427687
0
ARC
8
DEFAULT_255_2_778
10
25.7175786
20
13.4969534
40
1.0179644
50
359.9987918
51
1.6599814
0
ARC
8
DEFAULT_255_2_778
10
25.6643467
20
13.4971637
40
1.0711963
50
359.9381035
51
359.987603
0
ARC
8
DEFAULT_255_2_778
10
25.739345
20
13.4954428
40
0.9961978
50
318.3251789
51
0.0324206
0
ARC
8
DEFAULT_255_2_778
10
25.7366386
20
13.4945836
40
0.997651
50
271.7273588
51
318.4653828
0
ARC
8
DEFAULT_255_2_778
10
25.7354522
20
13.5162674
40
1.0193609
50
269.999459
51
271.7572729
0
ARC
8
DEFAULT_255_2_778
10
5.4309305
20
85.6836056
40
4.1806395
50
88.4454939
51
89.9995032
0
ARC
8
DEFAULT_255_2_778
10
5.4284204
20
85.7566854
40
4.1075605
50
89.9644802
51
106.6876634
0
ARC
8
DEFAULT_255_2_778
10
5.4381494
20
85.7411486
40
4.1252395
50
106.7551336
51
158.335491
0
ARC
8
DEFAULT_255_2_778
10
5.4327309
20
85.7503152
40
4.116825
50
158.4262157
51
174.3166535
0
ARC
8
DEFAULT_255_2_778
10
5.4258228
20
85.7506218
40
2.1097965
50
150.1922131
51
174.3316501
0
ARC
8
DEFAULT_255_2_778
10
5.4336403
20
85.7454869
40
2.1191324
50
97.1287604
51
150.1768161
0
ARC
8
DEFAULT_255_2_778
10
5.4309051
20
85.7409265
40
2.1233205
50
89.990799
51
97.0402528
0
ARC
8
DEFAULT_255_2_778
10
5.4312019
20
85.7158834
40
2.1483635
50
87.8301666
51
89.9988234
0
ARC
8
DEFAULT_255_2_778
10
2.11852
20
72.626527
40
1.9830802
50
156.37036
51
180.0959371
0
ARC
8
DEFAULT_255_2_778
10
2.1264753
20
72.6186312
40
1.9935373
50
101.6668664
51
156.2541015
0
ARC
8
DEFAULT_255_2_778
10
2.1341299
20
72.5794457
40
2.0334613
50
89.9630119
51
101.6548139
0
ARC
8
DEFAULT_255_2_778
10
5.4309305
20
85.6836056
40
4.1806395
50
88.4454939
51
89.9995032
0
ARC
8
DEFAULT_255_2_778
10
5.4284204
20
85.7566854
40
4.1075605
50
89.9644802
51
106.6876634
0
ARC
8
DEFAULT_255_2_778
10
5.4381494
20
85.7411486
40
4.1252395
50
106.7551336
51
158.335491
0
ARC
8
DEFAULT_255_2_778
10
5.4327309
20
85.7503152
40
4.116825
50
158.4262157
51
174.3166535
0
ARC
8
DEFAULT_255_2_778
10
6.1740803
20
5.1301246
40
5.2839046
50
188.6547018
51
203.932943
0
ARC
8
DEFAULT_255_2_778
10
6.1806145
20
5.1377808
40
5.2929845
50
203.9800008
51
250.7249892
0
ARC
8
DEFAULT_255_2_778
10
6.1736285
20
5.1316212
40
5.2848662
50
250.7744376
51
265.5332758
0
LINE
8
DEFAULT_255_2_778
10
3.3260426
20
85.9590065
11
2.1907426
21
74.6126065
0
LINE
8
DEFAULT_255_2_778
10
8.9286426
20
60.1142065
11
1.6628426
21
60.1142065
0
LINE
8
DEFAULT_255_2_778
10
1.6628426
20
60.1142065
11
1.6628426
21
61.1141065
0
LINE
8
DEFAULT_255_2_778
10
1.6628426
20
61.1141065
11
0.6855426
21
61.1141065
0
LINE
8
DEFAULT_255_2_778
10
0.6855426
20
61.1141065
11
0.6855426
21
59.1501065
0
LINE
8
DEFAULT_255_2_778
10
0.6855426
20
59.1501065
11
2.6855426
21
58.6143065
0
LINE
8
DEFAULT_255_2_778
10
2.6855426
20
58.6143065
11
8.9288426
21
58.6143065
0
LINE
8
DEFAULT_255_2_778
10
8.9288426
20
11.6143065
11
0.6855426
21
11.6143065
0
LINE
8
DEFAULT_255_2_778
10
0.6855426
20
11.6143065
11
0.6855426
21
9.1142065
0
LINE
8
DEFAULT_255_2_778
10
0.6855426
20
9.1142065
11
1.6628426
21
9.1142065
0
LINE
8
DEFAULT_255_2_778
10
1.6628426
20
9.1142065
11
1.6628426
21
10.1140065
0
LINE
8
DEFAULT_255_2_778
10
1.6628426
20
10.1140065
11
8.9288426
21
10.1140065
0
LINE
8
DEFAULT_255_2_778
10
8.9288426
20
13.6140065
11
0.4357426
21
13.6140065
0
LINE
8
DEFAULT_255_2_778
10
0.4357426
20
13.6140065
11
0.4357426
21
56.6141065
0
LINE
8
DEFAULT_255_2_778
10
0.4357426
20
56.6141065
11
8.9288426
21
56.6141065
0
LINE
8
DEFAULT_255_2_778
10
8.9288426
20
4.7454065
11
0.9098426
21
4.7454065
0
LINE
8
DEFAULT_255_2_778
10
5.7710426
20
-0.1257935
11
5.7710426
21
0.7507065
0
LINE
8
DEFAULT_255_2_778
10
5.7710426
20
0.7507065
11
8.9286426
21
0.7507065
0
LINE
8
DEFAULT_255_2_778
10
21.0240426
20
67.2466065
11
24.2482426
21
67.2466065
0
LINE
8
DEFAULT_255_2_778
10
24.2482426
20
67.2466065
11
24.2482426
21
64.2375065
0
LINE
8
DEFAULT_255_2_778
10
25.1856426
20
54.4966065
11
25.7357426
21
54.4966065
0
LINE
8
DEFAULT_255_2_778
10
25.7341426
20
52.4966065
11
25.1856426
21
52.4977065
0
LINE
8
DEFAULT_255_2_778
10
25.1856426
20
14.4977065
11
25.7373426
21
14.4969065
0
LINE
8
DEFAULT_255_2_778
10
25.7354426
20
12.4969065
11
25.1854426
21
12.4969065
0
LINE
8
DEFAULT_255_2_778
10
33.5491426
20
4.4969065
11
66.1124426
21
4.4969065
0
LINE
8
DEFAULT_255_2_778
10
66.1124426
20
4.4969065
11
67.6507426
21
5.9805065
0
LINE
8
DEFAULT_255_2_778
10
67.6507426
20
5.9805065
11
67.6507426
21
43.1301065
0
LINE
8
DEFAULT_255_2_778
10
67.6507426
20
43.1301065
11
66.1124426
21
44.4967065
0
LINE
8
DEFAULT_255_2_778
10
66.1124426
20
44.4967065
11
63.6074426
21
44.4967065
0
LINE
8
DEFAULT_255_2_778
10
63.6074426
20
44.4967065
11
63.6074426
21
83.1798065
0
LINE
8
DEFAULT_255_2_778
10
63.6074426
20
83.1798065
11
61.4148426
21
85.4968065
0
LINE
8
DEFAULT_255_2_778
10
61.4148426
20
85.4968065
11
33.5491426
21
85.4968065
0
LINE
8
DEFAULT_255_2_778
10
25.1854426
20
5.3037065
11
33.5491426
21
5.3037065
0
LINE
8
DEFAULT_255_2_778
10
33.5491426
20
5.3037065
11
33.5491426
21
2.4970065
0
LINE
8
DEFAULT_255_2_778
10
33.5491426
20
2.4970065
11
23.1785426
21
2.4970065
0
LINE
8
DEFAULT_255_2_778
10
17.6855426
20
84.4792065
11
33.5491426
21
84.4792065
0
LINE
8
DEFAULT_255_2_778
10
33.5491426
20
84.4792065
11
33.5491426
21
87.2859065
0
LINE
8
DEFAULT_255_2_778
10
33.5491426
20
87.2859065
11
17.6855426
21
87.2859065
0
LINE
8
DEFAULT_255_2_778
10
0.1854426
20
73.0653065
11
0.1854426
21
74.6594065
0
LINE
8
DEFAULT_255_2_778
10
1.7750426
20
74.5801065
11
0.1854426
21
74.6594065
0
LINE
8
DEFAULT_255_2_778
10
0.1854426
20
74.6594065
11
1.3361426
21
86.1580065
0
LINE
8
DEFAULT_255_2_778
10
17.6855426
20
87.8627065
11
17.6855426
21
89.8627065
0
LINE
8
DEFAULT_255_2_778
10
17.6855426
20
89.8627065
11
5.5443426
21
89.8627065
0
LINE
8
DEFAULT_255_2_778
10
5.5443426
20
89.8627065
11
5.5374426
21
89.3695065
0
LINE
8
DEFAULT_255_2_778
10
5.5374426
20
89.3695065
11
5.5334426
21
89.0930065
0
LINE
8
DEFAULT_255_2_778
10
5.5334426
20
89.0930065
11
5.5300426
21
88.8699065
0
LINE
8
DEFAULT_255_2_778
10
5.5300426
20
88.8699065
11
5.5221426
21
88.3889065
0
LINE
8
DEFAULT_255_2_778
10
5.5221426
20
88.3889065
11
5.5173426
21
88.1230065
0
LINE
8
DEFAULT_255_2_778
10
5.5173426
20
88.1230065
11
5.5123426
21
87.8627065
0
LINE
8
DEFAULT_255_2_778
10
8.9286426
20
1.8628065
11
8.9286426
21
-0.1371935
0
LINE
8
DEFAULT_255_2_778
10
8.9286426
20
-0.1371935
11
22.1852426
21
-0.1371935
0
LINE
8
DEFAULT_255_2_778
10
22.1852426
20
-0.1371935
11
22.1852426
21
0.2104065
0
LINE
8
DEFAULT_255_2_778
10
22.1852426
20
0.2104065
11
23.1782426
21
0.2104065
0
LINE
8
DEFAULT_255_2_778
10
23.1782426
20
0.2104065
11
23.1782426
21
1.8628065
0
LINE
8
DEFAULT_255_2_778
10
1.3361426
20
86.1580065
11
1.3744426
21
86.1543065
0
LINE
8
DEFAULT_255_2_778
10
1.3744426
20
86.1543065
11
3.3263426
21
85.9590065
0
LINE
8
DEFAULT_255_2_778
10
5.5125426
20
87.8627065
11
17.6855426
21
87.8627065
0
LINE
8
DEFAULT_255_2_778
10
17.6855426
20
87.8627065
11
17.6855426
21
70.3626065
0
LINE
8
DEFAULT_255_2_778
10
17.6855426
20
70.3626065
11
25.1854426
21
63.3625065
0
LINE
8
DEFAULT_255_2_778
10
25.1854426
20
63.3625065
11
25.1854426
21
5.1314065
0
LINE
8
DEFAULT_255_2_778
10
25.1854426
20
5.1314065
11
23.1782426
21
2.9811065
0
LINE
8
DEFAULT_255_2_778
10
23.1782426
20
2.9811065
11
23.1782426
21
1.8625065
0
LINE
8
DEFAULT_255_2_778
10
23.1782426
20
1.8625065
11
8.9286426
21
1.8625065
0
LINE
8
DEFAULT_255_2_778
10
8.9286426
20
1.8625065
11
8.9286426
21
65.1127065
0
LINE
8
DEFAULT_255_2_778
10
2.1354426
20
65.1127065
11
2.1354426
21
74.6126065
0
LINE
8
DEFAULT_255_2_778
10
2.1354426
20
74.6126065
11
8.9354426
21
74.6126065
0
LINE
8
DEFAULT_255_2_778
10
8.9354426
20
74.6126065
11
8.9354426
21
65.1125065
0
LINE
8
DEFAULT_255_2_778
10
8.9354426
20
65.1125065
11
2.1354426
21
65.1125065
0
LINE
8
DEFAULT_255_2_778
10
2.1354426
20
65.1125065
11
0.1354426
21
65.1125065
0
LINE
8
DEFAULT_255_2_778
10
0.1354426
20
65.1125065
11
0.1354426
21
72.6232065
0
LINE
8
DEFAULT_255_2_778
10
0.1354426
20
72.6232065
11
0.1354426
21
72.6232065
0
LINE
8
DEFAULT_255_2_778
10
23.1782426
20
-0.1371935
11
23.1782426
21
2.9814065
0
LINE
8
DEFAULT_255_2_778
10
23.1782426
20
2.9814065
11
25.1854426
21
5.1317065
0
LINE
8
DEFAULT_255_2_778
10
25.1854426
20
5.1317065
11
25.1854426
21
63.3628065
0
LINE
8
DEFAULT_255_2_778
10
25.1854426
20
63.3628065
11
17.6855426
21
70.3626065
0
LINE
8
DEFAULT_255_2_778
10
17.6855426
20
70.3626065
11
17.6855426
21
89.8627065
0
LINE
8
DEFAULT_255_2_778
10
17.6855426
20
89.8627065
11
5.5443426
21
89.8627065
0
LINE
8
DEFAULT_255_2_778
10
1.3361426
20
86.1580065
11
0.1854426
21
74.6594065
0
LINE
8
DEFAULT_255_2_778
10
0.1854426
20
74.6594065
11
0.1854426
21
14.8075065
0
LINE
8
DEFAULT_255_2_778
10
0.1854426
20
14.8075065
11
0.9503426
21
4.3350065
0
LINE
8
DEFAULT_255_2_778
10
5.7620426
20
-0.1371935
11
23.1782426
21
-0.1371935
0
ENDSEC
0
EOF