0
SECTION
2
HEADER
9
$MEASUREMENT
70
1
0
ENDSEC
0
SECTION
2
TABLES
0
TABLE
2
LTYPE
0
LTYPE
72
65
70
64
2
CONTINUOUS
3
______
73
0
40
0
0
ENDTAB
0
TABLE
2
LAYER
0
LAYER
2
DEFAULT_255_2_778
70
0
62
255
6
CONTINUOUS
0
LAYER
2
DEFAULT_255_1_234
70
0
62
255
6
CONTINUOUS
0
ENDTAB
0
ENDSEC
0
SECTION
2
ENTITIES
0
ARC
8
DEFAULT_255_2_778
10
3.5700693
20
36.1176536
40
0.7914215
50
129.1312896
51
180.1450914
0
ARC
8
DEFAULT_255_2_778
10
3.5703345
20
36.1181407
40
0.7912112
50
89.854026
51
129.1684493
0
ARC
8
DEFAULT_255_2_778
10
25.7993937
20
36.1178272
40
0.7915249
50
39.4792447
51
90.147911
0
ARC
8
DEFAULT_255_2_778
10
25.7999935
20
36.1176739
40
0.7911595
50
359.8533901
51
39.5154338
0
ARC
8
DEFAULT_255_2_778
10
25.7996693
20
-1.9863987
40
0.7914836
50
309.4761667
51
0.1482649
0
ARC
8
DEFAULT_255_2_778
10
25.799398
20
-1.9868298
40
0.7913235
50
269.8517415
51
309.511178
0
ARC
8
DEFAULT_255_2_778
10
3.570342
20
-1.9867716
40
0.7913815
50
219.1282118
51
270.1454017
0
ARC
8
DEFAULT_255_2_778
10
3.5700247
20
-1.9863891
40
0.7913769
50
179.8524075
51
219.1641908
0
LINE
8
DEFAULT_255_2_778
10
3.5723503
20
36.9093494
11
25.7973503
21
36.9093494
0
LINE
8
DEFAULT_255_2_778
10
26.5911503
20
36.1156494
11
26.5911503
21
-1.9843506
0
LINE
8
DEFAULT_255_2_778
10
25.7973503
20
-2.7781506
11
3.5723503
21
-2.7781506
0
LINE
8
DEFAULT_255_2_778
10
2.7786503
20
-1.9843506
11
2.7786503
21
36.1156494
0
LINE
8
DEFAULT_255_1_234
10
11.1465292
20
0.5181211
11
11.1465292
21
0.3912196
0
LINE
8
DEFAULT_255_1_234
10
11.1465292
20
0.3912196
11
10.7706439
21
0.3912196
0
LINE
8
DEFAULT_255_1_234
10
10.7706439
20
0.3912196
11
10.7706439
21
-0.6513
0
LINE
8
DEFAULT_255_1_234
10
10.7706439
20
-0.6513
11
10.6172377
21
-0.6513
0
LINE
8
DEFAULT_255_1_234
10
10.6172377
20
-0.6513
11
10.6172377
21
0.3912196
0
LINE
8
DEFAULT_255_1_234
10
10.6172377
20
0.3912196
11
10.2421555
21
0.3912196
0
LINE
8
DEFAULT_255_1_234
10
10.2421555
20
0.3912196
11
10.2421555
21
0.5181211
0
LINE
8
DEFAULT_255_1_234
10
10.2421555
20
0.5181211
11
11.1465292
21
0.5181211
0
LINE
8
DEFAULT_255_1_234
10
11.7697921
20
0.5237433
11
11.7697921
21
-0.6513
0
LINE
8
DEFAULT_255_1_234
10
11.7697921
20
-0.6513
11
11.6204018
21
-0.6513
0
LINE
8
DEFAULT_255_1_234
10
11.6204018
20
-0.6513
11
11.6204018
21
0.3390133
0
LINE
8
DEFAULT_255_1_234
10
11.6204018
20
0.3390133
11
11.320818
21
0.2289785
0
LINE
8
DEFAULT_255_1_234
10
11.320818
20
0.2289785
11
11.320818
21
0.3639117
0
LINE
8
DEFAULT_255_1_234
10
11.320818
20
0.3639117
11
11.7465001
21
0.5237433
0
LINE
8
DEFAULT_255_1_234
10
11.7465001
20
0.5237433
11
11.7697921
21
0.5237433
0
LINE
8
DEFAULT_255_1_234
10
13.1424162
20
0.5181211
11
13.1424162
21
-0.6513
0
LINE
8
DEFAULT_255_1_234
10
13.1424162
20
-0.6513
11
12.9874037
21
-0.6513
0
LINE
8
DEFAULT_255_1_234
10
12.9874037
20
-0.6513
11
12.9874037
21
-0.110764
0
LINE
8
DEFAULT_255_1_234
10
12.9874037
20
-0.110764
11
12.3978741
21
-0.110764
0
LINE
8
DEFAULT_255_1_234
10
12.3978741
20
-0.110764
11
12.3978741
21
-0.6513
0
LINE
8
DEFAULT_255_1_234
10
12.3978741
20
-0.6513
11
12.2436647
21
-0.6513
0
LINE
8
DEFAULT_255_1_234
10
12.2436647
20
-0.6513
11
12.2436647
21
0.5181211
0
LINE
8
DEFAULT_255_1_234
10
12.2436647
20
0.5181211
11
12.3978741
21
0.5181211
0
LINE
8
DEFAULT_255_1_234
10
12.3978741
20
0.5181211
11
12.3978741
21
0.0153343
0
LINE
8
DEFAULT_255_1_234
10
12.3978741
20
0.0153343
11
12.9874037
21
0.0153343
0
LINE
8
DEFAULT_255_1_234
10
12.9874037
20
0.0153343
11
12.9874037
21
0.5181211
0
LINE
8
DEFAULT_255_1_234
10
12.9874037
20
0.5181211
11
13.1424162
21
0.5181211
0
LINE
8
DEFAULT_255_1_234
10
13.7022284
20
-0.0938974
11
13.7022284
21
-0.2151766
0
LINE
8
DEFAULT_255_1_234
10
13.7022284
20
-0.2151766
11
13.3102795
21
-0.2151766
0
LINE
8
DEFAULT_255_1_234
10
13.3102795
20
-0.2151766
11
13.3102795
21
-0.0938974
0
LINE
8
DEFAULT_255_1_234
10
13.3102795
20
-0.0938974
11
13.7022284
21
-0.0938974
0
LINE
8
DEFAULT_255_1_234
10
14.1937708
20
-0.6513
11
13.8700917
21
-0.6513
0
LINE
8
DEFAULT_255_1_234
10
13.8700917
20
-0.6513
11
13.8700917
21
0.5181211
0
LINE
8
DEFAULT_255_1_234
10
13.8700917
20
0.5181211
11
14.2001961
21
0.5181211
0
LINE
8
DEFAULT_255_1_234
10
14.7158337
20
-0.0272339
11
14.7158337
21
-0.1019291
0
LINE
8
DEFAULT_255_1_234
10
14.204212
20
0.3912196
11
14.0243011
21
0.3912196
0
LINE
8
DEFAULT_255_1_234
10
14.0243011
20
0.3912196
11
14.0243011
21
-0.5252017
0
LINE
8
DEFAULT_255_1_234
10
14.0243011
20
-0.5252017
11
14.1865422
21
-0.5252017
0
LINE
8
DEFAULT_255_1_234
10
14.5632307
20
-0.0987164
11
14.5632307
21
-0.0304466
0
ARC
8
DEFAULT_255_1_234
10
14.2040904
20
-0.0684106
40
0.5865446
50
75.4101064
51
90.3804066
0
ARC
8
DEFAULT_255_1_234
10
14.2270418
20
0.0272492
40
0.4881916
50
60.145586
51
75.1888407
0
ARC
8
DEFAULT_255_1_234
10
14.2429193
20
0.0549199
40
0.4562893
50
26.5253612
51
60.1450928
0
ARC
8
DEFAULT_255_1_234
10
14.1308942
20
-0.0044842
40
0.5830602
50
7.4030428
51
26.8320788
0
ARC
8
DEFAULT_255_1_234
10
13.9714699
20
-0.0293196
40
0.7443669
50
0.1605367
51
7.7176192
0
ARC
8
DEFAULT_255_1_234
10
13.9878603
20
-0.1057566
40
0.7279835
50
348.7289388
51
0.3012466
0
ARC
8
DEFAULT_255_1_234
10
14.1535034
20
-0.1386614
40
0.559104
50
333.0706509
51
348.7181832
0
ARC
8
DEFAULT_255_1_234
10
14.2501792
20
-0.1911681
40
0.4491417
50
299.2531685
51
333.4571258
0
ARC
8
DEFAULT_255_1_234
10
14.2140931
20
-0.1226172
40
0.5265881
50
278.107187
51
299.0339503
0
ARC
8
DEFAULT_255_1_234
10
14.188501
20
0.0281216
40
0.679442
50
270.4443897
51
278.4511052
0
ARC
8
DEFAULT_255_1_234
10
14.190584
20
-0.0647787
40
0.4604407
50
269.4970433
51
284.0205042
0
ARC
8
DEFAULT_255_1_234
10
14.2261141
20
-0.2013022
40
0.3193797
50
283.7700273
51
318.1555492
0
ARC
8
DEFAULT_255_1_234
10
14.1923899
20
-0.1760633
40
0.3613588
50
318.7415601
51
343.6873628
0
ARC
8
DEFAULT_255_1_234
10
14.0119923
20
-0.1197168
40
0.5503313
50
343.3325091
51
355.8548958
0
ARC
8
DEFAULT_255_1_234
10
13.8021607
20
-0.0997681
40
0.7610708
50
355.4988528
51
0.0791727
0
ARC
8
DEFAULT_255_1_234
10
13.880423
20
-0.026222
40
0.6828208
50
359.6455037
51
9.8607896
0
ARC
8
DEFAULT_255_1_234
10
14.1164927
20
0.0164099
40
0.4429406
50
9.6571907
51
26.1932807
0
ARC
8
DEFAULT_255_1_234
10
14.2092916
20
0.0595118
40
0.3406537
50
26.5777228
51
40.1532208
0
ARC
8
DEFAULT_255_1_234
10
14.2348642
20
0.0794619
40
0.308246
50
40.3840491
51
80.1431104
0
ARC
8
DEFAULT_255_1_234
10
14.202176
20
-0.0654667
40
0.4566909
50
79.2152159
51
89.7445637
0
LINE
8
DEFAULT_255_1_234
10
14.9487542
20
0.5181211
11
15.1479413
21
0.5181211
0
LINE
8
DEFAULT_255_1_234
10
15.1479413
20
0.5181211
11
15.530252
21
-0.4360494
0
LINE
8
DEFAULT_255_1_234
10
15.530252
20
-0.4360494
11
15.9125627
21
0.5181211
0
LINE
8
DEFAULT_255_1_234
10
15.9125627
20
0.5181211
11
16.112553
21
0.5181211
0
LINE
8
DEFAULT_255_1_234
10
16.112553
20
0.5181211
11
16.112553
21
-0.6513
0
LINE
8
DEFAULT_255_1_234
10
16.112553
20
-0.6513
11
15.9583437
21
-0.6513
0
LINE
8
DEFAULT_255_1_234
10
15.9583437
20
-0.6513
11
15.9583437
21
-0.1959004
0
LINE
8
DEFAULT_255_1_234
10
15.9583437
20
-0.1959004
11
15.9728008
21
0.2956419
0
LINE
8
DEFAULT_255_1_234
10
15.9728008
20
0.2956419
11
15.5888837
21
-0.6513
0
LINE
8
DEFAULT_255_1_234
10
15.5888837
20
-0.6513
11
15.4708171
21
-0.6513
0
LINE
8
DEFAULT_255_1_234
10
15.4708171
20
-0.6513
11
15.0877032
21
0.2932324
0
LINE
8
DEFAULT_255_1_234
10
15.0877032
20
0.2932324
11
15.1029635
21
-0.1959004
0
LINE
8
DEFAULT_255_1_234
10
15.1029635
20
-0.1959004
11
15.1029635
21
-0.6513
0
LINE
8
DEFAULT_255_1_234
10
15.1029635
20
-0.6513
11
14.9487542
21
-0.6513
0
LINE
8
DEFAULT_255_1_234
10
14.9487542
20
-0.6513
11
14.9487542
21
0.5181211
0
LINE
8
DEFAULT_255_1_234
10
16.8346063
20
0.5237433
11
16.8346063
21
-0.6513
0
LINE
8
DEFAULT_255_1_234
10
16.8346063
20
-0.6513
11
16.685216
21
-0.6513
0
LINE
8
DEFAULT_255_1_234
10
16.685216
20
-0.6513
11
16.685216
21
0.3390133
0
LINE
8
DEFAULT_255_1_234
10
16.685216
20
0.3390133
11
16.3856321
21
0.2289785
0
LINE
8
DEFAULT_255_1_234
10
16.3856321
20
0.2289785
11
16.3856321
21
0.3639117
0
LINE
8
DEFAULT_255_1_234
10
16.3856321
20
0.3639117
11
16.8113143
21
0.5237433
0
LINE
8
DEFAULT_255_1_234
10
16.8113143
20
0.5237433
11
16.8346063
21
0.5237433
0
LINE
8
DEFAULT_255_1_234
10
17.9694909
20
0.0153343
11
17.9694909
21
-0.110764
0
LINE
8
DEFAULT_255_1_234
10
17.9694909
20
-0.110764
11
17.4626882
21
-0.110764
0
LINE
8
DEFAULT_255_1_234
10
17.4626882
20
-0.110764
11
17.4626882
21
-0.5252017
0
LINE
8
DEFAULT_255_1_234
10
17.4626882
20
-0.5252017
11
18.0514146
21
-0.5252017
0
LINE
8
DEFAULT_255_1_234
10
18.0514146
20
-0.5252017
11
18.0514146
21
-0.6513
0
LINE
8
DEFAULT_255_1_234
10
18.0514146
20
-0.6513
11
17.3084789
21
-0.6513
0
LINE
8
DEFAULT_255_1_234
10
17.3084789
20
-0.6513
11
17.3084789
21
0.5181211
0
LINE
8
DEFAULT_255_1_234
10
17.3084789
20
0.5181211
11
18.0433829
21
0.5181211
0
LINE
8
DEFAULT_255_1_234
10
18.0433829
20
0.5181211
11
18.0433829
21
0.3912196
0
LINE
8
DEFAULT_255_1_234
10
18.0433829
20
0.3912196
11
17.4626882
21
0.3912196
0
LINE
8
DEFAULT_255_1_234
10
17.4626882
20
0.3912196
11
17.4626882
21
0.0153343
0
LINE
8
DEFAULT_255_1_234
10
17.4626882
20
0.0153343
11
17.9694909
21
0.0153343
0
ARC
8
DEFAULT_255_2_778
10
20.2534188
20
33.2991525
40
0.3580657
50
89.9945037
51
180.0054963
0
ARC
8
DEFAULT_255_2_778
10
20.2534875
20
33.2991525
40
0.3580657
50
359.9945037
51
90.0054963
0
ARC
8
DEFAULT_255_2_778
10
20.2534875
20
33.2990838
40
0.3580657
50
269.9945037
51
0.0054963
0
ARC
8
DEFAULT_255_2_778
10
20.2534188
20
33.2990838
40
0.3580657
50
179.9945037
51
270.0054963
0
ARC
8
DEFAULT_255_2_778
10
22.9622406
20
33.030782
40
2.3282817
50
111.9150345
51
128.7655504
0
ARC
8
DEFAULT_255_2_778
10
22.8791007
20
33.162852
40
2.1733214
50
129.2366206
51
154.7721516
0
ARC
8
DEFAULT_255_2_778
10
23.480657
20
32.8670583
40
2.8435961
50
154.5467617
51
165.9285636
0
ARC
8
DEFAULT_255_2_778
10
23.9646902
20
32.7296212
40
3.3465569
50
165.6609748
51
166.525375
0
ARC
8
DEFAULT_255_2_778
10
21.5282291
20
33.9478171
40
1.414623
50
156.0627036
51
175.7189082
0
ARC
8
DEFAULT_255_2_778
10
22.1164502
20
33.694283
40
2.0551309
50
144.7505594
51
156.2560535
0
ARC
8
DEFAULT_255_2_778
10
22.8861799
20
33.1589863
40
2.9926766
50
137.345293
51
144.8863205
0
ARC
8
DEFAULT_255_2_778
10
23.8131446
20
32.3098407
40
4.2497776
50
131.6389266
51
137.393651
0
ARC
8
DEFAULT_255_2_778
10
24.5393492
20
31.5131248
40
5.3277326
50
130.1334351
51
131.7826198
0
LINE
8
DEFAULT_255_2_778
10
19.8953532
20
33.2991182
11
19.8953532
21
33.2991182
0
LINE
8
DEFAULT_255_2_778
10
21.1052532
20
35.5864182
11
22.0932532
21
35.1908182
0
LINE
8
DEFAULT_255_2_778
10
20.7102532
20
33.5094182
11
20.1175532
21
34.0534182
0
LINE
8
DEFAULT_255_2_778
10
21.1052532
20
35.5864182
11
21.1052532
21
35.5864182
0
ARC
8
DEFAULT_255_2_778
10
13.7594907
20
34.1226437
40
0.8717226
50
88.9281645
51
133.9885749
0
ARC
8
DEFAULT_255_2_778
10
13.7757454
20
33.8975604
40
1.0966534
50
88.9487005
51
89.9972984
0
ARC
8
DEFAULT_255_2_778
10
13.7953
20
34.1930011
40
0.8010283
50
72.1310318
51
89.9594908
0
ARC
8
DEFAULT_255_2_778
10
13.8705373
20
34.4500083
40
0.5333823
50
60.6505783
51
71.3519493
0
ARC
8
DEFAULT_255_2_778
10
13.9543387
20
34.5771349
40
0.3816498
50
20.3938858
51
62.2625554
0
ARC
8
DEFAULT_255_2_778
10
14.9704645
20
34.0891628
40
0.9050345
50
89.7568633
51
136.6758865
0
ARC
8
DEFAULT_255_2_778
10
14.9742773
20
33.9715709
40
1.0226182
50
88.9864436
51
89.9984426
0
ARC
8
DEFAULT_255_2_778
10
14.992248
20
34.210692
40
0.7833372
50
71.373585
51
89.9913488
0
ARC
8
DEFAULT_255_2_778
10
15.0841803
20
34.489542
40
0.489734
50
42.2193789
51
71.1458349
0
ARC
8
DEFAULT_255_2_778
10
15.0590908
20
34.4820658
40
0.5134635
50
8.5226311
51
40.9558105
0
ARC
8
DEFAULT_255_2_778
10
14.7367896
20
34.4168045
40
0.8420446
50
359.6942069
51
9.6641803
0
ARC
8
DEFAULT_255_2_778
10
14.4472507
20
34.4138277
40
1.1315727
50
355.5855084
51
359.923173
0
ARC
8
DEFAULT_255_2_778
10
14.2502845
20
34.3861289
40
0.7547163
50
352.4548626
51
359.7652122
0
ARC
8
DEFAULT_255_2_778
10
14.4078893
20
34.3832192
40
0.5971052
50
359.9824407
51
2.1700815
0
ARC
8
DEFAULT_255_2_778
10
14.8167551
20
34.3990752
40
0.1879327
50
2.0595693
51
88.944897
0
ARC
8
DEFAULT_255_2_778
10
14.7529878
20
34.1117725
40
0.4799353
50
81.9476992
51
88.9638763
0
ARC
8
DEFAULT_255_2_778
10
14.7641352
20
34.1056844
40
0.4859511
50
90.2910974
51
140.7094043
0
ARC
8
DEFAULT_255_2_778
10
14.950423
20
33.9128111
40
0.7529164
50
138.3264016
51
141.8088804
0
ARC
8
DEFAULT_255_2_778
10
13.0111845
20
34.3827289
40
0.7547163
50
352.4548626
51
359.7652122
0
ARC
8
DEFAULT_255_2_778
10
13.1687893
20
34.3798192
40
0.5971052
50
359.9824407
51
2.1700815
0
ARC
8
DEFAULT_255_2_778
10
13.5767327
20
34.3966775
40
0.1888212
50
1.7455696
51
88.6065628
0
ARC
8
DEFAULT_255_2_778
10
13.5151974
20
34.1203897
40
0.469731
50
81.9072271
51
88.8693446
0
ARC
8
DEFAULT_255_2_778
10
13.5126914
20
34.0803568
40
0.5098084
50
88.6765396
51
89.9981553
0
ARC
8
DEFAULT_255_2_778
10
13.5179114
20
34.0839569
40
0.5062351
50
90.5889431
51
134.9317856
0
ARC
8
DEFAULT_255_2_778
10
13.6708307
20
33.8935835
40
0.749469
50
132.9288129
51
135.7848647
0
LINE
8
DEFAULT_255_2_778
10
12.6682663
20
34.9599292
11
13.2005663
21
34.9615292
0
LINE
8
DEFAULT_255_2_778
10
13.2005663
20
34.9615292
11
13.1540663
21
34.7498292
0
LINE
8
DEFAULT_255_2_778
10
15.5754663
20
34.3267292
11
15.5715663
21
34.2839292
0
LINE
8
DEFAULT_255_2_778
10
15.5715663
20
34.2839292
11
15.3386663
21
33.0985292
0
LINE
8
DEFAULT_255_2_778
10
15.3386663
20
33.0985292
11
14.7655663
21
33.0985292
0
LINE
8
DEFAULT_255_2_778
10
14.7655663
20
33.0985292
11
14.9984663
21
34.2870292
0
LINE
8
DEFAULT_255_2_778
10
14.3586663
20
34.3783292
11
14.3525663
21
34.3389292
0
LINE
8
DEFAULT_255_2_778
10
14.3525663
20
34.3389292
11
14.0975663
21
33.0985292
0
LINE
8
DEFAULT_255_2_778
10
14.0975663
20
33.0985292
11
13.5265663
21
33.0985292
0
LINE
8
DEFAULT_255_2_778
10
13.5265663
20
33.0985292
11
13.7593663
21
34.2836292
0
LINE
8
DEFAULT_255_2_778
10
13.1336663
20
34.4162292
11
12.8603663
21
33.0985292
0
LINE
8
DEFAULT_255_2_778
10
12.8603663
20
33.0985292
11
12.2893663
21
33.0985292
0
LINE
8
DEFAULT_255_2_778
10
12.2893663
20
33.0985292
11
12.6679663
21
34.9596292
0
LINE
8
DEFAULT_255_2_778
10
12.6679663
20
34.9596292
11
12.6682663
21
34.9599292
0
ARC
8
DEFAULT_255_2_778
10
16.6196053
20
33.8081974
40
1.1843517
50
72.4959718
51
89.9898173
0
ARC
8
DEFAULT_255_2_778
10
16.6943099
20
34.0710251
40
0.9112583
50
60.3350936
51
72.0051619
0
ARC
8
DEFAULT_255_2_778
10
16.7749673
20
34.1927792
40
0.7656054
50
24.9513793
51
61.0705157
0
ARC
8
DEFAULT_255_2_778
10
16.6824605
20
34.1514093
40
0.8669314
50
359.4887328
51
24.8512384
0
ARC
8
DEFAULT_255_2_778
10
16.4761349
20
34.1450613
40
1.0732233
50
353.5741487
51
359.9259073
0
ARC
8
DEFAULT_255_2_778
10
16.4716228
20
34.1143768
40
1.0747201
50
309.8384697
51
355.2268883
0
ARC
8
DEFAULT_255_2_778
10
16.4133732
20
34.1807792
40
1.1630257
50
274.0087174
51
309.9462649
0
ARC
8
DEFAULT_255_2_778
10
16.3622118
20
34.5488469
40
1.5339783
50
269.9463719
51
274.9539392
0
ARC
8
DEFAULT_255_2_778
10
16.3608389
20
34.6737055
40
1.6588361
50
269.1564
51
269.9978262
0
ARC
8
DEFAULT_255_2_778
10
16.3361786
20
34.1850777
40
1.1700287
50
252.1169151
51
270.0116144
0
ARC
8
DEFAULT_255_2_778
10
16.2640737
20
33.9349983
40
0.9099269
50
240.5370005
51
251.6023302
0
ARC
8
DEFAULT_255_2_778
10
16.1851932
20
33.8136956
40
0.7655666
50
205.2400495
51
241.211713
0
ARC
8
DEFAULT_255_2_778
10
16.2644058
20
33.8508619
40
0.8530649
50
179.5368594
51
205.2293562
0
ARC
8
DEFAULT_255_2_778
10
16.4511104
20
33.8564615
40
1.0397424
50
173.5174505
51
179.9285896
0
ARC
8
DEFAULT_255_2_778
10
16.6391803
20
33.8451625
40
1.2279263
50
153.4099026
51
173.9843619
0
ARC
8
DEFAULT_255_2_778
10
16.479574
20
33.9129316
40
1.0549233
50
129.6863931
51
152.8211827
0
ARC
8
DEFAULT_255_2_778
10
16.5416695
20
33.8424288
40
1.1488354
50
92.7647679
51
129.8242239
0
ARC
8
DEFAULT_255_2_778
10
16.5841385
20
33.4995027
40
1.493635
50
89.9700537
51
93.7575078
0
ARC
8
DEFAULT_255_2_778
10
16.5848078
20
33.3979988
40
1.5951388
50
88.7352629
51
89.9960004
0
ARC
8
DEFAULT_255_2_778
10
16.4400633
20
33.7890898
40
0.4277578
50
179.6036168
51
209.4859363
0
ARC
8
DEFAULT_255_2_778
10
16.339418
20
33.7421704
40
0.3171735
50
211.0570865
51
223.1755117
0
ARC
8
DEFAULT_255_2_778
10
16.3473332
20
33.7601661
40
0.3353476
50
224.4925211
51
268.7887171
0
ARC
8
DEFAULT_255_2_778
10
16.3774447
20
33.9728734
40
0.5492412
50
266.1163412
51
268.8180997
0
ARC
8
DEFAULT_255_2_778
10
16.3835472
20
34.1012785
40
0.6777536
50
268.526223
51
269.9955091
0
ARC
8
DEFAULT_255_2_778
10
16.3990701
20
33.911144
40
0.4878678
50
268.1704265
51
325.4339242
0
ARC
8
DEFAULT_255_2_778
10
16.1704695
20
34.0778456
40
0.7707306
50
324.8706977
51
351.0886768
0
ARC
8
DEFAULT_255_2_778
10
15.7623184
20
34.1567458
40
1.1862684
50
350.3775551
51
0.2885744
0
ARC
8
DEFAULT_255_2_778
10
15.4717188
20
34.1624413
40
1.4768528
50
0.0108339
51
1.7075744
0
ARC
8
DEFAULT_255_2_778
10
16.4934642
20
34.1973667
40
0.4545424
50
1.1449321
51
31.2379075
0
ARC
8
DEFAULT_255_2_778
10
16.5879741
20
34.2442655
40
0.3495266
50
32.6990639
51
41.7808189
0
ARC
8
DEFAULT_255_2_778
10
16.6096806
20
34.2532907
40
0.3274181
50
43.1340936
51
88.7627262
0
ARC
8
DEFAULT_255_2_778
10
16.5789521
20
34.0407982
40
0.541156
50
85.9947762
51
88.8708975
0
ARC
8
DEFAULT_255_2_778
10
16.5725564
20
33.9386831
40
0.6433922
50
88.4806373
51
89.9943348
0
ARC
8
DEFAULT_255_2_778
10
16.5615164
20
34.0925029
40
0.4896983
50
88.700744
51
145.0333048
0
ARC
8
DEFAULT_255_2_778
10
16.7601178
20
33.9392114
40
0.7403948
50
144.1199924
51
170.2822726
0
ARC
8
DEFAULT_255_2_778
10
17.186428
20
33.8521587
40
1.1753635
50
169.6073612
51
180.3524876
0
ARC
8
DEFAULT_255_2_778
10
17.5222715
20
33.8453311
40
1.5111849
50
180.0152873
51
182.0091954
0
LINE
8
DEFAULT_255_2_778
10
16.6200158
20
34.9927491
11
16.6198158
21
34.9925491
0
LINE
8
DEFAULT_255_2_778
10
16.0120158
20
33.7923491
11
16.0123158
21
33.7920491
0
ARC
8
DEFAULT_255_2_778
10
18.587937
20
32.8705854
40
1.642039
50
81.2830361
51
86.628458
0
ARC
8
DEFAULT_255_2_778
10
18.6429757
20
33.7090313
40
0.8018272
50
87.0310432
51
89.8986713
0
ARC
8
DEFAULT_255_2_778
10
18.6242064
20
33.6203997
40
0.8906863
50
88.7012797
51
89.9954117
0
ARC
8
DEFAULT_255_2_778
10
18.6103452
20
33.8646623
40
0.6465738
50
88.765285
51
116.6201427
0
ARC
8
DEFAULT_255_2_778
10
18.5802548
20
33.9486694
40
0.5580924
50
117.7228833
51
138.7756782
0
ARC
8
DEFAULT_255_2_778
10
18.7590475
20
34.3148707
40
0.6980151
50
116.489914
51
143.0810972
0
ARC
8
DEFAULT_255_2_778
10
18.7053938
20
34.3949223
40
0.6025621
50
89.4580016
51
115.3188873
0
ARC
8
DEFAULT_255_2_778
10
18.6965205
20
34.0601885
40
0.9373821
50
77.9674605
51
89.1092017
0
ARC
8
DEFAULT_255_2_778
10
18.6028478
20
33.5296466
40
1.4759175
50
78.008513
51
78.7045202
0
LINE
8
DEFAULT_255_2_778
10
18.9094938
20
34.9736573
11
18.8367938
21
34.4936573
0
LINE
8
DEFAULT_255_2_778
10
18.1604938
20
34.3164573
11
17.9072938
21
33.0985573
0
LINE
8
DEFAULT_255_2_778
10
17.9072938
20
33.0985573
11
17.3362938
21
33.0985573
0
LINE
8
DEFAULT_255_2_778
10
17.3362938
20
33.0985573
11
17.7169938
21
34.9596573
0
LINE
8
DEFAULT_255_2_778
10
17.7169938
20
34.9596573
11
18.2535938
21
34.9612573
0
LINE
8
DEFAULT_255_2_778
10
18.2535938
20
34.9612573
11
18.2009938
21
34.7341573
0
LINE
8
DEFAULT_255_2_778
10
18.9094938
20
34.9733573
11
18.9094938
21
34.9736573
0
ARC
8
DEFAULT_255_2_778
10
19.1571128
20
34.1850762
40
1.1700739
50
250.1384534
51
270.3253519
0
ARC
8
DEFAULT_255_2_778
10
19.1018273
20
34.0042495
40
0.9812659
50
242.0400724
51
249.5873206
0
ARC
8
DEFAULT_255_2_778
10
19.001531
20
33.8458015
40
0.794417
50
208.3292132
51
243.0715083
0
ARC
8
DEFAULT_255_2_778
10
18.9937252
20
33.8367929
40
0.7832826
50
179.5739013
51
208.0201199
0
ARC
8
DEFAULT_255_2_778
10
19.1404713
20
33.8418153
40
0.9300073
50
174.3657638
51
179.9505495
0
ARC
8
DEFAULT_255_2_778
10
19.322969
20
33.8831913
40
1.1082855
50
145.24933
51
173.7565404
0
ARC
8
DEFAULT_255_2_778
10
19.3043239
20
33.9081177
40
1.0788028
50
116.4826416
51
145.7726174
0
ARC
8
DEFAULT_255_2_778
10
19.3348976
20
33.8384316
40
1.1548163
50
89.3335424
51
116.2986099
0
ARC
8
DEFAULT_255_2_778
10
19.3482483
20
33.5960133
40
1.3971563
50
88.7200635
51
89.9966493
0
ARC
8
DEFAULT_255_2_778
10
19.3739264
20
33.8804187
40
1.1124162
50
73.6937809
51
89.7151452
0
ARC
8
DEFAULT_255_2_778
10
19.4851962
20
34.2523827
40
0.7241771
50
40.439997
51
73.880282
0
ARC
8
DEFAULT_255_2_778
10
19.4514712
20
34.2304387
40
0.7640962
50
0.3370816
51
40.0519836
0
ARC
8
DEFAULT_255_2_778
10
19.2137457
20
34.206813
40
1.0022031
50
359.994028
51
1.6078833
0
ARC
8
DEFAULT_255_2_778
10
19.0846833
20
34.2089808
40
1.1312679
50
353.167063
51
359.8849147
0
ARC
8
DEFAULT_255_2_778
10
18.9406155
20
34.2237227
40
1.2760687
50
352.3939633
51
353.279462
0
ARC
8
DEFAULT_255_2_778
10
19.1530478
20
33.7850308
40
0.3604224
50
171.5294964
51
179.9003766
0
ARC
8
DEFAULT_255_2_778
10
19.1259641
20
33.7892602
40
0.3333577
50
180.6192204
51
227.8732743
0
ARC
8
DEFAULT_255_2_778
10
19.2039834
20
34.0500848
40
0.5908529
50
239.3033103
51
268.7295305
0
ARC
8
DEFAULT_255_2_778
10
19.2271224
20
34.2840887
40
0.8255073
50
267.4839269
51
270.0168707
0
ARC
8
DEFAULT_255_2_778
10
19.2268753
20
34.3689158
40
0.9103345
50
270.0308514
51
273.2230324
0
ARC
8
DEFAULT_255_2_778
10
19.2542379
20
33.7077649
40
0.2488861
50
275.4917641
51
302.3582203
0
ARC
8
DEFAULT_255_2_778
10
19.3200418
20
33.5918063
40
0.115896
50
305.561706
51
314.7657745
0
ARC
8
DEFAULT_255_2_778
10
19.3095773
20
33.6246064
40
0.1473882
50
308.6632861
51
359.3837416
0
ARC
8
DEFAULT_255_2_778
10
17.807225
20
35.3472828
40
2.962762
50
318.8021847
51
324.4102292
0
ARC
8
DEFAULT_255_2_778
10
18.7925821
20
34.4789505
40
1.6494092
50
310.4033061
51
318.953359
0
ARC
8
DEFAULT_255_2_778
10
19.3188808
20
33.8523187
40
0.831118
50
295.9312381
51
310.7744109
0
ARC
8
DEFAULT_255_2_778
10
19.4407027
20
33.6234771
40
0.5721233
50
294.3678437
51
294.9811966
0
ARC
8
DEFAULT_255_2_778
10
19.1940828
20
34.3904614
40
1.3756016
50
269.5724547
51
290.5412856
0
ARC
8
DEFAULT_255_2_778
10
19.1838577
20
34.6087488
40
1.5938505
50
269.2881822
51
269.9985732
0
ARC
8
DEFAULT_255_2_778
10
19.3390649
20
34.0221819
40
0.5598634
50
88.7931239
51
89.9984438
0
ARC
8
DEFAULT_255_2_778
10
19.3326983
20
34.1190553
40
0.463034
50
89.2102909
51
125.5845733
0
ARC
8
DEFAULT_255_2_778
10
19.4008068
20
34.0473825
40
0.5611219
50
126.9818839
51
147.669232
0
ARC
8
DEFAULT_255_2_778
10
19.876359
20
33.7276894
40
1.1340353
50
146.870707
51
156.2884785
0
ARC
8
DEFAULT_255_2_778
10
19.2351279
20
34.3055109
40
0.4275542
50
349.7487379
51
359.8271594
0
ARC
8
DEFAULT_255_2_778
10
19.2975857
20
34.304782
40
0.3650948
50
359.9119884
51
9.2266083
0
ARC
8
DEFAULT_255_2_778
10
19.4133961
20
34.3198643
40
0.2483918
50
10.0759194
51
54.8339385
0
ARC
8
DEFAULT_255_2_778
10
19.3593417
20
34.2237413
40
0.3582778
50
56.6210187
51
91.3472693
0
LINE
8
DEFAULT_255_2_778
10
18.2149569
20
33.9331211
11
18.2212569
21
34.0037211
0
LINE
8
DEFAULT_255_2_778
10
20.2054569
20
34.0548211
11
20.1723569
21
33.8381211
0
LINE
8
DEFAULT_255_2_778
10
20.1723569
20
33.8381211
11
18.7965569
21
33.8381211
0
LINE
8
DEFAULT_255_2_778
10
19.4569569
20
33.6230211
11
20.2165569
21
33.6230211
0
LINE
8
DEFAULT_255_2_778
10
18.8380569
20
34.1837211
11
19.6434569
21
34.1837211
0
LINE
8
DEFAULT_255_2_778
10
19.6434569
20
34.1837211
11
19.6558569
21
34.2294211
0
LINE
8
DEFAULT_255_2_778
10
11.4252281
20
34.7705177
11
12.8081281
21
33.9545177
0
LINE
8
DEFAULT_255_2_778
10
12.8081281
20
33.9545177
11
11.2770281
21
33.3611177
0
LINE
8
DEFAULT_255_2_778
10
11.2770281
20
33.3611177
11
11.5979281
21
34.0781177
0
LINE
8
DEFAULT_255_2_778
10
11.5979281
20
34.0781177
11
11.4252281
21
34.7705177
0
ARC
8
DEFAULT_255_2_778
10
7.8633492
20
34.4901349
40
1.734445
50
345.0500681
51
0.450213
0
ARC
8
DEFAULT_255_2_778
10
8.1424128
20
34.4259315
40
1.4482985
50
339.8011311
51
344.6559926
0
ARC
8
DEFAULT_255_2_778
10
8.2241959
20
34.3804595
40
1.3559213
50
318.9869254
51
340.4112117
0
ARC
8
DEFAULT_255_2_778
10
8.3403786
20
34.2925223
40
1.2105876
50
317.7755753
51
318.5188915
0
ARC
8
DEFAULT_255_2_778
10
8.3677776
20
34.2666224
40
1.1728926
50
293.4453171
51
317.8130059
0
ARC
8
DEFAULT_255_2_778
10
8.3381728
20
34.3448502
40
1.2564472
50
269.4376299
51
293.2645473
0
ARC
8
DEFAULT_255_2_778
10
8.6390116
20
34.5529305
40
1.0182316
50
68.112945
51
90.7974227
0
ARC
8
DEFAULT_255_2_778
10
8.6827218
20
34.6882759
40
0.8764035
50
66.6600337
51
67.4660887
0
ARC
8
DEFAULT_255_2_778
10
8.6950616
20
34.7000129
40
0.860764
50
41.8199578
51
67.1046866
0
ARC
8
DEFAULT_255_2_778
10
8.5939144
20
34.6237866
40
0.9870277
50
18.4442061
51
41.2024761
0
ARC
8
DEFAULT_255_2_778
10
8.2913394
20
34.5201986
40
1.3068358
50
359.9236227
51
18.5554774
0
ARC
8
DEFAULT_255_2_778
10
7.9767371
20
34.5037824
40
1.6215036
50
359.9993331
51
0.5185192
0
ARC
8
DEFAULT_255_2_778
10
8.1161265
20
34.5099191
40
1.1556879
50
359.3527282
51
15.3461488
0
ARC
8
DEFAULT_255_2_778
10
8.3555709
20
34.5650091
40
0.9102591
50
15.9909101
51
17.2384514
0
ARC
8
DEFAULT_255_2_778
10
8.5215656
20
34.6284942
40
0.7329962
50
16.3441173
51
39.0583428
0
ARC
8
DEFAULT_255_2_778
10
8.6385861
20
34.7140513
40
0.5882641
50
39.7694118
51
66.0014919
0
ARC
8
DEFAULT_255_2_778
10
8.6052911
20
34.6210083
40
0.6868457
50
66.6208799
51
90.9301944
0
ARC
8
DEFAULT_255_2_778
10
8.3674619
20
34.2160777
40
0.865983
50
269.2774049
51
294.6427005
0
ARC
8
DEFAULT_255_2_778
10
8.3809787
20
34.1680801
40
0.8167574
50
295.184769
51
321.1699914
0
ARC
8
DEFAULT_255_2_778
10
8.188821
20
34.3145326
40
1.0582969
50
321.5163412
51
341.7776814
0
ARC
8
DEFAULT_255_2_778
10
7.8940618
20
34.4300931
40
1.374523
50
341.044332
51
342.4824039
0
ARC
8
DEFAULT_255_2_778
10
7.7898077
20
34.4517334
40
1.4804949
50
342.8981919
51
356.6952858
0
ARC
8
DEFAULT_255_2_778
10
7.2862441
20
34.4954849
40
1.9857973
50
356.2725814
51
0.0484329
0
LINE
8
DEFAULT_255_2_778
10
8.3258407
20
33.0884635
11
7.2765407
21
33.0641635
0
LINE
8
DEFAULT_255_2_778
10
7.2765407
20
33.0641635
11
7.7858407
21
35.5710635
0
LINE
8
DEFAULT_255_2_778
10
7.7858407
20
35.5710635
11
8.6248407
21
35.5710635
0
LINE
8
DEFAULT_255_2_778
10
9.5982407
20
34.5037635
11
9.5977407
21
34.5037635
0
LINE
8
DEFAULT_255_2_778
10
8.5941407
20
35.3077635
11
7.9962407
21
35.2897635
0
LINE
8
DEFAULT_255_2_778
10
7.9962407
20
35.2897635
11
7.6363407
21
33.3115635
0
LINE
8
DEFAULT_255_2_778
10
7.6363407
20
33.3115635
11
8.3565407
21
33.3501635
0
LINE
8
DEFAULT_255_2_778
10
9.2720407
20
34.4971635
11
9.2717407
21
34.4968635
0
ARC
8
DEFAULT_255_2_778
10
10.302374
20
33.892419
40
0.5777251
50
269.3131992
51
298.9193317
0
ARC
8
DEFAULT_255_2_778
10
10.2422898
20
33.9970114
40
0.6983333
50
299.0845099
51
323.1838183
0
ARC
8
DEFAULT_255_2_778
10
10.0730419
20
34.1209915
40
0.9081244
50
323.3206017
51
342.9705556
0
ARC
8
DEFAULT_255_2_778
10
9.9076255
20
34.1784416
40
1.0831324
50
342.6274164
51
0.2324268
0
ARC
8
DEFAULT_255_2_778
10
10.2433391
20
34.1955185
40
0.7475175
50
359.0278167
51
16.1300251
0
ARC
8
DEFAULT_255_2_778
10
10.5672449
20
34.2886392
40
0.4104922
50
16.2042834
51
41.9480466
0
ARC
8
DEFAULT_255_2_778
10
10.5796118
20
34.2804262
40
0.4070383
50
43.9719544
51
85.3997935
0
ARC
8
DEFAULT_255_2_778
10
10.5322186
20
34.0047297
40
0.686108
50
83.300847
51
90.1477804
0
ARC
8
DEFAULT_255_2_778
10
10.5219616
20
34.1094474
40
0.58145
50
89.163628
51
118.6648078
0
ARC
8
DEFAULT_255_2_778
10
10.581079
20
34.0124564
40
0.6949321
50
119.1056578
51
143.2104754
0
ARC
8
DEFAULT_255_2_778
10
10.7542438
20
33.8854766
40
0.9096571
50
143.3373192
51
162.9538381
0
ARC
8
DEFAULT_255_2_778
10
10.9180519
20
33.8284321
40
1.0830106
50
162.6089297
51
180.2167337
0
ARC
8
DEFAULT_255_2_778
10
10.590132
20
33.8116465
40
0.7551896
50
179.037255
51
196.0102976
0
ARC
8
DEFAULT_255_2_778
10
10.2623689
20
33.7181213
40
0.4143448
50
196.0798237
51
221.5429745
0
ARC
8
DEFAULT_255_2_778
10
10.2435386
20
33.7197741
40
0.4015819
50
223.501568
51
264.945498
0
ARC
8
DEFAULT_255_2_778
10
10.2934062
20
33.999923
40
0.6854906
50
262.8561454
51
270.170743
0
ARC
8
DEFAULT_255_2_778
10
10.2496801
20
34.0576733
40
0.993603
50
251.4783364
51
270.6555979
0
ARC
8
DEFAULT_255_2_778
10
10.1671823
20
33.8119369
40
0.7343883
50
228.2272369
51
251.4910714
0
ARC
8
DEFAULT_255_2_778
10
10.1298392
20
33.7612077
40
0.671704
50
202.6960886
51
227.720176
0
ARC
8
DEFAULT_255_2_778
10
10.2495562
20
33.8065656
40
0.7996635
50
179.6456167
51
202.3846702
0
ARC
8
DEFAULT_255_2_778
10
10.5173927
20
33.8227351
40
1.0675438
50
179.9999853
51
180.6023814
0
ARC
8
DEFAULT_255_2_778
10
10.5536721
20
33.829723
40
1.1038452
50
157.230675
51
180.3627006
0
ARC
8
DEFAULT_255_2_778
10
10.5843324
20
33.8201196
40
1.135837
50
135.6908415
51
157.3825693
0
ARC
8
DEFAULT_255_2_778
10
10.5546282
20
33.846815
40
1.0959349
50
113.1058727
51
135.604761
0
ARC
8
DEFAULT_255_2_778
10
10.5551078
20
33.8510049
40
1.0922713
50
89.5047522
51
113.2152626
0
ARC
8
DEFAULT_255_2_778
10
10.5759287
20
33.9479295
40
0.9953709
50
71.5130801
51
90.6550541
0
ARC
8
DEFAULT_255_2_778
10
10.6573575
20
34.1937115
40
0.7364524
50
48.2602918
51
71.4580165
0
ARC
8
DEFAULT_255_2_778
10
10.6956984
20
34.2471961
40
0.6710546
50
22.5497085
51
47.6627683
0
ARC
8
DEFAULT_255_2_778
10
10.5670556
20
34.1978328
40
0.8088011
50
359.0650515
51
22.2845409
0
ARC
8
DEFAULT_255_2_778
10
10.2767028
20
34.1785709
40
1.0990629
50
337.1812514
51
0.316152
0
ARC
8
DEFAULT_255_2_778
10
10.2412655
20
34.1891512
40
1.135837
50
315.6908415
51
337.3825693
0
ARC
8
DEFAULT_255_2_778
10
10.2631229
20
34.1711107
40
1.1075969
50
293.2336194
51
315.5688359
0
ARC
8
DEFAULT_255_2_778
10
10.268874
20
34.1504991
40
1.0863919
50
269.5873092
51
293.383724
0
LINE
8
DEFAULT_255_2_778
10
10.295449
20
33.3144354
11
10.295449
21
33.3147354
0
LINE
8
DEFAULT_255_2_778
10
10.261049
20
33.0641354
11
10.261049
21
33.0641354
0
LINE
8
DEFAULT_255_1_234
10
11.0955292
20
31.6066211
11
11.0955292
21
31.4797196
0
LINE
8
DEFAULT_255_1_234
10
11.0955292
20
31.4797196
11
10.7196439
21
31.4797196
0
LINE
8
DEFAULT_255_1_234
10
10.7196439
20
31.4797196
11
10.7196439
21
30.4372
0
LINE
8
DEFAULT_255_1_234
10
10.7196439
20
30.4372
11
10.5662377
21
30.4372
0
LINE
8
DEFAULT_255_1_234
10
10.5662377
20
30.4372
11
10.5662377
21
31.4797196
0
LINE
8
DEFAULT_255_1_234
10
10.5662377
20
31.4797196
11
10.1911555
21
31.4797196
0
LINE
8
DEFAULT_255_1_234
10
10.1911555
20
31.4797196
11
10.1911555
21
31.6066211
0
LINE
8
DEFAULT_255_1_234
10
10.1911555
20
31.6066211
11
11.0955292
21
31.6066211
0
LINE
8
DEFAULT_255_1_234
10
11.7187921
20
31.6122433
11
11.7187921
21
30.4372
0
LINE
8
DEFAULT_255_1_234
10
11.7187921
20
30.4372
11
11.5694018
21
30.4372
0
LINE
8
DEFAULT_255_1_234
10
11.5694018
20
30.4372
11
11.5694018
21
31.4275133
0
LINE
8
DEFAULT_255_1_234
10
11.5694018
20
31.4275133
11
11.269818
21
31.3174785
0
LINE
8
DEFAULT_255_1_234
10
11.269818
20
31.3174785
11
11.269818
21
31.4524117
0
LINE
8
DEFAULT_255_1_234
10
11.269818
20
31.4524117
11
11.6955001
21
31.6122433
0
LINE
8
DEFAULT_255_1_234
10
11.6955001
20
31.6122433
11
11.7187921
21
31.6122433
0
LINE
8
DEFAULT_255_1_234
10
13.0914162
20
31.6066211
11
13.0914162
21
30.4372
0
LINE
8
DEFAULT_255_1_234
10
13.0914162
20
30.4372
11
12.9364037
21
30.4372
0
LINE
8
DEFAULT_255_1_234
10
12.9364037
20
30.4372
11
12.9364037
21
30.977736
0
LINE
8
DEFAULT_255_1_234
10
12.9364037
20
30.977736
11
12.3468741
21
30.977736
0
LINE
8
DEFAULT_255_1_234
10
12.3468741
20
30.977736
11
12.3468741
21
30.4372
0
LINE
8
DEFAULT_255_1_234
10
12.3468741
20
30.4372
11
12.1926647
21
30.4372
0
LINE
8
DEFAULT_255_1_234
10
12.1926647
20
30.4372
11
12.1926647
21
31.6066211
0
LINE
8
DEFAULT_255_1_234
10
12.1926647
20
31.6066211
11
12.3468741
21
31.6066211
0
LINE
8
DEFAULT_255_1_234
10
12.3468741
20
31.6066211
11
12.3468741
21
31.1038343
0
LINE
8
DEFAULT_255_1_234
10
12.3468741
20
31.1038343
11
12.9364037
21
31.1038343
0
LINE
8
DEFAULT_255_1_234
10
12.9364037
20
31.1038343
11
12.9364037
21
31.6066211
0
LINE
8
DEFAULT_255_1_234
10
12.9364037
20
31.6066211
11
13.0914162
21
31.6066211
0
LINE
8
DEFAULT_255_1_234
10
14.5483735
20
31.2684849
11
14.393361
21
31.2684849
0
LINE
8
DEFAULT_255_1_234
10
13.7010251
20
30.7761394
11
13.8560377
21
30.7761394
0
ARC
8
DEFAULT_255_1_234
10
14.4592423
20
32.1631768
40
1.252368
50
248.9199003
51
254.1439814
0
ARC
8
DEFAULT_255_1_234
10
14.2911918
20
31.7305234
40
0.788226
50
241.633709
51
249.0064503
0
ARC
8
DEFAULT_255_1_234
10
14.1383312
20
31.4504317
40
0.4691427
50
230.498225
51
241.8087113
0
ARC
8
DEFAULT_255_1_234
10
14.0598886
20
31.3504906
40
0.3421437
50
227.4064532
51
229.9881192
0
ARC
8
DEFAULT_255_1_234
10
14.0111407
20
31.3029088
40
0.2741476
50
200.6781896
51
228.1763934
0
ARC
8
DEFAULT_255_1_234
10
14.0183718
20
31.3014077
40
0.2804109
50
179.5061581
51
199.8694617
0
ARC
8
DEFAULT_255_1_234
10
14.0174469
20
31.308821
40
0.2795204
50
132.4834203
51
181.0242172
0
ARC
8
DEFAULT_255_1_234
10
14.0770052
20
31.2525704
40
0.3612768
50
129.2532479
51
133.4242687
0
ARC
8
DEFAULT_255_1_234
10
14.0916501
20
31.2305965
40
0.3875675
50
101.98776
51
128.8742646
0
ARC
8
DEFAULT_255_1_234
10
14.1315112
20
31.0584741
40
0.5642249
50
89.5906553
51
102.3169264
0
ARC
8
DEFAULT_255_1_234
10
14.1385604
20
31.0903148
40
0.5323783
50
77.2360837
51
90.3248275
0
ARC
8
DEFAULT_255_1_234
10
14.1592683
20
31.18704
40
0.4334697
50
63.837784
51
77.0809408
0
ARC
8
DEFAULT_255_1_234
10
14.1870445
20
31.2387911
40
0.3747796
50
45.9864267
51
64.1607727
0
ARC
8
DEFAULT_255_1_234
10
14.2131326
20
31.2685866
40
0.3352302
50
32.2747395
51
45.6547121
0
ARC
8
DEFAULT_255_1_234
10
14.2197767
20
31.270488
40
0.328603
50
359.6507365
51
32.6130309
0
ARC
8
DEFAULT_255_1_234
10
14.1254862
20
31.270966
40
0.2678863
50
359.469343
51
14.9832209
0
ARC
8
DEFAULT_255_1_234
10
14.1959924
20
31.2898539
40
0.1948938
50
14.9781179
51
48.2004265
0
ARC
8
DEFAULT_255_1_234
10
14.1795569
20
31.2691983
40
0.2212521
50
48.5927837
51
74.1241538
0
ARC
8
DEFAULT_255_1_234
10
14.1462058
20
31.1591248
40
0.3362561
50
73.7888341
51
86.6652678
0
ARC
8
DEFAULT_255_1_234
10
14.1359624
20
31.0383881
40
0.4573953
50
86.2640471
51
90.0526343
0
ARC
8
DEFAULT_255_1_234
10
14.1331336
20
31.0779192
40
0.4178709
50
89.6697524
51
99.2309573
0
ARC
8
DEFAULT_255_1_234
10
14.1088787
20
31.2223964
40
0.2713749
50
99.069534
51
113.7658566
0
ARC
8
DEFAULT_255_1_234
10
14.0814978
20
31.2869677
40
0.2012469
50
114.0401004
51
127.9850673
0
ARC
8
DEFAULT_255_1_234
10
14.0574542
20
31.316573
40
0.1631167
50
127.7287463
51
176.7105154
0
ARC
8
DEFAULT_255_1_234
10
14.125326
20
31.3064693
40
0.2315392
50
175.1779447
51
180.0581938
0
ARC
8
DEFAULT_255_1_234
10
14.0410106
20
31.3052428
40
0.1472271
50
179.6142195
51
228.1246017
0
ARC
8
DEFAULT_255_1_234
10
14.0851775
20
31.3461308
40
0.2072299
50
226.5779593
51
230.8800004
0
ARC
8
DEFAULT_255_1_234
10
14.1322854
20
31.4086636
40
0.2854818
50
231.4635071
51
241.9260842
0
ARC
8
DEFAULT_255_1_234
10
14.2520032
20
31.62898
40
0.53622
50
241.7178533
51
248.3259551
0
ARC
8
DEFAULT_255_1_234
10
14.3905404
20
31.9722064
40
0.9063478
50
248.2007737
51
252.4528373
0
ARC
8
DEFAULT_255_1_234
10
14.5109128
20
32.3443441
40
1.2974635
50
252.3391078
51
254.3469452
0
ARC
8
DEFAULT_255_1_234
10
13.7566831
20
29.6466148
40
1.5037162
50
71.0197183
51
74.4087047
0
ARC
8
DEFAULT_255_1_234
10
13.9261516
20
30.1358111
40
0.9859993
50
66.1847285
51
71.086374
0
ARC
8
DEFAULT_255_1_234
10
14.0817829
20
30.48622
40
0.6025855
50
59.3536294
51
66.2691831
0
ARC
8
DEFAULT_255_1_234
10
14.1706481
20
30.6365609
40
0.4279449
50
49.1020879
51
59.3293958
0
ARC
8
DEFAULT_255_1_234
10
14.2525221
20
30.7298834
40
0.3038015
50
32.7919921
51
49.2505539
0
ARC
8
DEFAULT_255_1_234
10
14.2846311
20
30.7527191
40
0.264448
50
31.1181161
51
32.4005348
0
ARC
8
DEFAULT_255_1_234
10
14.2757849
20
30.7491779
40
0.2738556
50
8.1116974
51
30.7958831
0
ARC
8
DEFAULT_255_1_234
10
14.1947517
20
30.7353753
40
0.3560327
50
359.8389159
51
8.4706516
0
ARC
8
DEFAULT_255_1_234
10
14.2573308
20
30.7305137
40
0.2934776
50
337.4731098
51
0.7537279
0
ARC
8
DEFAULT_255_1_234
10
14.2752003
20
30.7285387
40
0.2762607
50
307.5917067
51
336.4315538
0
ARC
8
DEFAULT_255_1_234
10
14.2291831
20
30.7798102
40
0.3449979
50
307.6551545
51
308.4529766
0
ARC
8
DEFAULT_255_1_234
10
14.206155
20
30.815325
40
0.3871988
50
284.3734338
51
307.1424381
0
ARC
8
DEFAULT_255_1_234
10
14.156638
20
30.9974932
40
0.5759636
50
272.4382747
51
284.646547
0
ARC
8
DEFAULT_255_1_234
10
14.1439589
20
31.1774893
40
0.7563528
50
269.9708387
51
272.8178037
0
ARC
8
DEFAULT_255_1_234
10
14.1396628
20
30.9736716
40
0.5525489
50
248.2707594
51
270.4055579
0
ARC
8
DEFAULT_255_1_234
10
14.134237
20
30.9546192
40
0.5328452
50
246.1383403
51
248.0542782
0
ARC
8
DEFAULT_255_1_234
10
14.0923749
20
30.8666843
40
0.4355005
50
233.1670131
51
246.4950969
0
ARC
8
DEFAULT_255_1_234
10
14.0369653
20
30.7918812
40
0.3424126
50
215.3403242
51
233.0843104
0
ARC
8
DEFAULT_255_1_234
10
14.0097085
20
30.7720549
40
0.3087104
50
179.2419209
51
215.2648451
0
ARC
8
DEFAULT_255_1_234
10
14.0864679
20
30.7734666
40
0.2304457
50
179.335461
51
199.1045811
0
ARC
8
DEFAULT_255_1_234
10
14.0532355
20
30.7647766
40
0.1962176
50
199.8828939
51
232.7063202
0
ARC
8
DEFAULT_255_1_234
10
14.1004623
20
30.8241788
40
0.2720938
50
232.3738199
51
255.5136649
0
ARC
8
DEFAULT_255_1_234
10
14.134549
20
30.9485835
40
0.4010747
50
255.2446292
51
267.5320849
0
ARC
8
DEFAULT_255_1_234
10
14.1433113
20
31.0718702
40
0.5246356
50
267.1557994
51
270.0286766
0
ARC
8
DEFAULT_255_1_234
10
14.1460886
20
31.027495
40
0.4802668
50
269.7000017
51
278.1660162
0
ARC
8
DEFAULT_255_1_234
10
14.1716891
20
30.8544515
40
0.3053425
50
278.0231263
51
290.625471
0
ARC
8
DEFAULT_255_1_234
10
14.2064578
20
30.7617025
40
0.206291
50
290.6619762
51
307.0370976
0
ARC
8
DEFAULT_255_1_234
10
14.2364967
20
30.7248504
40
0.1587906
50
306.3943566
51
355.3030547
0
ARC
8
DEFAULT_255_1_234
10
14.1852898
20
30.7325113
40
0.2104809
50
354.3660432
51
0.0698737
0
ARC
8
DEFAULT_255_1_234
10
14.1995243
20
30.7347617
40
0.1962563
50
359.417946
51
16.1971788
0
ARC
8
DEFAULT_255_1_234
10
14.2450554
20
30.7472418
40
0.149053
50
16.4723299
51
52.6262157
0
ARC
8
DEFAULT_255_1_234
10
14.1629608
20
30.6388433
40
0.2850296
50
52.7386432
51
62.4979148
0
ARC
8
DEFAULT_255_1_234
10
14.0244685
20
30.3782283
40
0.5801521
50
62.2515216
51
68.1220564
0
ARC
8
DEFAULT_255_1_234
10
13.8524595
20
29.9554872
40
1.0365451
50
68.0062803
51
71.8053402
0
ARC
8
DEFAULT_255_1_234
10
13.6728967
20
29.4169758
40
1.6042013
50
71.7183119
51
73.9258742
0
LINE
8
DEFAULT_255_1_234
10
14.6873226
20
30.8476218
11
14.6873226
21
30.8749297
0
LINE
8
DEFAULT_255_1_234
10
15.4246362
20
30.8909932
11
15.4246362
21
30.8291488
0
LINE
8
DEFAULT_255_1_234
10
15.4246362
20
30.8291488
11
14.8359098
21
30.8291488
0
LINE
8
DEFAULT_255_1_234
10
15.3226331
20
30.6596792
11
15.4133917
21
30.5889999
0
LINE
8
DEFAULT_255_1_234
10
14.8407288
20
30.9512313
11
15.276049
21
30.9512313
0
LINE
8
DEFAULT_255_1_234
10
15.276049
20
30.9512313
11
15.276049
21
30.9624757
0
ARC
8
DEFAULT_255_1_234
10
15.0812591
20
30.8587332
40
0.4376191
50
252.3266134
51
270.5810217
0
ARC
8
DEFAULT_255_1_234
10
15.060768
20
30.7846644
40
0.3608374
50
223.3000567
51
251.8561855
0
ARC
8
DEFAULT_255_1_234
10
15.0819041
20
30.8051937
40
0.3902993
50
190.9374509
51
223.3654032
0
ARC
8
DEFAULT_255_1_234
10
15.2544013
20
30.8441885
40
0.5670891
50
179.6531105
51
191.4989439
0
ARC
8
DEFAULT_255_1_234
10
15.2666025
20
30.8781417
40
0.5792888
50
167.4007466
51
180.3176909
0
ARC
8
DEFAULT_255_1_234
10
15.1614087
20
30.9003885
40
0.471777
50
154.1835823
51
167.250763
0
ARC
8
DEFAULT_255_1_234
10
15.0982554
20
30.9336417
40
0.4004528
50
134.3149965
51
154.5315275
0
ARC
8
DEFAULT_255_1_234
10
15.0765049
20
30.9527228
40
0.371612
50
122.8616532
51
133.9707695
0
ARC
8
DEFAULT_255_1_234
10
15.0661624
20
30.9749703
40
0.3473289
50
89.8249009
51
123.4199222
0
ARC
8
DEFAULT_255_1_234
10
15.0711665
20
30.9102967
40
0.4120197
50
74.7876118
51
90.5482747
0
ARC
8
DEFAULT_255_1_234
10
15.1005408
20
31.018803
40
0.2996077
50
39.8178249
51
74.7633718
0
ARC
8
DEFAULT_255_1_234
10
15.0492728
20
30.9788351
40
0.3645855
50
16.8990863
51
39.4829761
0
ARC
8
DEFAULT_255_1_234
10
14.8598024
20
30.9181526
40
0.5635218
50
4.9636328
51
17.2026414
0
ARC
8
DEFAULT_255_1_234
10
14.6180095
20
30.892634
40
0.8066286
50
359.8834553
51
5.2834307
0
ARC
8
DEFAULT_255_1_234
10
15.2217619
20
30.8357803
40
0.3859091
50
180.9846213
51
194.9401313
0
ARC
8
DEFAULT_255_1_234
10
15.1167897
20
30.8070849
40
0.2770883
50
194.80314
51
222.0412631
0
ARC
8
DEFAULT_255_1_234
10
15.0863779
20
30.7769116
40
0.2343055
50
221.5417084
51
268.8614402
0
ARC
8
DEFAULT_255_1_234
10
15.0936773
20
30.8445686
40
0.3021528
50
267.732405
51
270.0097136
0
ARC
8
DEFAULT_255_1_234
10
15.0954584
20
30.8647105
40
0.3222994
50
269.6924892
51
280.4117579
0
ARC
8
DEFAULT_255_1_234
10
15.113099
20
30.7728193
40
0.2287344
50
280.2255091
51
298.6338936
0
ARC
8
DEFAULT_255_1_234
10
15.1247782
20
30.7484223
40
0.2017294
50
299.0430333
51
300.4643464
0
ARC
8
DEFAULT_255_1_234
10
15.0567788
20
30.8618038
40
0.3339357
50
300.6577328
51
322.0378878
0
ARC
8
DEFAULT_255_1_234
10
15.0217327
20
30.8922021
40
0.3802736
50
321.6750233
51
322.3046845
0
ARC
8
DEFAULT_255_1_234
10
15.1148288
20
30.775537
40
0.3520454
50
276.9728461
51
328.0035423
0
ARC
8
DEFAULT_255_1_234
10
15.0871341
20
30.9235841
40
0.5024498
50
269.8361028
51
278.0581756
0
ARC
8
DEFAULT_255_1_234
10
15.0644078
20
30.9980757
40
0.202159
50
89.2018686
51
117.2851756
0
ARC
8
DEFAULT_255_1_234
10
15.0697247
20
30.9938752
40
0.2083484
50
118.0551165
51
137.4540413
0
ARC
8
DEFAULT_255_1_234
10
15.1071987
20
30.9598304
40
0.2589774
50
137.5109581
51
158.8516286
0
ARC
8
DEFAULT_255_1_234
10
15.2209823
20
30.9139074
40
0.38167
50
158.5845963
51
170.1721436
0
ARC
8
DEFAULT_255_1_234
10
15.3379212
20
30.8906823
40
0.5008657
50
169.8376422
51
173.0566086
0
ARC
8
DEFAULT_255_1_234
10
14.8682286
20
30.9417509
40
0.4083467
50
2.9091802
51
12.8847116
0
ARC
8
DEFAULT_255_1_234
10
15.0052963
20
30.9740101
40
0.2675383
50
12.6957781
51
28.6404489
0
ARC
8
DEFAULT_255_1_234
10
15.0594633
20
31.0020458
40
0.2065654
50
29.0169854
51
41.1487595
0
ARC
8
DEFAULT_255_1_234
10
15.0797419
20
31.0197003
40
0.1796786
50
41.1646065
51
85.0013516
0
ARC
8
DEFAULT_255_1_234
10
15.0676515
20
30.9462431
40
0.2539726
50
83.7280015
51
90.0964893
0
LINE
8
DEFAULT_255_1_234
10
16.0165753
20
31.3110531
11
16.0165753
21
31.1729072
0
LINE
8
DEFAULT_255_1_234
10
15.7451025
20
31.0540375
11
15.7451025
21
30.4372
0
LINE
8
DEFAULT_255_1_234
10
15.7451025
20
30.4372
11
15.5965154
21
30.4372
0
LINE
8
DEFAULT_255_1_234
10
15.5965154
20
30.4372
11
15.5965154
21
31.3062341
0
LINE
8
DEFAULT_255_1_234
10
15.5965154
20
31.3062341
11
15.7410867
21
31.3062341
0
LINE
8
DEFAULT_255_1_234
10
15.7410867
20
31.3062341
11
15.7434962
21
31.2058374
0
ARC
8
DEFAULT_255_1_234
10
15.9499159
20
30.7669342
40
0.4114092
50
80.6754243
51
86.8932892
0
ARC
8
DEFAULT_255_1_234
10
15.9438693
20
30.67017
40
0.5083596
50
86.8038578
51
90.0431435
0
ARC
8
DEFAULT_255_1_234
10
15.9401674
20
30.9158866
40
0.2626638
50
89.2759698
51
106.6213787
0
ARC
8
DEFAULT_255_1_234
10
15.9197237
20
30.990183
40
0.1856317
50
107.1346045
51
157.6458115
0
ARC
8
DEFAULT_255_1_234
10
15.9888839
20
30.9518311
40
0.2643398
50
155.6586782
51
157.2539184
0
ARC
8
DEFAULT_255_1_234
10
15.9684041
20
31.0687157
40
0.2634121
50
127.8165941
51
148.6302098
0
ARC
8
DEFAULT_255_1_234
10
15.943051
20
31.0947218
40
0.2273596
50
91.3329982
51
126.7875809
0
ARC
8
DEFAULT_255_1_234
10
15.9506451
20
31.0232195
40
0.299078
50
89.986594
51
92.4688449
0
ARC
8
DEFAULT_255_1_234
10
15.9514846
20
31.0507078
40
0.2715908
50
85.3589899
51
90.1623399
0
ARC
8
DEFAULT_255_1_234
10
15.9599361
20
31.1511164
40
0.1708278
50
78.401942
51
85.4594656
0
ARC
8
DEFAULT_255_1_234
10
15.9744245
20
31.2202236
40
0.1002194
50
67.7858312
51
78.5728455
0
ARC
8
DEFAULT_255_1_234
10
15.9852098
20
31.2481887
40
0.0702548
50
63.4835954
51
67.3062642
0
LINE
8
DEFAULT_255_1_234
10
16.3145528
20
31.3062341
11
16.3145528
21
30.4372
0
LINE
8
DEFAULT_255_1_234
10
16.3145528
20
30.4372
11
16.1659656
21
30.4372
0
LINE
8
DEFAULT_255_1_234
10
16.1659656
20
30.4372
11
16.1659656
21
31.3062341
0
LINE
8
DEFAULT_255_1_234
10
16.1659656
20
31.3062341
11
16.3145528
21
31.3062341
0
ARC
8
DEFAULT_255_1_234
10
16.2517805
20
31.5376889
40
0.097867
50
161.415052
51
180.5526306
0
ARC
8
DEFAULT_255_1_234
10
16.2393583
20
31.5411077
40
0.0850062
50
138.1827368
51
160.9307106
0
ARC
8
DEFAULT_255_1_234
10
16.2283529
20
31.5506588
40
0.0704362
50
104.6368899
51
138.0039868
0
ARC
8
DEFAULT_255_1_234
10
16.2390684
20
31.5139963
40
0.1086221
50
92.0600725
51
105.2189128
0
ARC
8
DEFAULT_255_1_234
10
16.2414032
20
31.4797117
40
0.1429728
50
89.9756393
51
92.5012496
0
ARC
8
DEFAULT_255_1_234
10
16.2424051
20
31.5022731
40
0.1204151
50
78.0235316
51
90.4478182
0
ARC
8
DEFAULT_255_1_234
10
16.2516143
20
31.5436295
40
0.0780493
50
55.051506
51
78.3369085
0
ARC
8
DEFAULT_255_1_234
10
16.2566417
20
31.5520711
40
0.0682538
50
42.0501187
51
54.4513741
0
ARC
8
DEFAULT_255_1_234
10
16.2431285
20
31.5396798
40
0.0865878
50
1.7497075
51
42.1496013
0
ARC
8
DEFAULT_255_1_234
10
16.2176617
20
31.5367738
40
0.1121515
50
359.9852656
51
2.8364544
0
ARC
8
DEFAULT_255_1_234
10
16.234261
20
31.5358229
40
0.0955566
50
342.1070653
51
0.552888
0
ARC
8
DEFAULT_255_1_234
10
16.2485307
20
31.5318904
40
0.0807713
50
316.7107116
51
341.6516965
0
ARC
8
DEFAULT_255_1_234
10
16.2552344
20
31.5258823
40
0.0717724
50
285.4397031
51
316.5324284
0
ARC
8
DEFAULT_255_1_234
10
16.2442261
20
31.5624554
40
0.1099597
50
272.3547054
51
285.8953117
0
ARC
8
DEFAULT_255_1_234
10
16.2415419
20
31.5990048
40
0.1465932
50
269.9695369
51
272.8160237
0
ARC
8
DEFAULT_255_1_234
10
16.2405601
20
31.5770863
40
0.1246779
50
258.8431134
51
270.4153935
0
ARC
8
DEFAULT_255_1_234
10
16.2315643
20
31.5335414
40
0.0802162
50
238.5431189
51
259.1288175
0
ARC
8
DEFAULT_255_1_234
10
16.2247528
20
31.5211856
40
0.0661247
50
222.5062634
51
237.9906969
0
ARC
8
DEFAULT_255_1_234
10
16.2375115
20
31.5327889
40
0.0833707
50
184.1069131
51
222.460413
0
ARC
8
DEFAULT_255_1_234
10
16.2644356
20
31.5366349
40
0.1105176
50
179.9429482
51
185.0960898
0
LINE
8
DEFAULT_255_1_234
10
16.5145431
20
30.8476218
11
16.5145431
21
30.8749297
0
LINE
8
DEFAULT_255_1_234
10
17.2518566
20
30.8909932
11
17.2518566
21
30.8291488
0
LINE
8
DEFAULT_255_1_234
10
17.2518566
20
30.8291488
11
16.6631302
21
30.8291488
0
LINE
8
DEFAULT_255_1_234
10
17.1498536
20
30.6596792
11
17.2406122
21
30.5889999
0
LINE
8
DEFAULT_255_1_234
10
16.6679493
20
30.9512313
11
17.1032695
21
30.9512313
0
LINE
8
DEFAULT_255_1_234
10
17.1032695
20
30.9512313
11
17.1032695
21
30.9624757
0
ARC
8
DEFAULT_255_1_234
10
16.9084796
20
30.8587332
40
0.4376191
50
252.3266134
51
270.5810217
0
ARC
8
DEFAULT_255_1_234
10
16.8879885
20
30.7846644
40
0.3608374
50
223.3000567
51
251.8561855
0
ARC
8
DEFAULT_255_1_234
10
16.9091245
20
30.8051937
40
0.3902993
50
190.9374509
51
223.3654032
0
ARC
8
DEFAULT_255_1_234
10
17.0816218
20
30.8441885
40
0.5670891
50
179.6531105
51
191.4989439
0
ARC
8
DEFAULT_255_1_234
10
17.093823
20
30.8781417
40
0.5792888
50
167.4007466
51
180.3176909
0
ARC
8
DEFAULT_255_1_234
10
16.9886292
20
30.9003885
40
0.471777
50
154.1835823
51
167.250763
0
ARC
8
DEFAULT_255_1_234
10
16.9254759
20
30.9336417
40
0.4004528
50
134.3149965
51
154.5315275
0
ARC
8
DEFAULT_255_1_234
10
16.9037254
20
30.9527228
40
0.371612
50
122.8616532
51
133.9707695
0
ARC
8
DEFAULT_255_1_234
10
16.8933828
20
30.9749703
40
0.3473289
50
89.8249009
51
123.4199222
0
ARC
8
DEFAULT_255_1_234
10
16.8983869
20
30.9102967
40
0.4120197
50
74.7876118
51
90.5482747
0
ARC
8
DEFAULT_255_1_234
10
16.9277613
20
31.018803
40
0.2996077
50
39.8178249
51
74.7633718
0
ARC
8
DEFAULT_255_1_234
10
16.8764933
20
30.9788351
40
0.3645855
50
16.8990863
51
39.4829761
0
ARC
8
DEFAULT_255_1_234
10
16.6870229
20
30.9181526
40
0.5635218
50
4.9636328
51
17.2026414
0
ARC
8
DEFAULT_255_1_234
10
16.4452299
20
30.892634
40
0.8066286
50
359.8834553
51
5.2834307
0
ARC
8
DEFAULT_255_1_234
10
17.0489824
20
30.8357803
40
0.3859091
50
180.9846213
51
194.9401313
0
ARC
8
DEFAULT_255_1_234
10
16.9440102
20
30.8070849
40
0.2770883
50
194.80314
51
222.0412631
0
ARC
8
DEFAULT_255_1_234
10
16.9135983
20
30.7769116
40
0.2343055
50
221.5417084
51
268.8614402
0
ARC
8
DEFAULT_255_1_234
10
16.9208978
20
30.8445686
40
0.3021528
50
267.732405
51
270.0097136
0
ARC
8
DEFAULT_255_1_234
10
16.9226788
20
30.8647105
40
0.3222994
50
269.6924892
51
280.4117579
0
ARC
8
DEFAULT_255_1_234
10
16.9403195
20
30.7728193
40
0.2287344
50
280.2255091
51
298.6338936
0
ARC
8
DEFAULT_255_1_234
10
16.9519987
20
30.7484223
40
0.2017294
50
299.0430333
51
300.4643464
0
ARC
8
DEFAULT_255_1_234
10
16.8839992
20
30.8618038
40
0.3339357
50
300.6577328
51
322.0378878
0
ARC
8
DEFAULT_255_1_234
10
16.8489531
20
30.8922021
40
0.3802736
50
321.6750233
51
322.3046845
0
ARC
8
DEFAULT_255_1_234
10
16.9420493
20
30.775537
40
0.3520454
50
276.9728461
51
328.0035423
0
ARC
8
DEFAULT_255_1_234
10
16.9143546
20
30.9235841
40
0.5024498
50
269.8361028
51
278.0581756
0
ARC
8
DEFAULT_255_1_234
10
16.8916283
20
30.9980757
40
0.202159
50
89.2018686
51
117.2851756
0
ARC
8
DEFAULT_255_1_234
10
16.8969452
20
30.9938752
40
0.2083484
50
118.0551165
51
137.4540413
0
ARC
8
DEFAULT_255_1_234
10
16.9344192
20
30.9598304
40
0.2589774
50
137.5109581
51
158.8516286
0
ARC
8
DEFAULT_255_1_234
10
17.0482028
20
30.9139074
40
0.38167
50
158.5845963
51
170.1721436
0
ARC
8
DEFAULT_255_1_234
10
17.1651417
20
30.8906823
40
0.5008657
50
169.8376422
51
173.0566086
0
ARC
8
DEFAULT_255_1_234
10
16.6954491
20
30.9417509
40
0.4083467
50
2.9091802
51
12.8847116
0
ARC
8
DEFAULT_255_1_234
10
16.8325167
20
30.9740101
40
0.2675383
50
12.6957781
51
28.6404489
0
ARC
8
DEFAULT_255_1_234
10
16.8866838
20
31.0020458
40
0.2065654
50
29.0169854
51
41.1487595
0
ARC
8
DEFAULT_255_1_234
10
16.9069623
20
31.0197003
40
0.1796786
50
41.1646065
51
85.0013516
0
ARC
8
DEFAULT_255_1_234
10
16.894872
20
30.9462431
40
0.2539726
50
83.7280015
51
90.0964893
0
LINE
8
DEFAULT_255_1_234
10
18.0702908
20
31.0508248
11
17.9209004
21
31.0508248
0
LINE
8
DEFAULT_255_1_234
10
17.387593
20
30.7046569
11
17.5361802
21
30.7046569
0
ARC
8
DEFAULT_255_1_234
10
17.8020823
20
30.6691959
40
0.1276617
50
359.3334982
51
18.5871358
0
ARC
8
DEFAULT_255_1_234
10
17.822946
20
30.6747133
40
0.1061371
50
19.3540742
51
54.6485071
0
ARC
8
DEFAULT_255_1_234
10
17.7725362
20
30.6051919
40
0.1920087
50
54.3827097
51
65.0622807
0
ARC
8
DEFAULT_255_1_234
10
17.6956759
20
30.44349
40
0.3710447
50
64.8282493
51
71.4200025
0
ARC
8
DEFAULT_255_1_234
10
17.6054634
20
30.1788107
40
0.6506741
50
71.3164301
51
75.8006402
0
ARC
8
DEFAULT_255_1_234
10
17.5213454
20
29.8547561
40
0.9854641
50
75.6809531
51
78.0061883
0
ARC
8
DEFAULT_255_1_234
10
17.9661987
20
31.952677
40
1.1591028
50
254.6901892
51
258.0466452
0
ARC
8
DEFAULT_255_1_234
10
17.8623896
20
31.5767781
40
0.7691345
50
249.9010773
51
254.755261
0
ARC
8
DEFAULT_255_1_234
10
17.7620238
20
31.3041982
40
0.478665
50
243.3097214
51
249.9709442
0
ARC
8
DEFAULT_255_1_234
10
17.6991259
20
31.1787778
40
0.3383568
50
234.4047477
51
243.2862168
0
ARC
8
DEFAULT_255_1_234
10
17.6368782
20
31.0928232
40
0.2322322
50
220.8667099
51
234.5493881
0
ARC
8
DEFAULT_255_1_234
10
17.6026723
20
31.0616817
40
0.1859923
50
214.3062465
51
220.5065136
0
ARC
8
DEFAULT_255_1_234
10
17.6000802
20
31.058588
40
0.1821108
50
186.912965
51
213.9618616
0
ARC
8
DEFAULT_255_1_234
10
17.6532897
20
31.0672009
40
0.2359799
50
179.8808832
51
187.4339886
0
ARC
8
DEFAULT_255_1_234
10
17.6378031
20
31.0692088
40
0.2204978
50
132.005434
51
180.3942919
0
ARC
8
DEFAULT_255_1_234
10
17.7034644
20
31.0086083
40
0.3095791
50
129.2319861
51
133.5302299
0
ARC
8
DEFAULT_255_1_234
10
17.7088152
20
30.9991928
40
0.3202615
50
100.4410011
51
128.9081242
0
ARC
8
DEFAULT_255_1_234
10
17.7362036
20
30.8706455
40
0.4516583
50
89.6985377
51
100.9026564
0
ARC
8
DEFAULT_255_1_234
10
17.7419078
20
30.8546166
40
0.4676928
50
77.6965325
51
90.4076836
0
ARC
8
DEFAULT_255_1_234
10
17.7750062
20
30.9973413
40
0.3211988
50
50.7276602
51
78.0399361
0
ARC
8
DEFAULT_255_1_234
10
17.819452
20
31.0491296
40
0.2529778
50
25.7545084
51
51.0957453
0
ARC
8
DEFAULT_255_1_234
10
17.8195745
20
31.0541206
40
0.250738
50
359.2468627
51
24.7394243
0
ARC
8
DEFAULT_255_1_234
10
17.7911197
20
31.0512664
40
0.1297815
50
359.8050318
51
45.1544908
0
ARC
8
DEFAULT_255_1_234
10
17.7504339
20
31.0164794
40
0.1831883
50
43.8047702
51
49.6271585
0
ARC
8
DEFAULT_255_1_234
10
17.751224
20
31.0165678
40
0.18261
50
49.7980766
51
82.1218353
0
ARC
8
DEFAULT_255_1_234
10
17.7393212
20
30.9518998
40
0.2483163
50
81.4465357
51
90.1710293
0
ARC
8
DEFAULT_255_1_234
10
17.7368815
20
30.899288
40
0.300932
50
89.6766211
51
99.1264602
0
ARC
8
DEFAULT_255_1_234
10
17.7197277
20
31.0026537
40
0.1961547
50
98.968313
51
113.4570237
0
ARC
8
DEFAULT_255_1_234
10
17.7001362
20
31.0494965
40
0.1453859
50
113.722589
51
127.4763106
0
ARC
8
DEFAULT_255_1_234
10
17.6833008
20
31.0695124
40
0.1192639
50
126.9083309
51
150.3165862
0
ARC
8
DEFAULT_255_1_234
10
17.6785341
20
31.0745981
40
0.112623
50
151.3635175
51
180.0701457
0
ARC
8
DEFAULT_255_1_234
10
17.7094126
20
31.072499
40
0.1435149
50
179.2169974
51
179.9954013
0
ARC
8
DEFAULT_255_1_234
10
17.6733183
20
31.0712056
40
0.1074286
50
179.3040112
51
198.4225446
0
ARC
8
DEFAULT_255_1_234
10
17.6541316
20
31.0662127
40
0.0876573
50
199.2895851
51
238.6034594
0
ARC
8
DEFAULT_255_1_234
10
17.7144163
20
31.160845
40
0.1998512
50
237.9846301
51
246.8744712
0
ARC
8
DEFAULT_255_1_234
10
17.8002108
20
31.3571205
40
0.4140547
50
246.6234531
51
251.8168941
0
ARC
8
DEFAULT_255_1_234
10
17.9032651
20
31.6665905
40
0.7402308
50
251.713434
51
255.0778414
0
ARC
8
DEFAULT_255_1_234
10
18.0231914
20
32.1132563
40
1.2027155
50
255.0367487
51
257.4705983
0
ARC
8
DEFAULT_255_1_234
10
17.5123924
20
29.8118863
40
1.1546601
50
73.6837552
51
77.5016755
0
ARC
8
DEFAULT_255_1_234
10
17.6212699
20
30.1818581
40
0.7690009
50
68.7044154
51
73.7249639
0
ARC
8
DEFAULT_255_1_234
10
17.711572
20
30.4145654
40
0.5193873
50
63.590599
51
68.6626804
0
ARC
8
DEFAULT_255_1_234
10
17.7886738
20
30.5683123
40
0.3473927
50
54.7106439
51
63.7013633
0
ARC
8
DEFAULT_255_1_234
10
17.8511193
20
30.65554
40
0.2401192
50
41.0622434
51
54.8487496
0
ARC
8
DEFAULT_255_1_234
10
17.8852579
20
30.6868592
40
0.1938094
50
34.4950568
51
40.7105546
0
ARC
8
DEFAULT_255_1_234
10
17.8899387
20
30.6917078
40
0.1872106
50
9.3763373
51
34.0833615
0
ARC
8
DEFAULT_255_1_234
10
17.8246257
20
30.6791728
40
0.2536988
50
359.7694872
51
9.7663171
0
ARC
8
DEFAULT_255_1_234
10
17.8443758
20
30.6748764
40
0.2339696
50
335.8654732
51
0.8022045
0
ARC
8
DEFAULT_255_1_234
10
17.8518802
20
30.6762197
40
0.2277108
50
307.7357725
51
334.7849066
0
ARC
8
DEFAULT_255_1_234
10
17.8117978
20
30.7212645
40
0.2878951
50
307.0241536
51
308.5578354
0
ARC
8
DEFAULT_255_1_234
10
17.7860309
20
30.7598801
40
0.3342515
50
282.9362969
51
306.5646424
0
ARC
8
DEFAULT_255_1_234
10
17.7498607
20
30.9066108
40
0.4853615
50
271.1026298
51
283.2200835
0
ARC
8
DEFAULT_255_1_234
10
17.7434851
20
31.0307418
40
0.6096052
50
269.9919117
51
271.4772449
0
ARC
8
DEFAULT_255_1_234
10
17.7408606
20
30.9229436
40
0.5018135
50
259.0723564
51
270.289833
0
ARC
8
DEFAULT_255_1_234
10
17.7196338
20
30.8112271
40
0.388099
50
245.4963068
51
259.0227342
0
ARC
8
DEFAULT_255_1_234
10
17.6918294
20
30.7530615
40
0.3236422
50
228.9684658
51
245.7044727
0
ARC
8
DEFAULT_255_1_234
10
17.6652738
20
30.7203575
40
0.2815426
50
214.4011705
51
228.6759915
0
ARC
8
DEFAULT_255_1_234
10
17.6363479
20
30.704529
40
0.2487548
50
179.9705531
51
215.1572795
0
ARC
8
DEFAULT_255_1_234
10
17.7064078
20
30.7118806
40
0.1703809
50
182.4299387
51
203.0329699
0
ARC
8
DEFAULT_255_1_234
10
17.6879736
20
30.7062396
40
0.1512226
50
203.798802
51
232.548466
0
ARC
8
DEFAULT_255_1_234
10
17.7156257
20
30.7413826
40
0.1959374
50
232.3782728
51
256.3934612
0
ARC
8
DEFAULT_255_1_234
10
17.7386619
20
30.8303842
40
0.2878639
50
256.104506
51
268.4626716
0
ARC
8
DEFAULT_255_1_234
10
17.7433103
20
30.9100487
40
0.3676329
50
268.0715632
51
270.0138206
0
ARC
8
DEFAULT_255_1_234
10
17.7451628
20
30.8828083
40
0.3403971
50
269.7031147
51
278.8341955
0
ARC
8
DEFAULT_255_1_234
10
17.7633721
20
30.7697876
40
0.2259217
50
278.6728789
51
292.8232582
0
ARC
8
DEFAULT_255_1_234
10
17.783426
20
30.7196449
40
0.171929
50
293.1452328
51
303.6655899
0
ARC
8
DEFAULT_255_1_234
10
17.8099138
20
30.6820204
40
0.1259367
50
303.1248165
51
321.742847
0
ARC
8
DEFAULT_255_1_234
10
17.8285019
20
30.6657156
40
0.1012531
50
322.4748573
51
1.1291126
0
LINE
8
DEFAULT_255_1_234
10
4.9274119
20
28.5741792
11
4.9274119
21
28.4529
0
LINE
8
DEFAULT_255_1_234
10
4.9274119
20
28.4529
11
4.161184
21
28.4529
0
LINE
8
DEFAULT_255_1_234
10
4.161184
20
28.4529
11
4.161184
21
28.5597221
0
LINE
8
DEFAULT_255_1_234
10
4.161184
20
28.5597221
11
4.5659836
21
29.0094995
0
LINE
8
DEFAULT_255_1_234
10
4.2872823
20
29.2777595
11
4.1386952
21
29.2777595
0
LINE
8
DEFAULT_255_1_234
10
4.6535296
20
28.9139218
11
4.3402918
21
28.5741792
0
LINE
8
DEFAULT_255_1_234
10
4.3402918
20
28.5741792
11
4.9274119
21
28.5741792
0
ARC
8
DEFAULT_255_1_234
10
3.216967
20
30.2024527
40
1.8008286
50
318.5132453
51
320.7828378
0
ARC
8
DEFAULT_255_1_234
10
3.7456644
20
29.7721426
40
1.1191493
50
320.7372736
51
323.9737074
0
ARC
8
DEFAULT_255_1_234
10
4.1376501
20
29.4881361
40
0.6350923
50
323.8961724
51
328.6421089
0
ARC
8
DEFAULT_255_1_234
10
4.3423096
20
29.3619031
40
0.3946393
50
328.8299013
51
331.789948
0
ARC
8
DEFAULT_255_1_234
10
4.4420274
20
29.3104509
40
0.2824501
50
331.4255242
51
352.9364833
0
ARC
8
DEFAULT_255_1_234
10
4.4556775
20
29.3073976
40
0.2685315
50
353.2248685
51
0.0169286
0
ARC
8
DEFAULT_255_1_234
10
4.4766652
20
29.309695
40
0.2475536
50
359.4866256
51
15.9339782
0
ARC
8
DEFAULT_255_1_234
10
4.5273637
20
29.3233286
40
0.1950618
50
16.1714718
51
43.5284424
0
ARC
8
DEFAULT_255_1_234
10
4.5350946
20
29.3310573
40
0.184134
50
43.4415429
51
83.1661404
0
ARC
8
DEFAULT_255_1_234
10
4.5216864
20
29.2573771
40
0.258926
50
82.160215
51
90.1505798
0
ARC
8
DEFAULT_255_1_234
10
4.5185291
20
29.2036865
40
0.3126255
50
89.5460705
51
102.5418777
0
ARC
8
DEFAULT_255_1_234
10
4.4942377
20
29.3067665
40
0.2067346
50
102.1739365
51
129.2061916
0
ARC
8
DEFAULT_255_1_234
10
4.4863449
20
29.3192094
40
0.1921118
50
129.7279328
51
135.7542026
0
ARC
8
DEFAULT_255_1_234
10
4.4984977
20
29.3095045
40
0.2075944
50
136.175737
51
166.3674722
0
ARC
8
DEFAULT_255_1_234
10
4.5991896
20
29.2825182
40
0.3118201
50
165.9092917
51
178.8683903
0
ARC
8
DEFAULT_255_1_234
10
4.6856757
20
29.2778179
40
0.3983935
50
178.438168
51
180.0083905
0
ARC
8
DEFAULT_255_1_234
10
4.5455359
20
29.2817231
40
0.4068601
50
163.2878735
51
180.5581814
0
ARC
8
DEFAULT_255_1_234
10
4.4653621
20
29.303784
40
0.3237344
50
133.454115
51
162.9470031
0
ARC
8
DEFAULT_255_1_234
10
4.4832162
20
29.2848
40
0.349795
50
100.7869394
51
133.4384016
0
ARC
8
DEFAULT_255_1_234
10
4.5179934
20
29.1299319
40
0.5084616
50
89.6605301
51
101.3704185
0
ARC
8
DEFAULT_255_1_234
10
4.5246273
20
29.1360496
40
0.502348
50
78.2171172
51
90.4130393
0
ARC
8
DEFAULT_255_1_234
10
4.5601351
20
29.2984637
40
0.3361092
50
55.9268222
51
78.4888551
0
ARC
8
DEFAULT_255_1_234
10
4.5797791
20
29.3323324
40
0.2970617
50
47.9292255
51
55.4054003
0
ARC
8
DEFAULT_255_1_234
10
4.5899352
20
29.3426502
40
0.2825983
50
4.3347696
51
48.0560701
0
ARC
8
DEFAULT_255_1_234
10
4.4803745
20
29.3256601
40
0.393225
50
359.925209
51
5.5967654
0
ARC
8
DEFAULT_255_1_234
10
4.5232637
20
29.3312816
40
0.3503892
50
337.8914096
51
358.9967724
0
ARC
8
DEFAULT_255_1_234
10
4.2519049
20
29.4359706
40
0.6412172
50
326.9135351
51
338.3505194
0
ARC
8
DEFAULT_255_1_234
10
3.8533353
20
29.6914284
40
1.1146189
50
319.6472867
51
327.095818
0
ARC
8
DEFAULT_255_1_234
10
3.4700356
20
30.0076
40
1.6114559
50
317.2586784
51
319.9046139
0
LINE
8
DEFAULT_255_1_234
10
5.7121127
20
29.6223211
11
5.7121127
21
28.845652
0
LINE
8
DEFAULT_255_1_234
10
5.7121127
20
28.845652
11
5.8743538
21
28.845652
0
LINE
8
DEFAULT_255_1_234
10
5.8743538
20
28.845652
11
5.8743538
21
28.7243728
0
LINE
8
DEFAULT_255_1_234
10
5.8743538
20
28.7243728
11
5.7121127
21
28.7243728
0
LINE
8
DEFAULT_255_1_234
10
5.7121127
20
28.7243728
11
5.7121127
21
28.4529
0
LINE
8
DEFAULT_255_1_234
10
5.7121127
20
28.4529
11
5.5627224
21
28.4529
0
LINE
8
DEFAULT_255_1_234
10
5.5627224
20
28.4529
11
5.5627224
21
28.7243728
0
LINE
8
DEFAULT_255_1_234
10
5.5627224
20
28.7243728
11
5.0302181
21
28.7243728
0
LINE
8
DEFAULT_255_1_234
10
5.0302181
20
28.7243728
11
5.0302181
21
28.8119187
0
LINE
8
DEFAULT_255_1_234
10
5.0302181
20
28.8119187
11
5.5538875
21
29.6223211
0
LINE
8
DEFAULT_255_1_234
10
5.5538875
20
29.6223211
11
5.7121127
21
29.6223211
0
LINE
8
DEFAULT_255_1_234
10
5.5450525
20
29.3869912
11
5.1988846
21
28.845652
0
LINE
8
DEFAULT_255_1_234
10
5.1988846
20
28.845652
11
5.5627224
21
28.845652
0
LINE
8
DEFAULT_255_1_234
10
5.5627224
20
28.845652
11
5.5627224
21
29.4191181
0
LINE
8
DEFAULT_255_1_234
10
5.5627224
20
29.4191181
11
5.5450525
21
29.3869912
0
LINE
8
DEFAULT_255_1_234
10
6.101652
20
29.6223211
11
6.434166
21
28.6577093
0
LINE
8
DEFAULT_255_1_234
10
6.434166
20
28.6577093
11
6.7682863
21
29.6223211
0
LINE
8
DEFAULT_255_1_234
10
6.7682863
20
29.6223211
11
6.9369528
21
29.6223211
0
LINE
8
DEFAULT_255_1_234
10
6.9369528
20
29.6223211
11
6.5032389
21
28.4529
0
LINE
8
DEFAULT_255_1_234
10
6.5032389
20
28.4529
11
6.3666994
21
28.4529
0
LINE
8
DEFAULT_255_1_234
10
6.3666994
20
28.4529
11
5.9337887
21
29.6223211
0
LINE
8
DEFAULT_255_1_234
10
5.9337887
20
29.6223211
11
6.101652
21
29.6223211
0
LINE
8
DEFAULT_255_1_234
10
4.8291484
20
5.3070343
11
4.8291484
21
5.180936
0
LINE
8
DEFAULT_255_1_234
10
4.8291484
20
5.180936
11
4.3223458
21
5.180936
0
LINE
8
DEFAULT_255_1_234
10
4.3223458
20
5.180936
11
4.3223458
21
4.7664983
0
LINE
8
DEFAULT_255_1_234
10
4.3223458
20
4.7664983
11
4.9110722
21
4.7664983
0
LINE
8
DEFAULT_255_1_234
10
4.9110722
20
4.7664983
11
4.9110722
21
4.6404
0
LINE
8
DEFAULT_255_1_234
10
4.9110722
20
4.6404
11
4.1681364
21
4.6404
0
LINE
8
DEFAULT_255_1_234
10
4.1681364
20
4.6404
11
4.1681364
21
5.8098211
0
LINE
8
DEFAULT_255_1_234
10
4.1681364
20
5.8098211
11
4.9030404
21
5.8098211
0
LINE
8
DEFAULT_255_1_234
10
4.9030404
20
5.8098211
11
4.9030404
21
5.6829196
0
LINE
8
DEFAULT_255_1_234
10
4.9030404
20
5.6829196
11
4.3223458
21
5.6829196
0
LINE
8
DEFAULT_255_1_234
10
4.3223458
20
5.6829196
11
4.3223458
21
5.3070343
0
LINE
8
DEFAULT_255_1_234
10
4.3223458
20
5.3070343
11
4.8291484
21
5.3070343
0
LINE
8
DEFAULT_255_1_234
10
5.9270871
20
5.8098211
11
5.9270871
21
5.6829196
0
LINE
8
DEFAULT_255_1_234
10
5.9270871
20
5.6829196
11
5.5512017
21
5.6829196
0
LINE
8
DEFAULT_255_1_234
10
5.5512017
20
5.6829196
11
5.5512017
21
4.6404
0
LINE
8
DEFAULT_255_1_234
10
5.5512017
20
4.6404
11
5.3977955
21
4.6404
0
LINE
8
DEFAULT_255_1_234
10
5.3977955
20
4.6404
11
5.3977955
21
5.6829196
0
LINE
8
DEFAULT_255_1_234
10
5.3977955
20
5.6829196
11
5.0227133
21
5.6829196
0
LINE
8
DEFAULT_255_1_234
10
5.0227133
20
5.6829196
11
5.0227133
21
5.8098211
0
LINE
8
DEFAULT_255_1_234
10
5.0227133
20
5.8098211
11
5.9270871
21
5.8098211
0
LINE
8
DEFAULT_255_1_234
10
6.9993241
20
5.8098211
11
6.9993241
21
4.6404
0
LINE
8
DEFAULT_255_1_234
10
6.9993241
20
4.6404
11
6.8443116
21
4.6404
0
LINE
8
DEFAULT_255_1_234
10
6.8443116
20
4.6404
11
6.8443116
21
5.180936
0
LINE
8
DEFAULT_255_1_234
10
6.8443116
20
5.180936
11
6.254782
21
5.180936
0
LINE
8
DEFAULT_255_1_234
10
6.254782
20
5.180936
11
6.254782
21
4.6404
0
LINE
8
DEFAULT_255_1_234
10
6.254782
20
4.6404
11
6.1005726
21
4.6404
0
LINE
8
DEFAULT_255_1_234
10
6.1005726
20
4.6404
11
6.1005726
21
5.8098211
0
LINE
8
DEFAULT_255_1_234
10
6.1005726
20
5.8098211
11
6.254782
21
5.8098211
0
LINE
8
DEFAULT_255_1_234
10
6.254782
20
5.8098211
11
6.254782
21
5.3070343
0
LINE
8
DEFAULT_255_1_234
10
6.254782
20
5.3070343
11
6.8443116
21
5.3070343
0
LINE
8
DEFAULT_255_1_234
10
6.8443116
20
5.3070343
11
6.8443116
21
5.8098211
0
LINE
8
DEFAULT_255_1_234
10
6.8443116
20
5.8098211
11
6.9993241
21
5.8098211
0
LINE
8
DEFAULT_255_1_234
10
4.9632341
20
12.5779
11
4.7094312
21
13.0509694
0
LINE
8
DEFAULT_255_1_234
10
4.7094312
20
13.0509694
11
4.4347458
21
13.0509694
0
LINE
8
DEFAULT_255_1_234
10
4.4347458
20
13.0509694
11
4.4347458
21
12.5779
0
LINE
8
DEFAULT_255_1_234
10
4.4347458
20
12.5779
11
4.2797332
21
12.5779
0
LINE
8
DEFAULT_255_1_234
10
4.2797332
20
12.5779
11
4.2797332
21
13.7473211
0
LINE
8
DEFAULT_255_1_234
10
4.2797332
20
13.7473211
11
4.666863
21
13.7473211
0
LINE
8
DEFAULT_255_1_234
10
4.8540025
20
13.0838995
11
5.1286879
21
12.5875381
0
LINE
8
DEFAULT_255_1_234
10
5.1286879
20
12.5875381
11
5.1286879
21
12.5779
0
LINE
8
DEFAULT_255_1_234
10
5.1286879
20
12.5779
11
4.9632341
21
12.5779
0
LINE
8
DEFAULT_255_1_234
10
4.4347458
20
13.6204196
11
4.4347458
21
13.1770677
0
LINE
8
DEFAULT_255_1_234
10
4.4347458
20
13.1770677
11
4.671682
21
13.1770677
0
LINE
8
DEFAULT_255_1_234
10
4.6708789
20
13.6204196
11
4.4347458
21
13.6204196
0
ARC
8
DEFAULT_255_1_234
10
4.6710269
20
13.0511761
40
0.6961575
50
80.653586
51
90.3427061
0
ARC
8
DEFAULT_255_1_234
10
4.7129744
20
13.2974348
40
0.4463577
50
65.6987447
51
80.8329603
0
ARC
8
DEFAULT_255_1_234
10
4.7607385
20
13.4069322
40
0.3269094
50
50.0017161
51
65.4305835
0
ARC
8
DEFAULT_255_1_234
10
4.7825849
20
13.4364482
40
0.2902647
50
11.628416
51
49.5603263
0
ARC
8
DEFAULT_255_1_234
10
4.6290185
20
13.3989299
40
0.4482792
50
359.5655735
51
12.3691
0
ARC
8
DEFAULT_255_1_234
10
4.7367045
20
13.3926644
40
0.3405924
50
341.9983148
51
0.4822259
0
ARC
8
DEFAULT_255_1_234
10
4.7761885
20
13.3819471
40
0.2997359
50
323.8609373
51
341.61416
0
ARC
8
DEFAULT_255_1_234
10
4.7460129
20
13.4052484
40
0.3378487
50
296.7018614
51
323.6876402
0
ARC
8
DEFAULT_255_1_234
10
4.7019024
20
13.4841235
40
0.4281516
50
290.8086567
51
297.2323311
0
ARC
8
DEFAULT_255_1_234
10
4.6742554
20
13.5364351
40
0.3593766
50
269.589728
51
281.8058135
0
ARC
8
DEFAULT_255_1_234
10
4.6993453
20
13.4216743
40
0.2419125
50
281.5501019
51
303.9357432
0
ARC
8
DEFAULT_255_1_234
10
4.7130641
20
13.3978936
40
0.2145323
50
304.4415616
51
311.2106213
0
ARC
8
DEFAULT_255_1_234
10
4.7262746
20
13.3839632
40
0.1953505
50
310.9875673
51
356.2715578
0
ARC
8
DEFAULT_255_1_234
10
4.6506395
20
13.3952422
40
0.2716331
50
354.9348262
51
0.0609027
0
ARC
8
DEFAULT_255_1_234
10
4.6319269
20
13.3979435
40
0.2903554
50
359.5239371
51
12.8808918
0
ARC
8
DEFAULT_255_1_234
10
4.7296824
20
13.4218728
40
0.1897315
50
12.4173452
51
43.1022135
0
ARC
8
DEFAULT_255_1_234
10
4.7358429
20
13.4255724
40
0.1827118
50
43.5751728
51
48.203944
0
ARC
8
DEFAULT_255_1_234
10
4.7188921
20
13.4034302
40
0.2105272
50
48.7809703
51
72.6969569
0
ARC
8
DEFAULT_255_1_234
10
4.6834546
20
13.295882
40
0.3237537
50
72.3702241
51
84.8791103
0
ARC
8
DEFAULT_255_1_234
10
4.6687022
20
13.1616769
40
0.4587478
50
84.5400526
51
89.7281406
0
LINE
8
DEFAULT_255_1_234
10
6.0692045
20
13.4091849
11
5.9141919
21
13.4091849
0
LINE
8
DEFAULT_255_1_234
10
5.2218561
20
12.9168394
11
5.3768687
21
12.9168394
0
ARC
8
DEFAULT_255_1_234
10
5.9800732
20
14.3038768
40
1.252368
50
248.9199003
51
254.1439814
0
ARC
8
DEFAULT_255_1_234
10
5.8120227
20
13.8712234
40
0.788226
50
241.633709
51
249.0064503
0
ARC
8
DEFAULT_255_1_234
10
5.6591621
20
13.5911317
40
0.4691427
50
230.498225
51
241.8087113
0
ARC
8
DEFAULT_255_1_234
10
5.5807196
20
13.4911906
40
0.3421437
50
227.4064532
51
229.9881192
0
ARC
8
DEFAULT_255_1_234
10
5.5319716
20
13.4436088
40
0.2741476
50
200.6781896
51
228.1763934
0
ARC
8
DEFAULT_255_1_234
10
5.5392027
20
13.4421077
40
0.2804109
50
179.5061581
51
199.8694617
0
ARC
8
DEFAULT_255_1_234
10
5.5382779
20
13.449521
40
0.2795204
50
132.4834203
51
181.0242172
0
ARC
8
DEFAULT_255_1_234
10
5.5978361
20
13.3932704
40
0.3612768
50
129.2532479
51
133.4242687
0
ARC
8
DEFAULT_255_1_234
10
5.6124811
20
13.3712965
40
0.3875675
50
101.98776
51
128.8742646
0
ARC
8
DEFAULT_255_1_234
10
5.6523421
20
13.1991741
40
0.5642249
50
89.5906553
51
102.3169264
0
ARC
8
DEFAULT_255_1_234
10
5.6593913
20
13.2310148
40
0.5323783
50
77.2360837
51
90.3248275
0
ARC
8
DEFAULT_255_1_234
10
5.6800993
20
13.32774
40
0.4334697
50
63.837784
51
77.0809408
0
ARC
8
DEFAULT_255_1_234
10
5.7078754
20
13.3794911
40
0.3747796
50
45.9864267
51
64.1607727
0
ARC
8
DEFAULT_255_1_234
10
5.7339636
20
13.4092866
40
0.3352302
50
32.2747395
51
45.6547121
0
ARC
8
DEFAULT_255_1_234
10
5.7406076
20
13.411188
40
0.328603
50
359.6507365
51
32.6130309
0
ARC
8
DEFAULT_255_1_234
10
5.6463172
20
13.411666
40
0.2678863
50
359.469343
51
14.9832209
0
ARC
8
DEFAULT_255_1_234
10
5.7168234
20
13.4305539
40
0.1948938
50
14.9781179
51
48.2004265
0
ARC
8
DEFAULT_255_1_234
10
5.7003878
20
13.4098983
40
0.2212521
50
48.5927837
51
74.1241538
0
ARC
8
DEFAULT_255_1_234
10
5.6670368
20
13.2998248
40
0.3362561
50
73.7888341
51
86.6652678
0
ARC
8
DEFAULT_255_1_234
10
5.6567933
20
13.1790881
40
0.4573953
50
86.2640471
51
90.0526343
0
ARC
8
DEFAULT_255_1_234
10
5.6539646
20
13.2186192
40
0.4178709
50
89.6697524
51
99.2309573
0
ARC
8
DEFAULT_255_1_234
10
5.6297097
20
13.3630964
40
0.2713749
50
99.069534
51
113.7658566
0
ARC
8
DEFAULT_255_1_234
10
5.6023288
20
13.4276677
40
0.2012469
50
114.0401004
51
127.9850673
0
ARC
8
DEFAULT_255_1_234
10
5.5782852
20
13.457273
40
0.1631167
50
127.7287463
51
176.7105154
0
ARC
8
DEFAULT_255_1_234
10
5.6461569
20
13.4471693
40
0.2315392
50
175.1779447
51
180.0581938
0
ARC
8
DEFAULT_255_1_234
10
5.5618416
20
13.4459428
40
0.1472271
50
179.6142195
51
228.1246017
0
ARC
8
DEFAULT_255_1_234
10
5.6060085
20
13.4868308
40
0.2072299
50
226.5779593
51
230.8800004
0
ARC
8
DEFAULT_255_1_234
10
5.6531163
20
13.5493636
40
0.2854818
50
231.4635071
51
241.9260842
0
ARC
8
DEFAULT_255_1_234
10
5.7728341
20
13.76968
40
0.53622
50
241.7178533
51
248.3259551
0
ARC
8
DEFAULT_255_1_234
10
5.9113713
20
14.1129064
40
0.9063478
50
248.2007737
51
252.4528373
0
ARC
8
DEFAULT_255_1_234
10
6.0317438
20
14.4850441
40
1.2974635
50
252.3391078
51
254.3469452
0
ARC
8
DEFAULT_255_1_234
10
5.2775141
20
11.7873148
40
1.5037162
50
71.0197183
51
74.4087047
0
ARC
8
DEFAULT_255_1_234
10
5.4469826
20
12.2765111
40
0.9859993
50
66.1847285
51
71.086374
0
ARC
8
DEFAULT_255_1_234
10
5.6026138
20
12.62692
40
0.6025855
50
59.3536294
51
66.2691831
0
ARC
8
DEFAULT_255_1_234
10
5.6914791
20
12.7772609
40
0.4279449
50
49.1020879
51
59.3293958
0
ARC
8
DEFAULT_255_1_234
10
5.7733531
20
12.8705834
40
0.3038015
50
32.7919921
51
49.2505539
0
ARC
8
DEFAULT_255_1_234
10
5.8054621
20
12.8934191
40
0.264448
50
31.1181161
51
32.4005348
0
ARC
8
DEFAULT_255_1_234
10
5.7966158
20
12.8898779
40
0.2738556
50
8.1116974
51
30.7958831
0
ARC
8
DEFAULT_255_1_234
10
5.7155826
20
12.8760753
40
0.3560327
50
359.8389159
51
8.4706516
0
ARC
8
DEFAULT_255_1_234
10
5.7781618
20
12.8712137
40
0.2934776
50
337.4731098
51
0.7537279
0
ARC
8
DEFAULT_255_1_234
10
5.7960313
20
12.8692387
40
0.2762607
50
307.5917067
51
336.4315538
0
ARC
8
DEFAULT_255_1_234
10
5.7500141
20
12.9205102
40
0.3449979
50
307.6551545
51
308.4529766
0
ARC
8
DEFAULT_255_1_234
10
5.726986
20
12.956025
40
0.3871988
50
284.3734338
51
307.1424381
0
ARC
8
DEFAULT_255_1_234
10
5.677469
20
13.1381932
40
0.5759636
50
272.4382747
51
284.646547
0
ARC
8
DEFAULT_255_1_234
10
5.6647898
20
13.3181893
40
0.7563528
50
269.9708387
51
272.8178037
0
ARC
8
DEFAULT_255_1_234
10
5.6604938
20
13.1143716
40
0.5525489
50
248.2707594
51
270.4055579
0
ARC
8
DEFAULT_255_1_234
10
5.6550679
20
13.0953192
40
0.5328452
50
246.1383403
51
248.0542782
0
ARC
8
DEFAULT_255_1_234
10
5.6132058
20
13.0073843
40
0.4355005
50
233.1670131
51
246.4950969
0
ARC
8
DEFAULT_255_1_234
10
5.5577963
20
12.9325812
40
0.3424126
50
215.3403242
51
233.0843104
0
ARC
8
DEFAULT_255_1_234
10
5.5305394
20
12.9127549
40
0.3087104
50
179.2419209
51
215.2648451
0
ARC
8
DEFAULT_255_1_234
10
5.6072988
20
12.9141666
40
0.2304457
50
179.335461
51
199.1045811
0
ARC
8
DEFAULT_255_1_234
10
5.5740665
20
12.9054766
40
0.1962176
50
199.8828939
51
232.7063202
0
ARC
8
DEFAULT_255_1_234
10
5.6212933
20
12.9648788
40
0.2720938
50
232.3738199
51
255.5136649
0
ARC
8
DEFAULT_255_1_234
10
5.65538
20
13.0892835
40
0.4010747
50
255.2446292
51
267.5320849
0
ARC
8
DEFAULT_255_1_234
10
5.6641423
20
13.2125702
40
0.5246356
50
267.1557994
51
270.0286766
0
ARC
8
DEFAULT_255_1_234
10
5.6669195
20
13.168195
40
0.4802668
50
269.7000017
51
278.1660162
0
ARC
8
DEFAULT_255_1_234
10
5.69252
20
12.9951515
40
0.3053425
50
278.0231263
51
290.625471
0
ARC
8
DEFAULT_255_1_234
10
5.7272887
20
12.9024025
40
0.206291
50
290.6619762
51
307.0370976
0
ARC
8
DEFAULT_255_1_234
10
5.7573276
20
12.8655504
40
0.1587906
50
306.3943566
51
355.3030547
0
ARC
8
DEFAULT_255_1_234
10
5.7061208
20
12.8732113
40
0.2104809
50
354.3660432
51
0.0698737
0
ARC
8
DEFAULT_255_1_234
10
5.7203553
20
12.8754617
40
0.1962563
50
359.417946
51
16.1971788
0
ARC
8
DEFAULT_255_1_234
10
5.7658863
20
12.8879418
40
0.149053
50
16.4723299
51
52.6262157
0
ARC
8
DEFAULT_255_1_234
10
5.6837917
20
12.7795433
40
0.2850296
50
52.7386432
51
62.4979148
0
ARC
8
DEFAULT_255_1_234
10
5.5452994
20
12.5189283
40
0.5801521
50
62.2515216
51
68.1220564
0
ARC
8
DEFAULT_255_1_234
10
5.3732905
20
12.0961872
40
1.0365451
50
68.0062803
51
71.8053402
0
ARC
8
DEFAULT_255_1_234
10
5.1937277
20
11.5576758
40
1.6042013
50
71.7183119
51
73.9258742
0
LINE
8
DEFAULT_255_1_234
10
6.9968703
20
12.6991792
11
6.9968703
21
12.5779
0
LINE
8
DEFAULT_255_1_234
10
6.9968703
20
12.5779
11
6.2306424
21
12.5779
0
LINE
8
DEFAULT_255_1_234
10
6.2306424
20
12.5779
11
6.2306424
21
12.6847221
0
LINE
8
DEFAULT_255_1_234
10
6.2306424
20
12.6847221
11
6.635442
21
13.1344995
0
LINE
8
DEFAULT_255_1_234
10
6.3567407
20
13.4027595
11
6.2081536
21
13.4027595
0
LINE
8
DEFAULT_255_1_234
10
6.722988
20
13.0389218
11
6.4097502
21
12.6991792
0
LINE
8
DEFAULT_255_1_234
10
6.4097502
20
12.6991792
11
6.9968703
21
12.6991792
0
ARC
8
DEFAULT_255_1_234
10
5.2864254
20
14.3274527
40
1.8008286
50
318.5132453
51
320.7828378
0
ARC
8
DEFAULT_255_1_234
10
5.8151228
20
13.8971426
40
1.1191493
50
320.7372736
51
323.9737074
0
ARC
8
DEFAULT_255_1_234
10
6.2071084
20
13.6131361
40
0.6350923
50
323.8961724
51
328.6421089
0
ARC
8
DEFAULT_255_1_234
10
6.411768
20
13.4869031
40
0.3946393
50
328.8299013
51
331.789948
0
ARC
8
DEFAULT_255_1_234
10
6.5114858
20
13.4354509
40
0.2824501
50
331.4255242
51
352.9364833
0
ARC
8
DEFAULT_255_1_234
10
6.5251359
20
13.4323976
40
0.2685315
50
353.2248685
51
0.0169286
0
ARC
8
DEFAULT_255_1_234
10
6.5461236
20
13.434695
40
0.2475536
50
359.4866256
51
15.9339782
0
ARC
8
DEFAULT_255_1_234
10
6.5968221
20
13.4483286
40
0.1950618
50
16.1714718
51
43.5284424
0
ARC
8
DEFAULT_255_1_234
10
6.604553
20
13.4560573
40
0.184134
50
43.4415429
51
83.1661404
0
ARC
8
DEFAULT_255_1_234
10
6.5911448
20
13.3823771
40
0.258926
50
82.160215
51
90.1505798
0
ARC
8
DEFAULT_255_1_234
10
6.5879875
20
13.3286865
40
0.3126255
50
89.5460705
51
102.5418777
0
ARC
8
DEFAULT_255_1_234
10
6.5636961
20
13.4317665
40
0.2067346
50
102.1739365
51
129.2061916
0
ARC
8
DEFAULT_255_1_234
10
6.5558033
20
13.4442094
40
0.1921118
50
129.7279328
51
135.7542026
0
ARC
8
DEFAULT_255_1_234
10
6.5679561
20
13.4345045
40
0.2075944
50
136.175737
51
166.3674722
0
ARC
8
DEFAULT_255_1_234
10
6.668648
20
13.4075182
40
0.3118201
50
165.9092917
51
178.8683903
0
ARC
8
DEFAULT_255_1_234
10
6.7551341
20
13.4028179
40
0.3983935
50
178.438168
51
180.0083905
0
ARC
8
DEFAULT_255_1_234
10
6.6149943
20
13.4067231
40
0.4068601
50
163.2878735
51
180.5581814
0
ARC
8
DEFAULT_255_1_234
10
6.5348205
20
13.428784
40
0.3237344
50
133.454115
51
162.9470031
0
ARC
8
DEFAULT_255_1_234
10
6.5526746
20
13.4098
40
0.349795
50
100.7869394
51
133.4384016
0
ARC
8
DEFAULT_255_1_234
10
6.5874518
20
13.2549319
40
0.5084616
50
89.6605301
51
101.3704185
0
ARC
8
DEFAULT_255_1_234
10
6.5940856
20
13.2610496
40
0.502348
50
78.2171172
51
90.4130393
0
ARC
8
DEFAULT_255_1_234
10
6.6295935
20
13.4234637
40
0.3361092
50
55.9268222
51
78.4888551
0
ARC
8
DEFAULT_255_1_234
10
6.6492375
20
13.4573324
40
0.2970617
50
47.9292255
51
55.4054003
0
ARC
8
DEFAULT_255_1_234
10
6.6593936
20
13.4676502
40
0.2825983
50
4.3347696
51
48.0560701
0
ARC
8
DEFAULT_255_1_234
10
6.5498329
20
13.4506601
40
0.393225
50
359.925209
51
5.5967654
0
ARC
8
DEFAULT_255_1_234
10
6.5927221
20
13.4562816
40
0.3503892
50
337.8914096
51
358.9967724
0
ARC
8
DEFAULT_255_1_234
10
6.3213633
20
13.5609706
40
0.6412172
50
326.9135351
51
338.3505194
0
ARC
8
DEFAULT_255_1_234
10
5.9227937
20
13.8164284
40
1.1146189
50
319.6472867
51
327.095818
0
ARC
8
DEFAULT_255_1_234
10
5.539494
20
14.1326
40
1.6114559
50
317.2586784
51
319.9046139
0
LINE
8
DEFAULT_255_1_234
10
7.3703461
20
13.1136169
11
7.3703461
21
13.2348962
0
LINE
8
DEFAULT_255_1_234
10
7.3703461
20
13.2348962
11
7.4819873
21
13.2348962
0
LINE
8
DEFAULT_255_1_234
10
7.2916351
20
13.4405087
11
7.1430479
21
13.4405087
0
LINE
8
DEFAULT_255_1_234
10
7.1326066
20
12.8863188
11
7.281997
21
12.8863188
0
LINE
8
DEFAULT_255_1_234
10
7.4819873
20
13.1136169
11
7.3703461
21
13.1136169
0
ARC
8
DEFAULT_255_1_234
10
7.4790739
20
13.5741713
40
0.3392876
50
270.4919872
51
281.8951556
0
ARC
8
DEFAULT_255_1_234
10
7.5032001
20
13.4639702
40
0.2264817
50
281.6691735
51
301.2943132
0
ARC
8
DEFAULT_255_1_234
10
7.5202211
20
13.4328304
40
0.1910381
50
301.7833094
51
311.7545298
0
ARC
8
DEFAULT_255_1_234
10
7.5293787
20
13.4226748
40
0.1773635
50
311.7323931
51
354.2802411
0
ARC
8
DEFAULT_255_1_234
10
7.4567412
20
13.4351722
40
0.2509385
50
353.0937916
51
0.1181479
0
ARC
8
DEFAULT_255_1_234
10
7.4106197
20
13.4399386
40
0.2970898
50
359.1805295
51
15.0453146
0
ARC
8
DEFAULT_255_1_234
10
7.5452034
20
13.4791992
40
0.1569564
50
13.9577229
51
77.6713066
0
ARC
8
DEFAULT_255_1_234
10
7.5065563
20
13.3406949
40
0.3006298
50
76.1116566
51
90.7026153
0
ARC
8
DEFAULT_255_1_234
10
7.5006401
20
13.3680545
40
0.2732568
50
89.5324876
51
103.531937
0
ARC
8
DEFAULT_255_1_234
10
7.4805845
20
13.4479884
40
0.1908508
50
103.2931773
51
133.5619022
0
ARC
8
DEFAULT_255_1_234
10
7.4761334
20
13.4539375
40
0.1834746
50
133.8349307
51
173.5344437
0
ARC
8
DEFAULT_255_1_234
10
7.5484377
20
13.4411213
40
0.2568033
50
172.5096846
51
180.1366907
0
ARC
8
DEFAULT_255_1_234
10
7.4533271
20
13.4445622
40
0.3103056
50
155.3484492
51
180.7484736
0
ARC
8
DEFAULT_255_1_234
10
7.448436
20
13.4416846
40
0.3070957
50
131.5744599
51
154.4798489
0
ARC
8
DEFAULT_255_1_234
10
7.4797507
20
13.410031
40
0.3515643
50
96.9875458
51
131.9690667
0
ARC
8
DEFAULT_255_1_234
10
7.5016987
20
13.2854636
40
0.4779224
50
89.8596053
51
97.7825159
0
ARC
8
DEFAULT_255_1_234
10
7.506505
20
13.2592616
40
0.5041361
50
78.3655447
51
90.4131539
0
ARC
8
DEFAULT_255_1_234
10
7.5422968
20
13.4251887
40
0.3344039
50
56.6229102
51
78.638727
0
ARC
8
DEFAULT_255_1_234
10
7.5637912
20
13.4627805
40
0.2912001
50
47.0253525
51
56.0854072
0
ARC
8
DEFAULT_255_1_234
10
7.5657692
20
13.4667223
40
0.2869704
50
10.9208013
51
46.7778124
0
ARC
8
DEFAULT_255_1_234
10
7.4293758
20
13.4351857
40
0.426899
50
359.6364486
51
11.6087304
0
ARC
8
DEFAULT_255_1_234
10
7.6128602
20
13.4336752
40
0.243409
50
332.3549906
51
359.7179418
0
ARC
8
DEFAULT_255_1_234
10
7.5478204
20
13.4645142
40
0.3153459
50
325.2333722
51
332.8745602
0
ARC
8
DEFAULT_255_1_234
10
7.5630827
20
13.4538828
40
0.2967456
50
292.9802137
51
325.2392345
0
ARC
8
DEFAULT_255_1_234
10
7.5356201
20
13.5072863
40
0.3566604
50
292.5402179
51
293.6924929
0
ARC
8
DEFAULT_255_1_234
10
7.5748797
20
12.8618091
40
0.3307468
50
57.6435486
51
72.8625112
0
ARC
8
DEFAULT_255_1_234
10
7.6103297
20
12.9192549
40
0.2632492
50
36.7248896
51
57.4697979
0
ARC
8
DEFAULT_255_1_234
10
7.609193
20
12.920522
40
0.2634081
50
8.0545065
51
36.356114
0
ARC
8
DEFAULT_255_1_234
10
7.5229115
20
12.9050174
40
0.3510261
50
359.8320645
51
8.5869982
0
ARC
8
DEFAULT_255_1_234
10
7.4853891
20
12.9002101
40
0.3885653
50
343.9829931
51
0.5571613
0
ARC
8
DEFAULT_255_1_234
10
7.5740088
20
12.8759438
40
0.2966924
50
311.6359546
51
343.7651759
0
ARC
8
DEFAULT_255_1_234
10
7.5361657
20
12.9186102
40
0.3537231
50
279.7829875
51
311.6255694
0
ARC
8
DEFAULT_255_1_234
10
7.5060434
20
13.062328
40
0.5004971
50
269.7286406
51
280.3856417
0
ARC
8
DEFAULT_255_1_234
10
7.4998506
20
13.0581996
40
0.4963778
50
256.6828919
51
270.4412052
0
ARC
8
DEFAULT_255_1_234
10
7.4659802
20
12.9197394
40
0.3538406
50
229.4223008
51
256.8556159
0
ARC
8
DEFAULT_255_1_234
10
7.4245195
20
12.8730736
40
0.2914296
50
181.818294
51
229.6455059
0
ARC
8
DEFAULT_255_1_234
10
7.5285151
20
12.8861496
40
0.3959084
50
179.9755256
51
183.2323064
0
ARC
8
DEFAULT_255_1_234
10
7.5112897
20
12.8841037
40
0.2293034
50
179.4465117
51
196.2869258
0
ARC
8
DEFAULT_255_1_234
10
7.4625305
20
12.8707651
40
0.1787621
50
196.5661473
51
227.705904
0
ARC
8
DEFAULT_255_1_234
10
7.47894
20
12.8891155
40
0.2033784
50
227.7652068
51
257.8762805
0
ARC
8
DEFAULT_255_1_234
10
7.501437
20
12.9834156
40
0.3003081
50
257.4584385
51
270.426602
0
ARC
8
DEFAULT_255_1_234
10
7.5059936
20
13.0123996
40
0.329292
50
269.5962073
51
280.8789248
0
ARC
8
DEFAULT_255_1_234
10
7.5289465
20
12.8977685
40
0.2123908
50
280.6346389
51
299.8595945
0
ARC
8
DEFAULT_255_1_234
10
7.5480372
20
12.8615212
40
0.171457
50
300.3576302
51
314.5517981
0
ARC
8
DEFAULT_255_1_234
10
7.5397432
20
12.8675919
40
0.1816095
50
315.0728369
51
345.0431014
0
ARC
8
DEFAULT_255_1_234
10
7.4474246
20
12.8944841
40
0.2777492
50
344.5986631
51
357.9269593
0
ARC
8
DEFAULT_255_1_234
10
7.3578572
20
12.9006276
40
0.3674917
50
357.4748886
51
0.0231117
0
ARC
8
DEFAULT_255_1_234
10
7.4601682
20
12.9030679
40
0.2651907
50
359.5047933
51
13.4239635
0
ARC
8
DEFAULT_255_1_234
10
7.5468325
20
12.9252478
40
0.1757509
50
12.9498199
51
48.7551375
0
ARC
8
DEFAULT_255_1_234
10
7.5286059
20
12.90034
40
0.2065134
50
49.5088623
51
72.1836453
0
ARC
8
DEFAULT_255_1_234
10
7.4928212
20
12.7941291
40
0.3185836
50
71.9010081
51
84.3554254
0
ARC
8
DEFAULT_255_1_234
10
7.4766844
20
12.6580326
40
0.4556151
50
84.0193428
51
89.333121
0
LINE
8
DEFAULT_255_1_234
10
8.8441701
20
12.6991792
11
8.8441701
21
12.5779
0
LINE
8
DEFAULT_255_1_234
10
8.8441701
20
12.5779
11
8.0779422
21
12.5779
0
LINE
8
DEFAULT_255_1_234
10
8.0779422
20
12.5779
11
8.0779422
21
12.6847221
0
LINE
8
DEFAULT_255_1_234
10
8.0779422
20
12.6847221
11
8.4827418
21
13.1344995
0
LINE
8
DEFAULT_255_1_234
10
8.2040405
20
13.4027595
11
8.0554534
21
13.4027595
0
LINE
8
DEFAULT_255_1_234
10
8.5702878
20
13.0389218
11
8.25705
21
12.6991792
0
LINE
8
DEFAULT_255_1_234
10
8.25705
20
12.6991792
11
8.8441701
21
12.6991792
0
ARC
8
DEFAULT_255_1_234
10
7.1337252
20
14.3274527
40
1.8008286
50
318.5132453
51
320.7828378
0
ARC
8
DEFAULT_255_1_234
10
7.6624226
20
13.8971426
40
1.1191493
50
320.7372736
51
323.9737074
0
ARC
8
DEFAULT_255_1_234
10
8.0544083
20
13.6131361
40
0.6350923
50
323.8961724
51
328.6421089
0
ARC
8
DEFAULT_255_1_234
10
8.2590678
20
13.4869031
40
0.3946393
50
328.8299013
51
331.789948
0
ARC
8
DEFAULT_255_1_234
10
8.3587857
20
13.4354509
40
0.2824501
50
331.4255242
51
352.9364833
0
ARC
8
DEFAULT_255_1_234
10
8.3724357
20
13.4323976
40
0.2685315
50
353.2248685
51
0.0169286
0
ARC
8
DEFAULT_255_1_234
10
8.3934234
20
13.434695
40
0.2475536
50
359.4866256
51
15.9339782
0
ARC
8
DEFAULT_255_1_234
10
8.4441219
20
13.4483286
40
0.1950618
50
16.1714718
51
43.5284424
0
ARC
8
DEFAULT_255_1_234
10
8.4518528
20
13.4560573
40
0.184134
50
43.4415429
51
83.1661404
0
ARC
8
DEFAULT_255_1_234
10
8.4384446
20
13.3823771
40
0.258926
50
82.160215
51
90.1505798
0
ARC
8
DEFAULT_255_1_234
10
8.4352873
20
13.3286865
40
0.3126255
50
89.5460705
51
102.5418777
0
ARC
8
DEFAULT_255_1_234
10
8.410996
20
13.4317665
40
0.2067346
50
102.1739365
51
129.2061916
0
ARC
8
DEFAULT_255_1_234
10
8.4031031
20
13.4442094
40
0.1921118
50
129.7279328
51
135.7542026
0
ARC
8
DEFAULT_255_1_234
10
8.4152559
20
13.4345045
40
0.2075944
50
136.175737
51
166.3674722
0
ARC
8
DEFAULT_255_1_234
10
8.5159478
20
13.4075182
40
0.3118201
50
165.9092917
51
178.8683903
0
ARC
8
DEFAULT_255_1_234
10
8.6024339
20
13.4028179
40
0.3983935
50
178.438168
51
180.0083905
0
ARC
8
DEFAULT_255_1_234
10
8.4622942
20
13.4067231
40
0.4068601
50
163.2878735
51
180.5581814
0
ARC
8
DEFAULT_255_1_234
10
8.3821203
20
13.428784
40
0.3237344
50
133.454115
51
162.9470031
0
ARC
8
DEFAULT_255_1_234
10
8.3999744
20
13.4098
40
0.349795
50
100.7869394
51
133.4384016
0
ARC
8
DEFAULT_255_1_234
10
8.4347516
20
13.2549319
40
0.5084616
50
89.6605301
51
101.3704185
0
ARC
8
DEFAULT_255_1_234
10
8.4413855
20
13.2610496
40
0.502348
50
78.2171172
51
90.4130393
0
ARC
8
DEFAULT_255_1_234
10
8.4768933
20
13.4234637
40
0.3361092
50
55.9268222
51
78.4888551
0
ARC
8
DEFAULT_255_1_234
10
8.4965373
20
13.4573324
40
0.2970617
50
47.9292255
51
55.4054003
0
ARC
8
DEFAULT_255_1_234
10
8.5066934
20
13.4676502
40
0.2825983
50
4.3347696
51
48.0560701
0
ARC
8
DEFAULT_255_1_234
10
8.3971327
20
13.4506601
40
0.393225
50
359.925209
51
5.5967654
0
ARC
8
DEFAULT_255_1_234
10
8.4400219
20
13.4562816
40
0.3503892
50
337.8914096
51
358.9967724
0
ARC
8
DEFAULT_255_1_234
10
8.1686631
20
13.5609706
40
0.6412172
50
326.9135351
51
338.3505194
0
ARC
8
DEFAULT_255_1_234
10
7.7700935
20
13.8164284
40
1.1146189
50
319.6472867
51
327.095818
0
ARC
8
DEFAULT_255_1_234
10
7.3867938
20
14.1326
40
1.6114559
50
317.2586784
51
319.9046139
0
LINE
8
DEFAULT_255_1_234
10
4.890977
20
21.6848211
11
5.0459896
21
21.6848211
0
LINE
8
DEFAULT_255_1_234
10
5.0459896
20
21.6848211
11
5.0459896
21
20.889679
0
LINE
8
DEFAULT_255_1_234
10
4.6620725
20
20.5009429
11
4.6211106
21
20.4993365
0
LINE
8
DEFAULT_255_1_234
10
4.1994443
20
20.8880727
11
4.1994443
21
21.6848211
0
LINE
8
DEFAULT_255_1_234
10
4.1994443
20
21.6848211
11
4.3520474
21
21.6848211
0
LINE
8
DEFAULT_255_1_234
10
4.3520474
20
21.6848211
11
4.3520474
21
20.8928917
0
LINE
8
DEFAULT_255_1_234
10
4.890977
20
20.8920885
11
4.890977
21
21.6848211
0
ARC
8
DEFAULT_255_1_234
10
4.6106794
20
20.8876928
40
0.4353147
50
343.0898354
51
0.2614217
0
ARC
8
DEFAULT_255_1_234
10
4.6935195
20
20.8645837
40
0.3493402
50
315.3345598
51
342.7641223
0
ARC
8
DEFAULT_255_1_234
10
4.6711644
20
20.8877682
40
0.3815385
50
284.6606969
51
315.2182466
0
ARC
8
DEFAULT_255_1_234
10
4.6256357
20
21.0423755
40
0.5426573
50
273.8500273
51
285.1797701
0
ARC
8
DEFAULT_255_1_234
10
4.6168408
20
21.0765475
40
0.5772268
50
257.6317484
51
270.4238298
0
ARC
8
DEFAULT_255_1_234
10
4.5743606
20
20.8944198
40
0.3902347
50
230.6087562
51
257.9964012
0
ARC
8
DEFAULT_255_1_234
10
4.5611608
20
20.8737802
40
0.3659186
50
227.7440991
51
230.1551448
0
ARC
8
DEFAULT_255_1_234
10
4.5477439
20
20.8576471
40
0.3449568
50
189.2524587
51
227.5916061
0
ARC
8
DEFAULT_255_1_234
10
4.6999126
20
20.8904013
40
0.5004737
50
180.2665968
51
190.1525252
0
ARC
8
DEFAULT_255_1_234
10
4.7221146
20
20.8900918
40
0.3700778
50
179.5665184
51
191.9952995
0
ARC
8
DEFAULT_255_1_234
10
4.5993252
20
20.8627043
40
0.2442808
50
191.6974072
51
215.1404042
0
ARC
8
DEFAULT_255_1_234
10
4.5755167
20
20.8485108
40
0.2166522
50
215.6950207
51
224.8513522
0
ARC
8
DEFAULT_255_1_234
10
4.581091
20
20.8564697
40
0.2262237
50
225.2846858
51
255.0111758
0
ARC
8
DEFAULT_255_1_234
10
4.613487
20
20.9678455
40
0.3421979
50
254.5944985
51
267.9129803
0
ARC
8
DEFAULT_255_1_234
10
4.6209351
20
21.0762903
40
0.4508556
50
267.4689655
51
270.0223026
0
ARC
8
DEFAULT_255_1_234
10
4.6239496
20
21.0173849
40
0.3919604
50
269.5849941
51
281.1843768
0
ARC
8
DEFAULT_255_1_234
10
4.6518261
20
20.8821059
40
0.2538457
50
280.9344262
51
300.9743589
0
ARC
8
DEFAULT_255_1_234
10
4.6730866
20
20.8429688
40
0.2093566
50
301.4980046
51
315.1466847
0
ARC
8
DEFAULT_255_1_234
10
4.6586405
20
20.8548236
40
0.2279656
50
315.5952539
51
345.6678731
0
ARC
8
DEFAULT_255_1_234
10
4.5466921
20
20.8860009
40
0.3441564
50
345.2524969
51
358.6304371
0
ARC
8
DEFAULT_255_1_234
10
4.4449275
20
20.8919916
40
0.4460494
50
358.1735671
51
0.0124524
0
LINE
8
DEFAULT_255_1_234
10
6.0652171
20
21.3466849
11
5.9102046
21
21.3466849
0
LINE
8
DEFAULT_255_1_234
10
5.2178688
20
20.8543394
11
5.3728813
21
20.8543394
0
ARC
8
DEFAULT_255_1_234
10
5.9760859
20
22.2413768
40
1.252368
50
248.9199003
51
254.1439814
0
ARC
8
DEFAULT_255_1_234
10
5.8080354
20
21.8087234
40
0.788226
50
241.633709
51
249.0064503
0
ARC
8
DEFAULT_255_1_234
10
5.6551748
20
21.5286317
40
0.4691427
50
230.498225
51
241.8087113
0
ARC
8
DEFAULT_255_1_234
10
5.5767322
20
21.4286906
40
0.3421437
50
227.4064532
51
229.9881192
0
ARC
8
DEFAULT_255_1_234
10
5.5279843
20
21.3811088
40
0.2741476
50
200.6781896
51
228.1763934
0
ARC
8
DEFAULT_255_1_234
10
5.5352154
20
21.3796077
40
0.2804109
50
179.5061581
51
199.8694617
0
ARC
8
DEFAULT_255_1_234
10
5.5342905
20
21.387021
40
0.2795204
50
132.4834203
51
181.0242172
0
ARC
8
DEFAULT_255_1_234
10
5.5938488
20
21.3307704
40
0.3612768
50
129.2532479
51
133.4242687
0
ARC
8
DEFAULT_255_1_234
10
5.6084937
20
21.3087965
40
0.3875675
50
101.98776
51
128.8742646
0
ARC
8
DEFAULT_255_1_234
10
5.6483548
20
21.1366741
40
0.5642249
50
89.5906553
51
102.3169264
0
ARC
8
DEFAULT_255_1_234
10
5.655404
20
21.1685148
40
0.5323783
50
77.2360837
51
90.3248275
0
ARC
8
DEFAULT_255_1_234
10
5.6761119
20
21.26524
40
0.4334697
50
63.837784
51
77.0809408
0
ARC
8
DEFAULT_255_1_234
10
5.7038881
20
21.3169911
40
0.3747796
50
45.9864267
51
64.1607727
0
ARC
8
DEFAULT_255_1_234
10
5.7299762
20
21.3467866
40
0.3352302
50
32.2747395
51
45.6547121
0
ARC
8
DEFAULT_255_1_234
10
5.7366203
20
21.348688
40
0.328603
50
359.6507365
51
32.6130309
0
ARC
8
DEFAULT_255_1_234
10
5.6423298
20
21.349166
40
0.2678863
50
359.469343
51
14.9832209
0
ARC
8
DEFAULT_255_1_234
10
5.7128361
20
21.3680539
40
0.1948938
50
14.9781179
51
48.2004265
0
ARC
8
DEFAULT_255_1_234
10
5.6964005
20
21.3473983
40
0.2212521
50
48.5927837
51
74.1241538
0
ARC
8
DEFAULT_255_1_234
10
5.6630494
20
21.2373248
40
0.3362561
50
73.7888341
51
86.6652678
0
ARC
8
DEFAULT_255_1_234
10
5.652806
20
21.1165881
40
0.4573953
50
86.2640471
51
90.0526343
0
ARC
8
DEFAULT_255_1_234
10
5.6499772
20
21.1561192
40
0.4178709
50
89.6697524
51
99.2309573
0
ARC
8
DEFAULT_255_1_234
10
5.6257223
20
21.3005964
40
0.2713749
50
99.069534
51
113.7658566
0
ARC
8
DEFAULT_255_1_234
10
5.5983414
20
21.3651677
40
0.2012469
50
114.0401004
51
127.9850673
0
ARC
8
DEFAULT_255_1_234
10
5.5742978
20
21.394773
40
0.1631167
50
127.7287463
51
176.7105154
0
ARC
8
DEFAULT_255_1_234
10
5.6421696
20
21.3846693
40
0.2315392
50
175.1779447
51
180.0581938
0
ARC
8
DEFAULT_255_1_234
10
5.5578542
20
21.3834428
40
0.1472271
50
179.6142195
51
228.1246017
0
ARC
8
DEFAULT_255_1_234
10
5.6020211
20
21.4243308
40
0.2072299
50
226.5779593
51
230.8800004
0
ARC
8
DEFAULT_255_1_234
10
5.649129
20
21.4868636
40
0.2854818
50
231.4635071
51
241.9260842
0
ARC
8
DEFAULT_255_1_234
10
5.7688468
20
21.70718
40
0.53622
50
241.7178533
51
248.3259551
0
ARC
8
DEFAULT_255_1_234
10
5.907384
20
22.0504064
40
0.9063478
50
248.2007737
51
252.4528373
0
ARC
8
DEFAULT_255_1_234
10
6.0277565
20
22.4225441
40
1.2974635
50
252.3391078
51
254.3469452
0
ARC
8
DEFAULT_255_1_234
10
5.2735267
20
19.7248148
40
1.5037162
50
71.0197183
51
74.4087047
0
ARC
8
DEFAULT_255_1_234
10
5.4429952
20
20.2140111
40
0.9859993
50
66.1847285
51
71.086374
0
ARC
8
DEFAULT_255_1_234
10
5.5986265
20
20.56442
40
0.6025855
50
59.3536294
51
66.2691831
0
ARC
8
DEFAULT_255_1_234
10
5.6874917
20
20.7147609
40
0.4279449
50
49.1020879
51
59.3293958
0
ARC
8
DEFAULT_255_1_234
10
5.7693657
20
20.8080834
40
0.3038015
50
32.7919921
51
49.2505539
0
ARC
8
DEFAULT_255_1_234
10
5.8014747
20
20.8309191
40
0.264448
50
31.1181161
51
32.4005348
0
ARC
8
DEFAULT_255_1_234
10
5.7926285
20
20.8273779
40
0.2738556
50
8.1116974
51
30.7958831
0
ARC
8
DEFAULT_255_1_234
10
5.7115953
20
20.8135753
40
0.3560327
50
359.8389159
51
8.4706516
0
ARC
8
DEFAULT_255_1_234
10
5.7741744
20
20.8087137
40
0.2934776
50
337.4731098
51
0.7537279
0
ARC
8
DEFAULT_255_1_234
10
5.7920439
20
20.8067387
40
0.2762607
50
307.5917067
51
336.4315538
0
ARC
8
DEFAULT_255_1_234
10
5.7460267
20
20.8580102
40
0.3449979
50
307.6551545
51
308.4529766
0
ARC
8
DEFAULT_255_1_234
10
5.7229986
20
20.893525
40
0.3871988
50
284.3734338
51
307.1424381
0
ARC
8
DEFAULT_255_1_234
10
5.6734816
20
21.0756932
40
0.5759636
50
272.4382747
51
284.646547
0
ARC
8
DEFAULT_255_1_234
10
5.6608025
20
21.2556893
40
0.7563528
50
269.9708387
51
272.8178037
0
ARC
8
DEFAULT_255_1_234
10
5.6565064
20
21.0518716
40
0.5525489
50
248.2707594
51
270.4055579
0
ARC
8
DEFAULT_255_1_234
10
5.6510806
20
21.0328192
40
0.5328452
50
246.1383403
51
248.0542782
0
ARC
8
DEFAULT_255_1_234
10
5.6092185
20
20.9448843
40
0.4355005
50
233.1670131
51
246.4950969
0
ARC
8
DEFAULT_255_1_234
10
5.5538089
20
20.8700812
40
0.3424126
50
215.3403242
51
233.0843104
0
ARC
8
DEFAULT_255_1_234
10
5.5265521
20
20.8502549
40
0.3087104
50
179.2419209
51
215.2648451
0
ARC
8
DEFAULT_255_1_234
10
5.6033115
20
20.8516666
40
0.2304457
50
179.335461
51
199.1045811
0
ARC
8
DEFAULT_255_1_234
10
5.5700791
20
20.8429766
40
0.1962176
50
199.8828939
51
232.7063202
0
ARC
8
DEFAULT_255_1_234
10
5.6173059
20
20.9023788
40
0.2720938
50
232.3738199
51
255.5136649
0
ARC
8
DEFAULT_255_1_234
10
5.6513926
20
21.0267835
40
0.4010747
50
255.2446292
51
267.5320849
0
ARC
8
DEFAULT_255_1_234
10
5.6601549
20
21.1500702
40
0.5246356
50
267.1557994
51
270.0286766
0
ARC
8
DEFAULT_255_1_234
10
5.6629322
20
21.105695
40
0.4802668
50
269.7000017
51
278.1660162
0
ARC
8
DEFAULT_255_1_234
10
5.6885327
20
20.9326515
40
0.3053425
50
278.0231263
51
290.625471
0
ARC
8
DEFAULT_255_1_234
10
5.7233014
20
20.8399025
40
0.206291
50
290.6619762
51
307.0370976
0
ARC
8
DEFAULT_255_1_234
10
5.7533403
20
20.8030504
40
0.1587906
50
306.3943566
51
355.3030547
0
ARC
8
DEFAULT_255_1_234
10
5.7021334
20
20.8107113
40
0.2104809
50
354.3660432
51
0.0698737
0
ARC
8
DEFAULT_255_1_234
10
5.716368
20
20.8129617
40
0.1962563
50
359.417946
51
16.1971788
0
ARC
8
DEFAULT_255_1_234
10
5.761899
20
20.8254418
40
0.149053
50
16.4723299
51
52.6262157
0
ARC
8
DEFAULT_255_1_234
10
5.6798044
20
20.7170433
40
0.2850296
50
52.7386432
51
62.4979148
0
ARC
8
DEFAULT_255_1_234
10
5.5413121
20
20.4564283
40
0.5801521
50
62.2515216
51
68.1220564
0
ARC
8
DEFAULT_255_1_234
10
5.3693031
20
20.0336872
40
1.0365451
50
68.0062803
51
71.8053402
0
ARC
8
DEFAULT_255_1_234
10
5.1897403
20
19.4951758
40
1.6042013
50
71.7183119
51
73.9258742
0
LINE
8
DEFAULT_255_1_234
10
6.6708102
20
20.5154
11
6.2652074
21
20.5154
0
LINE
8
DEFAULT_255_1_234
10
6.2652074
20
20.5154
11
6.2652074
21
21.6848211
0
LINE
8
DEFAULT_255_1_234
10
6.2652074
20
21.6848211
11
6.6475182
21
21.6848211
0
LINE
8
DEFAULT_255_1_234
10
6.6764324
20
21.0623614
11
6.4194168
21
21.0623614
0
LINE
8
DEFAULT_255_1_234
10
6.4194168
20
21.0623614
11
6.4194168
21
20.6414983
0
LINE
8
DEFAULT_255_1_234
10
6.4194168
20
20.6414983
11
6.6740229
21
20.6414983
0
LINE
8
DEFAULT_255_1_234
10
6.4194168
20
21.5579196
11
6.4194168
21
21.1860501
0
LINE
8
DEFAULT_255_1_234
10
6.4194168
20
21.1860501
11
6.6523372
21
21.1860501
0
LINE
8
DEFAULT_255_1_234
10
6.6475182
20
21.5579196
11
6.4194168
21
21.5579196
0
ARC
8
DEFAULT_255_1_234
10
6.651289
20
20.9480901
40
0.7367406
50
82.1257326
51
90.2932599
0
ARC
8
DEFAULT_255_1_234
10
6.6901845
20
21.2199013
40
0.4621653
50
69.9044149
51
82.2857423
0
ARC
8
DEFAULT_255_1_234
10
6.7472523
20
21.3741637
40
0.2976871
50
51.1838526
51
70.0181538
0
ARC
8
DEFAULT_255_1_234
10
6.7727489
20
21.411224
40
0.2528517
50
12.1017251
51
50.4214761
0
ARC
8
DEFAULT_255_1_234
10
6.6343363
20
21.3764676
40
0.3955061
50
359.5251267
51
12.8211707
0
ARC
8
DEFAULT_255_1_234
10
6.792329
20
21.3695344
40
0.2375281
50
323.4908128
51
0.8817314
0
ARC
8
DEFAULT_255_1_234
10
6.7504976
20
21.401855
40
0.2903817
50
298.6825083
51
323.2756573
0
ARC
8
DEFAULT_255_1_234
10
6.7143339
20
21.4619649
40
0.3604842
50
293.1999386
51
299.1396394
0
ARC
8
DEFAULT_255_1_234
10
6.7816312
20
20.8534126
40
0.2871098
50
54.0011765
51
74.9167975
0
ARC
8
DEFAULT_255_1_234
10
6.7932671
20
20.8731332
40
0.2643248
50
36.3580696
51
53.5291921
0
ARC
8
DEFAULT_255_1_234
10
6.7805914
20
20.8640998
40
0.2798884
50
4.8189881
51
36.3089977
0
ARC
8
DEFAULT_255_1_234
10
6.7026749
20
20.853127
40
0.358478
50
359.9370252
51
5.5204067
0
ARC
8
DEFAULT_255_1_234
10
6.670227
20
20.8490667
40
0.3909429
50
344.7478609
51
0.5373281
0
ARC
8
DEFAULT_255_1_234
10
6.7693242
20
20.8223544
40
0.2883093
50
311.1786488
51
344.6886812
0
ARC
8
DEFAULT_255_1_234
10
6.7401289
20
20.8586987
40
0.3348923
50
286.0418249
51
310.8441291
0
ARC
8
DEFAULT_255_1_234
10
6.6894121
20
21.0233807
40
0.5071869
50
274.1042341
51
286.4071509
0
ARC
8
DEFAULT_255_1_234
10
6.6717376
20
21.2117229
40
0.6963234
50
269.9236873
51
274.445647
0
ARC
8
DEFAULT_255_1_234
10
6.6763377
20
20.9777537
40
0.3362634
50
269.6055768
51
281.3740047
0
ARC
8
DEFAULT_255_1_234
10
6.6994015
20
20.8684353
40
0.224546
50
281.1055983
51
302.5132223
0
ARC
8
DEFAULT_255_1_234
10
6.7140915
20
20.8420823
40
0.1944357
50
303.0368945
51
311.8811219
0
ARC
8
DEFAULT_255_1_234
10
6.7212321
20
20.833589
40
0.1833454
50
311.9916004
51
351.7143462
0
ARC
8
DEFAULT_255_1_234
10
6.6395551
20
20.850093
40
0.2665871
50
350.7339597
51
0.2221581
0
ARC
8
DEFAULT_255_1_234
10
6.6287997
20
20.8557467
40
0.2773789
50
359.0456241
51
17.2296242
0
ARC
8
DEFAULT_255_1_234
10
6.7327114
20
20.8866163
40
0.1689915
50
17.6685481
51
78.9940892
0
ARC
8
DEFAULT_255_1_234
10
6.6810278
20
20.7011224
40
0.3612658
50
76.5635957
51
90.6980921
0
LINE
8
DEFAULT_255_1_234
10
6.6766263
20
21.0623613
11
6.6764324
21
21.0623614
0
ARC
8
DEFAULT_255_1_234
10
6.6545939
20
21.5146036
40
0.3285612
50
269.6064736
51
281.4533503
0
ARC
8
DEFAULT_255_1_234
10
6.6768758
20
21.4094688
40
0.2210975
50
281.2041486
51
302.5148063
0
ARC
8
DEFAULT_255_1_234
10
6.6905608
20
21.3848241
40
0.1929674
50
303.021671
51
309.8369575
0
ARC
8
DEFAULT_255_1_234
10
6.708907
20
21.3642488
40
0.1654181
50
309.5228395
51
356.9509836
0
ARC
8
DEFAULT_255_1_234
10
6.6425652
20
21.3737932
40
0.2322512
50
355.4701227
51
0.0492546
0
ARC
8
DEFAULT_255_1_234
10
6.6146743
20
21.3760094
40
0.2601498
50
359.5558597
51
11.2096359
0
ARC
8
DEFAULT_255_1_234
10
6.7104033
20
21.395823
40
0.1623975
50
10.9182341
51
31.3230275
0
ARC
8
DEFAULT_255_1_234
10
6.7389767
20
21.4117214
40
0.1297302
50
31.8852677
51
52.1412565
0
ARC
8
DEFAULT_255_1_234
10
6.7115499
20
21.372975
40
0.1771663
50
52.8285564
51
71.9850297
0
ARC
8
DEFAULT_255_1_234
10
6.6739676
20
21.2623664
40
0.2939794
50
71.6863486
51
82.8455995
0
ARC
8
DEFAULT_255_1_234
10
6.6500212
20
21.0814149
40
0.476506
50
82.6984714
51
90.1729175
0
ARC
8
DEFAULT_255_1_234
10
6.6477847
20
21.2037623
40
0.3541573
50
89.8708275
51
90.0431131
0
LINE
8
DEFAULT_255_1_234
10
23.1656817
20
29.1444327
11
23.1656817
21
28.9516709
0
LINE
8
DEFAULT_255_1_234
10
22.427565
20
28.9315916
11
22.427565
21
29.1299755
0
LINE
8
DEFAULT_255_1_234
10
23.0170946
20
28.9115123
11
23.0170946
21
29.1548739
0
LINE
8
DEFAULT_255_1_234
10
22.5761521
20
29.1661184
11
22.5761521
21
28.9283789
0
ARC
8
DEFAULT_255_1_234
10
21.9409707
20
28.9467805
40
1.2247208
50
353.8441951
51
0.2287902
0
ARC
8
DEFAULT_255_1_234
10
22.4049211
20
28.8949806
40
0.7578929
50
344.4934747
51
353.9765454
0
ARC
8
DEFAULT_255_1_234
10
22.7041801
20
28.8098981
40
0.4467846
50
329.2803592
51
344.7472793
0
ARC
8
DEFAULT_255_1_234
10
22.8034626
20
28.7554018
40
0.3336173
50
324.9352394
51
328.6160465
0
ARC
8
DEFAULT_255_1_234
10
22.8411734
20
28.7290427
40
0.2876076
50
280.580143
51
324.9173126
0
ARC
8
DEFAULT_255_1_234
10
22.8010527
20
28.8961099
40
0.4592847
50
269.5977311
51
281.6734359
0
ARC
8
DEFAULT_255_1_234
10
22.7938433
20
28.8841173
40
0.4472986
50
256.6228859
51
270.51044
0
ARC
8
DEFAULT_255_1_234
10
22.753641
20
28.7292877
40
0.2873874
50
215.8618325
51
257.2788573
0
ARC
8
DEFAULT_255_1_234
10
22.8557442
20
28.7977977
40
0.4102928
50
197.9693508
51
215.2623606
0
ARC
8
DEFAULT_255_1_234
10
23.1042558
20
28.8816709
40
0.6725652
50
187.8816417
51
198.2346507
0
ARC
8
DEFAULT_255_1_234
10
23.5000766
20
28.9388079
40
1.0724845
50
180.8976217
51
188.0055519
0
ARC
8
DEFAULT_255_1_234
10
23.7800954
20
28.9491777
40
1.3526448
50
180.7449369
51
181.1510016
0
ARC
8
DEFAULT_255_1_234
10
23.6223683
20
29.1348042
40
1.1948131
50
173.7675579
51
180.231553
0
ARC
8
DEFAULT_255_1_234
10
23.170583
20
29.1858666
40
0.7401564
50
164.3058563
51
173.9002247
0
ARC
8
DEFAULT_255_1_234
10
22.8793899
20
29.2697656
40
0.4371288
50
148.7922025
51
164.568378
0
ARC
8
DEFAULT_255_1_234
10
22.7842351
20
29.3228929
40
0.3282386
50
144.5883898
51
148.1176286
0
ARC
8
DEFAULT_255_1_234
10
22.7499249
20
29.3468315
40
0.2864044
50
101.6440918
51
144.514236
0
ARC
8
DEFAULT_255_1_234
10
22.7924315
20
29.1779069
40
0.4604934
50
89.5284041
51
102.5819763
0
ARC
8
DEFAULT_255_1_234
10
22.8003403
20
29.1740018
40
0.464401
50
77.0437873
51
90.5081339
0
ARC
8
DEFAULT_255_1_234
10
22.8405405
20
29.3382615
40
0.2953195
50
48.2778575
51
77.4994676
0
ARC
8
DEFAULT_255_1_234
10
22.8478036
20
29.3511746
40
0.2808655
50
36.3142134
51
47.6305865
0
ARC
8
DEFAULT_255_1_234
10
22.7609343
20
29.2926515
40
0.3855453
50
18.2931786
51
35.6769206
0
ARC
8
DEFAULT_255_1_234
10
22.5066102
20
29.2053593
40
0.654423
50
8.024666
51
18.5605216
0
ARC
8
DEFAULT_255_1_234
10
22.0903022
20
29.1438792
40
1.0752407
50
1.1274072
51
8.1718305
0
ARC
8
DEFAULT_255_1_234
10
21.7667213
20
29.1311885
40
1.3990231
50
0.5424119
51
1.3863029
0
ARC
8
DEFAULT_255_1_234
10
21.948859
20
29.1584342
40
1.0682415
50
359.8090433
51
4.9407866
0
ARC
8
DEFAULT_255_1_234
10
22.3698604
20
29.1960113
40
0.6455691
50
4.8362157
51
12.2904523
0
ARC
8
DEFAULT_255_1_234
10
22.6453719
20
29.2573965
40
0.3633074
50
12.0805627
51
23.8173984
0
ARC
8
DEFAULT_255_1_234
10
22.7627425
20
29.3070919
40
0.2358723
50
24.2871213
51
31.3935614
0
ARC
8
DEFAULT_255_1_234
10
22.8152122
20
29.3414233
40
0.1732111
50
30.7407893
51
82.4657128
0
ARC
8
DEFAULT_255_1_234
10
22.7972256
20
29.2530691
40
0.263235
50
81.1060089
51
90.2184952
0
ARC
8
DEFAULT_255_1_234
10
22.7936555
20
29.2788924
40
0.2374236
50
89.3806855
51
105.6762551
0
ARC
8
DEFAULT_255_1_234
10
22.7753186
20
29.3455567
40
0.1682847
50
105.7981136
51
149.7388061
0
ARC
8
DEFAULT_255_1_234
10
22.8817264
20
29.281595
40
0.2924306
50
149.4208916
51
163.6286378
0
ARC
8
DEFAULT_255_1_234
10
23.0908152
20
29.217825
40
0.5110213
50
163.3763315
51
172.1410975
0
ARC
8
DEFAULT_255_1_234
10
23.4208871
20
29.1705518
40
0.8444586
50
172.0259487
51
178.0703232
0
ARC
8
DEFAULT_255_1_234
10
23.723896
20
29.1561906
40
1.1477868
50
177.8631668
51
179.5044149
0
ARC
8
DEFAULT_255_1_234
10
23.6166365
20
28.9247389
40
1.0404907
50
179.7995573
51
185.2460446
0
ARC
8
DEFAULT_255_1_234
10
23.2123404
20
28.8864513
40
0.6343885
50
185.1411642
51
193.0079639
0
ARC
8
DEFAULT_255_1_234
10
22.9479877
20
28.8239641
40
0.3627568
50
192.7897626
51
205.2507664
0
ARC
8
DEFAULT_255_1_234
10
22.8433424
20
28.7772415
40
0.2481908
50
205.8005384
51
211.2537509
0
ARC
8
DEFAULT_255_1_234
10
22.7909864
20
28.742158
40
0.1852521
50
210.3789793
51
238.4008143
0
ARC
8
DEFAULT_255_1_234
10
22.7890386
20
28.7468376
40
0.1882621
50
239.6520629
51
265.9793761
0
ARC
8
DEFAULT_255_1_234
10
22.7975586
20
28.8140427
40
0.2559272
50
265.1315437
51
270.060332
0
ARC
8
DEFAULT_255_1_234
10
22.8004365
20
28.7816534
40
0.2235528
50
269.3314664
51
287.2178029
0
ARC
8
DEFAULT_255_1_234
10
22.8142217
20
28.7313279
40
0.1714108
50
287.7958004
51
329.080874
0
ARC
8
DEFAULT_255_1_234
10
22.7184674
20
28.791093
40
0.2842745
50
328.6634704
51
343.3325132
0
ARC
8
DEFAULT_255_1_234
10
22.5011694
20
28.8587863
40
0.5118644
50
343.0499468
51
351.9393422
0
ARC
8
DEFAULT_255_1_234
10
22.1544994
20
28.9098949
40
0.8622784
50
351.8069023
51
357.7959224
0
ARC
8
DEFAULT_255_1_234
10
21.830955
20
28.9266721
40
1.1862365
50
357.5871873
51
359.2677531
0
LINE
8
DEFAULT_255_1_234
10
23.4492021
20
29.6223211
11
23.7817161
21
28.6577093
0
LINE
8
DEFAULT_255_1_234
10
23.7817161
20
28.6577093
11
24.1158364
21
29.6223211
0
LINE
8
DEFAULT_255_1_234
10
24.1158364
20
29.6223211
11
24.2845029
21
29.6223211
0
LINE
8
DEFAULT_255_1_234
10
24.2845029
20
29.6223211
11
23.850789
21
28.4529
0
LINE
8
DEFAULT_255_1_234
10
23.850789
20
28.4529
11
23.7142495
21
28.4529
0
LINE
8
DEFAULT_255_1_234
10
23.7142495
20
28.4529
11
23.2813388
21
29.6223211
0
LINE
8
DEFAULT_255_1_234
10
23.2813388
20
29.6223211
11
23.4492021
21
29.6223211
0
ENDSEC
0
EOF