0
SECTION
2
HEADER
9
$MEASUREMENT
70
1
0
ENDSEC
0
SECTION
2
TABLES
0
TABLE
2
LTYPE
0
LTYPE
72
65
70
64
2
CONTINUOUS
3
______
73
0
40
0
0
ENDTAB
0
TABLE
2
LAYER
0
LAYER
2
DEFAULT_255_2_778
70
0
62
255
6
CONTINUOUS
0
ENDTAB
0
ENDSEC
0
SECTION
2
ENTITIES
0
ARC
8
DEFAULT_255_2_778
10
2.4431681
20
3.0381292
40
1.4956682
50
180.9703099
51
186.0487786
0
ARC
8
DEFAULT_255_2_778
10
1.3243302
20
2.9115068
40
0.3698035
50
184.8061218
51
201.0111043
0
ARC
8
DEFAULT_255_2_778
10
1.0751182
20
2.8137166
40
0.1021171
50
199.9261894
51
254.3169614
0
ARC
8
DEFAULT_255_2_778
10
1.1743682
20
3.233579
40
0.5334794
50
256.2441049
51
270.0284548
0
ARC
8
DEFAULT_255_2_778
10
1.1749287
20
3.0487987
40
0.3486991
50
269.951445
51
270.1455361
0
ARC
8
DEFAULT_255_2_778
10
1.1796976
20
2.6845617
40
0.0160173
50
0.498921
51
104.0303577
0
ARC
8
DEFAULT_255_2_778
10
1.168903
20
2.6912819
40
0.0276072
50
251.3499517
51
346.2097149
0
ARC
8
DEFAULT_255_2_778
10
1.1495993
20
2.9103013
40
0.2454006
50
269.8867958
51
272.4465004
0
ARC
8
DEFAULT_255_2_778
10
1.1494762
20
6.8184972
40
4.1535961
50
268.603095
51
269.9950094
0
ARC
8
DEFAULT_255_2_778
10
1.1543052
20
7.0134709
40
4.3486296
50
267.5393163
51
268.6021133
0
ARC
8
DEFAULT_255_2_778
10
1.1594738
20
7.1479284
40
4.483185
50
267.4924052
51
267.5470993
0
ARC
8
DEFAULT_255_2_778
10
1.1887276
20
7.8160849
40
5.1519818
50
267.4473913
51
267.492486
0
ARC
8
DEFAULT_255_2_778
10
1.1776148
20
7.5670534
40
4.9027024
50
267.402618
51
267.4475168
0
ARC
8
DEFAULT_255_2_778
10
1.1628067
20
7.2351839
40
4.5705027
50
267.3538939
51
267.3995268
0
ARC
8
DEFAULT_255_2_778
10
1.1496744
20
6.9620709
40
4.2970748
50
267.3146996
51
267.3606877
0
ARC
8
DEFAULT_255_2_778
10
1.19454
20
7.9240626
40
5.2601122
50
267.2643593
51
267.3174576
0
ARC
8
DEFAULT_255_2_778
10
1.2445573
20
8.9667168
40
6.3039654
50
267.221731
51
267.2625708
0
ARC
8
DEFAULT_255_2_778
10
1.2517412
20
9.1034504
40
6.4408864
50
267.1739876
51
267.2168575
0
ARC
8
DEFAULT_255_2_778
10
1.2515864
20
9.0885048
40
6.4259513
50
267.1242693
51
267.1687962
0
ARC
8
DEFAULT_255_2_778
10
-21.1862109
20
-429.8032364
40
433.0389704
50
87.0726168
51
87.0766005
0
ARC
8
DEFAULT_255_2_778
10
0.8752241
20
2.2587226
40
0.41415
50
86.6911844
51
88.936025
0
ARC
8
DEFAULT_255_2_778
10
0.6243871
20
2.6917439
40
0.0296221
50
193.7540056
51
295.0181163
0
ARC
8
DEFAULT_255_2_778
10
0.6122316
20
2.6838298
40
0.01664
50
77.9183611
51
176.9984528
0
ARC
8
DEFAULT_255_2_778
10
0.6121489
20
3.1155732
40
0.4154874
50
270.4916919
51
279.2185969
0
ARC
8
DEFAULT_255_2_778
10
0.6239731
20
3.0405889
40
0.3395775
50
279.2761592
51
281.7711886
0
ARC
8
DEFAULT_255_2_778
10
0.6417948
20
2.9587867
40
0.2558611
50
281.601225
51
287.9656784
0
ARC
8
DEFAULT_255_2_778
10
0.6929333
20
2.8000606
40
0.0891012
50
288.1673332
51
354.6086318
0
ARC
8
DEFAULT_255_2_778
10
0.2297505
20
2.9139043
40
0.56526
50
347.5134165
51
357.764788
0
ARC
8
DEFAULT_255_2_778
10
-1.6694725
20
3.0211968
40
2.4674453
50
356.9952883
51
0.0889824
0
ARC
8
DEFAULT_255_2_778
10
-4.9110831
20
3.0475989
40
5.7090975
50
359.7734886
51
0.0040367
0
ARC
8
DEFAULT_255_2_778
10
1.5222389
20
4.5232798
40
0.7217173
50
174.2083283
51
180.9192496
0
ARC
8
DEFAULT_255_2_778
10
0.857482
20
4.5993046
40
0.0533721
50
133.2799445
51
183.4319738
0
ARC
8
DEFAULT_255_2_778
10
0.8284187
20
4.6237187
40
0.0162851
50
88.9594342
51
117.5277238
0
ARC
8
DEFAULT_255_2_778
10
0.8210119
20
4.5991827
40
0.0415388
50
44.271603
51
79.3137835
0
ARC
8
DEFAULT_255_2_778
10
0.6346175
20
4.3797704
40
0.3292757
50
42.1969424
51
48.9738384
0
ARC
8
DEFAULT_255_2_778
10
0.0448278
20
3.8241261
40
1.1395367
50
42.444532
51
42.9759637
0
ARC
8
DEFAULT_255_2_778
10
1.5787971
20
5.2082154
40
0.9266196
50
221.586449
51
224.5466576
0
ARC
8
DEFAULT_255_2_778
10
1.3283089
20
4.3116788
40
0.9932058
50
0.0416718
51
7.0456075
0
ARC
8
DEFAULT_255_2_778
10
2.1535204
20
4.4237833
40
0.1607885
50
3.4662728
51
39.5362759
0
ARC
8
DEFAULT_255_2_778
10
2.1978574
20
4.4439656
40
0.1144496
50
45.8863618
51
77.968497
0
ARC
8
DEFAULT_255_2_778
10
2.0899222
20
3.8798861
40
0.688742
50
78.9682996
51
89.4931879
0
ARC
8
DEFAULT_255_2_778
10
2.0915696
20
4.583602
40
0.0156455
50
168.9481453
51
286.504643
0
ARC
8
DEFAULT_255_2_778
10
2.1054661
20
4.5746728
40
0.0315903
50
70.0085401
51
157.8151996
0
ARC
8
DEFAULT_255_2_778
10
2.1269151
20
4.2052817
40
0.3992199
50
89.9139836
51
91.5285053
0
ARC
8
DEFAULT_255_2_778
10
2.6242625
20
4.5615223
40
0.04469
50
41.0819136
51
105.9065141
0
ARC
8
DEFAULT_255_2_778
10
2.6430166
20
4.5867382
40
0.0154985
50
359.4933899
51
15.5378545
0
ARC
8
DEFAULT_255_2_778
10
2.6359279
20
4.5909579
40
0.0230028
50
256.3881983
51
349.0822504
0
ARC
8
DEFAULT_255_2_778
10
2.62735
20
4.3512168
40
0.2174074
50
89.1660215
51
104.8857869
0
ARC
8
DEFAULT_255_2_778
10
2.6550121
20
4.2237155
40
0.347788
50
103.8939075
51
104.3840681
0
ARC
8
DEFAULT_255_2_778
10
2.5870759
20
4.4517703
40
0.1103856
50
99.6276795
51
185.9932897
0
ARC
8
DEFAULT_255_2_778
10
3.5344242
20
4.3472278
40
1.0612149
50
174.9714961
51
180.8059285
0
ARC
8
DEFAULT_255_2_778
10
-0.9112315
20
2.8161475
40
3.3792692
50
358.5165909
51
0.2128481
0
ARC
8
DEFAULT_255_2_778
10
2.0498581
20
2.7312133
40
0.4170548
50
351.1986013
51
359.6501495
0
ARC
8
DEFAULT_255_2_778
10
2.4442364
20
2.6644101
40
0.0180153
50
271.5205328
51
9.5527092
0
ARC
8
DEFAULT_255_2_778
10
2.4542287
20
2.7032839
40
0.057673
50
225.0771075
51
260.5045759
0
ARC
8
DEFAULT_255_2_778
10
2.8927527
20
3.2539746
40
0.7613042
50
225.4882119
51
230.9858815
0
ARC
8
DEFAULT_255_2_778
10
5.3287284
20
5.7985567
40
4.2838723
50
224.7949429
51
226.1139645
0
ARC
8
DEFAULT_255_2_778
10
9.9849537
20
10.455679
40
10.8693861
50
224.6963615
51
224.9225256
0
ARC
8
DEFAULT_255_2_778
10
4.8294948
20
4.2310567
40
0.9302914
50
156.4203138
51
160.6758688
0
ARC
8
DEFAULT_255_2_778
10
4.0475613
20
4.579833
40
0.0744439
50
130.8780751
51
161.7098497
0
ARC
8
DEFAULT_255_2_778
10
4.0086402
20
4.6202345
40
0.018665
50
118.8565838
51
121.667301
0
ARC
8
DEFAULT_255_2_778
10
4.0079065
20
4.6215099
40
0.0171938
50
88.9739048
51
118.7665949
0
ARC
8
DEFAULT_255_2_778
10
4.0085312
20
4.6194332
40
0.0192706
50
67.2947714
51
90.9420218
0
ARC
8
DEFAULT_255_2_778
10
3.9857834
20
4.5901298
40
0.0559266
50
19.2198549
51
57.3336916
0
ARC
8
DEFAULT_255_2_778
10
3.4358504
20
4.3210739
40
0.6677837
50
19.7608412
51
25.4979309
0
ARC
8
DEFAULT_255_2_778
10
1.4648111
20
3.5721366
40
2.7762304
50
20.5244175
51
20.5541024
0
ARC
8
DEFAULT_255_2_778
10
5.7640081
20
3.4391701
40
1.1865388
50
201.7857807
51
208.8230789
0
ARC
8
DEFAULT_255_2_778
10
5.157642
20
3.1006761
40
0.4921219
50
208.3310987
51
221.5364328
0
ARC
8
DEFAULT_255_2_778
10
4.9395151
20
2.9041385
40
0.1985386
50
220.8218615
51
248.3239953
0
ARC
8
DEFAULT_255_2_778
10
4.936437
20
2.9057783
40
0.1989558
50
249.3222137
51
254.4539776
0
ARC
8
DEFAULT_255_2_778
10
4.9829166
20
3.0316897
40
0.3329008
50
252.5546789
51
269.9581943
0
ARC
8
DEFAULT_255_2_778
10
4.9826964
20
3.024223
40
0.3254341
50
269.9960059
51
270.4961502
0
ARC
8
DEFAULT_255_2_778
10
4.9924145
20
2.6797895
40
0.0202251
50
10.2867295
51
109.9479296
0
ARC
8
DEFAULT_255_2_778
10
4.9786269
20
2.7013896
40
0.0381895
50
258.7719066
51
331.8987632
0
ARC
8
DEFAULT_255_2_778
10
4.9610266
20
2.8203737
40
0.1567725
50
269.9590003
51
273.7173199
0
ARC
8
DEFAULT_255_2_778
10
4.9581703
20
18.760657
40
16.0970561
50
269.8353888
51
270.0097672
0
ARC
8
DEFAULT_255_2_778
10
4.9595754
20
19.1823333
40
16.5187345
50
269.4279442
51
269.8347173
0
ARC
8
DEFAULT_255_2_778
10
4.9160417
20
15.4402462
40
12.7764008
50
268.5655126
51
269.4556145
0
ARC
8
DEFAULT_255_2_778
10
4.8251924
20
11.5495598
40
8.8846618
50
268.2799771
51
268.52309
0
ARC
8
DEFAULT_255_2_778
10
3.8567803
20
-10.7964104
40
13.4835843
50
87.0167744
51
87.1015205
0
ARC
8
DEFAULT_255_2_778
10
4.5341596
20
2.8206636
40
0.1508046
50
252.1191439
51
271.6862332
0
ARC
8
DEFAULT_255_2_778
10
4.4918481
20
2.6868919
40
0.0105339
50
180.4936461
51
247.734072
0
ARC
8
DEFAULT_255_2_778
10
4.4998771
20
2.6862418
40
0.0185712
50
92.0450896
51
178.2739233
0
ARC
8
DEFAULT_255_2_778
10
4.483917
20
2.7387527
40
0.0372386
50
294.2547402
51
6.0320011
0
ARC
8
DEFAULT_255_2_778
10
4.4295808
20
2.7407152
40
0.0913894
50
1.2230344
51
21.4943568
0
ARC
8
DEFAULT_255_2_778
10
4.2071249
20
3.3705549
40
0.0767674
50
27.6676106
51
28.0019929
0
ARC
8
DEFAULT_255_2_778
10
4.2534453
20
3.3988303
40
0.0228223
50
19.8968461
51
93.8461822
0
ARC
8
DEFAULT_255_2_778
10
3.7008522
20
3.3924777
40
0.0291457
50
92.2372821
51
159.2036752
0
ARC
8
DEFAULT_255_2_778
10
3.803621
20
3.3271486
40
0.1504364
50
149.7979606
51
150.2484547
0
ARC
8
DEFAULT_255_2_778
10
4.0296068
20
2.7515316
40
0.5461544
50
158.9162213
51
177.4005887
0
ARC
8
DEFAULT_255_2_778
10
3.5641325
20
2.7834666
40
0.0804379
50
185.1107304
51
269.2771536
0
ARC
8
DEFAULT_255_2_778
10
3.5820233
20
2.8363297
40
0.1346286
50
261.9273812
51
269.9536412
0
ARC
8
DEFAULT_255_2_778
10
3.615358
20
2.682374
40
0.0204371
50
11.0786989
51
108.9700806
0
ARC
8
DEFAULT_255_2_778
10
3.6069632
20
2.69419
40
0.0295246
50
249.6883439
51
344.5026198
0
ARC
8
DEFAULT_255_2_778
10
3.6126213
20
4.5677154
40
1.9012808
50
267.0632552
51
269.5206333
0
ARC
8
DEFAULT_255_2_778
10
3.814155
20
9.0920441
40
6.4300655
50
267.0584029
51
267.3352778
0
ARC
8
DEFAULT_255_2_778
10
2.8482245
20
-9.245981
40
11.9333898
50
86.9451546
51
87.2505869
0
ARC
8
DEFAULT_255_2_778
10
3.3903258
20
2.0761347
40
0.5983061
50
87.0953801
51
89.3403121
0
ARC
8
DEFAULT_255_2_778
10
3.096661
20
2.7235611
40
0.0580459
50
232.2029888
51
280.5756803
0
ARC
8
DEFAULT_255_2_778
10
3.0733725
20
2.6858817
40
0.0147641
50
178.3720613
51
213.6810286
0
ARC
8
DEFAULT_255_2_778
10
3.0775322
20
2.683005
40
0.0192028
50
76.8085899
51
170.1162073
0
ARC
8
DEFAULT_255_2_778
10
3.1112135
20
2.9459238
40
0.2431794
50
280.73611
51
344.2148068
0
ARC
8
DEFAULT_255_2_778
10
2.3477024
20
3.3096982
40
1.0862242
50
336.6841623
51
340.5778785
0
ARC
8
DEFAULT_255_2_778
10
4.2203344
20
3.5217619
40
0.00924
50
253.5280261
51
0.5317474
0
ARC
8
DEFAULT_255_2_778
10
4.1982357
20
3.5204546
40
0.0313693
50
2.5453074
51
19.45214
0
ARC
8
DEFAULT_255_2_778
10
3.8478771
20
4.1763975
40
0.1442073
50
18.7708487
51
23.646591
0
ARC
8
DEFAULT_255_2_778
10
3.9516667
20
4.2260498
40
0.0294699
50
16.1323839
51
59.3585795
0
ARC
8
DEFAULT_255_2_778
10
3.9645154
20
4.2447755
40
0.0069757
50
71.8671345
51
89.8028829
0
ARC
8
DEFAULT_255_2_778
10
3.9710765
20
4.2316011
40
0.0211839
50
107.9742304
51
169.4856212
0
ARC
8
DEFAULT_255_2_778
10
4.0735431
20
4.1841857
40
0.133534
50
157.4164473
51
163.1910748
0
ARC
8
DEFAULT_255_2_778
10
3.7429197
20
3.5206307
40
0.0255596
50
156.3077424
51
177.61931
0
ARC
8
DEFAULT_255_2_778
10
3.7259785
20
3.5213655
40
0.0086026
50
177.8218245
51
280.2849858
0
ARC
8
DEFAULT_255_2_778
10
6.2490868
20
2.8442888
40
0.1606086
50
177.6404213
51
226.6245584
0
ARC
8
DEFAULT_255_2_778
10
6.1993948
20
2.8193353
40
0.1099936
50
236.5620882
51
264.2183916
0
ARC
8
DEFAULT_255_2_778
10
6.3392258
20
3.7716057
40
1.0723762
50
261.9101311
51
268.1290501
0
ARC
8
DEFAULT_255_2_778
10
6.3078273
20
2.6838471
40
0.016358
50
6.9487419
51
102.7598083
0
ARC
8
DEFAULT_255_2_778
10
6.306337
20
2.6845045
40
0.0177774
50
359.989352
51
4.2636078
0
ARC
8
DEFAULT_255_2_778
10
6.2953953
20
2.6927897
40
0.0298912
50
250.457168
51
343.9013507
0
ARC
8
DEFAULT_255_2_778
10
6.2828484
20
2.8319036
40
0.1673025
50
269.9883559
51
270.8726345
0
ARC
8
DEFAULT_255_2_778
10
6.2842685
20
7.0521092
40
4.3875083
50
269.2991448
51
269.9810106
0
ARC
8
DEFAULT_255_2_778
10
6.3219525
20
9.6629713
40
6.9986383
50
268.1361267
51
269.2521103
0
ARC
8
DEFAULT_255_2_778
10
6.3929418
20
12.0811715
40
9.4178711
50
268.0775465
51
268.1829724
0
ARC
8
DEFAULT_255_2_778
10
6.398819
20
12.2691018
40
9.6058929
50
268.0511357
51
268.0801149
0
ARC
8
DEFAULT_255_2_778
10
6.4903496
20
14.9518313
40
12.2901834
50
268.0267605
51
268.0499949
0
ARC
8
DEFAULT_255_2_778
10
6.448406
20
13.7128313
40
11.0504738
50
267.9970156
51
268.022906
0
ARC
8
DEFAULT_255_2_778
10
6.4126423
20
12.6973941
40
10.0344071
50
267.9708772
51
267.9984474
0
ARC
8
DEFAULT_255_2_778
10
6.5626859
20
16.9066042
40
14.2462904
50
267.9487438
51
267.9672092
0
ARC
8
DEFAULT_255_2_778
10
6.5314375
20
16.0105568
40
13.3496988
50
267.926389
51
267.9451202
0
ARC
8
DEFAULT_255_2_778
10
6.523696
20
15.7890849
40
13.1280918
50
267.9070797
51
267.9251794
0
ARC
8
DEFAULT_255_2_778
10
6.4974682
20
15.0458591
40
12.384404
50
267.8845391
51
267.9027656
0
ARC
8
DEFAULT_255_2_778
10
6.4761939
20
14.4954107
40
11.8335456
50
267.8709794
51
267.8890948
0
ARC
8
DEFAULT_255_2_778
10
6.4684545
20
14.2974276
40
11.6354115
50
267.8553533
51
267.8728457
0
ARC
8
DEFAULT_255_2_778
10
6.4639582
20
14.1665599
40
11.504467
50
267.836547
51
267.8533401
0
ARC
8
DEFAULT_255_2_778
10
6.5435938
20
16.2812548
40
13.6206609
50
267.8175202
51
267.8376059
0
ARC
8
DEFAULT_255_2_778
10
6.5747788
20
17.1333093
40
14.4732852
50
267.8051541
51
267.8226101
0
ARC
8
DEFAULT_255_2_778
10
6.6989676
20
20.3556896
40
17.6980574
50
267.787597
51
267.8029293
0
ARC
8
DEFAULT_255_2_778
10
0.3354726
20
-142.7103419
40
145.492093
50
87.7624995
51
87.7754054
0
ARC
8
DEFAULT_255_2_778
10
5.9541303
20
2.0162915
40
0.6564441
50
87.4791978
51
88.8404579
0
ARC
8
DEFAULT_255_2_778
10
5.7052012
20
2.6966405
40
0.033847
50
207.0506506
51
288.8098263
0
ARC
8
DEFAULT_255_2_778
10
5.6957388
20
2.6844257
40
0.0209246
50
179.7933422
51
188.7358634
0
ARC
8
DEFAULT_255_2_778
10
5.6912163
20
2.6838065
40
0.0164166
50
76.9814956
51
177.5749878
0
ARC
8
DEFAULT_255_2_778
10
5.6755292
20
3.1490261
40
0.449643
50
272.4709319
51
282.4170956
0
ARC
8
DEFAULT_255_2_778
10
5.7408287
20
2.8024418
40
0.0977182
50
288.7346459
51
359.6780652
0
ARC
8
DEFAULT_255_2_778
10
5.0903933
20
2.9533274
40
0.7633242
50
348.5572704
51
352.2885361
0
ARC
8
DEFAULT_255_2_778
10
4.2556556
20
3.0262472
40
1.6007912
50
353.7113668
51
358.2793019
0
ARC
8
DEFAULT_255_2_778
10
-0.5569783
20
3.1994052
40
6.4165182
50
358.0241931
51
359.7489759
0
ARC
8
DEFAULT_255_2_778
10
-27.1316129
20
3.3643438
40
32.991656
50
359.6647321
51
0.0754713
0
ARC
8
DEFAULT_255_2_778
10
5.4832085
20
3.4685206
40
1.0185833
50
90.1346689
51
97.2887588
0
ARC
8
DEFAULT_255_2_778
10
5.3699076
20
4.2785823
40
0.200923
50
94.5465039
51
127.4388868
0
ARC
8
DEFAULT_255_2_778
10
5.3470851
20
4.3236562
40
0.1515443
50
130.949624
51
147.4012253
0
ARC
8
DEFAULT_255_2_778
10
5.6954995
20
4.086891
40
0.5727495
50
146.2250263
51
152.7818939
0
ARC
8
DEFAULT_255_2_778
10
5.5316761
20
4.1779873
40
0.3854484
50
153.6857072
51
157.2343223
0
ARC
8
DEFAULT_255_2_778
10
6.4761358
20
3.7723129
40
1.4133374
50
156.885714
51
156.9501142
0
LINE
8
DEFAULT_255_2_778
10
5.1756332
20
4.3256803
11
5.1755144
21
4.3254011
0
ARC
8
DEFAULT_255_2_778
10
5.0517294
20
4.3771795
40
0.134178
50
334.5565882
51
337.3007946
0
ARC
8
DEFAULT_255_2_778
10
5.146065
20
4.326211
40
0.0276468
50
275.7072628
51
346.0244637
0
ARC
8
DEFAULT_255_2_778
10
5.1506722
20
4.3151427
40
0.0165462
50
155.5118483
51
263.5533065
0
ARC
8
DEFAULT_255_2_778
10
5.8578603
20
4.3680723
40
0.7012571
50
159.8792634
51
161.6621829
0
ARC
8
DEFAULT_255_2_778
10
5.2389222
20
4.6026808
40
0.0400725
50
119.9529576
51
170.4857812
0
ARC
8
DEFAULT_255_2_778
10
5.1966621
20
4.5225268
40
0.1170098
50
60.8202928
51
79.0370376
0
ARC
8
DEFAULT_255_2_778
10
5.3568875
20
4.8681526
40
0.2644255
50
247.0334373
51
248.7104507
0
ARC
8
DEFAULT_255_2_778
10
5.340914
20
4.8271575
40
0.2204282
50
248.7101696
51
262.9241447
0
ARC
8
DEFAULT_255_2_778
10
5.3480616
20
4.875806
40
0.2695889
50
262.6902535
51
266.566179
0
ARC
8
DEFAULT_255_2_778
10
6.4993198
20
5.8842191
40
1.2908204
50
269.8887927
51
274.0907648
0
ARC
8
DEFAULT_255_2_778
10
6.5227862
20
5.5548384
40
0.9606048
50
274.096154
51
278.6019541
0
ARC
8
DEFAULT_255_2_778
10
6.5369165
20
5.4530224
40
0.8578216
50
278.6859195
51
279.4334006
0
ARC
8
DEFAULT_255_2_778
10
6.5365184
20
5.4554921
40
0.8603234
50
279.4325998
51
279.6843882
0
ARC
8
DEFAULT_255_2_778
10
6.5378507
20
5.4474028
40
0.8521251
50
279.6875752
51
279.9272686
0
ARC
8
DEFAULT_255_2_778
10
6.5300809
20
5.4916202
40
0.89702
50
279.9292206
51
280.1439943
0
ARC
8
DEFAULT_255_2_778
10
6.5342775
20
5.4678985
40
0.87293
50
280.147072
51
280.4574142
0
ARC
8
DEFAULT_255_2_778
10
6.5277338
20
5.5031861
40
0.9088191
50
280.4593148
51
280.7325725
0
ARC
8
DEFAULT_255_2_778
10
6.5239833
20
5.5230455
40
0.9290295
50
280.7317438
51
281.036864
0
ARC
8
DEFAULT_255_2_778
10
6.5097892
20
5.5961421
40
1.0034914
50
281.0333219
51
281.3036264
0
ARC
8
DEFAULT_255_2_778
10
6.4814984
20
5.737445
40
1.1475985
50
281.3058942
51
281.517003
0
ARC
8
DEFAULT_255_2_778
10
6.8483576
20
4.0032896
40
0.6250272
50
99.4516486
51
102.7301832
0
ARC
8
DEFAULT_255_2_778
10
6.751311
20
4.578017
40
0.0421871
50
90.6745217
51
97.6177639
0
ARC
8
DEFAULT_255_2_778
10
6.7428134
20
4.5985902
40
0.0230445
50
337.5694546
51
69.6839137
0
LINE
8
DEFAULT_255_2_778
10
6.7641144
20
4.5897973
11
6.7641144
21
4.5895011
0
ARC
8
DEFAULT_255_2_778
10
6.7313967
20
4.2992473
40
0.0260279
50
284.9570588
51
18.256621
0
ARC
8
DEFAULT_255_2_778
10
6.743032
20
4.2976279
40
0.0240352
50
166.8225652
51
258.1940285
0
ARC
8
DEFAULT_255_2_778
10
6.9081317
20
4.3272577
40
0.1900429
50
182.7918574
51
187.3008515
0
ARC
8
DEFAULT_255_2_778
10
6.5937695
20
4.3331842
40
0.1231138
50
5.9756815
51
69.0023936
0
ARC
8
DEFAULT_255_2_778
10
6.4835259
20
4.0927902
40
0.3874118
50
66.5195392
51
83.1353941
0
ARC
8
DEFAULT_255_2_778
10
6.3864962
20
3.4312624
40
1.0559359
50
82.1984872
51
89.2230589
0
ARC
8
DEFAULT_255_2_778
10
7.9601282
20
2.8442265
40
0.1605526
50
177.6173741
51
226.613301
0
ARC
8
DEFAULT_255_2_778
10
7.910473
20
2.8194223
40
0.110078
50
236.5778149
51
264.2342827
0
ARC
8
DEFAULT_255_2_778
10
8.0538822
20
3.8093296
40
1.1102266
50
262.0023941
51
267.9679117
0
ARC
8
DEFAULT_255_2_778
10
8.0180741
20
2.6838876
40
0.0163068
50
6.8272361
51
102.6088032
0
ARC
8
DEFAULT_255_2_778
10
8.016537
20
2.6845045
40
0.0177774
50
359.9893511
51
4.2636059
0
ARC
8
DEFAULT_255_2_778
10
8.0056823
20
2.6926709
40
0.0297749
50
250.4038391
51
344.0747436
0
ARC
8
DEFAULT_255_2_778
10
7.9931484
20
2.8318586
40
0.1672575
50
269.9883409
51
270.8727588
0
ARC
8
DEFAULT_255_2_778
10
7.9945719
20
7.0537182
40
4.3891173
50
269.3044149
51
269.9809742
0
ARC
8
DEFAULT_255_2_778
10
8.0319187
20
9.6512251
40
6.9868887
50
268.1357667
51
269.2567662
0
ARC
8
DEFAULT_255_2_778
10
8.1110753
20
12.321145
40
9.6579737
50
268.0786369
51
268.1816912
0
ARC
8
DEFAULT_255_2_778
10
8.1054221
20
12.1587824
40
9.4955129
50
268.050572
51
268.0798818
0
ARC
8
DEFAULT_255_2_778
10
8.2003753
20
14.9419119
40
12.2802616
50
268.0262815
51
268.0495293
0
ARC
8
DEFAULT_255_2_778
10
8.1537677
20
13.5686453
40
10.9062045
50
267.9962893
51
268.0225158
0
ARC
8
DEFAULT_255_2_778
10
8.1226995
20
12.6889525
40
10.0259634
50
267.9703683
51
267.9979546
0
ARC
8
DEFAULT_255_2_778
10
8.2725394
20
16.8912634
40
14.2309446
50
267.9482027
51
267.9666829
0
ARC
8
DEFAULT_255_2_778
10
8.2412892
20
15.9953099
40
13.3344468
50
267.9258134
51
267.9445606
0
ARC
8
DEFAULT_255_2_778
10
8.233518
20
15.7729704
40
13.1119717
50
267.9064682
51
267.9245848
0
ARC
8
DEFAULT_255_2_778
10
8.2072842
20
15.0297064
40
12.3682455
50
267.8838883
51
267.902133
0
ARC
8
DEFAULT_255_2_778
10
8.1859973
20
14.4789423
40
11.8170711
50
267.8702897
51
267.8884245
0
ARC
8
DEFAULT_255_2_778
10
8.178224
20
14.2799778
40
11.6179551
50
267.8546214
51
267.8721344
0
ARC
8
DEFAULT_255_2_778
10
8.1736847
20
14.1478943
40
11.485794
50
267.8357692
51
267.8525839
0
ARC
8
DEFAULT_255_2_778
10
8.2531051
20
16.2565268
40
13.5959217
50
267.8167773
51
267.8368927
0
ARC
8
DEFAULT_255_2_778
10
8.284063
20
17.1020294
40
14.4419901
50
267.8043449
51
267.8218325
0
ARC
8
DEFAULT_255_2_778
10
8.391518
20
19.8886213
40
17.2306528
50
267.7865537
51
267.8022961
0
ARC
8
DEFAULT_255_2_778
10
1.9780729
20
-144.3875422
40
147.1706569
50
87.7616633
51
87.7744168
0
ARC
8
DEFAULT_255_2_778
10
7.6644413
20
2.0169695
40
0.655766
50
87.4780685
51
88.8402205
0
ARC
8
DEFAULT_255_2_778
10
7.4153569
20
2.6961826
40
0.0334283
50
206.0180454
51
289.1346819
0
ARC
8
DEFAULT_255_2_778
10
7.4063056
20
2.6844372
40
0.0211912
50
179.8271719
51
187.9152223
0
ARC
8
DEFAULT_255_2_778
10
7.4013408
20
2.6839641
40
0.0162353
50
77.2842866
51
178.1043318
0
ARC
8
DEFAULT_255_2_778
10
7.3921281
20
3.1144331
40
0.4148291
50
271.766315
51
273.3015451
0
ARC
8
DEFAULT_255_2_778
10
7.3952426
20
3.0762457
40
0.3765269
50
273.1630523
51
283.3550306
0
ARC
8
DEFAULT_255_2_778
10
7.4507313
20
2.8023807
40
0.0976917
50
288.8002631
51
359.7138156
0
ARC
8
DEFAULT_255_2_778
10
6.7649145
20
2.961293
40
0.7995573
50
348.5004299
51
352.0640382
0
ARC
8
DEFAULT_255_2_778
10
5.9656556
20
3.0262472
40
1.6007912
50
353.7113668
51
358.2793019
0
ARC
8
DEFAULT_255_2_778
10
1.1530217
20
3.1994052
40
6.4165182
50
358.0241931
51
359.7489759
0
ARC
8
DEFAULT_255_2_778
10
-25.4216129
20
3.3643438
40
32.991656
50
359.6647321
51
0.0754713
0
ARC
8
DEFAULT_255_2_778
10
7.3498851
20
4.4142957
40
0.2148295
50
0.0814595
51
28.6367321
0
ARC
8
DEFAULT_255_2_778
10
7.4607941
20
4.4678232
40
0.0920415
50
32.4828452
51
79.090052
0
ARC
8
DEFAULT_255_2_778
10
7.3982396
20
4.2466227
40
0.3216786
50
75.6043054
51
89.9866785
0
ARC
8
DEFAULT_255_2_778
10
7.395815
20
4.5856418
40
0.0175198
50
186.6887707
51
278.202018
0
ARC
8
DEFAULT_255_2_778
10
7.4068795
20
4.5765303
40
0.0293302
50
66.8451721
51
166.0498363
0
ARC
8
DEFAULT_255_2_778
10
7.419709
20
4.3408996
40
0.2626014
50
89.9988309
51
90.2828523
0
ARC
8
DEFAULT_255_2_778
10
7.9485209
20
4.5720817
40
0.0332915
50
25.1508134
51
109.3058402
0
ARC
8
DEFAULT_255_2_778
10
7.9577205
20
4.5836499
40
0.021094
50
359.8675374
51
7.0274007
0
ARC
8
DEFAULT_255_2_778
10
7.9612804
20
4.5858314
40
0.0176753
50
262.6152927
51
352.7512302
0
ARC
8
DEFAULT_255_2_778
10
7.9587877
20
4.5863424
40
0.0180411
50
269.7671118
51
270.7012563
0
ARC
8
DEFAULT_255_2_778
10
7.958669
20
4.3890677
40
0.1792335
50
89.9854926
51
92.5001131
0
ARC
8
DEFAULT_255_2_778
10
7.9837791
20
4.1235684
40
0.4457801
50
94.236135
51
101.4987507
0
ARC
8
DEFAULT_255_2_778
10
7.9138154
20
4.448687
40
0.1133018
50
99.6029678
51
186.861911
0
ARC
8
DEFAULT_255_2_778
10
8.348088
20
4.3828652
40
0.5492569
50
174.5376379
51
176.7503125
0
ARC
8
DEFAULT_255_2_778
10
9.8541378
20
4.2806895
40
2.0587442
50
176.2872799
51
176.4973646
0
ARC
8
DEFAULT_255_2_778
10
9.9735614
20
4.2784008
40
2.1780903
50
176.6291998
51
179.3953991
0
ARC
8
DEFAULT_255_2_778
10
17.4714628
20
4.1679033
40
9.6767911
50
179.2096414
51
179.8567235
0
ARC
8
DEFAULT_255_2_778
10
53.0692175
20
4.0405211
40
45.2747692
50
179.8081728
51
179.9823554
0
ARC
8
DEFAULT_255_2_778
10
275.9296851
20
3.9131899
40
268.1352719
50
179.9698123
51
180.0054586
0
LINE
8
DEFAULT_255_2_778
10
7.7944145
20
3.8876444
11
7.7944144
21
3.8597011
0
ARC
8
DEFAULT_255_2_778
10
9.5759996
20
3.462598
40
1.1761545
50
69.1620315
51
90.535146
0
ARC
8
DEFAULT_255_2_778
10
9.6869516
20
3.7379392
40
0.8793736
50
10.8965874
51
69.5365824
0
ARC
8
DEFAULT_255_2_778
10
9.4532713
20
3.6805785
40
1.1197499
50
359.8016041
51
11.5184138
0
ARC
8
DEFAULT_255_2_778
10
9.4546309
20
3.6666728
40
1.1184285
50
330.6527219
51
0.5137499
0
ARC
8
DEFAULT_255_2_778
10
9.5961588
20
3.5913389
40
0.9581493
50
284.5828215
51
330.4316324
0
ARC
8
DEFAULT_255_2_778
10
9.5544877
20
3.7433136
40
1.1157218
50
269.765147
51
284.6888469
0
ARC
8
DEFAULT_255_2_778
10
9.542578
20
3.7887199
40
1.1611419
50
256.0322007
51
270.3620124
0
ARC
8
DEFAULT_255_2_778
10
9.4825168
20
3.5475013
40
0.9125584
50
234.754
51
256.0360178
0
ARC
8
DEFAULT_255_2_778
10
9.5238113
20
3.5749275
40
0.9589544
50
194.5077615
51
233.684618
0
ARC
8
DEFAULT_255_2_778
10
9.6831672
20
3.6354689
40
1.1285501
50
189.513129
51
195.4567101
0
ARC
8
DEFAULT_255_2_778
10
9.6839923
20
3.6361586
40
1.1294781
50
180.0384248
51
189.5407168
0
ARC
8
DEFAULT_255_2_778
10
9.503546
20
3.6330043
40
0.9490346
50
170.9761689
51
179.8552935
0
ARC
8
DEFAULT_255_2_778
10
9.6221367
20
3.6153711
40
1.068924
50
162.6080681
51
171.0397139
0
ARC
8
DEFAULT_255_2_778
10
9.6051133
20
3.6260782
40
1.0494909
50
137.123282
51
162.8880881
0
ARC
8
DEFAULT_255_2_778
10
9.5084917
20
3.7099409
40
0.9216326
50
112.3815599
51
136.8567486
0
ARC
8
DEFAULT_255_2_778
10
9.5415419
20
3.6195704
40
1.0177874
50
95.3725353
51
112.164814
0
ARC
8
DEFAULT_255_2_778
10
9.5646543
20
3.4302654
40
1.2084364
50
89.9449968
51
95.6231665
0
ARC
8
DEFAULT_255_2_778
10
9.6166109
20
3.3991946
40
0.6744952
50
270.1277145
51
277.7934466
0
ARC
8
DEFAULT_255_2_778
10
9.6116266
20
3.4436641
40
0.7192305
50
277.7064668
51
287.7189933
0
ARC
8
DEFAULT_255_2_778
10
9.6211487
20
3.4138307
40
0.6879141
50
287.7197771
51
294.894775
0
ARC
8
DEFAULT_255_2_778
10
9.6416208
20
3.3722423
40
0.6415731
50
294.7998263
51
315.3333477
0
ARC
8
DEFAULT_255_2_778
10
9.6096984
20
3.3996511
40
0.6835508
50
315.5804133
51
332.7983619
0
ARC
8
DEFAULT_255_2_778
10
9.4427015
20
3.4851935
40
0.8711817
50
332.8152289
51
345.7341491
0
ARC
8
DEFAULT_255_2_778
10
9.128603
20
3.5664386
40
1.1956155
50
345.6699724
51
355.2534288
0
ARC
8
DEFAULT_255_2_778
10
8.7506631
20
3.6025367
40
1.5752534
50
355.0824679
51
0.089638
0
ARC
8
DEFAULT_255_2_778
10
9.0402844
20
3.6135326
40
1.2856583
50
359.6197913
51
13.8309549
0
ARC
8
DEFAULT_255_2_778
10
9.3730285
20
3.6977193
40
0.9424392
50
13.6971679
51
34.1950826
0
ARC
8
DEFAULT_255_2_778
10
9.5371176
20
3.8109361
40
0.7430885
50
34.0852291
51
70.7743592
0
ARC
8
DEFAULT_255_2_778
10
9.5470717
20
3.8260234
40
0.7255783
50
71.1242462
51
90.0676952
0
ARC
8
DEFAULT_255_2_778
10
9.5301206
20
3.7869368
40
0.7648337
50
88.7942828
51
121.0211516
0
ARC
8
DEFAULT_255_2_778
10
9.495573
20
3.8763589
40
0.6705991
50
122.4291328
51
157.6118155
0
ARC
8
DEFAULT_255_2_778
10
9.7762069
20
3.755087
40
0.9762843
50
157.3041035
51
174.5324081
0
ARC
8
DEFAULT_255_2_778
10
10.1377303
20
3.7088552
40
1.3406178
50
174.0377225
51
180.1006071
0
ARC
8
DEFAULT_255_2_778
10
10.0832342
20
3.6975211
40
1.2861512
50
179.5999495
51
195.7843486
0
ARC
8
DEFAULT_255_2_778
10
9.760634
20
3.6030043
40
0.9500106
50
195.5913599
51
219.2973479
0
ARC
8
DEFAULT_255_2_778
10
9.6119815
20
3.4825794
40
0.7587031
50
219.3694821
51
270.4631487
0
ARC
8
DEFAULT_255_2_778
10
12.9619681
20
3.0373292
40
1.4956682
50
180.9703099
51
186.0487786
0
ARC
8
DEFAULT_255_2_778
10
11.8431302
20
2.9107068
40
0.3698035
50
184.8061218
51
201.0111043
0
ARC
8
DEFAULT_255_2_778
10
11.5939182
20
2.8129166
40
0.1021171
50
199.9261894
51
254.3169614
0
ARC
8
DEFAULT_255_2_778
10
11.6930952
20
3.2321734
40
0.5328737
50
256.2362516
51
270.0299943
0
ARC
8
DEFAULT_255_2_778
10
11.6936844
20
3.0837875
40
0.384488
50
269.9537656
51
270.1385905
0
ARC
8
DEFAULT_255_2_778
10
11.6984829
20
2.6838465
40
0.0159315
50
0.1966284
51
104.0531218
0
ARC
8
DEFAULT_255_2_778
10
11.6876808
20
2.6903835
40
0.0275083
50
251.3197158
51
346.3699421
0
ARC
8
DEFAULT_255_2_778
10
11.6684009
20
2.9092159
40
0.2451152
50
269.8862729
51
272.4479545
0
ARC
8
DEFAULT_255_2_778
10
11.6682622
20
6.8200084
40
4.1559073
50
268.603483
51
269.9952049
0
ARC
8
DEFAULT_255_2_778
10
11.6729393
20
7.0086664
40
4.3446233
50
267.5387417
51
268.602457
0
ARC
8
DEFAULT_255_2_778
10
11.6781279
20
7.1433551
40
4.4794105
50
267.4916945
51
267.5464193
0
ARC
8
DEFAULT_255_2_778
10
11.7073387
20
7.8102949
40
5.1469898
50
267.4466276
51
267.4917524
0
ARC
8
DEFAULT_255_2_778
10
11.6962219
20
7.5611997
40
4.8976467
50
267.4017979
51
267.4467284
0
ARC
8
DEFAULT_255_2_778
10
11.6814137
20
7.2293892
40
4.5655059
50
267.353012
51
267.3986791
0
ARC
8
DEFAULT_255_2_778
10
11.6682807
20
6.9562982
40
4.2920999
50
267.3137551
51
267.3597797
0
ARC
8
DEFAULT_255_2_778
10
11.7130749
20
7.916577
40
5.2534229
50
267.2634466
51
267.3165921
0
ARC
8
DEFAULT_255_2_778
10
11.7593363
20
8.8805404
40
6.2184958
50
267.2203535
51
267.2617378
0
ARC
8
DEFAULT_255_2_778
10
11.7700452
20
9.0903983
40
6.428626
50
267.172792
51
267.2157252
0
ARC
8
DEFAULT_255_2_778
10
11.7731235
20
9.1402525
40
6.4785714
50
267.1232035
51
267.1673486
0
ARC
8
DEFAULT_255_2_778
10
-12.3884541
20
-463.2373001
40
466.5164989
50
87.0712254
51
87.0749213
0
ARC
8
DEFAULT_255_2_778
10
11.3940332
20
2.25844
40
0.4136325
50
86.6893188
51
88.9359537
0
ARC
8
DEFAULT_255_2_778
10
11.1431161
20
2.6910044
40
0.0296646
50
193.8541145
51
294.9179542
0
ARC
8
DEFAULT_255_2_778
10
11.1308926
20
2.6830361
40
0.0166008
50
78.4573016
51
177.0131061
0
ARC
8
DEFAULT_255_2_778
10
11.1308824
20
3.1143119
40
0.4150241
50
270.4600048
51
279.4518421
0
ARC
8
DEFAULT_255_2_778
10
11.1434526
20
3.0346602
40
0.3343901
50
279.5684833
51
281.6305737
0
ARC
8
DEFAULT_255_2_778
10
11.1607226
20
2.9551101
40
0.2529931
50
281.4317223
51
288.0744707
0
ARC
8
DEFAULT_255_2_778
10
11.2114333
20
2.7992606
40
0.0891012
50
288.1673332
51
354.6086318
0
ARC
8
DEFAULT_255_2_778
10
10.7482505
20
2.9131043
40
0.56526
50
347.5134165
51
357.764788
0
ARC
8
DEFAULT_255_2_778
10
8.8490275
20
3.0203968
40
2.4674453
50
356.9952883
51
0.0889824
0
ARC
8
DEFAULT_255_2_778
10
5.6074169
20
3.0467989
40
5.7090975
50
359.7734886
51
0.0040367
0
ARC
8
DEFAULT_255_2_778
10
12.0407389
20
4.5224798
40
0.7217173
50
174.2083283
51
180.9192496
0
ARC
8
DEFAULT_255_2_778
10
11.375982
20
4.5985046
40
0.0533721
50
133.2799445
51
183.4319738
0
ARC
8
DEFAULT_255_2_778
10
11.3469187
20
4.6229187
40
0.0162851
50
88.9594342
51
117.5277238
0
ARC
8
DEFAULT_255_2_778
10
11.3395564
20
4.5984586
40
0.041456
50
44.3625441
51
79.3547927
0
ARC
8
DEFAULT_255_2_778
10
11.1553838
20
4.3810686
40
0.3262147
50
42.2311045
51
49.0478033
0
ARC
8
DEFAULT_255_2_778
10
10.5874024
20
3.8452416
40
1.1070138
50
42.4468806
51
43.0071977
0
ARC
8
DEFAULT_255_2_778
10
12.1229656
20
5.230495
40
0.9611044
50
221.6016194
51
224.4537895
0
ARC
8
DEFAULT_255_2_778
10
11.8477943
20
4.3109742
40
0.9922204
50
0.0419777
51
7.0491111
0
ARC
8
DEFAULT_255_2_778
10
12.6720832
20
4.4230072
40
0.1607264
50
3.4714899
51
39.5446762
0
ARC
8
DEFAULT_255_2_778
10
12.7163527
20
4.4431495
40
0.1144664
50
45.8911743
51
77.9678597
0
ARC
8
DEFAULT_255_2_778
10
12.6084222
20
3.8790861
40
0.688742
50
78.9682996
51
89.4931879
0
ARC
8
DEFAULT_255_2_778
10
12.6100696
20
4.582802
40
0.0156455
50
168.9481453
51
286.504643
0
ARC
8
DEFAULT_255_2_778
10
12.624023
20
4.5739046
40
0.0316311
50
70.1450581
51
157.9074003
0
ARC
8
DEFAULT_255_2_778
10
12.6454177
20
4.2158734
40
0.3879281
50
89.9118708
51
91.573399
0
ARC
8
DEFAULT_255_2_778
10
13.1427141
20
4.5608808
40
0.0446205
50
40.8790466
51
105.8672542
0
ARC
8
DEFAULT_255_2_778
10
13.1614747
20
4.5859355
40
0.0155404
50
359.504602
51
15.4802257
0
ARC
8
DEFAULT_255_2_778
10
13.1544279
20
4.5901579
40
0.0230028
50
256.3881983
51
349.0822504
0
ARC
8
DEFAULT_255_2_778
10
13.1458768
20
4.3480659
40
0.2197576
50
89.1819308
51
89.9999794
0
ARC
8
DEFAULT_255_2_778
10
13.1458753
20
4.3486177
40
0.2192059
50
89.999571
51
105.5489883
0
ARC
8
DEFAULT_255_2_778
10
13.1055759
20
4.4509703
40
0.1103856
50
99.6276795
51
185.9932897
0
ARC
8
DEFAULT_255_2_778
10
14.0529242
20
4.3464278
40
1.0612149
50
174.9714961
51
180.8059285
0
ARC
8
DEFAULT_255_2_778
10
9.5649703
20
2.81529
40
3.4215673
50
358.5358974
51
0.2111806
0
ARC
8
DEFAULT_255_2_778
10
12.5661685
20
2.7303084
40
0.4192592
50
351.2597458
51
359.6663212
0
ARC
8
DEFAULT_255_2_778
10
12.9628349
20
2.6635753
40
0.0179804
50
271.5281652
51
9.6838427
0
ARC
8
DEFAULT_255_2_778
10
12.9727666
20
2.7025549
40
0.0577328
50
225.1173572
51
260.576949
0
ARC
8
DEFAULT_255_2_778
10
13.4093253
20
3.2512227
40
0.7585589
50
225.4888397
51
231.0076179
0
ARC
8
DEFAULT_255_2_778
10
15.8400182
20
5.7905683
40
4.273691
50
224.7946609
51
226.1168551
0
ARC
8
DEFAULT_255_2_778
10
20.5034601
20
10.4548853
40
10.869395
50
224.6963615
51
224.9225256
0
ARC
8
DEFAULT_255_2_778
10
15.3485417
20
4.2291752
40
0.9309771
50
156.3511571
51
160.6201249
0
ARC
8
DEFAULT_255_2_778
10
14.5654984
20
4.5796017
40
0.0734506
50
130.5350491
51
161.7382573
0
ARC
8
DEFAULT_255_2_778
10
14.5273655
20
4.6195359
40
0.0185657
50
118.3367236
51
121.1498768
0
ARC
8
DEFAULT_255_2_778
10
14.5266177
20
4.6208466
40
0.0170572
50
89.0032685
51
118.2155576
0
ARC
8
DEFAULT_255_2_778
10
14.527249
20
4.6184355
40
0.0194685
50
66.9395794
51
90.9848188
0
ARC
8
DEFAULT_255_2_778
10
14.5041912
20
4.5889583
40
0.0564563
50
19.2782857
51
57.0781726
0
ARC
8
DEFAULT_255_2_778
10
13.955564
20
4.3208528
40
0.6667289
50
19.7401498
51
25.4724531
0
ARC
8
DEFAULT_255_2_778
10
12.9907986
20
3.9494359
40
1.7004126
50
20.4916611
51
20.5399653
0
ARC
8
DEFAULT_255_2_778
10
16.2796686
20
3.4366152
40
1.1829722
50
201.7632908
51
208.8204248
0
ARC
8
DEFAULT_255_2_778
10
15.6756388
20
3.0994633
40
0.4912493
50
208.3295893
51
221.5563227
0
ARC
8
DEFAULT_255_2_778
10
15.4585762
20
2.903797
40
0.1990389
50
220.8573654
51
248.312471
0
ARC
8
DEFAULT_255_2_778
10
15.4561061
20
2.9068423
40
0.200985
50
249.2876536
51
254.3577011
0
ARC
8
DEFAULT_255_2_778
10
15.5016394
20
3.0303874
40
0.3323985
50
252.5414103
51
269.9713919
0
ARC
8
DEFAULT_255_2_778
10
15.5014962
20
3.0234937
40
0.3255048
50
269.9960017
51
270.4960756
0
ARC
8
DEFAULT_255_2_778
10
15.5111978
20
2.6790895
40
0.0201254
50
10.0490298
51
110.0003065
0
ARC
8
DEFAULT_255_2_778
10
15.4974112
20
2.7004479
40
0.0380484
50
258.7470742
51
332.0271063
0
ARC
8
DEFAULT_255_2_778
10
15.4798285
20
2.8193791
40
0.1565779
50
269.9582327
51
273.7196522
0
ARC
8
DEFAULT_255_2_778
10
15.4769703
20
18.759857
40
16.0970561
50
269.8353888
51
270.0097672
0
ARC
8
DEFAULT_255_2_778
10
15.4783754
20
19.1815333
40
16.5187345
50
269.4279442
51
269.8347173
0
ARC
8
DEFAULT_255_2_778
10
15.4348417
20
15.4394462
40
12.7764008
50
268.5655126
51
269.4556145
0
ARC
8
DEFAULT_255_2_778
10
15.3439924
20
11.5487598
40
8.8846618
50
268.2799771
51
268.52309
0
ARC
8
DEFAULT_255_2_778
10
14.4512453
20
-9.2711427
40
11.9556474
50
86.998278
51
87.0934248
0
ARC
8
DEFAULT_255_2_778
10
15.0528871
20
2.8185522
40
0.1494985
50
251.8818185
51
271.7631731
0
ARC
8
DEFAULT_255_2_778
10
15.0104653
20
2.6860931
40
0.0104514
50
180.5039202
51
247.0876752
0
ARC
8
DEFAULT_255_2_778
10
15.0196834
20
2.6843322
40
0.0197396
50
94.8500712
51
175.1500856
0
ARC
8
DEFAULT_255_2_778
10
15.00277
20
2.7379112
40
0.0371791
50
294.2064779
51
5.9414177
0
ARC
8
DEFAULT_255_2_778
10
14.9495364
20
2.7398361
40
0.0902335
50
1.2215097
51
21.6326988
0
ARC
8
DEFAULT_255_2_778
10
14.713177
20
3.3625022
40
0.091333
50
27.8726643
51
29.2270554
0
ARC
8
DEFAULT_255_2_778
10
14.7726869
20
3.3987449
40
0.0218547
50
22.4693256
51
95.4416485
0
ARC
8
DEFAULT_255_2_778
10
14.2198266
20
3.3911183
40
0.0294168
50
92.7515983
51
160.9882937
0
ARC
8
DEFAULT_255_2_778
10
14.5436671
20
2.7514885
40
0.5410726
50
158.8286753
51
177.4881934
0
ARC
8
DEFAULT_255_2_778
10
14.0833033
20
2.7824486
40
0.0805157
50
185.1643224
51
269.2274718
0
ARC
8
DEFAULT_255_2_778
10
14.1011281
20
2.8347987
40
0.1341977
50
261.8992327
51
269.9514622
0
ARC
8
DEFAULT_255_2_778
10
14.1344028
20
2.681326
40
0.0204026
50
11.2350701
51
109.1366044
0
ARC
8
DEFAULT_255_2_778
10
14.1260419
20
2.6929491
40
0.0293852
50
249.6320373
51
344.9141359
0
ARC
8
DEFAULT_255_2_778
10
14.1317213
20
4.5666154
40
1.9012808
50
267.0632552
51
269.5206333
0
ARC
8
DEFAULT_255_2_778
10
14.333255
20
9.0909441
40
6.4300655
50
267.0584029
51
267.3352778
0
ARC
8
DEFAULT_255_2_778
10
13.3673245
20
-9.247081
40
11.9333898
50
86.9451546
51
87.2505869
0
ARC
8
DEFAULT_255_2_778
10
13.9094258
20
2.0750347
40
0.5983061
50
87.0953801
51
89.3403121
0
ARC
8
DEFAULT_255_2_778
10
13.615619
20
2.7218321
40
0.0574356
50
231.6914779
51
280.7319792
0
ARC
8
DEFAULT_255_2_778
10
13.5925281
20
2.684888
40
0.0149195
50
178.4132204
51
212.9952942
0
ARC
8
DEFAULT_255_2_778
10
13.5967835
20
2.6815004
40
0.0195423
50
77.7967322
51
168.7852896
0
ARC
8
DEFAULT_255_2_778
10
13.5857137
20
3.4422095
40
0.7417641
50
271.1742224
51
276.9534932
0
ARC
8
DEFAULT_255_2_778
10
13.629896
20
2.9448675
40
0.2432817
50
280.8076592
51
344.2512995
0
ARC
8
DEFAULT_255_2_778
10
12.825531
20
3.32791
40
1.1314499
50
336.6154131
51
340.3536486
0
ARC
8
DEFAULT_255_2_778
10
14.7390677
20
3.5211833
40
0.0092419
50
253.9618752
51
1.0732681
0
ARC
8
DEFAULT_255_2_778
10
14.7167845
20
3.5200211
40
0.0315517
50
2.4256658
51
19.0151294
0
ARC
8
DEFAULT_255_2_778
10
14.3843967
20
4.18285
40
0.1250696
50
18.3387072
51
25.9599622
0
ARC
8
DEFAULT_255_2_778
10
14.4772223
20
4.2317573
40
0.0204754
50
16.5751397
51
71.1152544
0
ARC
8
DEFAULT_255_2_778
10
14.4833264
20
4.2445638
40
0.0065874
50
85.4460788
51
89.9956366
0
ARC
8
DEFAULT_255_2_778
10
14.4898824
20
4.2310007
40
0.02119
50
108.0212398
51
169.4876662
0
ARC
8
DEFAULT_255_2_778
10
14.5924168
20
4.1835612
40
0.1336116
50
157.4189402
51
163.1901819
0
ARC
8
DEFAULT_255_2_778
10
14.2614413
20
3.5200851
40
0.0252828
50
156.1671667
51
177.6458298
0
ARC
8
DEFAULT_255_2_778
10
14.2447588
20
3.5207634
40
0.0085865
50
177.5949882
51
279.7600415
0
ARC
8
DEFAULT_255_2_778
10
28.4397594
20
3.3874263
40
11.9734539
50
179.9302557
51
180.8413435
0
ARC
8
DEFAULT_255_2_778
10
20.8145646
20
3.2690048
40
4.347347
50
180.7564321
51
182.8648457
0
ARC
8
DEFAULT_255_2_778
10
17.8390962
20
3.112754
40
1.3678076
50
182.5573302
51
187.9438876
0
ARC
8
DEFAULT_255_2_778
10
16.784051
20
2.9575271
40
0.3015381
50
186.4375593
51
203.7363441
0
ARC
8
DEFAULT_255_2_778
10
16.582139
20
2.8717316
40
0.0822168
50
205.6444162
51
224.0172817
0
ARC
8
DEFAULT_255_2_778
10
16.6507986
20
2.9470783
40
0.1840625
50
226.0330418
51
258.1411376
0
ARC
8
DEFAULT_255_2_778
10
16.7530296
20
3.3529468
40
0.6025069
50
256.558309
51
267.0164252
0
ARC
8
DEFAULT_255_2_778
10
16.8242251
20
4.3582765
40
1.6102892
50
266.3484839
51
270.2380118
0
ARC
8
DEFAULT_255_2_778
10
16.8662877
20
3.6730692
40
0.9257441
50
267.8101556
51
280.1047163
0
ARC
8
DEFAULT_255_2_778
10
16.9939588
20
2.9555636
40
0.1969683
50
280.1611514
51
318.5593007
0
ARC
8
DEFAULT_255_2_778
10
16.9241491
20
3.0108579
40
0.2859364
50
319.5116079
51
353.4419422
0
ARC
8
DEFAULT_255_2_778
10
17.2367737
20
2.9830197
40
0.0289629
50
100.462146
51
189.5769121
0
ARC
8
DEFAULT_255_2_778
10
17.227239
20
2.9892307
40
0.0226772
50
330.1655725
51
79.1327882
0
ARC
8
DEFAULT_255_2_778
10
15.0296258
20
2.9738437
40
2.2172886
50
359.9756434
51
0.1060798
0
ARC
8
DEFAULT_255_2_778
10
15.6004515
20
3.0894177
40
1.6505806
50
346.9210162
51
355.9520529
0
ARC
8
DEFAULT_255_2_778
10
16.7176587
20
2.8473804
40
0.5078698
50
343.4926644
51
344.9961613
0
ARC
8
DEFAULT_255_2_778
10
17.1386611
20
2.7133632
40
0.0667325
50
257.558721
51
351.1314828
0
ARC
8
DEFAULT_255_2_778
10
17.0613308
20
4.0923216
40
1.4454954
50
269.4166705
51
272.4961089
0
ARC
8
DEFAULT_255_2_778
10
17.0449698
20
15.0104274
40
12.3635264
50
269.4090929
51
270.0076216
0
ARC
8
DEFAULT_255_2_778
10
17.0301436
20
13.564132
40
10.9171549
50
268.6522188
51
269.4086186
0
ARC
8
DEFAULT_255_2_778
10
17.05069
20
14.2991546
40
11.6524579
50
267.9787624
51
268.6362274
0
ARC
8
DEFAULT_255_2_778
10
17.2088333
20
18.944003
40
16.2999951
50
267.9391253
51
267.9990747
0
ARC
8
DEFAULT_255_2_778
10
17.249437
20
20.0834363
40
17.4401514
50
267.9241168
51
267.9404332
0
ARC
8
DEFAULT_255_2_778
10
17.2547827
20
20.2303469
40
17.5871591
50
267.9082452
51
267.9240493
0
ARC
8
DEFAULT_255_2_778
10
17.2485574
20
20.0623099
40
17.4190069
50
267.8929456
51
267.9085343
0
ARC
8
DEFAULT_255_2_778
10
17.2440089
20
19.9870931
40
17.343674
50
267.8835276
51
267.8988255
0
ARC
8
DEFAULT_255_2_778
10
15.3868224
20
-28.6637798
40
31.342654
50
87.7753189
51
88.0150665
0
ARC
8
DEFAULT_255_2_778
10
16.3504023
20
-0.8092186
40
3.4714318
50
87.9855526
51
89.8496052
0
ARC
8
DEFAULT_255_2_778
10
16.0972268
20
2.686527
40
0.0340154
50
207.5526551
51
288.6677302
0
ARC
8
DEFAULT_255_2_778
10
16.0873947
20
2.674022
40
0.0205804
50
179.779787
51
189.0277013
0
ARC
8
DEFAULT_255_2_778
10
16.0831439
20
2.6735575
40
0.0163385
50
77.3770432
51
178.0933356
0
ARC
8
DEFAULT_255_2_778
10
16.0681051
20
3.136165
40
0.4470513
50
272.385726
51
282.375281
0
ARC
8
DEFAULT_255_2_778
10
16.1322492
20
2.7921549
40
0.0979153
50
288.8683143
51
359.6703279
0
ARC
8
DEFAULT_255_2_778
10
15.45865
20
2.9482789
40
0.787263
50
348.5198746
51
352.1387393
0
ARC
8
DEFAULT_255_2_778
10
14.6593031
20
3.0159543
40
1.5889169
50
353.6639224
51
358.2661838
0
ARC
8
DEFAULT_255_2_778
10
9.8832555
20
3.1890998
40
6.3680806
50
358.0092076
51
359.7471156
0
ARC
8
DEFAULT_255_2_778
10
-16.4949527
20
3.3540702
40
32.7467961
50
359.662179
51
0.0759895
0
ARC
8
DEFAULT_255_2_778
10
16.0717789
20
4.4103343
40
0.1748396
50
358.0225125
51
34.7691561
0
ARC
8
DEFAULT_255_2_778
10
16.1174422
20
4.4163713
40
0.1355362
50
43.7172974
51
82.0387396
0
ARC
8
DEFAULT_255_2_778
10
16.0515702
20
4.1012616
40
0.4572425
50
79.3319374
51
90.04259
0
ARC
8
DEFAULT_255_2_778
10
16.0511726
20
4.0921965
40
0.4663074
50
89.9929123
51
90.1914615
0
ARC
8
DEFAULT_255_2_778
10
16.0471912
20
4.5758142
40
0.0174818
50
186.2823586
51
277.9675339
0
ARC
8
DEFAULT_255_2_778
10
16.0575749
20
4.5673499
40
0.028523
50
67.4271345
51
166.7215654
0
ARC
8
DEFAULT_255_2_778
10
16.0711119
20
4.3437481
40
0.249953
50
89.9994213
51
90.5933053
0
ARC
8
DEFAULT_255_2_778
10
16.6487359
20
4.5616991
40
0.0338144
50
26.901198
51
108.8434649
0
ARC
8
DEFAULT_255_2_778
10
16.6584826
20
4.5739698
40
0.020632
50
359.8093386
51
8.4412682
0
ARC
8
DEFAULT_255_2_778
10
16.6622121
20
4.5756863
40
0.0169963
50
270.2738084
51
353.9711381
0
ARC
8
DEFAULT_255_2_778
10
16.659195
20
4.5839624
40
0.0254614
50
270.0436406
51
276.9894821
0
ARC
8
DEFAULT_255_2_778
10
16.6738855
20
3.9469746
40
0.6117025
50
91.3743122
51
99.3206523
0
ARC
8
DEFAULT_255_2_778
10
16.5890888
20
4.4377088
40
0.1137912
50
97.2063759
51
187.6699354
0
ARC
8
DEFAULT_255_2_778
10
17.0256714
20
4.3771549
40
0.5512258
50
175.2791361
51
177.1772053
0
ARC
8
DEFAULT_255_2_778
10
18.5183686
20
4.2717825
40
2.047547
50
176.2891855
51
176.5026803
0
ARC
8
DEFAULT_255_2_778
10
18.6546911
20
4.2685008
40
2.1838215
50
176.634921
51
179.3954438
0
ARC
8
DEFAULT_255_2_778
10
26.1653441
20
4.1579821
40
9.6952728
50
179.2106751
51
179.8565131
0
ARC
8
DEFAULT_255_2_778
10
61.7220794
20
4.0307185
40
45.2522315
50
179.8081239
51
179.9823378
0
ARC
8
DEFAULT_255_2_778
10
284.3589325
20
3.9034597
40
267.8891194
50
179.9697985
51
180.0054604
0
LINE
8
DEFAULT_255_2_778
10
16.4698145
20
3.8779292
11
16.4698144
21
3.8500011
0
ARC
8
DEFAULT_255_2_778
10
2.3545895
20
1.3096303
40
1.1124685
50
156.8908679
51
160.2418362
0
ARC
8
DEFAULT_255_2_778
10
1.449364
20
1.7022163
40
0.1259292
50
139.8254776
51
159.5299043
0
ARC
8
DEFAULT_255_2_778
10
1.3810002
20
1.7557228
40
0.0393077
50
134.4745509
51
135.1276888
0
ARC
8
DEFAULT_255_2_778
10
1.3729508
20
1.7649073
40
0.0271232
50
87.3297976
51
135.9341881
0
ARC
8
DEFAULT_255_2_778
10
1.3760707
20
1.767766
40
0.0243061
50
44.7416315
51
94.3799518
0
ARC
8
DEFAULT_255_2_778
10
1.3082659
20
1.7116686
40
0.112232
50
23.3833056
51
40.7138502
0
ARC
8
DEFAULT_255_2_778
10
-0.6992044
20
0.7299139
40
2.3467919
50
24.5159605
51
25.9329658
0
ARC
8
DEFAULT_255_2_778
10
8.8004863
20
5.1225684
40
8.1193632
50
204.9024759
51
204.9811288
0
ARC
8
DEFAULT_255_2_778
10
3.2345226
20
0.5040955
40
1.2448578
50
201.6164187
51
208.5606296
0
ARC
8
DEFAULT_255_2_778
10
2.615881
20
0.1626804
40
0.5382866
50
208.1238487
51
220.7901887
0
ARC
8
DEFAULT_255_2_778
10
2.3818766
20
-0.0423414
40
0.2271935
50
220.1973886
51
245.1256356
0
ARC
8
DEFAULT_255_2_778
10
2.3763374
20
-0.0439681
40
0.2234298
50
246.2389243
51
253.3219226
0
ARC
8
DEFAULT_255_2_778
10
2.4193374
20
0.0790832
40
0.3536943
50
252.3700016
51
269.8612453
0
ARC
8
DEFAULT_255_2_778
10
2.4184807
20
0.059013
40
0.3336229
50
270.0000372
51
270.4694944
0
ARC
8
DEFAULT_255_2_778
10
2.428384
20
-0.29283
40
0.0195903
50
4.4827555
51
111.4677605
0
ARC
8
DEFAULT_255_2_778
10
2.4119096
20
-0.2734696
40
0.0401774
50
259.1414506
51
333.6557797
0
ARC
8
DEFAULT_255_2_778
10
2.3935339
20
-0.1557342
40
0.1575646
50
269.956551
51
273.9328334
0
ARC
8
DEFAULT_255_2_778
10
2.3904655
20
17.8000766
40
18.1133757
50
269.8395316
51
270.0093279
0
ARC
8
DEFAULT_255_2_778
10
2.3925111
20
18.4229339
40
18.7362363
50
269.5107296
51
269.8386107
0
ARC
8
DEFAULT_255_2_778
10
2.3505091
20
14.4437085
40
14.7567996
50
268.6129206
51
269.5418714
0
ARC
8
DEFAULT_255_2_778
10
2.2512939
20
9.9741069
40
10.2861099
50
268.4012568
51
268.5627423
0
ARC
8
DEFAULT_255_2_778
10
1.11359
20
-17.0376258
40
16.7512432
50
87.0889388
51
87.1570577
0
ARC
8
DEFAULT_255_2_778
10
1.9401547
20
-0.1390299
40
0.1680236
50
252.837933
51
271.4559763
0
ARC
8
DEFAULT_255_2_778
10
1.8948069
20
-0.2880309
40
0.0122926
50
180.3165155
51
249.863112
0
ARC
8
DEFAULT_255_2_778
10
1.9041445
20
-0.2899379
40
0.0217081
50
94.5711365
51
175.1401831
0
ARC
8
DEFAULT_255_2_778
10
1.8975647
20
-0.2530102
40
0.0160394
50
287.5996507
51
288.1576661
0
ARC
8
DEFAULT_255_2_778
10
1.8881191
20
-0.233215
40
0.0378964
50
292.40446
51
3.7478656
0
ARC
8
DEFAULT_255_2_778
10
1.8564597
20
-0.2321588
40
0.0694891
50
1.1716032
51
25.8146934
0
ARC
8
DEFAULT_255_2_778
10
1.6418504
20
0.4560982
40
0.0241586
50
18.0935977
51
93.883101
0
ARC
8
DEFAULT_255_2_778
10
1.0390295
20
0.45259
40
0.027612
50
90.4462343
51
168.0629766
0
ARC
8
DEFAULT_255_2_778
10
1.382339
20
-0.233952
40
0.5733033
50
158.6678145
51
177.4253696
0
ARC
8
DEFAULT_255_2_778
10
0.8948562
20
-0.2007191
40
0.0855694
50
185.0147002
51
267.2829394
0
ARC
8
DEFAULT_255_2_778
10
0.9135325
20
-0.1516377
40
0.1364612
50
260.4106074
51
269.9084458
0
ARC
8
DEFAULT_255_2_778
10
0.9473445
20
-0.3062334
40
0.0195227
50
4.213951
51
111.7367125
0
ARC
8
DEFAULT_255_2_778
10
0.9360815
20
-0.2968707
40
0.031739
50
250.55274
51
345.534844
0
ARC
8
DEFAULT_255_2_778
10
0.9399781
20
1.6967273
40
2.0235778
50
267.3024852
51
269.590471
0
ARC
8
DEFAULT_255_2_778
10
1.0525756
20
4.5493316
40
4.8783692
50
267.4897221
51
267.5582856
0
ARC
8
DEFAULT_255_2_778
10
1.1539206
20
6.8079158
40
7.139225
50
267.2021559
51
267.4710637
0
ARC
8
DEFAULT_255_2_778
10
-0.6757286
20
-30.0378881
40
29.7519812
50
87.1464162
51
87.2548527
0
ARC
8
DEFAULT_255_2_778
10
0.6982979
20
-1.274941
40
0.9562479
50
86.9487151
51
89.1481541
0
ARC
8
DEFAULT_255_2_778
10
0.3926654
20
-0.2653456
40
0.0624564
50
232.8818004
51
280.2829264
0
ARC
8
DEFAULT_255_2_778
10
0.3689622
20
-0.305384
40
0.0170577
50
178.0341971
51
214.9179286
0
ARC
8
DEFAULT_255_2_778
10
0.3722127
20
-0.3082308
40
0.0205864
50
77.9388196
51
170.4033489
0
ARC
8
DEFAULT_255_2_778
10
0.4157298
20
-0.0369876
40
0.2490261
50
279.2163265
51
345.4592559
0
ARC
8
DEFAULT_255_2_778
10
-0.6078543
20
0.4310319
40
1.3714129
50
337.240865
51
339.8537977
0
ARC
8
DEFAULT_255_2_778
10
-2.1279491
20
0.9994371
40
2.9942887
50
339.6608761
51
339.9749748
0
ARC
8
DEFAULT_255_2_778
10
1.5942232
20
0.6019054
40
0.00954
50
254.7532423
51
4.6991176
0
ARC
8
DEFAULT_255_2_778
10
1.5572764
20
0.600989
40
0.0464859
50
2.0931504
51
14.3382717
0
ARC
8
DEFAULT_255_2_778
10
1.2681254
20
1.3279498
40
0.0700483
50
13.583196
51
39.4222001
0
ARC
8
DEFAULT_255_2_778
10
1.3155399
20
1.366089
40
0.0092244
50
43.4479102
51
87.0513728
0
ARC
8
DEFAULT_255_2_778
10
1.323536
20
1.3527155
40
0.0238051
50
108.4190395
51
167.3718375
0
ARC
8
DEFAULT_255_2_778
10
1.4428803
20
1.2932173
40
0.1565685
50
155.5905499
51
160.9186318
0
ARC
8
DEFAULT_255_2_778
10
1.0792135
20
0.602171
40
0.0259444
50
156.5363698
51
178.1826508
0
ARC
8
DEFAULT_255_2_778
10
1.0626978
20
0.6021293
40
0.0094553
50
174.7541322
51
274.3466741
0
ARC
8
DEFAULT_255_2_778
10
2.9461374
20
1.5567073
40
0.1993503
50
358.4460231
51
30.5133806
0
ARC
8
DEFAULT_255_2_778
10
3.0120066
20
1.5701858
40
0.137504
50
39.6493042
51
83.4824288
0
ARC
8
DEFAULT_255_2_778
10
2.9603965
20
1.3742736
40
0.3392533
50
78.5720866
51
86.8487645
0
ARC
8
DEFAULT_255_2_778
10
2.9301908
20
1.0513102
40
0.6635049
50
85.7773861
51
89.626636
0
ARC
8
DEFAULT_255_2_778
10
2.9345209
20
1.7469379
40
0.0321367
50
266.2557107
51
269.9883703
0
ARC
8
DEFAULT_255_2_778
10
2.9309781
20
1.7333831
40
0.0185696
50
186.1268238
51
274.4604665
0
ARC
8
DEFAULT_255_2_778
10
2.9407188
20
1.7266288
40
0.0286053
50
69.0192172
51
170.3961018
0
ARC
8
DEFAULT_255_2_778
10
2.9564
20
1.5209168
40
0.2324844
50
89.9717997
51
91.3405438
0
ARC
8
DEFAULT_255_2_778
10
3.5927711
20
-0.1916244
40
1.9450314
50
87.1115927
51
90.1401207
0
ARC
8
DEFAULT_255_2_778
10
3.6888483
20
1.0128216
40
0.7381168
50
57.234879
51
89.8498258
0
ARC
8
DEFAULT_255_2_778
10
3.7981581
20
1.2528433
40
0.4786346
50
1.0364647
51
52.6835553
0
ARC
8
DEFAULT_255_2_778
10
3.5998166
20
1.2604594
40
0.6768987
50
331.7743427
51
0.0881779
0
ARC
8
DEFAULT_255_2_778
10
3.3081256
20
1.4167819
40
1.0078371
50
317.9530399
51
331.7868198
0
ARC
8
DEFAULT_255_2_778
10
2.8912664
20
1.7771877
40
1.5588161
50
312.5811712
51
318.3776114
0
ARC
8
DEFAULT_255_2_778
10
5.1291726
20
0.5041923
40
0.8416956
50
223.0517846
51
234.2181926
0
ARC
8
DEFAULT_255_2_778
10
4.9491025
20
0.2532207
40
0.5328085
50
234.1470654
51
248.9454917
0
ARC
8
DEFAULT_255_2_778
10
4.9126382
20
0.1682224
40
0.4403985
50
249.4000417
51
261.3778086
0
ARC
8
DEFAULT_255_2_778
10
4.9479746
20
0.3725339
40
0.6477128
50
260.9968136
51
267.7506801
0
ARC
8
DEFAULT_255_2_778
10
4.9491869
20
0.3947625
40
0.669972
50
267.7216947
51
270.0024005
0
ARC
8
DEFAULT_255_2_778
10
4.9492505
20
0.3930146
40
0.6682241
50
269.9969523
51
270.3227324
0
ARC
8
DEFAULT_255_2_778
10
4.9558591
20
-0.2975107
40
0.0224925
50
14.7109654
51
97.2659332
0
ARC
8
DEFAULT_255_2_778
10
4.9504035
20
-0.2860701
40
0.0278074
50
253.3371263
51
348.1109604
0
ARC
8
DEFAULT_255_2_778
10
4.9139549
20
0.0547186
40
0.3685301
50
269.5272906
51
274.4314821
0
ARC
8
DEFAULT_255_2_778
10
4.703127
20
0.9993838
40
1.3132529
50
264.7080668
51
270.5928162
0
ARC
8
DEFAULT_255_2_778
10
4.6120059
20
0.0873018
40
0.3967094
50
242.8810452
51
265.6629259
0
ARC
8
DEFAULT_255_2_778
10
4.6402159
20
0.137835
40
0.4545512
50
241.5704836
51
242.6196631
0
ARC
8
DEFAULT_255_2_778
10
4.6479337
20
0.1448173
40
0.4643786
50
227.129446
51
241.143218
0
ARC
8
DEFAULT_255_2_778
10
5.090085
20
0.6156497
40
1.1102695
50
218.582209
51
226.9374072
0
ARC
8
DEFAULT_255_2_778
10
7.2016943
20
2.3487419
40
3.8419516
50
217.2620133
51
219.1475061
0
ARC
8
DEFAULT_255_2_778
10
46.3558204
20
32.2086477
40
53.0827812
50
217.1659191
51
217.3251166
0
ARC
8
DEFAULT_255_2_778
10
3.6823938
20
0.470706
40
0.1048053
50
44.7582103
51
49.0728938
0
ARC
8
DEFAULT_255_2_778
10
3.7224858
20
0.5195062
40
0.0417041
50
46.7674048
51
91.1973322
0
ARC
8
DEFAULT_255_2_778
10
3.3843421
20
0.5477363
40
0.018808
50
86.1210016
51
189.9045734
0
ARC
8
DEFAULT_255_2_778
10
3.5463626
20
-0.1275737
40
0.1674812
50
177.7159219
51
225.7220497
0
ARC
8
DEFAULT_255_2_778
10
3.5095476
20
-0.1363139
40
0.1370269
50
234.2230394
51
259.8561445
0
ARC
8
DEFAULT_255_2_778
10
3.6527424
20
0.9514945
40
1.2340898
50
262.2073649
51
267.9415143
0
ARC
8
DEFAULT_255_2_778
10
3.6127773
20
-0.298787
40
0.0175394
50
0.9413358
51
104.4034642
0
ARC
8
DEFAULT_255_2_778
10
3.6006547
20
-0.2909522
40
0.0306048
50
253.5082068
51
345.7245011
0
ARC
8
DEFAULT_255_2_778
10
3.5864974
20
-0.172302
40
0.148097
50
269.9678936
51
272.1164192
0
ARC
8
DEFAULT_255_2_778
10
3.5879813
20
4.7324367
40
5.0528358
50
269.3493065
51
269.9822325
0
ARC
8
DEFAULT_255_2_778
10
3.628161
20
7.7346966
40
8.0553606
50
268.2733683
51
269.306047
0
ARC
8
DEFAULT_255_2_778
10
3.7022176
20
10.4626845
40
10.7843444
50
268.2187569
51
268.3167936
0
ARC
8
DEFAULT_255_2_778
10
3.7074785
20
10.6479477
40
10.9696817
50
268.1981643
51
268.2213699
0
ARC
8
DEFAULT_255_2_778
10
3.6843946
20
9.9234882
40
10.2448545
50
268.1718937
51
268.1998056
0
ARC
8
DEFAULT_255_2_778
10
3.6589293
20
9.1547387
40
9.4756839
50
268.1486082
51
268.1775073
0
ARC
8
DEFAULT_255_2_778
10
3.7547386
20
12.1388198
40
12.4613026
50
268.1290611
51
268.1515885
0
ARC
8
DEFAULT_255_2_778
10
3.7038
20
10.5808178
40
10.9024681
50
268.1031137
51
268.1292998
0
ARC
8
DEFAULT_255_2_778
10
3.6787663
20
9.8570498
40
10.1782681
50
268.0824318
51
268.1090958
0
ARC
8
DEFAULT_255_2_778
10
3.8476191
20
14.9085008
40
15.2325403
50
268.0665217
51
268.083453
0
ARC
8
DEFAULT_255_2_778
10
3.8270249
20
14.2684823
40
14.5921913
50
268.0457607
51
268.0625512
0
ARC
8
DEFAULT_255_2_778
10
3.8104414
20
13.7705853
40
14.0940186
50
268.0276041
51
268.0441142
0
ARC
8
DEFAULT_255_2_778
10
3.7983492
20
13.4256528
40
13.7488745
50
268.0124229
51
268.0284922
0
ARC
8
DEFAULT_255_2_778
10
3.7786714
20
12.884995
40
13.2078597
50
268.0005113
51
268.0163897
0
ARC
8
DEFAULT_255_2_778
10
3.7745291
20
12.772921
40
13.0957094
50
267.9863176
51
268.0015153
0
ARC
8
DEFAULT_255_2_778
10
3.8791721
20
15.7629688
40
16.0875877
50
267.9705353
51
267.9880497
0
ARC
8
DEFAULT_255_2_778
10
3.9288579
20
17.1616743
40
17.4871755
50
267.9552616
51
267.9701368
0
ARC
8
DEFAULT_255_2_778
10
4.1220205
20
22.6045606
40
22.9334883
50
267.9459851
51
267.9581638
0
ARC
8
DEFAULT_255_2_778
10
-0.9046488
20
-116.0934473
40
115.8555796
50
87.9201328
51
87.9367912
0
ARC
8
DEFAULT_255_2_778
10
3.2366927
20
-1.0409943
40
0.7286246
50
87.6645409
51
88.9209257
0
ARC
8
DEFAULT_255_2_778
10
2.9821875
20
-0.2852665
40
0.0369132
50
209.6867714
51
287.8696853
0
ARC
8
DEFAULT_255_2_778
10
2.97338
20
-0.2986718
40
0.0237663
50
179.5831164
51
191.8397641
0
ARC
8
DEFAULT_255_2_778
10
2.9673389
20
-0.2984937
40
0.0177245
50
174.204417
51
180.0167705
0
ARC
8
DEFAULT_255_2_778
10
2.9677531
20
-0.2997038
40
0.0182957
50
78.136448
51
170.5625815
0
ARC
8
DEFAULT_255_2_778
10
2.9600179
20
0.1133308
40
0.3952969
50
271.6665809
51
272.8636138
0
ARC
8
DEFAULT_255_2_778
10
2.9576825
20
0.1450326
40
0.4270763
50
272.9640649
51
282.939523
0
ARC
8
DEFAULT_255_2_778
10
3.0209893
20
-0.1737976
40
0.1026251
50
288.3597517
51
358.6234979
0
ARC
8
DEFAULT_255_2_778
10
2.3804505
20
-0.0184882
40
0.7596982
50
348.0135254
51
352.2526918
0
ARC
8
DEFAULT_255_2_778
10
1.5851024
20
0.0449296
40
1.5569682
50
353.8859869
51
357.7270767
0
ARC
8
DEFAULT_255_2_778
10
-2.3855768
20
0.2120694
40
5.5311604
50
357.628329
51
359.5637601
0
ARC
8
DEFAULT_255_2_778
10
-22.4532763
20
0.3981383
40
25.5997166
50
359.4892902
51
0.0843831
0
ARC
8
DEFAULT_255_2_778
10
-309.1394664
20
0.4702172
40
312.2858807
50
359.9936929
51
0.0013914
0
ARC
8
DEFAULT_255_2_778
10
3.406827
20
0.7227747
40
0.036522
50
178.703391
51
242.7672603
0
ARC
8
DEFAULT_255_2_778
10
3.5049292
20
0.9190524
40
0.2559483
50
243.3470187
51
260.1072567
0
ARC
8
DEFAULT_255_2_778
10
3.6685531
20
1.7143878
40
1.0678515
50
258.7899605
51
269.0407973
0
ARC
8
DEFAULT_255_2_778
10
3.6780409
20
1.8826405
40
1.2362573
50
268.7316772
51
268.8845295
0
ARC
8
DEFAULT_255_2_778
10
3.6762032
20
1.7892594
40
1.1428581
50
268.8855041
51
269.9955488
0
ARC
8
DEFAULT_255_2_778
10
3.6811219
20
1.1857664
40
0.5393885
50
269.4680791
51
278.605368
0
ARC
8
DEFAULT_255_2_778
10
3.7228736
20
0.931706
40
0.28196
50
277.9414616
51
304.0909421
0
ARC
8
DEFAULT_255_2_778
10
3.6718728
20
0.979562
40
0.3505172
50
306.6110952
51
338.1577972
0
ARC
8
DEFAULT_255_2_778
10
3.4133441
20
1.0928508
40
0.6326996
50
337.3454671
51
356.2443832
0
ARC
8
DEFAULT_255_2_778
10
3.1834801
20
1.1187609
40
0.8638346
50
355.5281556
51
0.0490985
0
ARC
8
DEFAULT_255_2_778
10
3.3064091
20
1.1305083
40
0.7409871
50
359.1488563
51
18.6405388
0
ARC
8
DEFAULT_255_2_778
10
3.6039175
20
1.2404808
40
0.4240327
50
17.4093428
51
89.74471
0
ARC
8
DEFAULT_255_2_778
10
3.5818204
20
1.0800648
40
0.5849364
50
87.6498184
51
90.0103804
0
ARC
8
DEFAULT_255_2_778
10
3.5768313
20
0.5520008
40
1.113011
50
89.748628
51
96.9637916
0
ARC
8
DEFAULT_255_2_778
10
3.4730052
20
1.3825964
40
0.2759647
50
96.4744157
51
105.5953623
0
ARC
8
DEFAULT_255_2_778
10
3.410824
20
1.6166468
40
0.0339495
50
110.716758
51
182.7784421
0
ARC
8
DEFAULT_255_2_778
10
6.0718039
20
0.6551084
40
0.9516604
50
212.2037676
51
228.2422302
0
ARC
8
DEFAULT_255_2_778
10
6.1081913
20
0.6729874
40
0.9919872
50
195.1188492
51
211.9575063
0
ARC
8
DEFAULT_255_2_778
10
6.3421532
20
0.7357216
40
1.2342135
50
182.9483889
51
195.0975109
0
ARC
8
DEFAULT_255_2_778
10
6.5780974
20
0.7537293
40
1.4707832
50
179.9777236
51
183.1761954
0
ARC
8
DEFAULT_255_2_778
10
6.1980414
20
0.7424504
40
1.0907913
50
135.9982862
51
179.3775033
0
ARC
8
DEFAULT_255_2_778
10
6.053842
20
0.8615952
40
0.9044142
50
115.7478272
51
135.0815998
0
ARC
8
DEFAULT_255_2_778
10
6.1312026
20
0.6919487
40
1.0908309
50
101.4155942
51
115.536864
0
ARC
8
DEFAULT_255_2_778
10
6.2242155
20
0.2424511
40
1.5498474
50
91.6952559
51
101.4971636
0
ARC
8
DEFAULT_255_2_778
10
6.2465632
20
-0.1767141
40
1.9695153
50
89.9839637
51
91.9843516
0
ARC
8
DEFAULT_255_2_778
10
6.2525396
20
-0.5802322
40
2.3730396
50
90.0021478
51
90.130989
0
ARC
8
DEFAULT_255_2_778
10
6.2520398
20
-0.5831315
40
2.3759388
50
80.5114535
51
89.9900926
0
ARC
8
DEFAULT_255_2_778
10
6.92983
20
1.6912375
40
0.0285643
50
355.7108131
51
103.5977705
0
ARC
8
DEFAULT_255_2_778
10
6.6687791
20
1.6983076
40
0.2896816
50
351.8282181
51
358.1787566
0
ARC
8
DEFAULT_255_2_778
10
8.6162706
20
1.4520904
40
1.6733608
50
172.9617039
51
174.96359
0
ARC
8
DEFAULT_255_2_778
10
8.7441116
20
1.4436801
40
1.8014488
50
175.0540827
51
176.48742
0
ARC
8
DEFAULT_255_2_778
10
9.1434066
20
1.4179788
40
2.2015687
50
176.456472
51
176.9217845
0
ARC
8
DEFAULT_255_2_778
10
6.8375068
20
1.2494537
40
0.0997458
50
332.5823417
51
3.0156068
0
ARC
8
DEFAULT_255_2_778
10
6.9133685
20
1.2138004
40
0.0163217
50
267.0005628
51
320.9758718
0
ARC
8
DEFAULT_255_2_778
10
6.9185957
20
1.2244104
40
0.0275879
50
168.0725654
51
257.2655226
0
ARC
8
DEFAULT_255_2_778
10
7.126313
20
1.2528275
40
0.2358062
50
179.5447433
51
185.5279284
0
ARC
8
DEFAULT_255_2_778
10
6.4884047
20
1.2544566
40
0.4021097
50
0.034844
51
5.3266711
0
ARC
8
DEFAULT_255_2_778
10
6.5186287
20
1.2669289
40
0.370983
50
3.8418972
51
46.0688258
0
ARC
8
DEFAULT_255_2_778
10
6.4512754
20
1.1301576
40
0.5182912
50
51.2034435
51
68.4061731
0
ARC
8
DEFAULT_255_2_778
10
6.2613876
20
0.6800573
40
1.0067442
50
67.7850853
51
81.6027203
0
ARC
8
DEFAULT_255_2_778
10
6.2303717
20
0.5168528
40
1.1727484
50
81.2680755
51
89.9979147
0
ARC
8
DEFAULT_255_2_778
10
6.223348
20
0.183326
40
1.5062918
50
89.7312084
51
97.4795831
0
ARC
8
DEFAULT_255_2_778
10
6.1536427
20
0.7011972
40
0.9837548
50
97.3806107
51
108.1003592
0
ARC
8
DEFAULT_255_2_778
10
6.0584208
20
0.9916505
40
0.6780911
50
108.0774593
51
122.3085157
0
ARC
8
DEFAULT_255_2_778
10
6.0144854
20
1.0667152
40
0.5911728
50
122.5980099
51
129.7713384
0
ARC
8
DEFAULT_255_2_778
10
6.0314982
20
1.046696
40
0.6174434
50
129.7963261
51
134.0996172
0
ARC
8
DEFAULT_255_2_778
10
6.1935182
20
0.9023734
40
0.8339888
50
135.1931499
51
179.8305367
0
ARC
8
DEFAULT_255_2_778
10
7.3567433
20
0.7811993
40
2.0010337
50
176.457527
51
180.1259334
0
ARC
8
DEFAULT_255_2_778
10
6.3480631
20
0.7669818
40
0.9923972
50
179.4330735
51
256.6864902
0
ARC
8
DEFAULT_255_2_778
10
6.340414
20
0.7948035
40
1.0178041
50
257.4661906
51
270.1069783
0
ARC
8
DEFAULT_255_2_778
10
6.3672328
20
0.9897441
40
1.2129989
50
268.8228996
51
280.7313755
0
ARC
8
DEFAULT_255_2_778
10
6.5182262
20
0.2214503
40
0.4300586
50
280.0262145
51
314.2123209
0
ARC
8
DEFAULT_255_2_778
10
6.494561
20
0.1756839
40
0.4166342
50
320.949302
51
337.2520562
0
ARC
8
DEFAULT_255_2_778
10
6.2928028
20
0.2722391
40
0.6401293
50
336.2648213
51
345.6958801
0
ARC
8
DEFAULT_255_2_778
10
6.5791165
20
0.1989766
40
0.3445911
50
345.7377946
51
350.6345879
0
ARC
8
DEFAULT_255_2_778
10
6.9594324
20
0.147763
40
0.04061
50
117.7213794
51
186.8760094
0
ARC
8
DEFAULT_255_2_778
10
6.9456016
20
0.1578338
40
0.0263681
50
89.5376618
51
101.0635348
0
ARC
8
DEFAULT_255_2_778
10
6.9345582
20
0.1531058
40
0.03307
50
342.0265794
51
70.1003151
0
ARC
8
DEFAULT_255_2_778
10
4.8303662
20
0.3683745
40
2.1475176
50
344.4536407
51
353.9732634
0
ARC
8
DEFAULT_255_2_778
10
6.520509
20
-0.0892341
40
0.3967483
50
338.620428
51
342.7027618
0
ARC
8
DEFAULT_255_2_778
10
6.8261185
20
-0.212818
40
0.0672174
50
300.0296871
51
341.7512811
0
ARC
8
DEFAULT_255_2_778
10
6.7097206
20
-0.0139665
40
0.2976302
50
293.9622779
51
300.2719442
0
ARC
8
DEFAULT_255_2_778
10
6.2178845
20
1.0300138
40
1.4516081
50
294.8587055
51
294.9668229
0
ARC
8
DEFAULT_255_2_778
10
6.5909046
20
0.3438849
40
0.6740987
50
279.632587
51
290.6030733
0
ARC
8
DEFAULT_255_2_778
10
6.3813531
20
1.5152221
40
1.8640155
50
272.6828719
51
279.9583403
0
ARC
8
DEFAULT_255_2_778
10
6.3349705
20
2.1675771
40
2.5178761
50
270.0169288
51
273.0423325
0
ARC
8
DEFAULT_255_2_778
10
6.3237439
20
1.5994204
40
1.949756
50
261.2798107
51
270.3517683
0
ARC
8
DEFAULT_255_2_778
10
6.2133671
20
0.9046084
40
1.2462473
50
245.7510039
51
261.4527246
0
ARC
8
DEFAULT_255_2_778
10
6.14504
20
0.7321692
40
1.0609946
50
227.9431713
51
245.2907544
0
ARC
8
DEFAULT_255_2_778
10
9.6477788
20
-0.1246604
40
0.1675968
50
177.7220218
51
225.6879659
0
ARC
8
DEFAULT_255_2_778
10
9.6107463
20
-0.1336331
40
0.1368109
50
234.1915781
51
259.8405145
0
ARC
8
DEFAULT_255_2_778
10
9.7542953
20
0.9589226
40
1.2386239
50
262.2195936
51
267.9373492
0
ARC
8
DEFAULT_255_2_778
10
9.7140903
20
-0.2958717
40
0.0175279
50
1.2187964
51
104.4571613
0
ARC
8
DEFAULT_255_2_778
10
9.7019482
20
-0.2880752
40
0.0305809
50
253.507515
51
345.9507692
0
ARC
8
DEFAULT_255_2_778
10
9.6877974
20
-0.169402
40
0.148097
50
269.9678937
51
272.1164193
0
ARC
8
DEFAULT_255_2_778
10
9.6892813
20
4.7353367
40
5.0528358
50
269.3493065
51
269.9822325
0
ARC
8
DEFAULT_255_2_778
10
9.729461
20
7.7375966
40
8.0553606
50
268.2733683
51
269.306047
0
ARC
8
DEFAULT_255_2_778
10
9.8035176
20
10.4655845
40
10.7843444
50
268.2187569
51
268.3167936
0
ARC
8
DEFAULT_255_2_778
10
9.8087785
20
10.6508477
40
10.9696817
50
268.1981643
51
268.2213699
0
ARC
8
DEFAULT_255_2_778
10
9.7856946
20
9.9263882
40
10.2448545
50
268.1718937
51
268.1998056
0
ARC
8
DEFAULT_255_2_778
10
9.7602293
20
9.1576387
40
9.4756839
50
268.1486082
51
268.1775073
0
ARC
8
DEFAULT_255_2_778
10
9.8560386
20
12.1417197
40
12.4613025
50
268.1290611
51
268.1515885
0
ARC
8
DEFAULT_255_2_778
10
9.8051
20
10.5837178
40
10.902468
50
268.1031137
51
268.1292998
0
ARC
8
DEFAULT_255_2_778
10
9.7800663
20
9.8599498
40
10.1782681
50
268.0824318
51
268.1090958
0
ARC
8
DEFAULT_255_2_778
10
9.9489191
20
14.9114009
40
15.2325404
50
268.0665217
51
268.083453
0
ARC
8
DEFAULT_255_2_778
10
9.9283249
20
14.2713823
40
14.5921914
50
268.0457607
51
268.0625512
0
ARC
8
DEFAULT_255_2_778
10
9.9117414
20
13.7734852
40
14.0940184
50
268.0276041
51
268.0441142
0
ARC
8
DEFAULT_255_2_778
10
9.8996492
20
13.4285527
40
13.7488743
50
268.0124229
51
268.0284922
0
ARC
8
DEFAULT_255_2_778
10
9.8799714
20
12.8878951
40
13.2078597
50
268.0005113
51
268.0163897
0
ARC
8
DEFAULT_255_2_778
10
9.8758291
20
12.7758209
40
13.0957093
50
267.9863176
51
268.0015153
0
ARC
8
DEFAULT_255_2_778
10
9.9804721
20
15.7658688
40
16.0875877
50
267.9705353
51
267.9880497
0
ARC
8
DEFAULT_255_2_778
10
10.0301579
20
17.1645743
40
17.4871755
50
267.9552616
51
267.9701368
0
ARC
8
DEFAULT_255_2_778
10
10.2233205
20
22.6074604
40
22.9334881
50
267.9459851
51
267.9581638
0
ARC
8
DEFAULT_255_2_778
10
5.1966512
20
-116.0905474
40
115.8555797
50
87.9201328
51
87.9367912
0
ARC
8
DEFAULT_255_2_778
10
9.3379927
20
-1.0380943
40
0.7286246
50
87.6645409
51
88.9209257
0
ARC
8
DEFAULT_255_2_778
10
9.0723271
20
-0.2825251
40
0.0367809
50
209.0938972
51
288.0350018
0
ARC
8
DEFAULT_255_2_778
10
9.0637632
20
-0.2956635
40
0.0240493
50
179.6076263
51
191.3817862
0
ARC
8
DEFAULT_255_2_778
10
9.0568969
20
-0.2954885
40
0.0171825
50
173.3267218
51
180.0346671
0
ARC
8
DEFAULT_255_2_778
10
9.0579264
20
-0.2969231
40
0.018418
50
78.1312617
51
169.2625937
0
ARC
8
DEFAULT_255_2_778
10
9.0480983
20
0.1471012
40
0.4262176
50
271.8307077
51
282.9362742
0
ARC
8
DEFAULT_255_2_778
10
9.1111893
20
-0.1708976
40
0.1026251
50
288.3597517
51
358.6234979
0
ARC
8
DEFAULT_255_2_778
10
8.4706505
20
-0.0155882
40
0.7596982
50
348.0135254
51
352.2526918
0
ARC
8
DEFAULT_255_2_778
10
7.6753024
20
0.0478296
40
1.5569682
50
353.8859869
51
357.7270767
0
ARC
8
DEFAULT_255_2_778
10
3.7046232
20
0.2149694
40
5.5311604
50
357.628329
51
359.5637601
0
ARC
8
DEFAULT_255_2_778
10
-16.3630763
20
0.4010383
40
25.5997166
50
359.4892902
51
0.0843831
0
ARC
8
DEFAULT_255_2_778
10
-303.0492664
20
0.4731172
40
312.2858807
50
359.9936929
51
0.0013914
0
ARC
8
DEFAULT_255_2_778
10
9.220537
20
0.7673273
40
0.016086
50
358.1254541
51
92.218262
0
ARC
8
DEFAULT_255_2_778
10
8.0610808
20
0.7502427
40
0.0331585
50
89.9419222
51
93.0450063
0
ARC
8
DEFAULT_255_2_778
10
8.0585538
20
0.7690565
40
0.0143182
50
86.9350398
51
189.0628212
0
ARC
8
DEFAULT_255_2_778
10
8.2253226
20
-0.1245136
40
0.1678346
50
177.775438
51
225.6765786
0
ARC
8
DEFAULT_255_2_778
10
8.1881147
20
-0.1335514
40
0.1368857
50
234.2066328
51
259.8595846
0
ARC
8
DEFAULT_255_2_778
10
8.3315686
20
0.9570079
40
1.2367097
50
262.2134013
51
267.9353932
0
ARC
8
DEFAULT_255_2_778
10
8.2914007
20
-0.2959639
40
0.0176198
50
1.5124676
51
104.4148233
0
ARC
8
DEFAULT_255_2_778
10
8.2793482
20
-0.2880752
40
0.0305809
50
253.507515
51
345.9507692
0
ARC
8
DEFAULT_255_2_778
10
8.2651974
20
-0.169402
40
0.148097
50
269.9678937
51
272.1164193
0
ARC
8
DEFAULT_255_2_778
10
8.2666827
20
4.732818
40
5.0503171
50
269.3523476
51
269.9822081
0
ARC
8
DEFAULT_255_2_778
10
8.3066309
20
7.7232979
40
8.0410598
50
268.2725755
51
269.3085759
0
ARC
8
DEFAULT_255_2_778
10
8.3902014
20
10.7664117
40
11.0853129
50
268.2194491
51
268.3149644
0
ARC
8
DEFAULT_255_2_778
10
8.3909262
20
10.7982333
40
11.1171417
50
268.1979175
51
268.2208111
0
ARC
8
DEFAULT_255_2_778
10
8.3630563
20
9.9215263
40
10.2399918
50
268.1715984
51
268.1995192
0
ARC
8
DEFAULT_255_2_778
10
8.3376316
20
9.1549097
40
9.4729544
50
268.1484519
51
268.177356
0
ARC
8
DEFAULT_255_2_778
10
8.4334228
20
12.1382186
40
12.4578007
50
268.1289071
51
268.1514389
0
ARC
8
DEFAULT_255_2_778
10
8.3867173
20
10.7095171
40
11.0283358
50
268.1031883
51
268.1290744
0
ARC
8
DEFAULT_255_2_778
10
8.3575327
20
9.8599844
40
10.1783027
50
268.0824317
51
268.1090958
0
ARC
8
DEFAULT_255_2_778
10
8.5265108
20
14.9165195
40
15.2376604
50
268.0666951
51
268.0836215
0
ARC
8
DEFAULT_255_2_778
10
8.5059459
20
14.2773435
40
14.5981544
50
268.0459452
51
268.0627306
0
ARC
8
DEFAULT_255_2_778
10
8.4893933
20
13.7803453
40
14.100881
50
268.0278002
51
268.0443048
0
ARC
8
DEFAULT_255_2_778
10
8.4774573
20
13.4413749
40
13.7617008
50
268.0128392
51
268.0288969
0
ARC
8
DEFAULT_255_2_778
10
8.4708348
20
13.2769848
40
13.5971801
50
268.0012806
51
268.0167084
0
ARC
8
DEFAULT_255_2_778
10
8.4681968
20
13.2052747
40
13.5254216
50
267.9871339
51
268.0018537
0
ARC
8
DEFAULT_255_2_778
10
8.5699791
20
16.1146597
40
16.4365865
50
267.9716213
51
267.9887708
0
ARC
8
DEFAULT_255_2_778
10
8.6093795
20
17.223426
40
17.5460527
50
267.9563589
51
267.9711918
0
ARC
8
DEFAULT_255_2_778
10
8.8279734
20
23.3826413
40
23.7091459
50
267.9474399
51
267.9592276
0
ARC
8
DEFAULT_255_2_778
10
4.6300311
20
-92.563842
40
92.3133098
50
87.921075
51
87.942013
0
ARC
8
DEFAULT_255_2_778
10
7.9155353
20
-1.0363616
40
0.7268878
50
87.669946
51
88.9374716
0
ARC
8
DEFAULT_255_2_778
10
7.6496336
20
-0.2826906
40
0.0366216
50
208.9364074
51
288.105543
0
ARC
8
DEFAULT_255_2_778
10
7.6413019
20
-0.2956647
40
0.024188
50
179.6071573
51
191.3128601
0
ARC
8
DEFAULT_255_2_778
10
7.6342969
20
-0.2954885
40
0.0171825
50
173.3267305
51
180.0346714
0
ARC
8
DEFAULT_255_2_778
10
7.6352782
20
-0.2968769
40
0.0183621
50
78.2597362
51
169.3763587
0
ARC
8
DEFAULT_255_2_778
10
7.625661
20
0.1450738
40
0.4241829
50
271.8039884
51
282.9629935
0
ARC
8
DEFAULT_255_2_778
10
7.6884893
20
-0.1708976
40
0.1026251
50
288.3597517
51
358.6234979
0
ARC
8
DEFAULT_255_2_778
10
7.0479505
20
-0.0155882
40
0.7596982
50
348.0135254
51
352.2526918
0
ARC
8
DEFAULT_255_2_778
10
6.2526024
20
0.0478296
40
1.5569682
50
353.8859869
51
357.7270767
0
ARC
8
DEFAULT_255_2_778
10
2.2819232
20
0.2149694
40
5.5311604
50
357.628329
51
359.5637601
0
ARC
8
DEFAULT_255_2_778
10
-17.7857763
20
0.4010383
40
25.5997166
50
359.4892902
51
0.0843831
0
ARC
8
DEFAULT_255_2_778
10
-304.4719664
20
0.4731172
40
312.2858807
50
359.9936929
51
0.0013914
0
ARC
8
DEFAULT_255_2_778
10
7.6094432
20
1.5572135
40
0.1993447
50
358.4441941
51
30.5286356
0
ARC
8
DEFAULT_255_2_778
10
7.6751071
20
1.5705655
40
0.1377457
50
39.6575029
51
83.4103796
0
ARC
8
DEFAULT_255_2_778
10
7.6244191
20
1.3775916
40
0.3364461
50
78.6010008
51
86.9456891
0
ARC
8
DEFAULT_255_2_778
10
7.5936795
20
1.0393095
40
0.6760042
50
85.8716407
51
89.6495391
0
ARC
8
DEFAULT_255_2_778
10
7.5978209
20
1.7474379
40
0.0321368
50
266.2557094
51
269.9883697
0
ARC
8
DEFAULT_255_2_778
10
7.5942972
20
1.7338944
40
0.0185794
50
185.8487521
51
274.3991573
0
ARC
8
DEFAULT_255_2_778
10
7.6039267
20
1.7272223
40
0.0285156
50
68.9645933
51
170.3525126
0
ARC
8
DEFAULT_255_2_778
10
7.6195994
20
1.5215562
40
0.232345
50
89.9716487
51
91.3409371
0
ARC
8
DEFAULT_255_2_778
10
8.2078413
20
1.7187688
40
0.0369132
50
29.6867714
51
107.8696853
0
ARC
8
DEFAULT_255_2_778
10
8.2166488
20
1.7321741
40
0.0237663
50
359.5831164
51
11.8397641
0
ARC
8
DEFAULT_255_2_778
10
8.221267
20
1.734401
40
0.0192972
50
261.7991123
51
352.8560645
0
ARC
8
DEFAULT_255_2_778
10
8.218384
20
1.5073934
40
0.2079078
50
89.96405
51
93.1010288
0
ARC
8
DEFAULT_255_2_778
10
8.2543748
20
1.1411544
40
0.5757833
50
94.7059011
51
100.4425376
0
ARC
8
DEFAULT_255_2_778
10
8.1788216
20
1.5833652
40
0.1273372
50
103.075082
51
181.6181414
0
ARC
8
DEFAULT_255_2_778
10
8.4396002
20
1.5292983
40
0.3913332
50
172.5897936
51
176.703508
0
ARC
8
DEFAULT_255_2_778
10
8.0582706
20
0.9025574
40
0.014798
50
172.061379
51
277.938621
0
ARC
8
DEFAULT_255_2_778
10
9.2191468
20
0.9200098
40
0.0321086
50
269.9421751
51
273.1468208
0
ARC
8
DEFAULT_255_2_778
10
9.2215854
20
0.9023412
40
0.0144074
50
267.3106148
51
9.0249255
0
ARC
8
DEFAULT_255_2_778
10
9.0307188
20
1.5571837
40
0.1998681
50
358.4567952
51
30.414129
0
ARC
8
DEFAULT_255_2_778
10
9.0970976
20
1.5708627
40
0.1374399
50
39.5437762
51
83.4336259
0
ARC
8
DEFAULT_255_2_778
10
9.046088
20
1.3756435
40
0.3384015
50
78.6278248
51
86.9370834
0
ARC
8
DEFAULT_255_2_778
10
9.0155251
20
1.0391128
40
0.6762007
50
85.8746943
51
89.6535035
0
ARC
8
DEFAULT_255_2_778
10
9.0196192
20
1.7467628
40
0.0314616
50
265.772406
51
269.9912571
0
ARC
8
DEFAULT_255_2_778
10
9.0160945
20
1.7338166
40
0.0184694
50
185.6409819
51
273.7421562
0
ARC
8
DEFAULT_255_2_778
10
9.0258267
20
1.7272223
40
0.0285156
50
68.9645933
51
170.3525126
0
ARC
8
DEFAULT_255_2_778
10
9.0414994
20
1.5215562
40
0.232345
50
89.9716487
51
91.3409371
0
ARC
8
DEFAULT_255_2_778
10
9.6292413
20
1.7187688
40
0.0369132
50
29.6867714
51
107.8696853
0
ARC
8
DEFAULT_255_2_778
10
9.6380488
20
1.7321741
40
0.0237663
50
359.5831164
51
11.8397641
0
ARC
8
DEFAULT_255_2_778
10
9.6425799
20
1.7344991
40
0.0193961
50
261.8029493
51
352.6006565
0
ARC
8
DEFAULT_255_2_778
10
9.6541282
20
1.2902545
40
0.4252876
50
91.9287468
51
101.2286093
0
ARC
8
DEFAULT_255_2_778
10
9.6001216
20
1.5833652
40
0.1273372
50
103.075082
51
181.6181414
0
ARC
8
DEFAULT_255_2_778
10
9.8609002
20
1.5292983
40
0.3913332
50
172.5897936
51
176.703508
0
ARC
8
DEFAULT_255_2_778
10
11.0013226
20
-0.1245136
40
0.1678346
50
177.775438
51
225.6765786
0
ARC
8
DEFAULT_255_2_778
10
10.9641147
20
-0.1335514
40
0.1368857
50
234.2066328
51
259.8595846
0
ARC
8
DEFAULT_255_2_778
10
11.107118
20
0.9518002
40
1.2314891
50
262.2013475
51
267.9476165
0
ARC
8
DEFAULT_255_2_778
10
11.0674007
20
-0.295964
40
0.0176198
50
1.5127533
51
104.4147022
0
ARC
8
DEFAULT_255_2_778
10
11.0553016
20
-0.288
40
0.0306445
50
253.6014729
51
345.8356608
0
ARC
8
DEFAULT_255_2_778
10
11.0411963
20
-0.1702299
40
0.1472691
50
269.9681379
51
272.1223321
0
ARC
8
DEFAULT_255_2_778
10
11.0427187
20
4.7410166
40
5.0585157
50
269.3492608
51
269.9818292
0
ARC
8
DEFAULT_255_2_778
10
11.0828857
20
7.7393066
40
8.0570709
50
268.273469
51
269.3057969
0
ARC
8
DEFAULT_255_2_778
10
11.1656152
20
10.7574457
40
11.0763354
50
268.2206514
51
268.3161029
0
ARC
8
DEFAULT_255_2_778
10
11.1622966
20
10.6570166
40
10.9758516
50
268.1984907
51
268.2216879
0
ARC
8
DEFAULT_255_2_778
10
11.1358705
20
9.827068
40
10.1454825
50
268.172117
51
268.2003084
0
ARC
8
DEFAULT_255_2_778
10
11.1137605
20
9.1645768
40
9.4826232
50
268.1490764
51
268.1779611
0
ARC
8
DEFAULT_255_2_778
10
11.209662
20
12.1521528
40
12.4717379
50
268.1295231
51
268.1520372
0
ARC
8
DEFAULT_255_2_778
10
11.1586935
20
10.592758
40
10.9115103
50
268.1035746
51
268.1297458
0
ARC
8
DEFAULT_255_2_778
10
11.1336595
20
9.8689063
40
10.1872267
50
268.0829219
51
268.10957
0
ARC
8
DEFAULT_255_2_778
10
11.3028537
20
14.9333244
40
15.2544702
50
268.0672153
51
268.0841272
0
ARC
8
DEFAULT_255_2_778
10
11.2821788
20
14.2894725
40
14.6102873
50
268.0463142
51
268.0630893
0
ARC
8
DEFAULT_255_2_778
10
11.265621
20
13.7923058
40
14.1128453
50
268.0281923
51
268.044686
0
ARC
8
DEFAULT_255_2_778
10
11.2417699
20
13.1077891
40
13.4279134
50
268.012946
51
268.0294053
0
ARC
8
DEFAULT_255_2_778
10
11.2469356
20
13.2839124
40
13.6041101
50
268.0015011
51
268.0169229
0
ARC
8
DEFAULT_255_2_778
10
11.2298214
20
12.7980317
40
13.1179281
50
267.98702
51
268.0021981
0
ARC
8
DEFAULT_255_2_778
10
11.3459046
20
16.115068
40
16.436995
50
267.9716213
51
267.9887709
0
ARC
8
DEFAULT_255_2_778
10
11.3850242
20
17.214387
40
17.53701
50
267.9561761
51
267.9710161
0
ARC
8
DEFAULT_255_2_778
10
11.5796976
20
22.7029772
40
23.0290515
50
267.9470148
51
267.9591492
0
ARC
8
DEFAULT_255_2_778
10
6.8802623
20
-107.0455736
40
106.8045792
50
87.9210785
51
87.9391631
0
ARC
8
DEFAULT_255_2_778
10
10.6913661
20
-1.0380335
40
0.7285625
50
87.6670912
51
88.9266057
0
ARC
8
DEFAULT_255_2_778
10
10.4256336
20
-0.2826906
40
0.0366216
50
208.9364074
51
288.105543
0
ARC
8
DEFAULT_255_2_778
10
10.4173019
20
-0.2956647
40
0.024188
50
179.6071573
51
191.3128601
0
ARC
8
DEFAULT_255_2_778
10
10.4102969
20
-0.2954885
40
0.0171825
50
173.3267218
51
180.0346671
0
ARC
8
DEFAULT_255_2_778
10
10.4113264
20
-0.2969231
40
0.018418
50
78.1312617
51
169.2625937
0
ARC
8
DEFAULT_255_2_778
10
10.4016459
20
0.1450631
40
0.4241759
50
271.8195693
51
282.9653008
0
ARC
8
DEFAULT_255_2_778
10
10.4645173
20
-0.1708727
40
0.1026399
50
288.3405691
51
358.6097897
0
ARC
8
DEFAULT_255_2_778
10
9.8336979
20
-0.0178399
40
0.7497369
50
348.027821
51
352.3227855
0
ARC
8
DEFAULT_255_2_778
10
9.0286024
20
0.0478296
40
1.5569682
50
353.8859869
51
357.7270767
0
ARC
8
DEFAULT_255_2_778
10
5.0579232
20
0.2149694
40
5.5311604
50
357.628329
51
359.5637601
0
ARC
8
DEFAULT_255_2_778
10
-15.0097763
20
0.4010383
40
25.5997166
50
359.4892902
51
0.0843831
0
ARC
8
DEFAULT_255_2_778
10
-301.6959664
20
0.4731172
40
312.2858807
50
359.9936929
51
0.0013914
0
ARC
8
DEFAULT_255_2_778
10
10.3622263
20
1.5514684
40
0.2224883
50
0.0856812
51
27.2402292
0
ARC
8
DEFAULT_255_2_778
10
10.4605564
20
1.5920442
40
0.1168331
50
31.624917
51
74.6344833
0
ARC
8
DEFAULT_255_2_778
10
10.4050105
20
1.3572374
40
0.3580698
50
76.0199522
51
89.6633426
0
ARC
8
DEFAULT_255_2_778
10
10.4071168
20
1.7472006
40
0.0318995
50
266.6534209
51
269.9956972
0
ARC
8
DEFAULT_255_2_778
10
10.4036917
20
1.7338601
40
0.0185706
50
185.7450104
51
274.8277367
0
ARC
8
DEFAULT_255_2_778
10
10.4133267
20
1.7272223
40
0.0285156
50
68.9645933
51
170.3525126
0
ARC
8
DEFAULT_255_2_778
10
10.4289994
20
1.5215562
40
0.232345
50
89.9716487
51
91.3409371
0
ARC
8
DEFAULT_255_2_778
10
10.9846413
20
1.7187688
40
0.0369132
50
29.6867714
51
107.8696853
0
ARC
8
DEFAULT_255_2_778
10
10.9934488
20
1.7321741
40
0.0237663
50
359.5831164
51
11.8397641
0
ARC
8
DEFAULT_255_2_778
10
10.998067
20
1.734401
40
0.0192972
50
261.7991123
51
352.8560645
0
ARC
8
DEFAULT_255_2_778
10
10.995184
20
1.5073934
40
0.2079078
50
89.96405
51
93.1010288
0
ARC
8
DEFAULT_255_2_778
10
11.0311748
20
1.1411544
40
0.5757833
50
94.7059011
51
100.4425376
0
ARC
8
DEFAULT_255_2_778
10
10.9553034
20
1.5836014
40
0.1270354
50
102.9593596
51
181.7285352
0
ARC
8
DEFAULT_255_2_778
10
11.2201147
20
1.5290819
40
0.3950543
50
172.6283296
51
176.7031518
0
ARC
8
DEFAULT_255_2_778
10
12.8528983
20
1.6893214
40
0.4546396
50
339.7417086
51
352.7878846
0
ARC
8
DEFAULT_255_2_778
10
13.2195634
20
1.6357703
40
0.0844511
50
357.6072753
51
359.9530994
0
ARC
8
DEFAULT_255_2_778
10
13.2030473
20
1.6357893
40
0.1009671
50
359.949954
51
4.6772247
0
ARC
8
DEFAULT_255_2_778
10
13.2417001
20
1.6423938
40
0.0619993
50
1.5052181
51
63.9634608
0
ARC
8
DEFAULT_255_2_778
10
13.2128097
20
1.5212472
40
0.1855399
50
72.3990235
51
73.2294674
0
ARC
8
DEFAULT_255_2_778
10
13.1830374
20
1.3662744
40
0.3428954
50
75.9390226
51
92.9961852
0
ARC
8
DEFAULT_255_2_778
10
13.157382
20
1.7299738
40
0.0226344
50
191.6553794
51
289.9756331
0
ARC
8
DEFAULT_255_2_778
10
13.1626362
20
1.7179158
40
0.0284251
50
77.4594901
51
164.7318873
0
ARC
8
DEFAULT_255_2_778
10
13.1991765
20
1.4673269
40
0.2799876
50
89.4397055
51
96.2267223
0
ARC
8
DEFAULT_255_2_778
10
13.6933413
20
1.7021532
40
0.0464514
50
41.6321258
51
103.6053401
0
ARC
8
DEFAULT_255_2_778
10
13.7136159
20
1.7276745
40
0.0153994
50
359.3549135
51
20.2837555
0
ARC
8
DEFAULT_255_2_778
10
13.7045684
20
1.7305519
40
0.0246356
50
248.6872029
51
352.8864777
0
ARC
8
DEFAULT_255_2_778
10
13.6906298
20
1.4142914
40
0.2933521
50
89.0263958
51
101.3873914
0
ARC
8
DEFAULT_255_2_778
10
13.6757521
20
1.4955024
40
0.2108074
50
101.7813824
51
114.5066947
0
ARC
8
DEFAULT_255_2_778
10
13.6649778
20
1.5204627
40
0.1836274
50
114.6782628
51
123.0940945
0
ARC
8
DEFAULT_255_2_778
10
13.6847318
20
1.5080799
40
0.2050212
50
125.8305627
51
147.9699601
0
ARC
8
DEFAULT_255_2_778
10
14.0821139
20
1.2442087
40
0.6819804
50
146.8823358
51
155.3421707
0
ARC
8
DEFAULT_255_2_778
10
15.1587593
20
0.7327759
40
1.8738865
50
154.8644645
51
158.5708505
0
ARC
8
DEFAULT_255_2_778
10
17.8895223
20
-2.548993
40
5.6660841
50
154.9687153
51
155.0351948
0
ARC
8
DEFAULT_255_2_778
10
17.3176268
20
-2.2825267
40
5.0351573
50
155.0374091
51
155.1096978
0
ARC
8
DEFAULT_255_2_778
10
17.6845136
20
-2.452995
40
5.439713
50
155.1073988
51
155.1720646
0
ARC
8
DEFAULT_255_2_778
10
17.6201925
20
-2.4229487
40
5.3687204
50
155.174852
51
155.2381807
0
ARC
8
DEFAULT_255_2_778
10
17.8650204
20
-2.5356559
40
5.6382452
50
155.2402216
51
155.2985127
0
ARC
8
DEFAULT_255_2_778
10
18.2228657
20
-2.6998035
40
6.0319424
50
155.3024317
51
155.3551083
0
ARC
8
DEFAULT_255_2_778
10
18.3234647
20
-2.7453789
40
6.1423826
50
155.3600068
51
155.4100242
0
ARC
8
DEFAULT_255_2_778
10
17.936935
20
-2.568017
40
5.7171035
50
155.4143679
51
155.4919725
0
ARC
8
DEFAULT_255_2_778
10
18.533862
20
-2.8398938
40
6.3730295
50
155.4940951
51
155.560303
0
ARC
8
DEFAULT_255_2_778
10
18.6066559
20
-2.8725434
40
6.4528093
50
155.5637951
51
155.6259995
0
ARC
8
DEFAULT_255_2_778
10
18.7595971
20
-2.9418406
40
6.6207173
50
155.6259704
51
155.6931315
0
ARC
8
DEFAULT_255_2_778
10
18.8558138
20
-2.9856479
40
6.7264368
50
155.6904156
51
155.7528177
0
ARC
8
DEFAULT_255_2_778
10
20.5999128
20
-3.7716209
40
8.639454
50
155.7502972
51
155.8022206
0
ARC
8
DEFAULT_255_2_778
10
5.9669649
20
2.7726721
40
7.3902651
50
335.4527542
51
336.0237972
0
ARC
8
DEFAULT_255_2_778
10
12.4367499
20
-0.1919088
40
0.2737516
50
325.7236827
51
337.2968504
0
ARC
8
DEFAULT_255_2_778
10
12.6224847
20
-0.3152491
40
0.0508807
50
313.228969
51
322.7009613
0
ARC
8
DEFAULT_255_2_778
10
12.6405906
20
-0.335721
40
0.023578
50
269.8148757
51
315.244346
0
ARC
8
DEFAULT_255_2_778
10
12.6406444
20
-0.3233931
40
0.035906
50
214.0715421
51
269.7925354
0
ARC
8
DEFAULT_255_2_778
10
12.777522
20
-0.2225829
40
0.2058767
50
202.0279562
51
215.970563
0
ARC
8
DEFAULT_255_2_778
10
13.8120197
20
0.2397788
40
1.338886
50
201.604526
51
203.7661622
0
ARC
8
DEFAULT_255_2_778
10
28.6129398
20
6.146391
40
17.274857
50
201.5172318
51
201.7437891
0
ARC
8
DEFAULT_255_2_778
10
10.6860356
20
0.9741012
40
1.2922224
50
23.3177262
51
26.4974217
0
ARC
8
DEFAULT_255_2_778
10
11.3924621
20
1.3286537
40
0.5018211
50
26.2541302
51
33.3986398
0
ARC
8
DEFAULT_255_2_778
10
11.6370478
20
1.4918507
40
0.2077987
50
32.9542057
51
79.2479959
0
ARC
8
DEFAULT_255_2_778
10
11.6091092
20
1.4349676
40
0.2694218
50
75.6652497
51
78.9928723
0
ARC
8
DEFAULT_255_2_778
10
11.5804387
20
1.2546738
40
0.4519165
50
79.789188
51
90.2147485
0
ARC
8
DEFAULT_255_2_778
10
11.5729732
20
0.5432374
40
1.1633641
50
89.7157441
51
90.042298
0
ARC
8
DEFAULT_255_2_778
10
11.5680169
20
1.7241707
40
0.018041
50
172.8981658
51
283.1275771
0
ARC
8
DEFAULT_255_2_778
10
11.5797198
20
1.7144684
40
0.0319198
50
74.5313756
51
158.0475445
0
ARC
8
DEFAULT_255_2_778
10
11.6178923
20
1.2980383
40
0.4481761
50
89.5625068
51
93.7944632
0
ARC
8
DEFAULT_255_2_778
10
12.2058389
20
1.5815683
40
0.1649949
50
74.1144902
51
93.7963782
0
ARC
8
DEFAULT_255_2_778
10
12.2471849
20
1.7263462
40
0.0144297
50
0.2181882
51
74.666452
0
ARC
8
DEFAULT_255_2_778
10
12.2414171
20
1.7257347
40
0.0202083
50
251.2292065
51
1.8899295
0
ARC
8
DEFAULT_255_2_778
10
12.2256582
20
1.3806749
40
0.3260576
50
88.3732541
51
90.0151323
0
ARC
8
DEFAULT_255_2_778
10
12.2254759
20
1.3867885
40
0.3199442
50
89.9827781
51
107.1534068
0
ARC
8
DEFAULT_255_2_778
10
12.1491177
20
1.6429219
40
0.0527468
50
109.9570449
51
170.2078838
0
ARC
8
DEFAULT_255_2_778
10
12.1753013
20
1.6385715
40
0.079289
50
170.3279521
51
180.4121458
0
ARC
8
DEFAULT_255_2_778
10
12.3340396
20
1.6568748
40
0.2387723
50
184.5336442
51
198.9146368
0
ARC
8
DEFAULT_255_2_778
10
17.0442755
20
3.1189129
40
5.1705997
50
197.3212623
51
198.6963096
0
ARC
8
DEFAULT_255_2_778
10
8.7639608
20
0.3517219
40
3.5599529
50
17.3563447
51
18.1635344
0
ARC
8
DEFAULT_255_2_778
10
9.5041808
20
0.5848707
40
2.7838858
50
17.2800129
51
17.3210418
0
ARC
8
DEFAULT_255_2_778
10
14.260835
20
1.550638
40
0.1995534
50
358.4387683
51
30.5058234
0
ARC
8
DEFAULT_255_2_778
10
14.326391
20
1.5638044
40
0.1381409
50
39.6419349
51
83.2973075
0
ARC
8
DEFAULT_255_2_778
10
14.2760191
20
1.3711916
40
0.3364461
50
78.6010008
51
86.9456891
0
ARC
8
DEFAULT_255_2_778
10
14.2452795
20
1.0329095
40
0.6760042
50
85.8716407
51
89.6495391
0
ARC
8
DEFAULT_255_2_778
10
14.2494209
20
1.7410379
40
0.0321368
50
266.2557094
51
269.9883697
0
ARC
8
DEFAULT_255_2_778
10
14.2458972
20
1.7274944
40
0.0185794
50
185.8487521
51
274.3991573
0
ARC
8
DEFAULT_255_2_778
10
14.2556188
20
1.7208288
40
0.0286053
50
69.0192172
51
170.3961018
0
ARC
8
DEFAULT_255_2_778
10
14.2713
20
1.5151168
40
0.2324844
50
89.9717997
51
91.3405438
0
ARC
8
DEFAULT_255_2_778
10
15.1810727
20
2.492477
40
0.7505771
50
271.8737382
51
280.9241742
0
ARC
8
DEFAULT_255_2_778
10
15.3066504
20
1.8227623
40
0.0692947
50
283.9148559
51
298.3655546
0
ARC
8
DEFAULT_255_2_778
10
15.5355476
20
1.3615816
40
0.4456135
50
115.628919
51
116.0903819
0
ARC
8
DEFAULT_255_2_778
10
15.3637724
20
1.725523
40
0.0432538
50
93.3904263
51
119.0015547
0
ARC
8
DEFAULT_255_2_778
10
15.3529057
20
1.7505373
40
0.019974
50
341.2025647
51
65.4192494
0
ARC
8
DEFAULT_255_2_778
10
15.2277059
20
1.7523306
40
0.1443433
50
345.1454618
51
356.7316115
0
ARC
8
DEFAULT_255_2_778
10
16.3731688
20
1.481825
40
1.0326883
50
166.931854
51
169.6978208
0
ARC
8
DEFAULT_255_2_778
10
16.1524951
20
1.526055
40
0.8076724
50
169.9852521
51
173.1035404
0
ARC
8
DEFAULT_255_2_778
10
16.2463426
20
1.5139019
40
0.9023005
50
173.0529693
51
173.5155984
0
ARC
8
DEFAULT_255_2_778
10
15.2381661
20
1.457823
40
0.1137227
50
345.528082
51
349.0397539
0
ARC
8
DEFAULT_255_2_778
10
15.3232568
20
1.4304163
40
0.0250441
50
285.6541267
51
357.6814006
0
ARC
8
DEFAULT_255_2_778
10
15.3331789
20
1.432754
40
0.0266414
50
160.8325278
51
263.1783563
0
ARC
8
DEFAULT_255_2_778
10
15.0119098
20
1.4418647
40
0.2961049
50
359.9296463
51
19.334753
0
ARC
8
DEFAULT_255_2_778
10
15.184672
20
1.4983216
40
0.1144616
50
21.3006839
51
72.7189693
0
ARC
8
DEFAULT_255_2_778
10
15.0746232
20
1.2009279
40
0.4314464
50
70.4956533
51
83.0728136
0
ARC
8
DEFAULT_255_2_778
10
14.9883353
20
0.6645109
40
0.9745802
50
81.8403635
51
83.5914992
0
ARC
8
DEFAULT_255_2_778
10
15.0524288
20
1.1684409
40
0.4667045
50
84.5056779
51
87.8303147
0
ARC
8
DEFAULT_255_2_778
10
14.9303925
20
-1.5884851
40
3.2263221
50
87.5182177
51
88.6694132
0
ARC
8
DEFAULT_255_2_778
10
14.7411409
20
-9.1236738
40
10.763883
50
88.5936905
51
89.0923598
0
ARC
8
DEFAULT_255_2_778
10
14.5766696
20
-19.0973183
40
20.7388824
50
89.0745078
51
89.4097978
0
ARC
8
DEFAULT_255_2_778
10
14.6141074
20
-15.1809497
40
16.8223361
50
89.3999009
51
89.5495479
0
ARC
8
DEFAULT_255_2_778
10
14.7124088
20
-2.2676988
40
3.9087128
50
89.5023043
51
89.8518675
0
ARC
8
DEFAULT_255_2_778
10
14.7251454
20
1.6207585
40
0.0204129
50
97.4052829
51
198.7378164
0
ARC
8
DEFAULT_255_2_778
10
14.7225154
20
0.8514745
40
0.0185733
50
154.0525145
51
269.9968219
0
ARC
8
DEFAULT_255_2_778
10
15.1473688
20
1.1921795
40
0.3541071
50
271.5446962
51
287.0747122
0
ARC
8
DEFAULT_255_2_778
10
15.2222813
20
0.9329018
40
0.0843828
50
290.1440366
51
318.3303356
0
ARC
8
DEFAULT_255_2_778
10
15.3936774
20
0.7993226
40
0.1332121
50
123.0556396
51
144.4355725
0
ARC
8
DEFAULT_255_2_778
10
15.3271902
20
0.8943832
40
0.0177014
50
106.0937961
51
110.4121841
0
ARC
8
DEFAULT_255_2_778
10
15.3265457
20
0.8968094
40
0.0151919
50
90.1178575
51
106.2946877
0
ARC
8
DEFAULT_255_2_778
10
15.3265168
20
0.897014
40
0.0149871
50
332.5318322
51
90.0092845
0
ARC
8
DEFAULT_255_2_778
10
15.1148645
20
0.9065308
40
0.2255491
50
347.6868729
51
355.8227088
0
ARC
8
DEFAULT_255_2_778
10
16.8751334
20
0.5703314
40
1.5666265
50
169.403087
51
171.6461576
0
ARC
8
DEFAULT_255_2_778
10
16.6075881
20
0.6129858
40
1.2957271
50
171.7934637
51
174.1250933
0
ARC
8
DEFAULT_255_2_778
10
16.6784602
20
0.6051942
40
1.3670246
50
174.1042839
51
174.4627992
0
ARC
8
DEFAULT_255_2_778
10
14.9175106
20
0.559886
40
0.3897107
50
358.1963664
51
0.3403789
0
ARC
8
DEFAULT_255_2_778
10
15.2776798
20
0.5393087
40
0.0305026
50
288.6109833
51
15.812131
0
ARC
8
DEFAULT_255_2_778
10
15.2881773
20
0.5313672
40
0.0209799
50
170.0254638
51
267.9161725
0
ARC
8
DEFAULT_255_2_778
10
14.9751427
20
0.5466274
40
0.2926027
50
357.7228236
51
15.6380467
0
ARC
8
DEFAULT_255_2_778
10
15.1249181
20
0.5883706
40
0.1371193
50
15.7112931
51
28.6783287
0
ARC
8
DEFAULT_255_2_778
10
15.1449655
20
0.5961366
40
0.1158384
50
30.0669901
51
69.8645353
0
ARC
8
DEFAULT_255_2_778
10
15.0923234
20
0.4673747
40
0.254903
50
68.7181966
51
84.9831315
0
ARC
8
DEFAULT_255_2_778
10
14.7222383
20
0.7170951
40
0.0183025
50
84.1165904
51
185.3104552
0
ARC
8
DEFAULT_255_2_778
10
15.1506684
20
0.0095604
40
0.4466579
50
180.2384952
51
195.7422552
0
ARC
8
DEFAULT_255_2_778
10
14.8504974
20
-0.068528
40
0.1367038
50
198.3753279
51
266.7607446
0
ARC
8
DEFAULT_255_2_778
10
14.9715024
20
0.5557761
40
0.7716035
50
260.3962217
51
269.6623641
0
ARC
8
DEFAULT_255_2_778
10
15.0182955
20
2.0317115
40
2.2481117
50
268.6914253
51
270.0616491
0
ARC
8
DEFAULT_255_2_778
10
15.0335718
20
1.9042552
40
2.120693
50
269.6526244
51
272.2235559
0
ARC
8
DEFAULT_255_2_778
10
15.0689788
20
0.8622277
40
1.0780883
50
272.4918806
51
274.3837955
0
ARC
8
DEFAULT_255_2_778
10
15.128537
20
0.250161
40
0.463431
50
272.825894
51
288.7943807
0
ARC
8
DEFAULT_255_2_778
10
15.2057587
20
-0.0039345
40
0.1981987
50
291.3271031
51
292.9099904
0
ARC
8
DEFAULT_255_2_778
10
15.2093675
20
-0.0143855
40
0.1871688
50
293.1378358
51
350.6250449
0
ARC
8
DEFAULT_255_2_778
10
14.8088395
20
0.1099736
40
0.6053372
50
345.1787458
51
350.5227424
0
ARC
8
DEFAULT_255_2_778
10
15.4523573
20
0.0134715
40
0.0465509
50
126.9291794
51
183.9051956
0
ARC
8
DEFAULT_255_2_778
10
15.4302306
20
0.0325902
40
0.0190132
50
89.1446216
51
107.8957555
0
ARC
8
DEFAULT_255_2_778
10
15.4182399
20
0.0243702
40
0.0298695
50
345.1099473
51
65.7362852
0
ARC
8
DEFAULT_255_2_778
10
15.2658923
20
0.0104361
40
0.1813221
50
359.9573503
51
1.978073
0
ARC
8
DEFAULT_255_2_778
10
12.7505223
20
0.2340332
40
2.7059572
50
349.5988152
51
355.2572954
0
ARC
8
DEFAULT_255_2_778
10
15.3361481
20
-0.2497516
40
0.0760147
50
261.196935
51
356.4194763
0
ARC
8
DEFAULT_255_2_778
10
15.2767986
20
0.9551969
40
1.2809568
50
269.4415881
51
272.1347939
0
ARC
8
DEFAULT_255_2_778
10
15.2623739
20
13.7609996
40
14.0866986
50
269.4216156
51
270.0078927
0
ARC
8
DEFAULT_255_2_778
10
15.2410299
20
11.6655363
40
11.9911267
50
268.7616891
51
269.4225245
0
ARC
8
DEFAULT_255_2_778
10
15.2123472
20
10.300968
40
10.6262572
50
268.2319913
51
268.7573022
0
ARC
8
DEFAULT_255_2_778
10
15.2026812
20
9.9671009
40
10.292251
50
267.7690399
51
268.2284324
0
ARC
8
DEFAULT_255_2_778
10
15.2105436
20
10.1791621
40
10.5044575
50
267.7439477
51
267.7712141
0
ARC
8
DEFAULT_255_2_778
10
15.1942705
20
9.7793594
40
10.1043242
50
267.7193262
51
267.7469084
0
ARC
8
DEFAULT_255_2_778
10
15.4110887
20
15.1908887
40
15.5201949
50
267.6970751
51
267.7145417
0
ARC
8
DEFAULT_255_2_778
10
15.3966507
20
14.7864092
40
15.1154622
50
267.6727046
51
267.6901508
0
ARC
8
DEFAULT_255_2_778
10
15.1662099
20
9.1214712
40
9.4458391
50
267.6468176
51
267.6739789
0
ARC
8
DEFAULT_255_2_778
10
15.1528544
20
8.8137109
40
9.13779
50
267.6239363
51
267.6512555
0
ARC
8
DEFAULT_255_2_778
10
15.1402675
20
8.5301262
40
8.8539272
50
267.6018
51
267.6292372
0
ARC
8
DEFAULT_255_2_778
10
15.3906219
20
14.5285471
40
14.8575703
50
267.5892209
51
267.6051335
0
ARC
8
DEFAULT_255_2_778
10
15.3866212
20
14.4065304
40
14.7354934
50
267.5691895
51
267.5848063
0
ARC
8
DEFAULT_255_2_778
10
15.3652501
20
13.8826249
40
14.2111528
50
267.5499251
51
267.5656881
0
ARC
8
DEFAULT_255_2_778
10
15.3862544
20
14.3561852
40
14.6851782
50
267.5321836
51
267.5470344
0
ARC
8
DEFAULT_255_2_778
10
15.3677231
20
13.913541
40
14.2421467
50
267.5150799
51
267.5299895
0
ARC
8
DEFAULT_255_2_778
10
15.3737161
20
14.0441065
40
14.3728494
50
267.4993918
51
267.5137783
0
ARC
8
DEFAULT_255_2_778
10
15.38376
20
14.2714136
40
14.6003785
50
267.4851405
51
267.4989329
0
ARC
8
DEFAULT_255_2_778
10
15.3984738
20
14.6057235
40
14.9350122
50
267.4718907
51
267.4850233
0
ARC
8
DEFAULT_255_2_778
10
15.7666074
20
22.9425564
40
23.2799692
50
267.4595101
51
267.4717882
0
ARC
8
DEFAULT_255_2_778
10
15.3297923
20
13.0890299
40
13.4167652
50
267.4374225
51
267.457906
0
ARC
8
DEFAULT_255_2_778
10
16.0518609
20
29.2229437
40
29.566829
50
267.4285008
51
267.4374398
0
ARC
8
DEFAULT_255_2_778
10
16.2203763
20
32.9063964
40
33.2541333
50
267.4155424
51
267.4231878
0
ARC
8
DEFAULT_255_2_778
10
13.7889325
20
-20.2697197
40
19.9775571
50
87.3261948
51
87.5502368
0
ARC
8
DEFAULT_255_2_778
10
14.5793519
20
-1.6939268
40
1.3849623
50
87.3725247
51
89.5961231
0
ARC
8
DEFAULT_255_2_778
10
14.3097336
20
-0.2821906
40
0.0366216
50
208.9364074
51
288.105543
0
ARC
8
DEFAULT_255_2_778
10
14.3014019
20
-0.2951647
40
0.024188
50
179.6071573
51
191.3128601
0
ARC
8
DEFAULT_255_2_778
10
14.2944059
20
-0.2949879
40
0.0171915
50
172.6360819
51
180.0366648
0
ARC
8
DEFAULT_255_2_778
10
14.2955052
20
-0.2964363
40
0.0185128
50
78.4420393
51
168.6230617
0
ARC
8
DEFAULT_255_2_778
10
14.2872481
20
0.1379127
40
0.4163836
50
271.6468261
51
283.00005
0
ARC
8
DEFAULT_255_2_778
10
14.3485893
20
-0.1703976
40
0.1026251
50
288.3597517
51
358.6234979
0
ARC
8
DEFAULT_255_2_778
10
13.7080505
20
-0.0150882
40
0.7596982
50
348.0135254
51
352.2526918
0
ARC
8
DEFAULT_255_2_778
10
12.9050142
20
0.0488083
40
1.5646636
50
353.8985389
51
357.7259258
0
ARC
8
DEFAULT_255_2_778
10
8.9381697
20
0.2157032
40
5.5350144
50
357.6290319
51
359.5632398
0
ARC
8
DEFAULT_255_2_778
10
-11.1141294
20
0.4016421
40
25.5881696
50
359.4891726
51
0.0844162
0
ARC
8
DEFAULT_255_2_778
10
-297.7839734
20
0.4737172
40
312.2579878
50
359.9936926
51
0.0013916
0
ARC
8
DEFAULT_255_2_778
10
16.2073876
20
-0.1140013
40
0.189259
50
238.163606
51
242.7784619
0
ARC
8
DEFAULT_255_2_778
10
16.1415842
20
-0.2222088
40
0.0626305
50
169.6843117
51
237.0884333
0
ARC
8
DEFAULT_255_2_778
10
16.9558756
20
-0.1825823
40
0.8763702
50
179.7395639
51
181.8578029
0
ARC
8
DEFAULT_255_2_778
10
16.1390499
20
0.1180192
40
0.0467802
50
130.0194889
51
188.7520651
0
ARC
8
DEFAULT_255_2_778
10
16.1144984
20
0.1383568
40
0.0164457
50
89.247289
51
109.6506988
0
ARC
8
DEFAULT_255_2_778
10
16.1140493
20
0.1327863
40
0.0220249
50
339.0219876
51
88.2694724
0
ARC
8
DEFAULT_255_2_778
10
16.6285227
20
0.1132417
40
0.4940459
50
178.6476928
51
179.999671
0
ARC
8
DEFAULT_255_2_778
10
16.6400084
20
0.11359
40
0.5055316
50
180.0391568
51
190.2307343
0
ARC
8
DEFAULT_255_2_778
10
16.4724487
20
0.0903233
40
0.3365736
50
191.399286
51
260.9478604
0
ARC
8
DEFAULT_255_2_778
10
16.5445541
20
0.3284757
40
0.5840797
50
257.6364509
51
270.2413494
0
ARC
8
DEFAULT_255_2_778
10
16.5545004
20
0.1754547
40
0.4311185
50
269.0050643
51
295.8442361
0
ARC
8
DEFAULT_255_2_778
10
16.582794
20
0.1038898
40
0.3544237
50
296.7711036
51
353.630023
0
ARC
8
DEFAULT_255_2_778
10
16.5712305
20
0.1081454
40
0.3663997
50
353.1692712
51
354.4165604
0
ARC
8
DEFAULT_255_2_778
10
16.5756512
20
0.1077678
40
0.3619633
50
354.4079614
51
359.9894424
0
ARC
8
DEFAULT_255_2_778
10
16.5199183
20
0.1208761
40
0.4179039
50
358.1933796
51
32.1429894
0
ARC
8
DEFAULT_255_2_778
10
16.3137733
20
-0.0167109
40
0.6656876
50
32.7301616
51
43.984665
0
ARC
8
DEFAULT_255_2_778
10
15.7203069
20
-0.5784604
40
1.482839
50
43.6775244
51
48.825291
0
ARC
8
DEFAULT_255_2_778
10
14.6686236
20
-1.7610146
40
3.0653656
50
48.5810934
51
50.3768714
0
ARC
8
DEFAULT_255_2_778
10
17.6214544
20
2.0800369
40
1.7770679
50
224.91824
51
230.8922591
0
ARC
8
DEFAULT_255_2_778
10
17.0679718
20
1.5324966
40
0.9985268
50
215.1719104
51
225.0955977
0
ARC
8
DEFAULT_255_2_778
10
16.7350543
20
1.3003456
40
0.5926682
50
197.2703671
51
215.3656876
0
ARC
8
DEFAULT_255_2_778
10
16.675007
20
1.2772755
40
0.5284958
50
192.5960089
51
196.8146978
0
ARC
8
DEFAULT_255_2_778
10
16.7711084
20
1.2943322
40
0.6260187
50
179.4902959
51
192.2014256
0
ARC
8
DEFAULT_255_2_778
10
16.6065605
20
1.3132937
40
0.4616404
50
107.4328742
51
181.6624331
0
ARC
8
DEFAULT_255_2_778
10
16.7022482
20
1.064178
40
0.7281714
50
89.3416932
51
108.7439054
0
ARC
8
DEFAULT_255_2_778
10
16.7238161
20
0.6664765
40
1.1259021
50
90.0009281
51
90.6718319
0
ARC
8
DEFAULT_255_2_778
10
16.7250815
20
0.7058794
40
1.0864997
50
77.2529638
51
90.0676928
0
ARC
8
DEFAULT_255_2_778
10
17.0786024
20
2.2062161
40
0.4550706
50
255.5198463
51
267.7346299
0
ARC
8
DEFAULT_255_2_778
10
17.0681919
20
1.7337832
40
0.0192703
50
352.8992895
51
113.1551855
0
ARC
8
DEFAULT_255_2_778
10
16.6217691
20
1.7498476
40
0.4659106
50
354.9074753
51
357.7309401
0
ARC
8
DEFAULT_255_2_778
10
20.0637179
20
1.4818072
40
2.9864929
50
175.6468846
51
176.5807395
0
ARC
8
DEFAULT_255_2_778
10
19.8675863
20
1.4947398
40
2.7899393
50
176.6056282
51
176.7936194
0
ARC
8
DEFAULT_255_2_778
10
20.2074842
20
1.4769536
40
3.1303004
50
176.8165546
51
178.1827729
0
ARC
8
DEFAULT_255_2_778
10
21.0717633
20
1.4495726
40
3.9950131
50
178.1833485
51
179.5672764
0
ARC
8
DEFAULT_255_2_778
10
21.7719634
20
1.442238
40
4.695249
50
179.5423065
51
180.00289
0
ARC
8
DEFAULT_255_2_778
10
16.9485273
20
1.4310648
40
0.1286528
50
339.7930115
51
4.8763938
0
ARC
8
DEFAULT_255_2_778
10
17.0569165
20
1.3922787
40
0.0135776
50
269.9910724
51
335.3992348
0
ARC
8
DEFAULT_255_2_778
10
17.0632937
20
1.4071632
40
0.0291682
50
166.6437862
51
257.366917
0
ARC
8
DEFAULT_255_2_778
10
16.5584578
20
1.3639595
40
0.4790669
50
5.983823
51
22.9162522
0
ARC
8
DEFAULT_255_2_778
10
16.8296183
20
1.4558512
40
0.1946569
50
29.0937342
51
38.4744715
0
ARC
8
DEFAULT_255_2_778
10
16.7938454
20
1.4269825
40
0.2406243
50
38.5564387
51
52.0341456
0
ARC
8
DEFAULT_255_2_778
10
16.7747341
20
1.4045006
40
0.2701084
50
51.771904
51
52.7429089
0
ARC
8
DEFAULT_255_2_778
10
16.7462415
20
1.3631266
40
0.3202969
50
53.1667826
51
69.1823838
0
ARC
8
DEFAULT_255_2_778
10
16.6937429
20
1.2257789
40
0.4673358
50
69.1506593
51
82.189049
0
ARC
8
DEFAULT_255_2_778
10
16.6612927
20
1.0078094
40
0.6876977
50
81.9785958
51
90.2398046
0
ARC
8
DEFAULT_255_2_778
10
16.643262
20
1.3618683
40
0.3339768
50
87.399617
51
142.6031586
0
ARC
8
DEFAULT_255_2_778
10
16.6394742
20
1.3853296
40
0.3171399
50
145.5562113
51
181.2879563
0
ARC
8
DEFAULT_255_2_778
10
16.6461699
20
1.3713426
40
0.3238281
50
178.7864117
51
204.7563647
0
ARC
8
DEFAULT_255_2_778
10
16.7678596
20
1.4390482
40
0.4628061
50
206.0593965
51
221.5362086
0
ARC
8
DEFAULT_255_2_778
10
17.3186236
20
1.9115627
40
1.1884502
50
220.9811371
51
227.1634803
0
ARC
8
DEFAULT_255_2_778
10
18.6707069
20
3.3498346
40
3.1624527
50
226.9173647
51
229.437739
0
ARC
8
DEFAULT_255_2_778
10
20.8130645
20
5.8223032
40
6.4339364
50
229.2617117
51
229.7391535
0
ARC
8
DEFAULT_255_2_778
10
15.3644426
20
-0.9026531
40
2.2195331
50
47.3944292
51
51.980645
0
ARC
8
DEFAULT_255_2_778
10
16.0186212
20
-0.1953242
40
1.2560753
50
40.0870601
51
47.5162791
0
ARC
8
DEFAULT_255_2_778
10
16.4301033
20
0.1477104
40
0.720371
50
27.226844
51
40.2882809
0
ARC
8
DEFAULT_255_2_778
10
16.573306
20
0.226548
40
0.5569844
50
21.3381945
51
26.755166
0
ARC
8
DEFAULT_255_2_778
10
16.5276964
20
0.216552
40
0.6031488
50
358.8076538
51
20.6461142
0
ARC
8
DEFAULT_255_2_778
10
16.5920036
20
0.2072851
40
0.5387208
50
349.1340294
51
359.6507368
0
ARC
8
DEFAULT_255_2_778
10
16.5354339
20
0.2155266
40
0.5958353
50
334.3418213
51
349.3811869
0
ARC
8
DEFAULT_255_2_778
10
16.5606625
20
0.2045129
40
0.5683263
50
333.6490624
51
334.2413806
0
ARC
8
DEFAULT_255_2_778
10
16.5826041
20
0.192394
40
0.5432866
50
315.9305571
51
333.767227
0
ARC
8
DEFAULT_255_2_778
10
16.5834754
20
0.192974
40
0.543065
50
305.3807961
51
315.8226535
0
ARC
8
DEFAULT_255_2_778
10
16.5072113
20
0.3536436
40
0.7188823
50
270.0203363
51
302.9213254
0
ARC
8
DEFAULT_255_2_778
10
16.5074585
20
0.349974
40
0.7152126
50
268.2337639
51
270.0006354
0
ARC
8
DEFAULT_255_2_778
10
16.4653201
20
0.5657242
40
0.93084
50
248.1919325
51
271.2369544
0
LINE
8
DEFAULT_255_2_778
10
0.8829144
20
2.6728011
11
0.6369144
21
2.6649011
0
LINE
8
DEFAULT_255_2_778
10
0.7980144
20
3.0480011
11
0.8006144
21
4.5117011
0
LINE
8
DEFAULT_255_2_778
10
0.9184144
20
4.5582011
11
1.7341144
21
3.6780011
0
LINE
8
DEFAULT_255_2_778
10
1.7341144
20
3.6780011
11
2.3495144
21
3.0086011
0
LINE
8
DEFAULT_255_2_778
10
2.3495144
20
3.0086011
11
2.3215144
21
4.3124011
0
LINE
8
DEFAULT_255_2_778
10
2.1275144
20
4.6045011
11
2.3937144
21
4.5966011
0
LINE
8
DEFAULT_255_2_778
10
2.3937144
20
4.5966011
11
2.6120144
21
4.6045011
0
LINE
8
DEFAULT_255_2_778
10
2.4733144
20
4.3323011
11
2.4680144
21
2.8287011
0
LINE
8
DEFAULT_255_2_778
10
2.2585144
20
2.8107011
11
1.5891144
21
3.5060011
0
LINE
8
DEFAULT_255_2_778
10
1.5891144
20
3.5060011
11
0.9192144
21
4.2431011
0
LINE
8
DEFAULT_255_2_778
10
0.9192144
20
4.2431011
11
0.9525144
21
3.0144011
0
LINE
8
DEFAULT_255_2_778
10
0.9525144
20
3.0144011
11
0.9477144
21
3.0128011
0
LINE
8
DEFAULT_255_2_778
10
4.0648144
20
4.5455011
11
4.6622144
21
2.9988011
0
LINE
8
DEFAULT_255_2_778
10
4.5146144
20
2.7742011
11
4.2751144
21
3.4062011
0
LINE
8
DEFAULT_255_2_778
10
4.2519144
20
3.4216011
11
3.6997144
21
3.4216011
0
LINE
8
DEFAULT_255_2_778
10
3.6730144
20
3.4018011
11
3.5200144
21
2.9480011
0
LINE
8
DEFAULT_255_2_778
10
3.5819144
20
2.7017011
11
3.6087144
21
2.7017011
0
LINE
8
DEFAULT_255_2_778
10
3.3972144
20
2.6744011
11
3.1073144
21
2.6665011
0
LINE
8
DEFAULT_255_2_778
10
3.0819144
20
2.7017011
11
3.1565144
21
2.7070011
0
LINE
8
DEFAULT_255_2_778
10
3.3721144
20
2.9485011
11
3.9542144
21
4.5418011
0
LINE
8
DEFAULT_255_2_778
10
3.9542144
20
4.5418011
11
3.9516144
21
4.5389011
0
LINE
8
DEFAULT_255_2_778
10
4.2278144
20
3.5309011
11
3.9844144
21
4.2228011
0
LINE
8
DEFAULT_255_2_778
10
3.9457144
20
4.2228011
11
3.7195144
21
3.5309011
0
LINE
8
DEFAULT_255_2_778
10
3.7275144
20
3.5129011
11
4.2177144
21
3.5129011
0
LINE
8
DEFAULT_255_2_778
10
4.2177144
20
3.5129011
11
4.2177144
21
3.5129011
0
LINE
8
DEFAULT_255_2_778
10
6.0886144
20
3.4078011
11
6.0886144
21
2.8509011
0
LINE
8
DEFAULT_255_2_778
10
5.9674144
20
2.6726011
11
5.7161144
21
2.6646011
0
LINE
8
DEFAULT_255_2_778
10
5.8600144
20
3.4078011
11
5.8600144
21
4.4924011
0
LINE
8
DEFAULT_255_2_778
10
5.8600144
20
4.4924011
11
5.4808144
21
4.4871011
0
LINE
8
DEFAULT_255_2_778
10
5.1356144
20
4.3220011
11
5.1922144
21
4.5887011
0
LINE
8
DEFAULT_255_2_778
10
5.3319144
20
4.6067011
11
5.5348144
21
4.5934011
0
LINE
8
DEFAULT_255_2_778
10
5.5348144
20
4.5934011
11
6.4968144
21
4.5934011
0
LINE
8
DEFAULT_255_2_778
10
6.7641144
20
4.5895011
11
6.7561144
21
4.3074011
0
LINE
8
DEFAULT_255_2_778
10
6.7183144
20
4.3180011
11
6.7162144
21
4.3460011
0
LINE
8
DEFAULT_255_2_778
10
6.4008144
20
4.4871011
11
6.0775144
21
4.4924011
0
LINE
8
DEFAULT_255_2_778
10
6.0775144
20
4.4924011
11
6.0775144
21
3.4078011
0
LINE
8
DEFAULT_255_2_778
10
6.0775144
20
3.4078011
11
6.0886144
21
3.4078011
0
LINE
8
DEFAULT_255_2_778
10
7.7864144
20
3.4078011
11
7.7997144
21
2.8509011
0
LINE
8
DEFAULT_255_2_778
10
7.6777144
20
2.6726011
11
7.4263144
21
2.6646011
0
LINE
8
DEFAULT_255_2_778
10
7.5700144
20
3.4078011
11
7.5700144
21
3.8603011
0
LINE
8
DEFAULT_255_2_778
10
7.5700144
20
3.8603011
11
7.5647144
21
4.4146011
0
LINE
8
DEFAULT_255_2_778
10
7.4197144
20
4.6035011
11
7.6859144
21
4.5956011
0
LINE
8
DEFAULT_255_2_778
10
7.6859144
20
4.5956011
11
7.9375144
21
4.6035011
0
LINE
8
DEFAULT_255_2_778
10
7.7944144
20
3.8597011
11
7.7944144
21
3.4073011
0
LINE
8
DEFAULT_255_2_778
10
7.7944144
20
3.4073011
11
7.7864144
21
3.4078011
0
LINE
8
DEFAULT_255_2_778
10
9.5658144
20
4.6387011
11
9.5650144
21
4.6387011
0
LINE
8
DEFAULT_255_2_778
10
9.6181144
20
2.7239011
11
9.6181144
21
2.7247011
0
LINE
8
DEFAULT_255_2_778
10
11.4017144
20
2.6720011
11
11.1556144
21
2.6641011
0
LINE
8
DEFAULT_255_2_778
10
11.3165144
20
3.0472011
11
11.3191144
21
4.5109011
0
LINE
8
DEFAULT_255_2_778
10
11.4369144
20
4.5574011
11
12.2526144
21
3.6772011
0
LINE
8
DEFAULT_255_2_778
10
12.2526144
20
3.6772011
11
12.8680144
21
3.0078011
0
LINE
8
DEFAULT_255_2_778
10
12.8680144
20
3.0078011
11
12.8400144
21
4.3117011
0
LINE
8
DEFAULT_255_2_778
10
12.6460144
20
4.6038011
11
12.9122144
21
4.5958011
0
LINE
8
DEFAULT_255_2_778
10
12.9122144
20
4.5958011
11
13.1305144
21
4.6038011
0
LINE
8
DEFAULT_255_2_778
10
12.9918144
20
4.3315011
11
12.9865144
21
2.8279011
0
LINE
8
DEFAULT_255_2_778
10
12.7770144
20
2.8099011
11
12.1071144
21
3.5052011
0
LINE
8
DEFAULT_255_2_778
10
12.1071144
20
3.5052011
11
11.4377144
21
4.2418011
0
LINE
8
DEFAULT_255_2_778
10
11.4377144
20
4.2418011
11
11.4710144
21
3.0131011
0
LINE
8
DEFAULT_255_2_778
10
11.4710144
20
3.0131011
11
11.4665144
21
3.0120011
0
LINE
8
DEFAULT_255_2_778
10
14.5836144
20
4.5447011
11
15.1810144
21
2.9980011
0
LINE
8
DEFAULT_255_2_778
10
15.0334144
20
2.7731011
11
14.7939144
21
3.4052011
0
LINE
8
DEFAULT_255_2_778
10
14.7706144
20
3.4205011
11
14.2184144
21
3.4205011
0
LINE
8
DEFAULT_255_2_778
10
14.1920144
20
3.4007011
11
14.0391144
21
2.9469011
0
LINE
8
DEFAULT_255_2_778
10
14.1010144
20
2.7006011
11
14.1277144
21
2.7006011
0
LINE
8
DEFAULT_255_2_778
10
13.9163144
20
2.6733011
11
13.6263144
21
2.6654011
0
LINE
8
DEFAULT_255_2_778
10
13.8911144
20
2.9475011
11
14.4732144
21
4.5408011
0
LINE
8
DEFAULT_255_2_778
10
14.4732144
20
4.5408011
11
14.4703144
21
4.5381011
0
LINE
8
DEFAULT_255_2_778
10
14.7466144
20
3.5303011
11
14.5031144
21
4.2222011
0
LINE
8
DEFAULT_255_2_778
10
14.4645144
20
4.2222011
11
14.2383144
21
3.5303011
0
LINE
8
DEFAULT_255_2_778
10
14.2462144
20
3.5123011
11
14.7365144
21
3.5123011
0
LINE
8
DEFAULT_255_2_778
10
14.7365144
20
3.5123011
11
14.7365144
21
3.5123011
0
LINE
8
DEFAULT_255_2_778
10
16.3595144
20
2.6622011
11
16.1081144
21
2.6543011
0
LINE
8
DEFAULT_255_2_778
10
16.2518144
20
3.3975011
11
16.2518144
21
3.8500011
0
LINE
8
DEFAULT_255_2_778
10
16.2518144
20
3.8500011
11
16.2465144
21
4.4043011
0
LINE
8
DEFAULT_255_2_778
10
16.0711144
20
4.5937011
11
16.3610144
21
4.5858011
0
LINE
8
DEFAULT_255_2_778
10
16.3610144
20
4.5858011
11
16.6378144
21
4.5937011
0
LINE
8
DEFAULT_255_2_778
10
16.4698144
20
3.8500011
11
16.4698144
21
3.3935011
0
LINE
8
DEFAULT_255_2_778
10
16.4698144
20
3.3935011
11
16.4663144
21
3.4020011
0
LINE
8
DEFAULT_255_2_778
10
1.4407144
20
1.6936011
11
2.0772144
21
0.0455011
0
LINE
8
DEFAULT_255_2_778
10
1.9190144
20
-0.2018989
11
1.6648144
21
0.4636011
0
LINE
8
DEFAULT_255_2_778
10
1.6402144
20
0.4802011
11
1.0388144
21
0.4802011
0
LINE
8
DEFAULT_255_2_778
10
1.0120144
20
0.4583011
11
0.8483144
21
-0.0253989
0
LINE
8
DEFAULT_255_2_778
10
0.9133144
20
-0.2880989
11
0.9401144
21
-0.2880989
0
LINE
8
DEFAULT_255_2_778
10
0.7125144
20
-0.3187989
11
0.4038144
21
-0.3267989
0
LINE
8
DEFAULT_255_2_778
10
0.3765144
20
-0.2880989
11
0.4556144
21
-0.2827989
0
LINE
8
DEFAULT_255_2_778
10
0.6853144
20
-0.0258989
11
1.3055144
21
1.6706011
0
LINE
8
DEFAULT_255_2_778
10
1.3055144
20
1.6706011
11
1.3076144
21
1.6857011
0
LINE
8
DEFAULT_255_2_778
10
1.6023144
20
0.6125011
11
1.3362144
21
1.3444011
0
LINE
8
DEFAULT_255_2_778
10
1.2949144
20
1.3444011
11
1.0554144
21
0.6125011
0
LINE
8
DEFAULT_255_2_778
10
1.0634144
20
0.5927011
11
1.5857144
21
0.5927011
0
LINE
8
DEFAULT_255_2_778
10
1.5857144
20
0.5927011
11
1.5917144
21
0.5927011
0
LINE
8
DEFAULT_255_2_778
10
3.1507144
20
0.9612011
11
3.1454144
21
1.5513011
0
LINE
8
DEFAULT_255_2_778
10
2.9565144
20
1.7534011
11
3.2652144
21
1.7455011
0
LINE
8
DEFAULT_255_2_778
10
3.2652144
20
1.7455011
11
3.5880144
21
1.7534011
0
LINE
8
DEFAULT_255_2_778
10
3.9460144
20
0.6294011
11
4.5141144
21
-0.0703989
0
LINE
8
DEFAULT_255_2_778
10
4.9109144
20
-0.3137989
11
4.7167144
21
-0.3137989
0
LINE
8
DEFAULT_255_2_778
10
4.0547144
20
0.1400011
11
3.7568144
21
0.5445011
0
LINE
8
DEFAULT_255_2_778
10
3.7216144
20
0.5612011
11
3.3856144
21
0.5665011
0
LINE
8
DEFAULT_255_2_778
10
3.3658144
20
0.5445011
11
3.3658144
21
0.4778011
0
LINE
8
DEFAULT_255_2_778
10
3.3658144
20
0.4778011
11
3.3790144
21
-0.1208989
0
LINE
8
DEFAULT_255_2_778
10
3.2504144
20
-0.3124989
11
2.9935144
21
-0.3203989
0
LINE
8
DEFAULT_255_2_778
10
3.1464144
20
0.4778011
11
3.1464144
21
0.9591011
0
LINE
8
DEFAULT_255_2_778
10
3.1464144
20
0.9591011
11
3.1507144
21
0.9612011
0
LINE
8
DEFAULT_255_2_778
10
3.3769144
20
1.6150011
11
3.3769144
21
0.7215011
0
LINE
8
DEFAULT_255_2_778
10
3.3769144
20
0.7215011
11
3.3703144
21
0.7236011
0
LINE
8
DEFAULT_255_2_778
10
6.6437144
20
1.7603011
11
6.9231144
21
1.7190011
0
LINE
8
DEFAULT_255_2_778
10
6.9450144
20
1.5362011
11
6.9371144
21
1.2547011
0
LINE
8
DEFAULT_255_2_778
10
5.4343144
20
-0.0555989
11
5.4380144
21
-0.0547989
0
LINE
8
DEFAULT_255_2_778
10
9.4671144
20
0.4807011
11
9.4803144
21
-0.1179989
0
LINE
8
DEFAULT_255_2_778
10
9.3517144
20
-0.3095989
11
9.0837144
21
-0.3174989
0
LINE
8
DEFAULT_255_2_778
10
9.2366144
20
0.4807011
11
9.2366144
21
0.7668011
0
LINE
8
DEFAULT_255_2_778
10
9.2199144
20
0.7834011
11
8.0611144
21
0.7834011
0
LINE
8
DEFAULT_255_2_778
10
8.0444144
20
0.7668011
11
8.0444144
21
0.4807011
0
LINE
8
DEFAULT_255_2_778
10
8.0444144
20
0.4807011
11
8.0576144
21
-0.1179989
0
LINE
8
DEFAULT_255_2_778
10
7.9290144
20
-0.3095989
11
7.6610144
21
-0.3174989
0
LINE
8
DEFAULT_255_2_778
10
7.8139144
20
0.4807011
11
7.8139144
21
0.9618011
0
LINE
8
DEFAULT_255_2_778
10
7.8139144
20
0.9618011
11
7.8087144
21
1.5518011
0
LINE
8
DEFAULT_255_2_778
10
7.6197144
20
1.7539011
11
7.9285144
21
1.7460011
0
LINE
8
DEFAULT_255_2_778
10
7.9285144
20
1.7460011
11
8.1965144
21
1.7539011
0
LINE
8
DEFAULT_255_2_778
10
8.0489144
20
1.5518011
11
8.0436144
21
0.9618011
0
LINE
8
DEFAULT_255_2_778
10
8.0436144
20
0.9618011
11
8.0436144
21
0.9046011
0
LINE
8
DEFAULT_255_2_778
10
8.0603144
20
0.8879011
11
9.2191144
21
0.8879011
0
LINE
8
DEFAULT_255_2_778
10
9.2358144
20
0.9046011
11
9.2358144
21
0.9618011
0
LINE
8
DEFAULT_255_2_778
10
9.2358144
20
0.9618011
11
9.2305144
21
1.5518011
0
LINE
8
DEFAULT_255_2_778
10
9.0416144
20
1.7539011
11
9.3504144
21
1.7460011
0
LINE
8
DEFAULT_255_2_778
10
9.3504144
20
1.7460011
11
9.6179144
21
1.7539011
0
LINE
8
DEFAULT_255_2_778
10
9.4702144
20
1.5518011
11
9.4649144
21
0.9618011
0
LINE
8
DEFAULT_255_2_778
10
9.4649144
20
0.9618011
11
9.4649144
21
0.4807011
0
LINE
8
DEFAULT_255_2_778
10
9.4649144
20
0.4807011
11
9.4671144
21
0.4807011
0
LINE
8
DEFAULT_255_2_778
10
10.8204144
20
0.4807011
11
10.8336144
21
-0.1179989
0
LINE
8
DEFAULT_255_2_778
10
10.7050144
20
-0.3095989
11
10.4370144
21
-0.3174989
0
LINE
8
DEFAULT_255_2_778
10
10.5899144
20
0.4807011
11
10.5899144
21
0.9618011
0
LINE
8
DEFAULT_255_2_778
10
10.5899144
20
0.9618011
11
10.5847144
21
1.5518011
0
LINE
8
DEFAULT_255_2_778
10
10.4291144
20
1.7539011
11
10.7053144
21
1.7460011
0
LINE
8
DEFAULT_255_2_778
10
10.7053144
20
1.7460011
11
10.9733144
21
1.7539011
0
LINE
8
DEFAULT_255_2_778
10
10.8257144
20
1.5518011
11
10.8204144
21
0.9618011
0
LINE
8
DEFAULT_255_2_778
10
10.8204144
20
0.9618011
11
10.8204144
21
0.4807011
0
LINE
8
DEFAULT_255_2_778
10
10.8204144
20
0.4807011
11
10.8204144
21
0.4807011
0
LINE
8
DEFAULT_255_2_778
10
12.6939144
20
0.0151011
11
13.2794144
21
1.5319011
0
LINE
8
DEFAULT_255_2_778
10
13.2019144
20
1.7473011
11
13.4694144
21
1.7394011
0
LINE
8
DEFAULT_255_2_778
10
13.4694144
20
1.7394011
11
13.6824144
21
1.7473011
0
LINE
8
DEFAULT_255_2_778
10
13.4144144
20
1.4174011
11
13.1083144
21
0.6768011
0
LINE
8
DEFAULT_255_2_778
10
13.1083144
20
0.6768011
11
12.7556144
21
-0.1515989
0
LINE
8
DEFAULT_255_2_778
10
12.5420144
20
-0.1896989
11
11.8727144
21
1.4856011
0
LINE
8
DEFAULT_255_2_778
10
11.6213144
20
1.7462011
11
11.9407144
21
1.7383011
0
LINE
8
DEFAULT_255_2_778
10
11.9407144
20
1.7383011
11
12.1949144
21
1.7462011
0
LINE
8
DEFAULT_255_2_778
10
12.1624144
20
1.4118011
11
12.6947144
21
0.0119011
0
LINE
8
DEFAULT_255_2_778
10
12.6947144
20
0.0119011
11
12.6939144
21
0.0151011
0
LINE
8
DEFAULT_255_2_778
10
14.4656144
20
0.9551011
11
14.4603144
21
1.5452011
0
LINE
8
DEFAULT_255_2_778
10
14.2714144
20
1.7476011
11
14.5801144
21
1.7396011
0
LINE
8
DEFAULT_255_2_778
10
14.5801144
20
1.7396011
11
15.2056144
21
1.7423011
0
LINE
8
DEFAULT_255_2_778
10
15.3498144
20
1.6158011
11
15.3498144
21
1.4362011
0
LINE
8
DEFAULT_255_2_778
10
14.7058144
20
1.6142011
11
14.7058144
21
0.8596011
0
LINE
8
DEFAULT_255_2_778
10
14.7225144
20
0.8329011
11
15.1569144
21
0.8382011
0
LINE
8
DEFAULT_255_2_778
10
15.3178144
20
0.7371011
11
15.3072144
21
0.5622011
0
LINE
8
DEFAULT_255_2_778
10
15.1146144
20
0.7213011
11
14.7241144
21
0.7353011
0
LINE
8
DEFAULT_255_2_778
10
14.7040144
20
0.7154011
11
14.7040144
21
0.0077011
0
LINE
8
DEFAULT_255_2_778
10
14.5891144
20
-0.3089989
11
14.3211144
21
-0.3169989
0
LINE
8
DEFAULT_255_2_778
10
14.4740144
20
0.4813011
11
14.4740144
21
0.9623011
0
LINE
8
DEFAULT_255_2_778
10
14.4740144
20
0.9623011
11
14.4656144
21
0.9551011
0
LINE
8
DEFAULT_255_2_778
10
16.0795144
20
-0.1785989
11
16.0928144
21
0.1109011
0
LINE
8
DEFAULT_255_2_778
10
16.6235144
20
0.6001011
11
16.5005144
21
0.7011011
0
LINE
8
DEFAULT_255_2_778
10
16.6550144
20
0.9125011
11
16.7315144
21
0.8459011
0
LINE
8
DEFAULT_255_2_778
10
16.1195144
20
-0.2984989
11
16.1208144
21
-0.2822989
0
ARC
8
DEFAULT_255_2_778
10
10.8723804
20
7.404323
40
0.5043194
50
274.6676324
51
292.8861669
0
ARC
8
DEFAULT_255_2_778
10
10.8514444
20
7.5572779
40
0.6585246
50
269.9926352
51
275.4002297
0
ARC
8
DEFAULT_255_2_778
10
10.8471048
20
7.459059
40
0.5603218
50
257.2381773
51
270.4350947
0
ARC
8
DEFAULT_255_2_778
10
10.783734
20
7.1780771
40
0.2722825
50
245.1504939
51
257.182799
0
ARC
8
DEFAULT_255_2_778
10
10.5884482
20
6.8501527
40
0.1143491
50
16.5738679
51
44.9959221
0
LINE
8
DEFAULT_255_2_778
10
10.6980464
20
6.8827709
11
10.6980929
21
6.8826542
0
ARC
8
DEFAULT_255_2_778
10
10.8513697
20
6.9356003
40
0.1621637
50
199.0563542
51
214.1772466
0
ARC
8
DEFAULT_255_2_778
10
10.8546534
20
5.7200265
40
1.132846
50
91.5055651
51
96.9685681
0
LINE
8
DEFAULT_255_2_778
10
10.8248889
20
6.8524815
11
10.8252788
21
6.8524983
0
ARC
8
DEFAULT_255_2_778
10
10.8329475
20
7.4422872
40
0.5898388
50
269.2550582
51
286.0340356
0
ARC
8
DEFAULT_255_2_778
10
10.9617322
20
6.9855541
40
0.1153268
50
287.2159283
51
336.8983296
0
ARC
8
DEFAULT_255_2_778
10
10.1499087
20
7.4064977
40
0.1660945
50
278.9020351
51
347.3969256
0
LINE
8
DEFAULT_255_2_778
10
10.312001
20
7.3702567
11
10.3123608
21
7.3710529
0
ARC
8
DEFAULT_255_2_778
10
12.2482675
20
6.4990549
40
2.1232322
50
155.3053386
51
155.7515832
0
ARC
8
DEFAULT_255_2_778
10
10.189771
20
7.6461409
40
0.2904718
50
275.3579944
51
296.4629945
0
ARC
8
DEFAULT_255_2_778
10
10.1855875
20
7.6802074
40
0.3247815
50
269.9629745
51
275.531622
0
ARC
8
DEFAULT_255_2_778
10
10.2043111
20
7.8478175
40
0.4927555
50
237.3250577
51
267.7979455
0
ARC
8
DEFAULT_255_2_778
10
10.2357625
20
7.9218449
40
0.5722067
50
238.4912794
51
238.6760756
0
ARC
8
DEFAULT_255_2_778
10
10.0684262
20
7.4432685
40
0.1320406
50
184.0234103
51
225.1598484
0
ARC
8
DEFAULT_255_2_778
10
10.0924248
20
7.5125316
40
0.2006157
50
234.2869452
51
273.2206787
0
ARC
8
DEFAULT_255_2_778
10
10.190369
20
9.2016099
40
1.8913641
50
267.3734573
51
268.4760574
0
ARC
8
DEFAULT_255_2_778
10
10.1068032
20
5.8627393
40
1.4485576
50
86.3936962
51
88.6841082
0
ARC
8
DEFAULT_255_2_778
10
10.1575079
20
6.7187855
40
0.5910261
50
83.666124
51
86.0794714
0
ARC
8
DEFAULT_255_2_778
10
10.1769458
20
7.3152849
40
0.0466574
50
297.8760233
51
348.7769077
0
LINE
8
DEFAULT_255_2_778
10
10.198761
20
7.2740415
11
10.1984382
21
7.2738105
0
ARC
8
DEFAULT_255_2_778
10
10.21988
20
7.2330892
40
0.0460214
50
117.7690261
51
168.3226293
0
ARC
8
DEFAULT_255_2_778
10
10.040247
20
11.3722045
40
2.4139001
50
162.6149435
51
166.082565
0
ARC
8
DEFAULT_255_2_778
10
9.5484681
20
11.526815
40
1.8983902
50
158.334846
51
162.6332958
0
ARC
8
DEFAULT_255_2_778
10
9.1781061
20
11.6743823
40
1.4997126
50
153.0482065
51
158.350582
0
ARC
8
DEFAULT_255_2_778
10
9.0001257
20
11.7628583
40
1.3009632
50
150.5161677
51
152.9688695
0
ARC
8
DEFAULT_255_2_778
10
8.9127968
20
11.8128875
40
1.2003205
50
143.9352874
51
150.5433162
0
ARC
8
DEFAULT_255_2_778
10
9.1973778
20
11.5966724
40
1.5576648
50
138.8285804
51
143.6687696
0
ARC
8
DEFAULT_255_2_778
10
1.0322712
20
18.7129007
40
9.2732968
50
318.94295
51
319.3676514
0
ARC
8
DEFAULT_255_2_778
10
10.0253499
20
11.0946264
40
2.5137386
50
129.6568665
51
141.0723869
0
ARC
8
DEFAULT_255_2_778
10
8.4956283
20
12.9271497
40
0.1269302
50
112.5625961
51
125.9495567
0
ARC
8
DEFAULT_255_2_778
10
10.1783366
20
9.1735476
40
4.2404018
50
113.8122627
51
114.0988939
0
ARC
8
DEFAULT_255_2_778
10
8.4465616
20
13.1308147
40
0.0803033
50
284.2378128
51
337.7490191
0
ARC
8
DEFAULT_255_2_778
10
8.4856036
20
13.106165
40
0.0357482
50
350.7304846
51
0.0749254
0
ARC
8
DEFAULT_255_2_778
10
8.4718392
20
13.1051835
40
0.0495233
50
1.1896801
51
24.4789882
0
ARC
8
DEFAULT_255_2_778
10
8.9575985
20
12.1506015
40
1.0700609
50
114.3200954
51
136.4256406
0
ARC
8
DEFAULT_255_2_778
10
9.7038004
20
11.4303533
40
2.1071465
50
136.2230086
51
152.1038702
0
ARC
8
DEFAULT_255_2_778
10
10.1905009
20
11.1403522
40
2.6731269
50
151.4910707
51
155.8634939
0
ARC
8
DEFAULT_255_2_778
10
10.0774165
20
11.1905656
40
2.5493961
50
155.8540942
51
158.432795
0
ARC
8
DEFAULT_255_2_778
10
8.565793
20
11.6740451
40
0.971685
50
152.168137
51
168.1049835
0
ARC
8
DEFAULT_255_2_778
10
12.3582618
20
10.7264647
40
4.8802027
50
166.39611
51
167.5413441
0
ARC
8
DEFAULT_255_2_778
10
-8.7170581
20
15.4042852
40
16.7080171
50
347.2163692
51
347.4693947
0
ARC
8
DEFAULT_255_2_778
10
2.4030831
20
12.9157772
40
5.3129905
50
345.8876082
51
346.8526394
0
ARC
8
DEFAULT_255_2_778
10
9.2408583
20
11.1845211
40
1.7405789
50
165.4996174
51
170.5507355
0
ARC
8
DEFAULT_255_2_778
10
8.2017562
20
11.360826
40
0.6866393
50
170.8276778
51
179.5562225
0
ARC
8
DEFAULT_255_2_778
10
7.8857758
20
11.3585164
40
0.3707167
50
178.8210079
51
203.1111805
0
ARC
8
DEFAULT_255_2_778
10
7.4120484
20
11.3487351
40
0.1898653
50
314.3665652
51
3.3976759
0
ARC
8
DEFAULT_255_2_778
10
6.3672656
20
11.417422
40
1.2356499
50
357.3358658
51
0.1330429
0
ARC
8
DEFAULT_255_2_778
10
-5.7954609
20
11.4862703
40
13.3985355
50
359.7178544
51
359.7376538
0
ARC
8
DEFAULT_255_2_778
10
8.3255247
20
11.4406482
40
0.7227617
50
172.7065238
51
181.2468258
0
ARC
8
DEFAULT_255_2_778
10
10.1232998
20
7.8311501
40
0.1703648
50
204.2035749
51
232.8214659
0
ARC
8
DEFAULT_255_2_778
10
10.3481965
20
8.0959231
40
0.5175852
50
230.6971856
51
240.5224084
0
ARC
8
DEFAULT_255_2_778
10
10.5272615
20
8.4011702
40
0.871451
50
240.1491081
51
246.3577742
0
ARC
8
DEFAULT_255_2_778
10
10.398247
20
8.0979278
40
0.5419333
50
245.9960306
51
250.2604673
0
ARC
8
DEFAULT_255_2_778
10
10.2359681
20
7.6437648
40
0.0596526
50
249.6378623
51
257.1594641
0
ARC
8
DEFAULT_255_2_778
10
36.6704364
20
37.8448647
40
40.1883694
50
228.7897338
51
228.845327
0
ARC
8
DEFAULT_255_2_778
10
9.6644113
20
7.060798
40
0.763427
50
46.1426535
51
66.5749513
0
ARC
8
DEFAULT_255_2_778
10
10.4401145
20
7.2275948
40
0.1862081
50
179.5971504
51
179.9903123
0
ARC
8
DEFAULT_255_2_778
10
10.4199632
20
7.2305416
40
0.1660824
50
181.0058153
51
220.3026835
0
ARC
8
DEFAULT_255_2_778
10
13.6395766
20
9.4914715
40
4.0995927
50
215.2893013
51
215.312167
0
LINE
8
DEFAULT_255_2_778
10
10.294248
20
7.1217801
11
10.2944396
21
7.1215095
0
ARC
8
DEFAULT_255_2_778
10
10.034135
20
6.9286153
40
0.3239856
50
28.9226603
51
36.5396608
0
ARC
8
DEFAULT_255_2_778
10
10.4587044
20
7.6465542
40
0.578689
50
255.8983631
51
266.1177071
0
ARC
8
DEFAULT_255_2_778
10
10.4561303
20
7.6040301
40
0.5360882
50
266.084472
51
269.9597712
0
ARC
8
DEFAULT_255_2_778
10
10.4673667
20
7.3729541
40
0.3052332
50
267.8196096
51
294.6514535
0
ARC
8
DEFAULT_255_2_778
10
10.5540303
20
7.1856257
40
0.0988326
50
294.2855604
51
0.4079404
0
ARC
8
DEFAULT_255_2_778
10
10.5256712
20
7.1862186
40
0.1271894
50
0.0499215
51
4.819198
0
ARC
8
DEFAULT_255_2_778
10
10.4698724
20
7.4157144
40
0.2849532
50
271.0669303
51
309.835938
0
ARC
8
DEFAULT_255_2_778
10
10.469619
20
7.418022
40
0.2872651
50
269.9980219
51
271.1088912
0
ARC
8
DEFAULT_255_2_778
10
10.4691866
20
7.4159212
40
0.2851647
50
220.981954
51
270.0848995
0
ARC
8
DEFAULT_255_2_778
10
9.1842982
20
10.2602668
40
2.4757766
50
175.9806115
51
176.6875755
0
ARC
8
DEFAULT_255_2_778
10
9.1847435
20
10.2602307
40
2.4762232
50
176.6873359
51
179.9998607
0
ARC
8
DEFAULT_255_2_778
10
9.1807489
20
10.2599745
40
2.4722286
50
179.9939231
51
204.0031583
0
ARC
8
DEFAULT_255_2_778
10
6.1461238
20
8.8830969
40
0.8603844
50
23.5574064
51
25.5591891
0
ARC
8
DEFAULT_255_2_778
10
-0.1307797
20
6.192496
40
7.6896341
50
22.6922792
51
23.2421583
0
ARC
8
DEFAULT_255_2_778
10
7.4114161
20
9.3222607
40
0.4766421
50
200.0285632
51
219.5862796
0
ARC
8
DEFAULT_255_2_778
10
7.120641
20
9.0848445
40
0.1012873
50
220.9015095
51
268.244333
0
ARC
8
DEFAULT_255_2_778
10
7.1175244
20
9.0760833
40
0.0924786
50
270.0082913
51
272.6567348
0
ARC
8
DEFAULT_255_2_778
10
6.0604634
20
8.720041
40
1.0936073
50
13.9511602
51
20.6472018
0
ARC
8
DEFAULT_255_2_778
10
3.9274803
20
7.9238032
40
3.3703585
50
20.5278297
51
23.2941016
0
ARC
8
DEFAULT_255_2_778
10
38.8499843
20
22.8992596
40
34.6276136
50
202.9033649
51
203.2024784
0
ARC
8
DEFAULT_255_2_778
10
9.6099216
20
10.575579
40
2.8967872
50
195.4813367
51
203.4468516
0
ARC
8
DEFAULT_255_2_778
10
8.2233558
20
10.1818884
40
1.4554737
50
183.8759285
51
195.1153054
0
ARC
8
DEFAULT_255_2_778
10
8.4134887
20
10.1884496
40
1.6456274
50
180.0359367
51
183.6563711
0
ARC
8
DEFAULT_255_2_778
10
7.9848617
20
10.2002772
40
1.217068
50
165.3639969
51
180.6054067
0
ARC
8
DEFAULT_255_2_778
10
7.4612285
20
10.343867
40
0.6741769
50
139.7362849
51
165.9266252
0
ARC
8
DEFAULT_255_2_778
10
7.3087093
20
10.4598025
40
0.4829687
50
97.2426708
51
138.5372579
0
ARC
8
DEFAULT_255_2_778
10
7.3383487
20
10.3017721
40
0.6435447
50
89.8653395
51
98.0866915
0
ARC
8
DEFAULT_255_2_778
10
7.3387457
20
10.1699282
40
0.7753877
50
84.22935
51
89.9175742
0
ARC
8
DEFAULT_255_2_778
10
7.3240551
20
10.0225629
40
0.9234833
50
79.4568226
51
84.2418171
0
ARC
8
DEFAULT_255_2_778
10
7.3073286
20
9.9261354
40
1.0213441
50
78.8799214
51
79.5241328
0
ARC
8
DEFAULT_255_2_778
10
7.1706834
20
10.5160552
40
0.5303362
50
32.8494331
51
51.0172017
0
ARC
8
DEFAULT_255_2_778
10
-19.9613472
20
-8.9262247
40
33.9085994
50
35.5659671
51
35.581252
0
ARC
8
DEFAULT_255_2_778
10
8.1262339
20
11.129717
40
0.6048939
50
213.4414386
51
226.7812241
0
ARC
8
DEFAULT_255_2_778
10
11.2716264
20
8.6729373
40
4.0908413
50
149.1599914
51
150.4752152
0
LINE
8
DEFAULT_255_2_778
10
7.7592212
20
10.7700766
11
7.7600695
21
10.7715095
0
ARC
8
DEFAULT_255_2_778
10
6.5188746
20
11.5583183
40
1.469569
50
327.6288855
51
338.6626833
0
ARC
8
DEFAULT_255_2_778
10
7.4301351
20
10.3191317
40
0.8400339
50
56.9950619
51
65.0465259
0
ARC
8
DEFAULT_255_2_778
10
7.4613768
20
10.3859927
40
0.7662339
50
65.0553432
51
73.9314839
0
ARC
8
DEFAULT_255_2_778
10
7.4743549
20
10.4309093
40
0.7194799
50
73.9345692
51
85.4821368
0
ARC
8
DEFAULT_255_2_778
10
7.4758785
20
10.4447257
40
0.7055866
50
85.5170985
51
89.9990701
0
ARC
8
DEFAULT_255_2_778
10
7.4928648
20
10.3723776
40
0.7781197
50
91.2500151
51
154.0914771
0
ARC
8
DEFAULT_255_2_778
10
7.5472039
20
10.3309311
40
0.8452154
50
153.1737086
51
173.0432297
0
ARC
8
DEFAULT_255_2_778
10
9.9431406
20
7.9914047
40
0.1932445
50
198.2448432
51
210.4902498
0
ARC
8
DEFAULT_255_2_778
10
9.8943942
20
7.9484688
40
0.1300336
50
205.0779759
51
251.1953087
0
ARC
8
DEFAULT_255_2_778
10
9.8593501
20
7.8701798
40
0.0453275
50
261.2808522
51
269.9302297
0
ARC
8
DEFAULT_255_2_778
10
9.8593776
20
7.852035
40
0.0271826
50
269.8257498
51
270.5210764
0
ARC
8
DEFAULT_255_2_778
10
9.8588131
20
7.869841
40
0.0449945
50
271.0336874
51
309.4636443
0
ARC
8
DEFAULT_255_2_778
10
9.9407691
20
7.9984568
40
0.1718465
50
219.4031102
51
251.9107305
0
LINE
8
DEFAULT_255_2_778
10
9.8079835
20
7.8893734
11
9.8074378
21
7.8899287
0
ARC
8
DEFAULT_255_2_778
10
9.6232567
20
7.7233507
40
0.2483363
50
42.1269959
51
56.6966739
0
ARC
8
DEFAULT_255_2_778
10
7.9473283
20
12.1421385
40
1.6390331
50
143.1237376
51
156.2359065
0
ARC
8
DEFAULT_255_2_778
10
8.774433
20
11.7714815
40
2.5453808
50
156.1024251
51
165.670198
0
ARC
8
DEFAULT_255_2_778
10
9.9189673
20
11.4773515
40
3.7271038
50
165.6440166
51
174.4101473
0
ARC
8
DEFAULT_255_2_778
10
10.8654785
20
11.3721003
40
4.6793831
50
174.25643
51
180.0535012
0
ARC
8
DEFAULT_255_2_778
10
11.1428156
20
11.3678686
40
4.9567183
50
180.0015926
51
181.4566548
0
ARC
8
DEFAULT_255_2_778
10
11.1732663
20
11.3684548
40
4.987174
50
181.454494
51
185.0967645
0
ARC
8
DEFAULT_255_2_778
10
6.1570597
20
11.050505
40
0.1342645
50
291.2906571
51
0.7731434
0
ARC
8
DEFAULT_255_2_778
10
5.897824
20
11.0945791
40
0.395751
50
353.8696643
51
0.2402939
0
ARC
8
DEFAULT_255_2_778
10
5.5818793
20
11.0919011
40
0.7117056
50
0.3492106
51
5.7465295
0
ARC
8
DEFAULT_255_2_778
10
4.4693965
20
10.9810347
40
1.8296988
50
5.7126718
51
7.9756965
0
ARC
8
DEFAULT_255_2_778
10
8.6844419
20
11.5794913
40
2.4276249
50
186.3616361
51
188.1601967
0
ARC
8
DEFAULT_255_2_778
10
6.7843431
20
11.3645078
40
0.5154149
50
182.724974
51
186.0145679
0
ARC
8
DEFAULT_255_2_778
10
9.9605574
20
11.5075254
40
3.6948459
50
179.9998589
51
182.5986373
0
ARC
8
DEFAULT_255_2_778
10
10.0310858
20
11.5056924
40
3.7653749
50
172.4221145
51
179.9719694
0
ARC
8
DEFAULT_255_2_778
10
10.4360318
20
11.4487649
40
4.1742925
50
165.772677
51
172.3805452
0
ARC
8
DEFAULT_255_2_778
10
10.8765979
20
11.3447398
40
4.6269179
50
165.4875105
51
165.8648488
0
ARC
8
DEFAULT_255_2_778
10
8.0287581
20
12.072757
40
1.6875325
50
156.6087944
51
165.1868676
0
ARC
8
DEFAULT_255_2_778
10
10.0846169
20
11.2179312
40
3.9139313
50
155.9099586
51
157.0716521
0
ARC
8
DEFAULT_255_2_778
10
2.8839697
20
14.5088473
40
4.0033665
50
334.9768799
51
338.5391275
0
ARC
8
DEFAULT_255_2_778
10
5.3874272
20
13.4981347
40
1.3039286
50
339.6248888
51
340.3229943
0
ARC
8
DEFAULT_255_2_778
10
5.6369075
20
13.4108841
40
1.0396394
50
340.2211105
51
344.1079433
0
ARC
8
DEFAULT_255_2_778
10
11.501735
20
6.0621519
40
0.3527746
50
209.7678339
51
228.8267097
0
ARC
8
DEFAULT_255_2_778
10
11.5062082
20
6.0817971
40
0.3706304
50
230.3057067
51
271.7381506
0
ARC
8
DEFAULT_255_2_778
10
11.5160691
20
6.25389
40
0.5425544
50
270.1458325
51
279.3684119
0
ARC
8
DEFAULT_255_2_778
10
11.4888643
20
6.3945439
40
0.6857722
50
279.6981043
51
315.6807362
0
ARC
8
DEFAULT_255_2_778
10
11.6983093
20
6.1916764
40
0.3941902
50
315.508225
51
341.7482323
0
ARC
8
DEFAULT_255_2_778
10
11.8270796
20
6.1436266
40
0.2569042
50
342.9308711
51
359.738377
0
ARC
8
DEFAULT_255_2_778
10
11.8499119
20
6.1424737
40
0.2340693
50
359.9950796
51
3.6890145
0
ARC
8
DEFAULT_255_2_778
10
11.8485322
20
6.1418622
40
0.235486
50
3.8158873
51
27.0260558
0
ARC
8
DEFAULT_255_2_778
10
11.7979021
20
6.1161594
40
0.2922665
50
27.0044891
51
40.6052463
0
ARC
8
DEFAULT_255_2_778
10
11.7265937
20
6.0559649
40
0.3855825
50
40.4997046
51
49.577827
0
ARC
8
DEFAULT_255_2_778
10
11.6998353
20
6.1583562
40
0.3363663
50
23.9373992
51
34.6298616
0
ARC
8
DEFAULT_255_2_778
10
11.7686679
20
6.1886245
40
0.2611731
50
8.6578713
51
23.9951121
0
ARC
8
DEFAULT_255_2_778
10
11.796442
20
6.1937481
40
0.2329459
50
0.0223207
51
8.4403958
0
ARC
8
DEFAULT_255_2_778
10
11.7443399
20
6.2053201
40
0.2852791
50
311.8009115
51
357.6934565
0
ARC
8
DEFAULT_255_2_778
10
11.5263486
20
6.4231617
40
0.5932258
50
291.4050482
51
313.4724199
0
ARC
8
DEFAULT_255_2_778
10
11.456073
20
6.5744816
40
0.7598245
50
275.569868
51
292.1744189
0
ARC
8
DEFAULT_255_2_778
10
11.4638607
20
6.5036027
40
0.6885249
50
270.0425091
51
275.4973531
0
ARC
8
DEFAULT_255_2_778
10
11.4585846
20
6.3601966
40
0.5451494
50
250.8548707
51
270.6082206
0
ARC
8
DEFAULT_255_2_778
10
11.4143449
20
6.2223361
40
0.4004196
50
236.8719881
51
250.3654717
0
ARC
8
DEFAULT_255_2_778
10
8.0252816
20
8.9923135
40
1.4279811
50
212.9509886
51
248.0073696
0
ARC
8
DEFAULT_255_2_778
10
8.2558551
20
9.5209018
40
2.0045146
50
247.5544474
51
260.5133588
0
ARC
8
DEFAULT_255_2_778
10
8.3705863
20
10.1274099
40
2.621671
50
260.2248994
51
265.3403585
0
ARC
8
DEFAULT_255_2_778
10
8.4067177
20
10.488582
40
2.984592
50
265.2122826
51
267.4503908
0
ARC
8
DEFAULT_255_2_778
10
8.7925827
20
18.8654274
40
11.3703171
50
267.3856682
51
267.704734
0
ARC
8
DEFAULT_255_2_778
10
8.3094986
20
6.0289786
40
1.4755144
50
81.3862151
51
88.9238667
0
ARC
8
DEFAULT_255_2_778
10
8.4368702
20
6.938002
40
0.5577611
50
69.1093436
51
80.3370845
0
ARC
8
DEFAULT_255_2_778
10
8.4493285
20
6.9766884
40
0.5171799
50
62.2780274
51
68.8705205
0
ARC
8
DEFAULT_255_2_778
10
8.6939029
20
7.5118014
40
0.0774004
50
267.0436986
51
269.9698271
0
ARC
8
DEFAULT_255_2_778
10
8.6922649
20
7.4957726
40
0.0613924
50
271.4908644
51
332.023282
0
LINE
8
DEFAULT_255_2_778
10
8.7464827
20
7.4669727
11
8.7466884
21
7.4672469
0
ARC
8
DEFAULT_255_2_778
10
8.8014692
20
7.4380183
40
0.0620906
50
91.3061414
51
151.9176225
0
ARC
8
DEFAULT_255_2_778
10
8.7993025
20
7.4046356
40
0.0954601
50
78.8814513
51
89.5490427
0
ARC
8
DEFAULT_255_2_778
10
8.906188
20
8.6287229
40
1.1338761
50
265.5246298
51
269.1190364
0
ARC
8
DEFAULT_255_2_778
10
8.9045451
20
8.5604785
40
1.0656147
50
269.1509454
51
269.9975458
0
ARC
8
DEFAULT_255_2_778
10
8.9073871
20
8.4505089
40
0.9556495
50
269.826872
51
282.9509032
0
ARC
8
DEFAULT_255_2_778
10
8.7324613
20
9.0297705
40
1.5599096
50
284.4443111
51
296.3560217
0
ARC
8
DEFAULT_255_2_778
10
6.9597887
20
13.0402245
40
5.9435643
50
294.5046042
51
294.5246555
0
ARC
8
DEFAULT_255_2_778
10
11.3032224
20
3.5577502
40
4.4863472
50
113.4357401
51
114.7232498
0
ARC
8
DEFAULT_255_2_778
10
9.9409295
20
3.5472633
40
4.1482632
50
95.8390178
51
97.1852069
0
ARC
8
DEFAULT_255_2_778
10
8.6626957
20
13.8405919
40
6.2241396
50
276.500689
51
277.0078772
0
ARC
8
DEFAULT_255_2_778
10
9.1986117
20
9.0158002
40
1.3697642
50
270.7213383
51
277.0766522
0
ARC
8
DEFAULT_255_2_778
10
9.1992933
20
8.073928
40
0.428104
50
245.8036503
51
272.2172682
0
ARC
8
DEFAULT_255_2_778
10
9.1422441
20
7.9213663
40
0.2657702
50
234.1285054
51
243.541046
0
ARC
8
DEFAULT_255_2_778
10
9.1273923
20
7.6793725
40
0.1433764
50
169.295407
51
178.1886892
0
ARC
8
DEFAULT_255_2_778
10
9.0958765
20
7.6810357
40
0.1118257
50
178.5300605
51
179.9903929
0
ARC
8
DEFAULT_255_2_778
10
9.068506
20
7.6841984
40
0.0845138
50
182.131874
51
258.7314672
0
ARC
8
DEFAULT_255_2_778
10
10.1371974
20
10.1305434
40
2.7522127
50
246.7774827
51
246.8533951
0
LINE
8
DEFAULT_255_2_778
10
9.0553433
20
7.599878
11
9.0561148
21
7.5995479
0
ARC
8
DEFAULT_255_2_778
10
9.0139195
20
7.4695253
40
0.136698
50
42.7431428
51
72.0205764
0
ARC
8
DEFAULT_255_2_778
10
8.9020579
20
8.2726838
40
0.7414114
50
276.8179588
51
286.635528
0
ARC
8
DEFAULT_255_2_778
10
8.909668
20
8.2172871
40
0.6855036
50
270.0131833
51
276.7360598
0
ARC
8
DEFAULT_255_2_778
10
8.9202271
20
8.3084592
40
0.7767454
50
244.9524214
51
269.232733
0
ARC
8
DEFAULT_255_2_778
10
9.2503921
20
9.0543706
40
1.5923783
50
239.0228576
51
245.5526672
0
ARC
8
DEFAULT_255_2_778
10
12.1251653
20
13.9666342
40
7.2839308
50
239.5074859
51
239.5229141
0
ARC
8
DEFAULT_255_2_778
10
8.4383196
20
7.6673176
40
0.0245768
50
112.0048691
51
171.0176736
0
ARC
8
DEFAULT_255_2_778
10
8.4385263
20
7.6683177
40
0.0246457
50
173.3899501
51
180.0878368
0
ARC
8
DEFAULT_255_2_778
10
8.4775673
20
7.6733515
40
0.0638883
50
184.5530607
51
206.9845962
0
ARC
8
DEFAULT_255_2_778
10
9.0784563
20
7.9301716
40
0.7172284
50
203.4839131
51
203.7347194
0
ARC
8
DEFAULT_255_2_778
10
8.3587148
20
7.6078591
40
0.0715685
50
5.9080137
51
28.0242722
0
ARC
8
DEFAULT_255_2_778
10
8.408489
20
7.6155877
40
0.0214171
50
289.008477
51
359.0316531
0
ARC
8
DEFAULT_255_2_778
10
8.3929701
20
7.6413562
40
0.0512213
50
293.2763808
51
296.050584
0
ARC
8
DEFAULT_255_2_778
10
8.9491264
20
13.153093
40
5.5845627
50
262.2710183
51
264.4932102
0
ARC
8
DEFAULT_255_2_778
10
8.8286936
20
12.2375569
40
4.6611488
50
261.3251622
51
262.2244376
0
ARC
8
DEFAULT_255_2_778
10
8.5172603
20
10.4759915
40
2.8730726
50
249.1327214
51
262.166351
0
ARC
8
DEFAULT_255_2_778
10
7.958604
20
9.0052802
40
1.2998335
50
230.0974297
51
249.0506938
0
ARC
8
DEFAULT_255_2_778
10
7.6144832
20
8.5928361
40
0.7626849
50
188.9044048
51
230.0532027
0
ARC
8
DEFAULT_255_2_778
10
7.7531191
20
8.6146216
40
0.9030222
50
179.8583935
51
188.9084624
0
ARC
8
DEFAULT_255_2_778
10
7.8745252
20
8.6166587
40
1.0244254
50
177.7731615
51
179.9891111
0
ARC
8
DEFAULT_255_2_778
10
7.9110105
20
8.6154588
40
1.0609299
50
177.4746971
51
177.7849693
0
ARC
8
DEFAULT_255_2_778
10
7.2733841
20
8.4589949
40
0.4686241
50
154.3019052
51
162.0114587
0
LINE
8
DEFAULT_255_2_778
10
6.8276672
20
8.6037186
11
6.8273979
21
8.6029508
0
ARC
8
DEFAULT_255_2_778
10
6.5555871
20
8.680241
40
0.2825861
50
325.0859968
51
344.1267254
0
ARC
8
DEFAULT_255_2_778
10
8.0189132
20
10.2061692
40
2.0892721
50
230.4539599
51
233.8792714
0
ARC
8
DEFAULT_255_2_778
10
8.34888
20
10.6072206
40
2.6086175
50
227.1574565
51
230.4738779
0
ARC
8
DEFAULT_255_2_778
10
8.5845933
20
10.8627389
40
2.9562518
50
223.7822521
51
227.1752469
0
ARC
8
DEFAULT_255_2_778
10
8.6228506
20
10.9033258
40
3.0119566
50
215.6391637
51
223.8361201
0
ARC
8
DEFAULT_255_2_778
10
7.7557689
20
10.3421294
40
1.9808895
50
189.8415933
51
217.0607682
0
ARC
8
DEFAULT_255_2_778
10
7.1124969
20
10.1837739
40
1.3208206
50
185.8738072
51
187.8425436
0
ARC
8
DEFAULT_255_2_778
10
7.107152
20
10.1831149
40
1.3154363
50
183.0627322
51
185.8690802
0
ARC
8
DEFAULT_255_2_778
10
6.9502937
20
10.1747488
40
1.158355
50
180.032028
51
183.0640515
0
ARC
8
DEFAULT_255_2_778
10
6.6385391
20
10.1832061
40
0.8466492
50
165.1390309
51
180.61617
0
ARC
8
DEFAULT_255_2_778
10
6.3418822
20
10.2657687
40
0.5387528
50
133.5302163
51
165.5342286
0
ARC
8
DEFAULT_255_2_778
10
6.3771398
20
10.2026989
40
0.6090247
50
101.1816005
51
131.8482022
0
ARC
8
DEFAULT_255_2_778
10
6.4750533
20
9.7933664
40
1.0297094
50
89.5593995
51
102.1096154
0
ARC
8
DEFAULT_255_2_778
10
6.4815444
20
9.4276806
40
1.3953654
50
85.8699647
51
89.9413978
0
ARC
8
DEFAULT_255_2_778
10
6.4683048
20
9.2296953
40
1.5937903
50
83.6814545
51
85.9078439
0
ARC
8
DEFAULT_255_2_778
10
6.6103507
20
10.7003703
40
0.1182376
50
30.9046746
51
73.6116172
0
ARC
8
DEFAULT_255_2_778
10
6.470338
20
10.6235119
40
0.2779112
50
20.3172257
51
29.6746309
0
ARC
8
DEFAULT_255_2_778
10
10.1430204
20
12.0858507
40
3.6752812
50
201.8161519
51
201.8950905
0
ARC
8
DEFAULT_255_2_778
10
6.9508348
20
10.7954681
40
0.232262
50
200.18961
51
212.6668052
0
ARC
8
DEFAULT_255_2_778
10
7.398006
20
10.3703924
40
0.7091431
50
148.7150327
51
154.9986815
0
LINE
8
DEFAULT_255_2_778
10
6.7919758
20
10.7386468
11
6.7921121
21
10.7388805
0
ARC
8
DEFAULT_255_2_778
10
6.4426338
20
10.9692885
40
0.4185964
50
326.6034856
51
347.3760839
0
LINE
8
DEFAULT_255_2_778
10
6.851111
20
10.877804
11
6.8508145
21
10.8779252
0
ARC
8
DEFAULT_255_2_778
10
6.5241749
20
10.081655
40
0.8606623
50
67.6959724
51
77.9308377
0
ARC
8
DEFAULT_255_2_778
10
6.5350147
20
10.1307118
40
0.8104233
50
77.9550677
51
89.9739133
0
ARC
8
DEFAULT_255_2_778
10
6.5494781
20
10.0739555
40
0.8672942
50
90.9311602
51
150.3295981
0
ARC
8
DEFAULT_255_2_778
10
6.4826331
20
10.1007775
40
0.7959962
50
149.6253547
51
179.6230996
0
ARC
8
DEFAULT_255_2_778
10
6.4286301
20
10.1060009
40
0.741976
50
179.9990107
51
180.7102063
0
ARC
8
DEFAULT_255_2_778
10
7.1780334
20
10.1181709
40
1.4914755
50
180.8208492
51
197.5111674
0
ARC
8
DEFAULT_255_2_778
10
7.608549
20
10.2863983
40
1.9529029
50
198.4175644
51
219.9597061
0
ARC
8
DEFAULT_255_2_778
10
8.8580294
20
11.2728339
40
3.5444655
50
219.2099923
51
225.5679259
0
ARC
8
DEFAULT_255_2_778
10
10.8590311
20
13.2831281
40
6.3808422
50
225.3744736
51
227.3012422
0
ARC
8
DEFAULT_255_2_778
10
18.1726236
20
21.1998847
40
17.1587666
50
227.2802905
51
227.8422503
0
ARC
8
DEFAULT_255_2_778
10
-3.8008316
20
-3.0781468
40
15.5865473
50
47.2906214
51
47.8638295
0
ARC
8
DEFAULT_255_2_778
10
7.2731201
20
8.2077629
40
0.5290075
50
161.5816959
51
172.445102
0
ARC
8
DEFAULT_255_2_778
10
7.3930982
20
8.1918627
40
0.6500345
50
172.4461639
51
173.8966705
0
ARC
8
DEFAULT_255_2_778
10
8.0653582
20
8.125667
40
1.3255343
50
174.1411258
51
176.1580272
0
ARC
8
DEFAULT_255_2_778
10
3.467698
20
8.4395249
40
3.2828274
50
355.2416668
51
356.0692423
0
ARC
8
DEFAULT_255_2_778
10
6.7710599
20
8.1976923
40
0.0440896
50
223.7496367
51
247.9513915
0
ARC
8
DEFAULT_255_2_778
10
6.7606583
20
8.1740241
40
0.0182632
50
250.3237978
51
269.4681975
0
ARC
8
DEFAULT_255_2_778
10
6.7553462
20
8.1851093
40
0.0297948
50
279.9391896
51
334.540202
0
ARC
8
DEFAULT_255_2_778
10
5.9528047
20
8.7355138
40
1.0025885
50
325.8225009
51
326.7227107
0
ARC
8
DEFAULT_255_2_778
10
6.8383607
20
8.1628389
40
0.0524664
50
95.7381583
51
154.5293811
0
ARC
8
DEFAULT_255_2_778
10
6.8331038
20
8.1724983
40
0.0425441
50
87.5654122
51
89.9849101
0
ARC
8
DEFAULT_255_2_778
10
9.5273392
20
7.8365973
40
0.1632974
50
267.9546417
51
320.1624888
0
ARC
8
DEFAULT_255_2_778
10
9.5595268
20
7.7819318
40
0.1057412
50
331.8143413
51
1.8817574
0
ARC
8
DEFAULT_255_2_778
10
9.6068267
20
8.2083796
40
0.4269861
50
270.1000184
51
277.8590156
0
ARC
8
DEFAULT_255_2_778
10
9.6188865
20
8.3173472
40
0.5360722
50
254.4365638
51
268.7906086
0
LINE
8
DEFAULT_255_2_778
10
9.4750556
20
7.8009306
11
9.4733168
21
7.8013492
0
ARC
8
DEFAULT_255_2_778
10
9.2776787
20
7.0424883
40
0.7836735
50
75.5436519
51
81.4262164
0
ARC
8
DEFAULT_255_2_778
10
9.5000653
20
7.8145788
40
0.1055921
50
178.4668522
51
179.9937043
0
ARC
8
DEFAULT_255_2_778
10
9.4673924
20
7.8171131
40
0.0729628
50
181.9813965
51
275.2427708
0
ARC
8
DEFAULT_255_2_778
10
9.5893701
20
8.5193658
40
0.7834426
50
261.5361978
51
263.7990255
0
LINE
8
DEFAULT_255_2_778
10
9.5047455
20
7.740507
11
9.5053227
21
7.7404404
0
ARC
8
DEFAULT_255_2_778
10
9.4942104
20
7.510485
40
0.2302237
50
67.0151232
51
87.2334076
0
ARC
8
DEFAULT_255_2_778
10
9.547236
20
7.6536869
40
0.0780089
50
60.5323534
51
61.7910167
0
ARC
8
DEFAULT_255_2_778
10
9.5591794
20
7.7182817
40
0.0266396
50
0.2074695
51
7.1641315
0
ARC
8
DEFAULT_255_2_778
10
9.5696282
20
7.7195723
40
0.0162345
50
252.2341394
51
355.7816321
0
ARC
8
DEFAULT_255_2_778
10
9.5672481
20
7.8992862
40
0.1951913
50
265.4138041
51
269.2445378
0
LINE
8
DEFAULT_255_2_778
10
9.5516408
20
7.7047198
11
9.5515363
21
7.704727
0
ARC
8
DEFAULT_255_2_778
10
9.5357719
20
7.5086554
40
0.1967042
50
85.4032134
51
89.2308086
0
ARC
8
DEFAULT_255_2_778
10
9.533489
20
7.6900416
40
0.0160731
50
72.1621946
51
175.6162293
0
ARC
8
DEFAULT_255_2_778
10
9.5583723
20
7.6927799
40
0.0409372
50
182.1133966
51
200.6591075
0
ARC
8
DEFAULT_255_2_778
10
9.6034442
20
7.7070706
40
0.088189
50
199.0152518
51
202.231738
0
ARC
8
DEFAULT_255_2_778
10
10.7351405
20
7.0709233
40
0.1538168
50
238.1233714
51
242.647234
0
ARC
8
DEFAULT_255_2_778
10
10.7762111
20
7.1488526
40
0.2419048
50
242.4878993
51
243.906148
0
ARC
8
DEFAULT_255_2_778
10
10.6395178
20
6.8951199
40
0.0474212
50
50.2967408
51
72.330964
0
ARC
8
DEFAULT_255_2_778
10
12.7301438
20
7.8291727
40
0.0359376
50
96.1198487
51
173.8801182
0
ARC
8
DEFAULT_255_2_778
10
12.722459
20
7.9006697
40
0.0359712
50
276.1500253
51
353.670381
0
ARC
8
DEFAULT_255_2_778
10
12.7145001
20
7.8475229
40
0.0657984
50
48.3701407
51
93.4212295
0
ARC
8
DEFAULT_255_2_778
10
12.7104319
20
7.8465284
40
0.0666757
50
89.8782705
51
90.3645112
0
ARC
8
DEFAULT_255_2_778
10
12.7066742
20
7.8459138
40
0.0673711
50
87.1638576
51
131.0718323
0
ARC
8
DEFAULT_255_2_778
10
12.8157395
20
7.8794598
40
0.1542951
50
173.583165
51
179.8112243
0
ARC
8
DEFAULT_255_2_778
10
12.6975886
20
7.8697956
40
0.0375476
50
164.280682
51
259.8610485
0
ARC
8
DEFAULT_255_2_778
10
12.6909302
20
7.8686306
40
0.0357962
50
270.0779421
51
275.5802335
0
ARC
8
DEFAULT_255_2_778
10
14.7967304
20
5.8912482
40
0.1648558
50
197.9638098
51
259.5884461
0
LINE
8
DEFAULT_255_2_778
10
14.766938
20
5.7291067
11
14.767711
21
5.728804
0
ARC
8
DEFAULT_255_2_778
10
14.6516028
20
5.685666
40
0.1238629
50
20.38166
51
69.37156
0
ARC
8
DEFAULT_255_2_778
10
20.1323962
20
15.9548467
40
11.5174362
50
241.8201998
51
241.8305761
0
ARC
8
DEFAULT_255_2_778
10
14.7667702
20
5.9630395
40
0.1764447
50
224.0301541
51
245.4293039
0
ARC
8
DEFAULT_255_2_778
10
15.0641131
20
7.7844936
40
0.0673615
50
248.3042736
51
269.4912755
0
ARC
8
DEFAULT_255_2_778
10
15.0580938
20
7.8006296
40
0.0836706
50
273.7148784
51
313.5289858
0
ARC
8
DEFAULT_255_2_778
10
15.1980259
20
7.6563299
40
0.117343
50
115.7244662
51
134.5407909
0
ARC
8
DEFAULT_255_2_778
10
15.1521932
20
7.745201
40
0.0175973
50
90.4812884
51
106.8445237
0
ARC
8
DEFAULT_255_2_778
10
15.1512763
20
7.7451719
40
0.0176426
50
36.5850308
51
87.5017964
0
ARC
8
DEFAULT_255_2_778
10
15.1367168
20
7.7305395
40
0.0381784
50
37.7328981
51
41.1997835
0
ARC
8
DEFAULT_255_2_778
10
-32.4580021
20
67.9820375
40
76.7825528
50
308.2608153
51
308.3349018
0
ARC
8
DEFAULT_255_2_778
10
14.0340439
20
8.9614412
40
1.6502887
50
296.3957652
51
309.7360166
0
ARC
8
DEFAULT_255_2_778
10
14.1498659
20
8.8843268
40
1.5312993
50
287.1875359
51
293.7957651
0
LINE
8
DEFAULT_255_2_778
10
14.6023652
20
7.4214113
11
14.6020196
21
7.421297
0
ARC
8
DEFAULT_255_2_778
10
14.800584
20
6.6420339
40
0.8041634
50
104.2953556
51
128.0253751
0
ARC
8
DEFAULT_255_2_778
10
14.1918674
20
8.2214322
40
0.9526946
50
276.8327547
51
300.3768532
0
ARC
8
DEFAULT_255_2_778
10
12.332396
20
11.8845453
40
5.0593266
50
297.5651075
51
298.629976
0
ARC
8
DEFAULT_255_2_778
10
132.7190534
20
-209.4201115
40
246.8706265
50
118.5325306
51
118.5438465
0
ARC
8
DEFAULT_255_2_778
10
17.8703799
20
1.7412022
40
6.4974457
50
117.2225791
51
118.2059629
0
ARC
8
DEFAULT_255_2_778
10
68.9796483
20
-97.0974891
40
117.7684716
50
117.3213615
51
117.3367196
0
ARC
8
DEFAULT_255_2_778
10
13.8219436
20
9.7915009
40
2.5135808
50
296.0596997
51
303.5451973
0
ARC
8
DEFAULT_255_2_778
10
14.6861901
20
8.4442007
40
0.9134161
50
305.0636445
51
307.7430081
0
ARC
8
DEFAULT_255_2_778
10
15.0785277
20
7.9474344
40
0.2805007
50
306.4835252
51
322.8548545
0
ARC
8
DEFAULT_255_2_778
10
10.6282955
20
11.5194168
40
5.9868501
50
321.3229914
51
321.5661582
0
ARC
8
DEFAULT_255_2_778
10
15.4595495
20
7.705297
40
0.1692036
50
108.7678174
51
146.8077454
0
ARC
8
DEFAULT_255_2_778
10
15.5317957
20
7.4087748
40
0.4739732
50
93.3670269
51
105.5026117
0
ARC
8
DEFAULT_255_2_778
10
15.5305578
20
7.4203562
40
0.4623394
50
89.9971312
51
93.2981807
0
ARC
8
DEFAULT_255_2_778
10
15.4905767
20
7.1618803
40
0.7219245
50
57.5413954
51
86.8234219
0
ARC
8
DEFAULT_255_2_778
10
14.163001
20
4.6652241
40
3.5478605
50
60.7094283
51
61.0924918
0
ARC
8
DEFAULT_255_2_778
10
18.9568872
20
13.124987
40
6.1758196
50
240.3184612
51
241.3422724
0
ARC
8
DEFAULT_255_2_778
10
15.6938199
20
7.4621026
40
0.3874507
50
38.9564051
51
43.5643721
0
ARC
8
DEFAULT_255_2_778
10
15.519298
20
7.2829264
40
0.6374636
50
44.4233145
51
59.926124
0
ARC
8
DEFAULT_255_2_778
10
15.4539005
20
7.1958454
40
0.7457059
50
58.9306082
51
82.6710222
0
ARC
8
DEFAULT_255_2_778
10
15.4889639
20
7.401934
40
0.5368952
50
83.5767678
51
89.9225119
0
ARC
8
DEFAULT_255_2_778
10
15.4879703
20
7.4931933
40
0.4456388
50
89.7788851
51
101.8693405
0
ARC
8
DEFAULT_255_2_778
10
15.4365934
20
7.7811376
40
0.1535446
50
105.2095459
51
132.4748475
0
ARC
8
DEFAULT_255_2_778
10
16.3707466
20
6.6337189
40
1.6329089
50
129.462669
51
130.618162
0
ARC
8
DEFAULT_255_2_778
10
15.0890266
20
8.1181579
40
0.3283602
50
299.9001834
51
311.7553851
0
ARC
8
DEFAULT_255_2_778
10
15.1497413
20
8.1296556
40
0.313542
50
274.2974352
51
289.1721847
0
ARC
8
DEFAULT_255_2_778
10
14.6558842
20
12.3025306
40
4.5152719
50
276.4423939
51
276.5793012
0
ARC
8
DEFAULT_255_2_778
10
15.1702414
20
7.5762536
40
0.239643
50
91.8472186
51
115.0640208
0
ARC
8
DEFAULT_255_2_778
10
15.0960635
20
7.7473169
40
0.0535243
50
120.7196103
51
183.2628441
0
ARC
8
DEFAULT_255_2_778
10
15.1496388
20
7.7450284
40
0.1070155
50
180.4058189
51
190.5845619
0
ARC
8
DEFAULT_255_2_778
10
15.182871
20
7.7502853
40
0.1406511
50
190.2029067
51
191.4334847
0
ARC
8
DEFAULT_255_2_778
10
11.3153699
20
6.8271996
40
0.1402278
50
275.1938787
51
318.0192887
0
ARC
8
DEFAULT_255_2_778
10
11.2816213
20
6.9936483
40
0.309604
50
269.747267
51
278.6273579
0
ARC
8
DEFAULT_255_2_778
10
11.2806404
20
7.082145
40
0.3980979
50
265.7061526
51
269.9446256
0
ARC
8
DEFAULT_255_2_778
10
11.2828635
20
7.1265992
40
0.4425952
50
248.7927227
51
265.8500384
0
ARC
8
DEFAULT_255_2_778
10
11.1972566
20
6.9051172
40
0.205145
50
236.8281493
51
248.706116
0
ARC
8
DEFAULT_255_2_778
10
11.1157119
20
6.7081869
40
0.0397296
50
140.6010083
51
178.6925072
0
ARC
8
DEFAULT_255_2_778
10
11.1170243
20
6.7094809
40
0.0410336
50
180.5409027
51
197.9579591
0
ARC
8
DEFAULT_255_2_778
10
11.2408226
20
6.7620181
40
0.175397
50
201.8182585
51
215.4299062
0
ARC
8
DEFAULT_255_2_778
10
11.002426
20
6.5918594
40
0.1174977
50
2.4425737
51
35.6491471
0
ARC
8
DEFAULT_255_2_778
10
11.0206987
20
6.5972242
40
0.0991189
50
346.3327026
51
359.7934908
0
ARC
8
DEFAULT_255_2_778
10
11.1148612
20
7.691029
40
1.1172271
50
270.1102503
51
274.7019203
0
ARC
8
DEFAULT_255_2_778
10
11.184168
20
7.0330379
40
0.4560204
50
272.7997461
51
293.3446796
0
ARC
8
DEFAULT_255_2_778
10
11.3322106
20
6.7022838
40
0.0938051
50
290.3758929
51
357.1664286
0
ARC
8
DEFAULT_255_2_778
10
11.3178724
20
6.6966893
40
0.1080328
50
0.5076961
51
15.8799581
0
ARC
8
DEFAULT_255_2_778
10
11.2846021
20
6.6885251
40
0.1422727
50
15.3761921
51
18.3875285
0
ARC
8
DEFAULT_255_2_778
10
15.0359816
20
7.6703783
40
0.2584693
50
85.9556724
51
90.2281715
0
ARC
8
DEFAULT_255_2_778
10
15.0417703
20
7.1025212
40
0.8263524
50
90.4727317
51
92.9341437
0
ARC
8
DEFAULT_255_2_778
10
14.6415164
20
16.1013886
40
8.1814326
50
272.4817372
51
272.5076085
0
ARC
8
DEFAULT_255_2_778
10
14.9588094
20
8.6781089
40
0.7513895
50
270.3702303
51
272.8202713
0
ARC
8
DEFAULT_255_2_778
10
14.9533297
20
8.0364394
40
0.1101898
50
239.5772629
51
275.3817798
0
ARC
8
DEFAULT_255_2_778
10
14.9238094
20
7.9751495
40
0.0427561
50
226.5609385
51
232.0783522
0
ARC
8
DEFAULT_255_2_778
10
14.8591593
20
7.9762398
40
0.0477011
50
317.6473564
51
3.4239523
0
ARC
8
DEFAULT_255_2_778
10
15.0162857
20
7.9774327
40
0.1095229
50
147.2696727
51
179.1336379
0
ARC
8
DEFAULT_255_2_778
10
15.016455
20
7.9749937
40
0.1110013
50
144.2131782
51
146.2578308
0
ARC
8
DEFAULT_255_2_778
10
14.7586255
20
8.0873085
40
0.1743536
50
344.2233904
51
359.9569242
0
ARC
8
DEFAULT_255_2_778
10
14.7510252
20
8.0866553
40
0.1819545
50
0.164412
51
15.4423126
0
ARC
8
DEFAULT_255_2_778
10
14.181493
20
7.7388091
40
0.8437728
50
28.0128867
51
31.1518393
0
ARC
8
DEFAULT_255_2_778
10
14.5066852
20
7.9448106
40
0.4589782
50
30.1441986
51
58.0383486
0
ARC
8
DEFAULT_255_2_778
10
14.0772028
20
7.2972537
40
1.235903
50
57.0374558
51
60.7223117
0
ARC
8
DEFAULT_255_2_778
10
13.2520223
20
5.8539456
40
2.8984246
50
60.4468978
51
61.0383119
0
ARC
8
DEFAULT_255_2_778
10
14.1918663
20
7.6753864
40
0.8517639
50
57.0207843
51
89.994198
0
ARC
8
DEFAULT_255_2_778
10
14.1919562
20
7.6763012
40
0.8508491
50
90.0002484
51
94.1882363
0
ARC
8
DEFAULT_255_2_778
10
14.1920058
20
7.6756917
40
0.8514607
50
94.1885652
51
98.5436035
0
ARC
8
DEFAULT_255_2_778
10
15.4376691
20
-8.8909759
40
17.4626731
50
94.5067553
51
95.07436
0
ARC
8
DEFAULT_255_2_778
10
14.879667
20
-2.6648864
40
11.2116321
50
95.0481614
51
96.4684939
0
ARC
8
DEFAULT_255_2_778
10
14.4903445
20
0.7580953
40
7.7665815
50
96.4594809
51
98.6021009
0
ARC
8
DEFAULT_255_2_778
10
13.9780214
20
3.9580331
40
4.5260974
50
98.2484062
51
105.6474713
0
ARC
8
DEFAULT_255_2_778
10
13.3871662
20
6.0917747
40
2.3120787
50
105.8097902
51
114.0190909
0
ARC
8
DEFAULT_255_2_778
10
12.9703088
20
7.0215291
40
1.2931559
50
113.9165886
51
125.6829762
0
ARC
8
DEFAULT_255_2_778
10
12.8837347
20
7.1771005
40
1.1164803
50
126.7311791
51
142.5402899
0
ARC
8
DEFAULT_255_2_778
10
13.4490453
20
6.7324524
40
1.8356723
50
142.2553361
51
147.7474176
0
ARC
8
DEFAULT_255_2_778
10
17.0884405
20
4.4579906
40
6.1273235
50
147.9218289
51
149.8280133
0
ARC
8
DEFAULT_255_2_778
10
7.091449
20
10.3147107
40
5.4589914
50
328.7411759
51
329.4208382
0
ARC
8
DEFAULT_255_2_778
10
10.1776776
20
8.4306152
40
1.8431409
50
324.8496751
51
329.024865
0
ARC
8
DEFAULT_255_2_778
10
10.7781516
20
8.0164974
40
1.1137718
50
323.5386086
51
324.4841146
0
ARC
8
DEFAULT_255_2_778
10
8.7365953
20
2.6734457
40
5.5263973
50
57.8927044
51
58.6875604
0
ARC
8
DEFAULT_255_2_778
10
8.1950836
20
1.7833887
40
6.5682399
50
58.6869352
51
59.3693745
0
ARC
8
DEFAULT_255_2_778
10
6.7711815
20
-0.6400851
40
9.379051
50
59.4276453
51
60.8117908
0
ARC
8
DEFAULT_255_2_778
10
-0.3136292
20
-13.369893
40
23.9475907
50
60.8665179
51
61.7188065
0
ARC
8
DEFAULT_255_2_778
10
36.0057649
20
54.1126331
40
52.6878435
50
241.3064177
51
241.7069656
0
ARC
8
DEFAULT_255_2_778
10
14.8254514
20
15.5628689
40
8.703076
50
236.2601477
51
241.7715718
0
ARC
8
DEFAULT_255_2_778
10
12.0696018
20
11.4021655
40
3.7125562
50
228.6090353
51
235.9626928
0
ARC
8
DEFAULT_255_2_778
10
11.071631
20
10.2703296
40
2.2035837
50
218.4257015
51
228.6176276
0
ARC
8
DEFAULT_255_2_778
10
10.8539171
20
10.0826104
40
1.9163921
50
206.2719873
51
218.0743119
0
ARC
8
DEFAULT_255_2_778
10
10.4081252
20
9.8784088
40
1.4263337
50
182.2588507
51
206.8429703
0
ARC
8
DEFAULT_255_2_778
10
10.1867366
20
9.8534127
40
1.2042416
50
180.0011256
51
181.4856402
0
ARC
8
DEFAULT_255_2_778
10
10.152051
20
9.8542217
40
1.1695562
50
167.5639994
51
180.0407879
0
ARC
8
DEFAULT_255_2_778
10
10.1733772
20
9.8486395
40
1.1915843
50
159.2193082
51
167.5227134
0
ARC
8
DEFAULT_255_2_778
10
8.8137234
20
10.5273388
40
0.3547054
50
313.8180745
51
332.5555174
0
LINE
8
DEFAULT_255_2_778
10
9.1285095
20
10.3638589
11
9.1294275
21
10.3654087
0
ARC
8
DEFAULT_255_2_778
10
9.4966753
20
10.1673142
40
0.4172677
50
137.8921508
51
151.6574441
0
ARC
8
DEFAULT_255_2_778
10
8.9645456
20
10.4683863
40
0.2235806
50
354.5378248
51
359.8884451
0
ARC
8
DEFAULT_255_2_778
10
9.0014605
20
10.4679398
40
0.1866653
50
0.0034438
51
11.9954448
0
ARC
8
DEFAULT_255_2_778
10
8.7910875
20
10.4269723
40
0.4009756
50
11.4739234
51
11.9419154
0
ARC
8
DEFAULT_255_2_778
10
9.4529196
20
10.5730437
40
0.2768225
50
188.7556074
51
193.1763885
0
ARC
8
DEFAULT_255_2_778
10
9.2547986
20
10.5410528
40
0.0761546
50
180.1947974
51
187.6570055
0
ARC
8
DEFAULT_255_2_778
10
9.2569467
20
10.5393453
40
0.0783158
50
154.0441812
51
178.9401587
0
ARC
8
DEFAULT_255_2_778
10
9.3070422
20
10.5197911
40
0.1319884
50
155.319437
51
155.9301838
0
ARC
8
DEFAULT_255_2_778
10
6.3703687
20
13.5480643
40
4.0955732
50
313.4524939
51
317.7535677
0
LINE
8
DEFAULT_255_2_778
10
9.4021576
20
10.7945256
11
9.4039081
21
10.7964055
0
ARC
8
DEFAULT_255_2_778
10
10.9444121
20
9.50604
40
2.0095262
50
121.6984579
51
140.0495977
0
ARC
8
DEFAULT_255_2_778
10
10.4120094
20
10.2722986
40
1.0789992
50
111.5310443
51
119.0237523
0
ARC
8
DEFAULT_255_2_778
10
10.1856437
20
11.4677811
40
0.2560346
50
228.5062659
51
272.4209255
0
ARC
8
DEFAULT_255_2_778
10
10.1942481
20
11.6373224
40
0.4253531
50
270.2977822
51
282.9498245
0
ARC
8
DEFAULT_255_2_778
10
10.1708966
20
11.7379784
40
0.5286819
50
282.9715813
51
305.5808698
0
ARC
8
DEFAULT_255_2_778
10
10.0564925
20
11.8914608
40
0.7200844
50
305.8784848
51
310.8504442
0
ARC
8
DEFAULT_255_2_778
10
9.9324136
20
12.0362263
40
0.9107468
50
310.7980072
51
314.2982518
0
ARC
8
DEFAULT_255_2_778
10
9.6775293
20
12.2877835
40
1.2688172
50
314.6025395
51
323.8228544
0
ARC
8
DEFAULT_255_2_778
10
9.3727878
20
12.5154027
40
1.6491676
50
323.6891197
51
336.6127879
0
ARC
8
DEFAULT_255_2_778
10
9.6015046
20
12.4216955
40
1.4020533
50
336.4174885
51
347.3881547
0
ARC
8
DEFAULT_255_2_778
10
9.9548754
20
12.3411707
40
1.0396276
50
347.4666952
51
357.155776
0
ARC
8
DEFAULT_255_2_778
10
10.1245539
20
12.3293212
40
0.869577
50
357.3808122
51
359.9846592
0
ARC
8
DEFAULT_255_2_778
10
10.2976102
20
12.3353969
40
0.6965491
50
359.4810765
51
17.2137259
0
ARC
8
DEFAULT_255_2_778
10
10.4140166
20
12.3663434
40
0.5762193
50
17.6998228
51
23.0555033
0
ARC
8
DEFAULT_255_2_778
10
10.1422723
20
12.3268812
40
0.8446276
50
18.2940085
51
56.242759
0
ARC
8
DEFAULT_255_2_778
10
10.4754921
20
12.8396838
40
0.233256
50
54.298651
51
69.1768399
0
ARC
8
DEFAULT_255_2_778
10
9.9603098
20
11.8210674
40
1.3736794
50
64.1891949
51
69.5655107
0
ARC
8
DEFAULT_255_2_778
10
10.8374024
20
13.5113417
40
0.5660732
50
225.3969592
51
236.9051125
0
ARC
8
DEFAULT_255_2_778
10
10.0443906
20
12.2803496
40
0.8981355
50
22.9047309
51
55.7233428
0
ARC
8
DEFAULT_255_2_778
10
9.7451986
20
12.3491239
40
1.160977
50
3.624831
51
13.9956423
0
ARC
8
DEFAULT_255_2_778
10
9.8964482
20
12.3596645
40
1.0093642
50
0.0412835
51
3.5705054
0
ARC
8
DEFAULT_255_2_778
10
10.2515447
20
12.3482405
40
0.6543802
50
342.9731482
51
1.0639973
0
ARC
8
DEFAULT_255_2_778
10
10.5869272
20
12.2475969
40
0.3042342
50
320.8952039
51
342.601279
0
ARC
8
DEFAULT_255_2_778
10
14.289967
20
12.908277
40
3.5702471
50
192.530557
51
193.8156937
0
ARC
8
DEFAULT_255_2_778
10
40.8686801
20
18.7887161
40
30.7916994
50
192.3498342
51
192.4818891
0
ARC
8
DEFAULT_255_2_778
10
7.3914541
20
11.4547384
40
3.4794551
50
12.4182714
51
13.1381139
0
ARC
8
DEFAULT_255_2_778
10
9.2755031
20
11.8999876
40
1.5435257
50
12.9394451
51
18.4230521
0
ARC
8
DEFAULT_255_2_778
10
9.0416761
20
11.8175607
40
1.7914234
50
18.5607695
51
21.6163831
0
ARC
8
DEFAULT_255_2_778
10
9.490438
20
12.0519699
40
1.2889424
50
19.2773958
51
39.3254285
0
ARC
8
DEFAULT_255_2_778
10
10.0320748
20
12.5009378
40
0.5854466
50
38.9285975
51
71.0337829
0
ARC
8
DEFAULT_255_2_778
10
9.8828709
20
12.1088173
40
1.0048647
50
70.254872
51
85.5231837
0
ARC
8
DEFAULT_255_2_778
10
9.8439427
20
11.7591114
40
1.3565912
50
85.0369275
51
90.0591627
0
ARC
8
DEFAULT_255_2_778
10
9.8437178
20
11.5726639
40
1.5430383
50
90.0436622
51
94.5890283
0
ARC
8
DEFAULT_255_2_778
10
9.8570783
20
11.4117718
40
1.7044837
50
94.6039876
51
109.1792905
0
ARC
8
DEFAULT_255_2_778
10
9.7198609
20
11.7990804
40
1.2935952
50
109.0747411
51
118.8352552
0
ARC
8
DEFAULT_255_2_778
10
9.4754575
20
12.2387665
40
0.7905545
50
118.6872271
51
130.5561744
0
ARC
8
DEFAULT_255_2_778
10
9.3218113
20
12.4270404
40
0.5476395
50
131.1503267
51
134.0113411
0
ARC
8
DEFAULT_255_2_778
10
12.9955728
20
1.9641725
40
11.5890318
50
109.9982677
51
110.4772912
0
ARC
8
DEFAULT_255_2_778
10
10.5035156
20
8.8896354
40
4.2289748
50
105.4148608
51
110.3594366
0
ARC
8
DEFAULT_255_2_778
10
9.9720932
20
10.7837444
40
2.2617655
50
99.536876
51
105.1909349
0
ARC
8
DEFAULT_255_2_778
10
9.8468704
20
11.5465466
40
1.4887614
50
90.33757
51
99.6481292
0
ARC
8
DEFAULT_255_2_778
10
9.8584221
20
12.1518658
40
0.8836501
50
62.0998041
51
91.3178587
0
ARC
8
DEFAULT_255_2_778
10
9.9545582
20
12.4109525
40
0.6107715
50
31.0693159
51
58.6950211
0
ARC
8
DEFAULT_255_2_778
10
9.6610926
20
12.2128634
40
0.9645384
50
11.458274
51
32.1517925
0
ARC
8
DEFAULT_255_2_778
10
9.7668029
20
12.2327214
40
0.8569914
50
3.1359867
51
11.5610717
0
ARC
8
DEFAULT_255_2_778
10
9.7940524
20
12.2346265
40
0.8296786
50
0.0155491
51
3.1075681
0
ARC
8
DEFAULT_255_2_778
10
9.9182187
20
12.2291059
40
0.7055357
50
334.487055
51
0.4666172
0
ARC
8
DEFAULT_255_2_778
10
9.5727096
20
12.4822996
40
1.1292231
50
293.9845914
51
330.4403772
0
ARC
8
DEFAULT_255_2_778
10
8.8568618
20
13.707719
40
2.5446004
50
296.7179444
51
297.4974884
0
ARC
8
DEFAULT_255_2_778
10
9.8888194
20
11.4961315
40
0.1277717
50
331.3160593
51
336.0430412
0
ARC
8
DEFAULT_255_2_778
10
9.8835991
20
11.4972063
40
0.1329836
50
336.5331553
51
0.9535625
0
ARC
8
DEFAULT_255_2_778
10
9.6153269
20
11.4860297
40
0.4014607
50
1.9113046
51
11.6092347
0
ARC
8
DEFAULT_255_2_778
10
10.4916154
20
11.6592866
40
0.4918115
50
183.8453409
51
190.8370408
0
ARC
8
DEFAULT_255_2_778
10
9.8459978
20
11.4381129
40
0.2437499
50
50.5398099
51
78.9785347
0
ARC
8
DEFAULT_255_2_778
10
9.7590934
20
11.0832111
40
0.6089699
50
77.3362662
51
90.1091116
0
ARC
8
DEFAULT_255_2_778
10
9.7522515
20
10.9085413
40
0.7836594
50
89.5845517
51
89.9979555
0
ARC
8
DEFAULT_255_2_778
10
9.7510115
20
10.9215295
40
0.7706722
50
89.9057358
51
100.8429695
0
ARC
8
DEFAULT_255_2_778
10
9.7159412
20
11.1220693
40
0.5671249
50
101.17444
51
103.2027691
0
ARC
8
DEFAULT_255_2_778
10
9.8269092
20
10.8745468
40
0.8350395
50
106.7387427
51
146.5064803
0
ARC
8
DEFAULT_255_2_778
10
10.2720542
20
10.4982626
40
1.4155586
50
143.746931
51
149.0873917
0
ARC
8
DEFAULT_255_2_778
10
10.3448788
20
10.4534846
40
1.5010427
50
149.0490227
51
154.8558654
0
ARC
8
DEFAULT_255_2_778
10
10.2251239
20
10.509026
40
1.3690361
50
154.830541
51
158.7685338
0
ARC
8
DEFAULT_255_2_778
10
9.0572011
20
11.059302
40
0.121141
50
206.7354989
51
239.6082814
0
ARC
8
DEFAULT_255_2_778
10
9.4615251
20
11.6056872
40
0.8002734
50
234.4217663
51
235.2152005
0
ARC
8
DEFAULT_255_2_778
10
8.6239307
20
10.383348
40
0.6815437
50
52.7452096
51
56.0073512
0
ARC
8
DEFAULT_255_2_778
10
8.9967063
20
10.8660993
40
0.071773
50
24.5483928
51
56.3180249
0
ARC
8
DEFAULT_255_2_778
10
9.0382563
20
10.888004
40
0.0250201
50
0.2530503
51
18.4401218
0
ARC
8
DEFAULT_255_2_778
10
9.037894
20
10.8883283
40
0.0253831
50
333.5038949
51
359.5173085
0
ARC
8
DEFAULT_255_2_778
10
9.0057295
20
10.7967547
40
0.097221
50
55.6322556
51
93.2908987
0
ARC
8
DEFAULT_255_2_778
10
8.9879881
20
10.5374615
40
0.3565612
50
88.045561
51
90.0644556
0
ARC
8
DEFAULT_255_2_778
10
8.9946841
20
9.9391208
40
0.954928
50
90.4258325
51
92.7277318
0
LINE
8
DEFAULT_255_2_778
10
8.9492392
20
10.8929667
11
8.9490629
21
10.8929595
0
ARC
8
DEFAULT_255_2_778
10
8.9033459
20
11.851075
40
0.9592056
50
270.4305553
51
272.7318249
0
ARC
8
DEFAULT_255_2_778
10
8.9089688
20
11.1784151
40
0.2865229
50
265.1835079
51
270.3169661
0
ARC
8
DEFAULT_255_2_778
10
9.03763
20
10.6253101
40
0.3081064
50
119.7139211
51
145.0401429
0
ARC
8
DEFAULT_255_2_778
10
9.1237277
20
10.5905657
40
0.3991223
50
148.0359469
51
180.1379879
0
ARC
8
DEFAULT_255_2_778
10
9.676156
20
10.5455833
40
0.952567
50
177.3512342
51
180.0798072
0
ARC
8
DEFAULT_255_2_778
10
10.7600718
20
10.5585419
40
2.0365321
50
180.4019101
51
183.6849671
0
ARC
8
DEFAULT_255_2_778
10
22.230971
20
11.217727
40
13.5263145
50
183.3485605
51
183.5192905
0
ARC
8
DEFAULT_255_2_778
10
6.0209865
20
10.1968595
40
2.7158717
50
0.5363785
51
4.0234866
0
ARC
8
DEFAULT_255_2_778
10
7.5083705
20
10.221109
40
1.2283693
50
357.5777444
51
0.0548039
0
ARC
8
DEFAULT_255_2_778
10
7.8605322
20
10.203686
40
0.8757897
50
350.8225487
51
357.7428516
0
ARC
8
DEFAULT_255_2_778
10
8.5248439
20
10.1051519
40
0.2044507
50
330.0699247
51
348.3893043
0
ARC
8
DEFAULT_255_2_778
10
9.0802331
20
9.7949097
40
0.4317408
50
151.1635968
51
156.2585626
0
ARC
8
DEFAULT_255_2_778
10
8.7707079
20
9.9309352
40
0.0936451
50
156.1949319
51
176.7746517
0
ARC
8
DEFAULT_255_2_778
10
8.81459
20
9.9348169
40
0.137386
50
179.4215259
51
179.9914404
0
ARC
8
DEFAULT_255_2_778
10
8.93334
20
9.9508972
40
0.256639
50
183.5877504
51
206.0697939
0
ARC
8
DEFAULT_255_2_778
10
8.4853053
20
9.7268223
40
0.2443248
50
5.7069956
51
27.0973426
0
ARC
8
DEFAULT_255_2_778
10
8.6542423
20
9.7506143
40
0.0741785
50
342.8201047
51
0.3892611
0
ARC
8
DEFAULT_255_2_778
10
8.1856094
20
8.77508
40
1.0956554
50
56.1560325
51
60.501496
0
LINE
8
DEFAULT_255_2_778
10
8.7958161
20
9.6850845
11
8.7979369
21
9.6836995
0
ARC
8
DEFAULT_255_2_778
10
9.194436
20
10.2516448
40
0.6926568
50
235.0799918
51
246.362031
0
ARC
8
DEFAULT_255_2_778
10
13.6295685
20
11.2267555
40
4.980161
50
198.85733
51
205.3913385
0
ARC
8
DEFAULT_255_2_778
10
10.709443
20
9.8224244
40
1.7400225
50
204.8471174
51
225.5445783
0
ARC
8
DEFAULT_255_2_778
10
12.4956129
20
12.586977
40
5.0081395
50
233.1312722
51
234.1720144
0
ARC
8
DEFAULT_255_2_778
10
12.9052503
20
13.1541961
40
5.7078112
50
234.1709991
51
235.1065032
0
ARC
8
DEFAULT_255_2_778
10
14.0774063
20
14.8616703
40
7.7788605
50
235.2195157
51
238.0573383
0
ARC
8
DEFAULT_255_2_778
10
17.1609539
20
19.8152001
40
13.6137309
50
238.0747412
51
240.2844899
0
ARC
8
DEFAULT_255_2_778
10
24.8759511
20
33.3063452
40
29.155034
50
240.2589857
51
241.3261857
0
LINE
8
DEFAULT_255_2_778
10
10.8867079
20
7.7267229
11
10.8884528
21
7.7257654
0
LINE
8
DEFAULT_255_2_778
10
10.8884528
20
7.7257654
11
10.8919358
21
7.7238543
0
LINE
8
DEFAULT_255_2_778
10
10.8919358
20
7.7238543
11
10.8954052
21
7.721951
0
ARC
8
DEFAULT_255_2_778
10
-8.5225041
20
-27.6822368
40
40.3795953
50
61.251241
51
61.2568338
0
LINE
8
DEFAULT_255_2_778
10
10.898861
20
7.7200555
11
10.9005821
21
7.7191115
0
LINE
8
DEFAULT_255_2_778
10
10.9005821
20
7.7191115
11
10.9040176
21
7.7172276
0
LINE
8
DEFAULT_255_2_778
10
10.9040176
20
7.7172276
11
10.9057287
21
7.7162894
0
LINE
8
DEFAULT_255_2_778
10
10.9057287
20
7.7162894
11
10.909144
21
7.714417
0
LINE
8
DEFAULT_255_2_778
10
10.909144
20
7.714417
11
10.912546
21
7.7125522
0
ARC
8
DEFAULT_255_2_778
10
-7.750524
20
-26.3436317
40
38.8346989
50
61.2711938
51
61.2768949
0
LINE
8
DEFAULT_255_2_778
10
10.9159346
20
7.710695
11
10.9193099
21
7.7088454
0
LINE
8
DEFAULT_255_2_778
10
10.9193099
20
7.7088454
11
10.9226719
21
7.7070033
0
LINE
8
DEFAULT_255_2_778
10
10.9226719
20
7.7070033
11
10.9243463
21
7.706086
0
LINE
8
DEFAULT_255_2_778
10
10.9243463
20
7.706086
11
10.9276886
21
7.7042551
0
LINE
8
DEFAULT_255_2_778
10
10.9276886
20
7.7042551
11
10.9293531
21
7.7033434
0
LINE
8
DEFAULT_255_2_778
10
10.9293531
20
7.7033434
11
10.9326756
21
7.7015238
0
LINE
8
DEFAULT_255_2_778
10
10.9326756
20
7.7015238
11
10.9343304
21
7.7006176
0
LINE
8
DEFAULT_255_2_778
10
10.9343304
20
7.7006176
11
10.9359818
21
7.6997133
0
LINE
8
DEFAULT_255_2_778
10
10.9359818
20
7.6997133
11
10.9392783
21
7.6979085
0
ARC
8
DEFAULT_255_2_778
10
-6.5739859
20
-24.2947804
40
36.4725453
50
61.2971805
51
61.3030609
0
LINE
8
DEFAULT_255_2_778
10
10.9425617
20
7.696111
11
10.9441969
21
7.6952159
0
LINE
8
DEFAULT_255_2_778
10
10.9441969
20
7.6952159
11
10.9474609
21
7.6934293
0
LINE
8
DEFAULT_255_2_778
10
10.9474609
20
7.6934293
11
10.950712
21
7.6916501
0
LINE
8
DEFAULT_255_2_778
10
10.950712
20
7.6916501
11
10.9539503
21
7.6898781
0
LINE
8
DEFAULT_255_2_778
10
10.9539503
20
7.6898781
11
10.9571758
21
7.6881134
0
LINE
8
DEFAULT_255_2_778
10
10.9571758
20
7.6881134
11
10.9603885
21
7.6863558
0
LINE
8
DEFAULT_255_2_778
10
10.9603885
20
7.6863558
11
10.9635885
21
7.6846054
0
LINE
8
DEFAULT_255_2_778
10
10.9635885
20
7.6846054
11
10.9667759
21
7.6828621
0
ARC
8
DEFAULT_255_2_778
10
19.9188733
20
24.0488177
40
18.654344
50
241.3215571
51
241.3326709
0
LINE
8
DEFAULT_255_2_778
10
10.9699506
20
7.681126
11
10.9731128
21
7.6793969
0
ARC
8
DEFAULT_255_2_778
10
-23670.3512612
20
-43405.3319263
40
49451.9430988
50
61.3874875
51
61.3880146
0
ARC
8
DEFAULT_255_2_778
10
-6.1319421
20
-24.6181184
40
36.544624
50
60.7788046
51
61.3807267
0
ARC
8
DEFAULT_255_2_778
10
0.9592598
20
-11.8984935
40
21.9818876
50
60.586057
51
60.7248179
0
ARC
8
DEFAULT_255_2_778
10
10.8732782
20
5.7425814
40
1.7461375
50
53.2698359
51
59.674983
0
ARC
8
DEFAULT_255_2_778
10
16.9187995
20
14.1214318
40
8.5862893
50
234.3756021
51
234.644996
0
ARC
8
DEFAULT_255_2_778
10
12.5834409
20
7.9618816
40
1.0544331
50
233.1056959
51
244.4573142
0
ARC
8
DEFAULT_255_2_778
10
12.2946597
20
7.387592
40
0.4119574
50
246.2563262
51
252.3145998
0
ARC
8
DEFAULT_255_2_778
10
12.2913421
20
7.3731043
40
0.3971486
50
252.1356441
51
261.2356321
0
ARC
8
DEFAULT_255_2_778
10
12.2767033
20
7.2820754
40
0.3049529
50
261.3479427
51
269.8745613
0
ARC
8
DEFAULT_255_2_778
10
12.2717113
20
7.2720036
40
0.2949121
50
270.8401563
51
302.3312316
0
ARC
8
DEFAULT_255_2_778
10
11.8615398
20
7.9811466
40
1.1139614
50
300.6503204
51
303.7257813
0
ARC
8
DEFAULT_255_2_778
10
20.7861204
20
-5.6171037
40
15.1513926
50
123.2270139
51
123.2440421
0
ARC
8
DEFAULT_255_2_778
10
12.856075
20
6.5170076
40
0.6559877
50
115.9803611
51
124.5764505
0
ARC
8
DEFAULT_255_2_778
10
15.051438
20
10.8528345
40
4.4941548
50
236.4657965
51
237.5050211
0
ARC
8
DEFAULT_255_2_778
10
13.6536903
20
8.6720462
40
1.903902
50
237.7258739
51
238.097888
0
ARC
8
DEFAULT_255_2_778
10
13.0186827
20
7.57899
40
0.641527
50
234.6523191
51
265.9751387
0
ARC
8
DEFAULT_255_2_778
10
12.9742261
20
7.2855854
40
0.3465409
50
269.9054819
51
282.2257659
0
ARC
8
DEFAULT_255_2_778
10
12.4311305
20
4.5696716
40
2.4558668
50
75.4619086
51
76.6208109
0
ARC
8
DEFAULT_255_2_778
10
15.0769214
20
15.761101
40
9.0440622
50
256.2305384
51
256.7199675
0
ARC
8
DEFAULT_255_2_778
10
13.0584396
20
7.6448018
40
0.6811879
50
239.8610475
51
258.6423698
0
ARC
8
DEFAULT_255_2_778
10
12.805233
20
7.2074742
40
0.1758489
50
179.6223159
51
239.6635861
0
ARC
8
DEFAULT_255_2_778
10
12.8674818
20
7.2079844
40
0.238095
50
171.8922125
51
179.8438231
0
ARC
8
DEFAULT_255_2_778
10
12.906909
20
7.2030939
40
0.2778187
50
170.3626516
51
172.0405069
0
ARC
8
DEFAULT_255_2_778
10
12.6604765
20
7.0632525
40
0.1883646
50
98.3842015
51
132.8418441
0
ARC
8
DEFAULT_255_2_778
10
14.0238029
20
5.2836298
40
2.4294079
50
127.8719299
51
128.466961
0
ARC
8
DEFAULT_255_2_778
10
12.3543042
20
7.3450655
40
0.2245378
50
276.1119466
51
314.8130341
0
ARC
8
DEFAULT_255_2_778
10
12.3782241
20
7.2889977
40
0.1671937
50
268.0868031
51
269.9955339
0
ARC
8
DEFAULT_255_2_778
10
12.3784991
20
7.3149666
40
0.1931583
50
186.5988106
51
268.2624245
0
ARC
8
DEFAULT_255_2_778
10
12.3103125
20
7.2927707
40
0.1236921
50
177.8069294
51
180.0005448
0
ARC
8
DEFAULT_255_2_778
10
12.3329109
20
7.297136
40
0.1462003
50
134.3913004
51
179.8557917
0
ARC
8
DEFAULT_255_2_778
10
12.4284277
20
7.1640538
40
0.3091173
50
101.9240966
51
129.7814262
0
ARC
8
DEFAULT_255_2_778
10
12.8556157
20
5.6683104
40
1.864035
50
103.5862152
51
105.2741216
0
ARC
8
DEFAULT_255_2_778
10
23.4365382
20
-37.2673885
40
46.0842631
50
103.8270364
51
103.8334949
0
ARC
8
DEFAULT_255_2_778
10
12.2902984
20
8.1301518
40
0.6621149
50
281.5423647
51
294.2335757
0
ARC
8
DEFAULT_255_2_778
10
12.4857291
20
7.6842662
40
0.1753706
50
295.8045311
51
318.5182794
0
ARC
8
DEFAULT_255_2_778
10
12.4591031
20
8.2947597
40
0.7436363
50
270.0195337
51
282.2677355
0
ARC
8
DEFAULT_255_2_778
10
12.4593453
20
8.2862243
40
0.7351011
50
268.4016904
51
270.0008775
0
ARC
8
DEFAULT_255_2_778
10
12.4592857
20
8.2843082
40
0.7331839
50
266.7493413
51
268.4021733
0
ARC
8
DEFAULT_255_2_778
10
12.499509
20
7.6265927
40
0.1104976
50
178.5395969
51
222.2456495
0
ARC
8
DEFAULT_255_2_778
10
13.6025699
20
7.7528107
40
1.2197807
50
184.9662152
51
185.8063895
0
LINE
8
DEFAULT_255_2_778
10
12.3873683
20
7.6472164
11
12.3873101
21
7.6478694
0
ARC
8
DEFAULT_255_2_778
10
12.1883988
20
7.6463092
40
0.1989174
50
0.4494121
51
24.217048
0
ARC
8
DEFAULT_255_2_778
10
12.3126211
20
8.3022036
40
0.5771401
50
270.2317579
51
275.6868843
0
ARC
8
DEFAULT_255_2_778
10
12.3018088
20
7.9437603
40
0.2190869
50
240.4882653
51
273.440227
0
ARC
8
DEFAULT_255_2_778
10
12.2559866
20
7.8464301
40
0.1121034
50
191.6963411
51
236.3611127
0
ARC
8
DEFAULT_255_2_778
10
12.4565943
20
7.7302136
40
0.3241577
50
102.64899
51
163.2372066
0
ARC
8
DEFAULT_255_2_778
10
12.1429282
20
7.726754
40
0.4014163
50
33.922479
51
52.8023457
0
ARC
8
DEFAULT_255_2_778
10
18.1111535
20
12.2043934
40
7.0603125
50
217.0469466
51
217.0641756
0
ARC
8
DEFAULT_255_2_778
10
12.8978391
20
8.2453417
40
0.5144172
50
215.1641169
51
226.7258117
0
ARC
8
DEFAULT_255_2_778
10
12.5294312
20
7.9075625
40
0.0400024
50
293.2330016
51
3.1228887
0
ARC
8
DEFAULT_255_2_778
10
12.3456774
20
7.8975687
40
0.2240278
50
3.1148246
51
13.3889608
0
ARC
8
DEFAULT_255_2_778
10
12.8120583
20
8.0034514
40
0.2542443
50
181.069523
51
192.2642408
0
ARC
8
DEFAULT_255_2_778
10
12.7120368
20
7.9990985
40
0.1541791
50
168.208948
51
180.1459668
0
ARC
8
DEFAULT_255_2_778
10
12.5270001
20
8.0080612
40
0.0408868
50
33.4593384
51
98.8942707
0
ARC
8
DEFAULT_255_2_778
10
12.4806865
20
7.3872505
40
0.6624143
50
86.5387731
51
87.2222324
0
ARC
8
DEFAULT_255_2_778
10
12.5038567
20
8.1001278
40
0.0519978
50
221.9708206
51
279.809039
0
ARC
8
DEFAULT_255_2_778
10
12.4908252
20
8.0768984
40
0.0281082
50
178.4977162
51
204.2491904
0
ARC
8
DEFAULT_255_2_778
10
12.5236692
20
8.0766303
40
0.0609507
50
165.3830428
51
179.0551987
0
ARC
8
DEFAULT_255_2_778
10
12.5578234
20
8.0691622
40
0.0958941
50
164.7384871
51
166.2151915
0
ARC
8
DEFAULT_255_2_778
10
12.9249037
20
7.5003812
40
0.7510583
50
115.4475519
51
127.7289519
0
ARC
8
DEFAULT_255_2_778
10
13.2813063
20
6.7671386
40
1.5663163
50
108.0099796
51
115.6948706
0
ARC
8
DEFAULT_255_2_778
10
13.7141858
20
5.4548874
40
2.9481156
50
102.834334
51
108.1255033
0
ARC
8
DEFAULT_255_2_778
10
14.2672392
20
2.9925796
40
5.4717629
50
97.5094193
51
102.7534631
0
ARC
8
DEFAULT_255_2_778
10
14.6243725
20
0.4811779
40
8.0083406
50
95.116455
51
97.694416
0
ARC
8
DEFAULT_255_2_778
10
14.6773594
20
-0.0567522
40
8.548854
50
93.8236602
51
95.1486451
0
ARC
8
DEFAULT_255_2_778
10
14.6563536
20
0.2509839
40
8.2404021
50
93.385611
51
93.8206191
0
ARC
8
DEFAULT_255_2_778
10
14.2230664
20
7.5946076
40
0.8839246
50
90.0162781
51
93.3696742
0
ARC
8
DEFAULT_255_2_778
10
14.228975
20
7.7286388
40
0.7499188
50
67.6519522
51
90.4706292
0
ARC
8
DEFAULT_255_2_778
10
14.245327
20
7.7817067
40
0.6946375
50
34.2589065
51
67.2350516
0
ARC
8
DEFAULT_255_2_778
10
14.2358568
20
7.7724809
40
0.7076618
50
22.7818322
51
34.4446454
0
ARC
8
DEFAULT_255_2_778
10
14.335847
20
7.0231427
40
1.1629638
50
61.6375004
51
76.90714
0
ARC
8
DEFAULT_255_2_778
10
14.0922956
20
5.9914788
40
2.2229833
50
76.8164832
51
87.2592077
0
ARC
8
DEFAULT_255_2_778
10
14.0016683
20
4.6879759
40
3.5294414
50
86.8015238
51
89.9137817
0
ARC
8
DEFAULT_255_2_778
10
13.9961398
20
4.1376856
40
4.0797422
50
89.8477693
51
89.9999996
0
ARC
8
DEFAULT_255_2_778
10
14.0147112
20
2.9238105
40
5.2936499
50
90.2010073
51
94.4550271
0
ARC
8
DEFAULT_255_2_778
10
14.1920188
20
0.3705409
40
7.8530075
50
94.2977437
51
95.2818345
0
ARC
8
DEFAULT_255_2_778
10
13.1176124
20
12.2624066
40
4.0873445
50
272.351656
51
274.9333487
0
ARC
8
DEFAULT_255_2_778
10
13.3272603
20
6.4141442
40
1.7648584
50
91.3614911
51
99.5564574
0
ARC
8
DEFAULT_255_2_778
10
13.1208559
20
7.6650772
40
0.4970353
50
100.0336
51
120.2568662
0
ARC
8
DEFAULT_255_2_778
10
12.968592
20
6.3337456
40
1.7633937
50
91.2218426
51
93.1917235
0
ARC
8
DEFAULT_255_2_778
10
13.0019305
20
4.8647693
40
3.2327475
50
89.945537
51
91.2574157
0
ARC
8
DEFAULT_255_2_778
10
12.9984346
20
2.3821653
40
5.7153537
50
88.7271967
51
89.934149
0
ARC
8
DEFAULT_255_2_778
10
12.9514062
20
-0.04429
40
8.1422578
50
88.4838294
51
88.7756205
0
ARC
8
DEFAULT_255_2_778
10
12.8701954
20
-2.8969939
40
10.9961132
50
87.6379685
51
88.4541168
0
ARC
8
DEFAULT_255_2_778
10
12.754725
20
-5.8339056
40
13.9352897
50
87.4628358
51
87.6612736
0
ARC
8
DEFAULT_255_2_778
10
12.6988802
20
-7.0921486
40
15.1947714
50
87.2278103
51
87.462493
0
ARC
8
DEFAULT_255_2_778
10
12.6409281
20
-8.2906786
40
16.3947017
50
86.9926462
51
87.2280989
0
ARC
8
DEFAULT_255_2_778
10
12.5489398
20
-10.0446798
40
18.1511136
50
86.890788
51
86.993153
0
ARC
8
DEFAULT_255_2_778
10
10.4473947
20
-48.6208336
40
56.7844686
50
86.8622278
51
86.8846272
0
ARC
8
DEFAULT_255_2_778
10
13.6555048
20
12.4038141
40
4.3264635
50
268.6769796
51
269.6163748
0
ARC
8
DEFAULT_255_2_778
10
13.6903964
20
18.1019427
40
10.0246986
50
269.6350122
51
270.0000065
0
ARC
8
DEFAULT_255_2_778
10
13.7118803
20
5.161238
40
2.9160854
50
87.7794509
51
90.4221015
0
ARC
8
DEFAULT_255_2_778
10
13.7716197
20
6.9373401
40
1.1390389
50
85.2055765
51
87.320561
0
ARC
8
DEFAULT_255_2_778
10
13.7946583
20
7.1963687
40
0.8789921
50
76.0397206
51
85.2908482
0
ARC
8
DEFAULT_255_2_778
10
13.7757164
20
7.1158385
40
0.9617139
50
75.4014725
51
76.1019997
0
ARC
8
DEFAULT_255_2_778
10
14.7557555
20
8.4167248
40
0.8111588
50
207.1556836
51
231.1707375
0
LINE
8
DEFAULT_255_2_778
10
14.2471575
20
7.7848177
11
14.2491036
21
7.7830236
0
LINE
8
DEFAULT_255_2_778
10
14.2491036
20
7.7830236
11
14.2495371
21
7.782624
0
ARC
8
DEFAULT_255_2_778
10
13.677604
20
7.0880919
40
0.8997123
50
31.0613864
51
50.5292385
0
ARC
8
DEFAULT_255_2_778
10
13.9314877
20
8.000101
40
0.6838337
50
298.8397812
51
319.0929914
0
ARC
8
DEFAULT_255_2_778
10
12.9790151
20
9.6674766
40
2.6040181
50
294.4589924
51
299.5012185
0
LINE
8
DEFAULT_255_2_778
10
14.0571875
20
7.2971489
11
14.0531245
21
7.2952281
0
ARC
8
DEFAULT_255_2_778
10
14.7155569
20
5.7562312
40
1.6755084
50
113.2885553
51
124.7809098
0
ARC
8
DEFAULT_255_2_778
10
14.0056189
20
6.7728852
40
0.435525
50
124.3651956
51
170.5898545
0
ARC
8
DEFAULT_255_2_778
10
14.0431946
20
6.7726313
40
0.4726733
50
171.3042239
51
176.2914985
0
ARC
8
DEFAULT_255_2_778
10
14.2910955
20
6.4111011
40
0.8194794
50
117.7206012
51
151.413953
0
ARC
8
DEFAULT_255_2_778
10
15.957029
20
3.6640114
40
4.0310134
50
117.6626599
51
120.5202744
0
LINE
8
DEFAULT_255_2_778
10
14.0855709
20
7.2342653
11
14.0856823
21
7.2343249
0
ARC
8
DEFAULT_255_2_778
10
13.2306065
20
8.9779053
40
1.9419648
50
296.1239687
51
307.852036
0
ARC
8
DEFAULT_255_2_778
10
13.9437872
20
8.0209698
40
0.7491321
50
309.6935161
51
321.2728976
0
ARC
8
DEFAULT_255_2_778
10
15.3009765
20
6.5224074
40
1.2875766
50
119.4504604
51
126.8821093
0
ARC
8
DEFAULT_255_2_778
10
-14.2038693
20
56.4940329
40
56.7445515
50
300.5841122
51
300.6096243
0
ARC
8
DEFAULT_255_2_778
10
14.3945593
20
8.2602141
40
0.6720102
50
296.0486011
51
324.6703401
0
ARC
8
DEFAULT_255_2_778
10
15.1026858
20
7.9260542
40
0.0727024
50
228.4992306
51
270.1197951
0
ARC
8
DEFAULT_255_2_778
10
15.1029629
20
7.9263065
40
0.0729545
50
269.9180898
51
310.4668776
0
ARC
8
DEFAULT_255_2_778
10
15.1856004
20
8.0167792
40
0.1461429
50
263.4031215
51
269.7150245
0
ARC
8
DEFAULT_255_2_778
10
15.1925934
20
7.9088363
40
0.0389704
50
258.5743349
51
352.2839062
0
ARC
8
DEFAULT_255_2_778
10
15.17758
20
7.8290417
40
0.0918467
50
54.2733764
51
95.0065454
0
ARC
8
DEFAULT_255_2_778
10
15.1631146
20
7.5729033
40
0.3476946
50
88.9370668
51
90.0240069
0
ARC
8
DEFAULT_255_2_778
10
15.1694162
20
7.0584908
40
0.8621312
50
90.4284793
51
92.7219708
0
LINE
8
DEFAULT_255_2_778
10
15.1284741
20
7.9196494
11
15.1269361
21
7.9195869
0
ARC
8
DEFAULT_255_2_778
10
15.0882631
20
8.7453088
40
0.826627
50
270.3877536
51
272.6815051
0
ARC
8
DEFAULT_255_2_778
10
15.0925912
20
8.1895758
40
0.2708779
50
265.5790554
51
270.2678124
0
ARC
8
DEFAULT_255_2_778
10
14.4911728
20
8.0022784
40
0.2757888
50
209.0211393
51
254.3575729
0
ARC
8
DEFAULT_255_2_778
10
17.7908609
20
10.3796241
40
4.3409026
50
215.1550485
51
215.3439387
0
LINE
8
DEFAULT_255_2_778
10
14.2417524
20
7.8801713
11
14.2409932
21
7.8812481
0
ARC
8
DEFAULT_255_2_778
10
13.8068572
20
7.6004479
40
0.5170327
50
32.8948791
51
46.5989122
0
ARC
8
DEFAULT_255_2_778
10
14.2424195
20
7.8064554
40
0.1876968
50
92.6187481
51
115.3320146
0
ARC
8
DEFAULT_255_2_778
10
14.2424062
20
7.8064473
40
0.1877042
50
89.9996681
51
92.6145864
0
ARC
8
DEFAULT_255_2_778
10
14.2424618
20
7.8065015
40
0.18765
50
46.7605883
51
90.0166291
0
ARC
8
DEFAULT_255_2_778
10
14.2425067
20
7.8063358
40
0.1877399
50
0.0005536
51
46.805223
0
ARC
8
DEFAULT_255_2_778
10
14.2430331
20
7.8063353
40
0.1872135
50
356.2389864
51
0.0006876
0
ARC
8
DEFAULT_255_2_778
10
14.2429762
20
7.8063622
40
0.187272
50
338.1632732
51
356.2319176
0
ARC
8
DEFAULT_255_2_778
10
13.0111532
20
6.724848
40
1.408619
50
140.4109558
51
146.6857867
0
ARC
8
DEFAULT_255_2_778
10
-185.651613
20
165.1965595
40
252.7179045
50
321.4265428
51
321.4278255
0
ARC
8
DEFAULT_255_2_778
10
11.226655
20
8.2347547
40
0.9289368
50
319.1333847
51
333.3371551
0
ARC
8
DEFAULT_255_2_778
10
10.9936762
20
6.9001015
40
1.4044988
50
39.5875337
51
40.803988
0
LINE
8
DEFAULT_255_2_778
10
12.0760559
20
7.7951272
11
12.0764897
21
7.7946063
0
ARC
8
DEFAULT_255_2_778
10
12.2821728
20
7.9267972
40
0.2444995
50
212.728536
51
258.7597117
0
ARC
8
DEFAULT_255_2_778
10
12.2680333
20
7.9281579
40
0.2434883
50
262.0873775
51
270.1648508
0
ARC
8
DEFAULT_255_2_778
10
12.267542
20
8.0091807
40
0.3245123
50
270.2104279
51
277.8178639
0
ARC
8
DEFAULT_255_2_778
10
12.2573824
20
8.093
40
0.4089367
50
277.630646
51
279.8602544
0
ARC
8
DEFAULT_255_2_778
10
11.9777215
20
7.5965911
40
0.3619771
50
7.5084776
51
14.9715414
0
ARC
8
DEFAULT_255_2_778
10
12.0656631
20
7.6084548
40
0.2732393
50
0.1453197
51
7.4517761
0
ARC
8
DEFAULT_255_2_778
10
12.1397967
20
7.6117955
40
0.1991225
50
279.7491694
51
359.2381284
0
ARC
8
DEFAULT_255_2_778
10
11.9602208
20
8.195224
40
0.8083242
50
268.6256688
51
285.2999517
0
ARC
8
DEFAULT_255_2_778
10
11.9410608
20
8.8563438
40
1.4692115
50
268.8982568
51
269.9911434
0
ARC
8
DEFAULT_255_2_778
10
12.015628
20
7.3835766
40
0.1028882
50
177.8681562
51
213.067529
0
ARC
8
DEFAULT_255_2_778
10
12.0016396
20
7.3931392
40
0.0976449
50
222.2880572
51
277.1569211
0
ARC
8
DEFAULT_255_2_778
10
11.9973778
20
8.0004282
40
0.7043648
50
271.3363703
51
277.4467349
0
ARC
8
DEFAULT_255_2_778
10
12.5672126
20
3.0026873
40
4.3258677
50
96.1921634
51
96.3513043
0
ARC
8
DEFAULT_255_2_778
10
12.1860334
20
6.569875
40
0.7383995
50
92.6175837
51
96.6432708
0
ARC
8
DEFAULT_255_2_778
10
12.2919806
20
7.2771321
40
0.1429337
50
167.7317393
51
179.3670614
0
ARC
8
DEFAULT_255_2_778
10
12.2528769
20
7.2783035
40
0.1038219
50
179.7750977
51
179.9997854
0
ARC
8
DEFAULT_255_2_778
10
12.2732782
20
7.28135
40
0.1242605
50
181.4046556
51
210.9063025
0
LINE
8
DEFAULT_255_2_778
10
12.1666617
20
7.2175254
11
12.1668187
21
7.2172161
0
ARC
8
DEFAULT_255_2_778
10
12.0592567
20
7.1528274
40
0.1253614
50
1.3675475
51
30.9055855
0
ARC
8
DEFAULT_255_2_778
10
12.0608093
20
7.1558965
40
0.123773
50
356.2048423
51
359.9642459
0
ARC
8
DEFAULT_255_2_778
10
12.3433794
20
7.4325752
40
0.3262735
50
240.8215843
51
261.9354758
0
ARC
8
DEFAULT_255_2_778
10
12.3345539
20
7.389216
40
0.2821173
50
262.4747733
51
269.99962
0
ARC
8
DEFAULT_255_2_778
10
12.3235705
20
7.4722797
40
0.3653461
50
271.7224544
51
302.340279
0
ARC
8
DEFAULT_255_2_778
10
12.2643899
20
7.3522431
40
0.3168858
50
308.4204482
51
323.4666617
0
ARC
8
DEFAULT_255_2_778
10
12.3175076
20
7.2851686
40
0.2313261
50
278.0280705
51
308.4367178
0
ARC
8
DEFAULT_255_2_778
10
12.314045
20
7.3108359
40
0.2572255
50
269.9084683
51
277.9933397
0
ARC
8
DEFAULT_255_2_778
10
12.3195718
20
7.4184855
40
0.3649231
50
251.1526123
51
269.0676928
0
ARC
8
DEFAULT_255_2_778
10
12.3813844
20
7.6239495
40
0.5793925
50
247.2339363
51
251.9315307
0
ARC
8
DEFAULT_255_2_778
10
12.6818476
20
8.2604685
40
1.2829604
50
235.2981277
51
245.8609235
0
ARC
8
DEFAULT_255_2_778
10
14.1520391
20
10.5312382
40
3.987694
50
236.4793508
51
236.5063174
0
ARC
8
DEFAULT_255_2_778
10
14.1128603
20
10.4714127
40
3.9161822
50
236.4466405
51
236.4738637
0
ARC
8
DEFAULT_255_2_778
10
14.0745375
20
10.4137599
40
3.8469545
50
236.4202343
51
236.4477089
0
ARC
8
DEFAULT_255_2_778
10
14.7436402
20
11.4214715
40
5.0565747
50
236.3986291
51
236.4193513
0
ARC
8
DEFAULT_255_2_778
10
-3.037311
20
-15.0395083
40
26.8236837
50
56.0438637
51
56.3103544
0
ARC
8
DEFAULT_255_2_778
10
11.1804518
20
6.2871707
40
1.1922183
50
56.3184979
51
60.3049774
0
ARC
8
DEFAULT_255_2_778
10
11.4695564
20
6.7839511
40
0.6174808
50
60.7727471
51
60.8838655
0
ARC
8
DEFAULT_255_2_778
10
15.8668761
20
7.4111453
40
0.2761604
50
20.12711
51
45.9717888
0
ARC
8
DEFAULT_255_2_778
10
15.6490903
20
7.3263075
40
0.5098612
50
5.6813331
51
20.6570715
0
ARC
8
DEFAULT_255_2_778
10
15.4227689
20
7.2972117
40
0.7379804
50
359.8974215
51
6.1897202
0
ARC
8
DEFAULT_255_2_778
10
15.2820282
20
7.2970661
40
0.8787207
50
353.7647718
51
359.9233474
0
ARC
8
DEFAULT_255_2_778
10
15.2816734
20
7.29126
40
0.878462
50
335.5020571
51
354.1437352
0
ARC
8
DEFAULT_255_2_778
10
15.6613793
20
7.1163136
40
0.4603986
50
317.2559997
51
335.7195901
0
ARC
8
DEFAULT_255_2_778
10
15.860595
20
6.9232535
40
0.1831791
50
272.6616199
51
319.311343
0
ARC
8
DEFAULT_255_2_778
10
15.8694964
20
6.8919902
40
0.1517187
50
254.4822552
51
269.8508205
0
ARC
8
DEFAULT_255_2_778
10
15.8739382
20
6.9101262
40
0.1703828
50
251.3354176
51
254.6746445
0
ARC
8
DEFAULT_255_2_778
10
14.9546645
20
6.9907091
40
0.8938177
50
345.3469319
51
349.0348566
0
ARC
8
DEFAULT_255_2_778
10
15.1812509
20
6.9471497
40
0.6630826
50
349.0058839
51
353.7381331
0
ARC
8
DEFAULT_255_2_778
10
15.3604442
20
6.927801
40
0.4828482
50
353.7011327
51
359.8315182
0
ARC
8
DEFAULT_255_2_778
10
15.5696501
20
6.9338731
40
0.2737428
50
358.4316991
51
23.8157424
0
ARC
8
DEFAULT_255_2_778
10
15.6123354
20
6.9343334
40
0.2351082
50
27.9170638
51
79.7054641
0
ARC
8
DEFAULT_255_2_778
10
15.4519873
20
6.3245416
40
0.8651162
50
76.4723101
51
88.4137277
0
ARC
8
DEFAULT_255_2_778
10
15.3353997
20
3.7189858
40
3.4731848
50
87.6810002
51
90.3638387
0
ARC
8
DEFAULT_255_2_778
10
15.3187838
20
-22.983013
40
30.1751141
50
90.010328
51
90.0683806
0
ARC
8
DEFAULT_255_2_778
10
15.2466783
20
37.5590534
40
30.3669952
50
270.009849
51
270.0680984
0
ARC
8
DEFAULT_255_2_778
10
15.2340511
20
11.7927762
40
4.600752
50
268.2992268
51
270.2222629
0
ARC
8
DEFAULT_255_2_778
10
15.1818389
20
9.713302
40
2.5206621
50
267.4663682
51
268.0826255
0
ARC
8
DEFAULT_255_2_778
10
15.6699964
20
20.1524376
40
12.9711988
50
266.4673579
51
267.350595
0
ARC
8
DEFAULT_255_2_778
10
12.5049309
20
-32.8914464
40
40.1670656
50
86.6233576
51
86.6947858
0
ARC
8
DEFAULT_255_2_778
10
14.42699
20
0.9708863
40
6.2503338
50
86.3879997
51
88.8392739
0
ARC
8
DEFAULT_255_2_778
10
14.5146628
20
4.429262
40
2.7909473
50
89.2005514
51
89.9866783
0
ARC
8
DEFAULT_255_2_778
10
14.5091757
20
5.4272019
40
1.7930179
50
89.8039236
51
93.5198134
0
ARC
8
DEFAULT_255_2_778
10
14.4629767
20
6.2079689
40
1.010889
50
93.6230968
51
97.1467405
0
ARC
8
DEFAULT_255_2_778
10
14.4833124
20
6.0707656
40
1.1495604
50
97.3016547
51
101.5139667
0
ARC
8
DEFAULT_255_2_778
10
14.4761951
20
6.0990579
40
1.1204175
50
101.4461215
51
105.1693101
0
ARC
8
DEFAULT_255_2_778
10
14.3243045
20
6.5942455
40
0.6029788
50
103.5517015
51
123.3962034
0
ARC
8
DEFAULT_255_2_778
10
14.0668784
20
6.972982
40
0.1452272
50
120.8487776
51
175.9747526
0
ARC
8
DEFAULT_255_2_778
10
14.0366634
20
6.983232
40
0.1146539
50
180.0277845
51
185.8710959
0
ARC
8
DEFAULT_255_2_778
10
13.994831
20
7.2788895
40
0.3157555
50
256.7782129
51
270.2519645
0
ARC
8
DEFAULT_255_2_778
10
13.9708662
20
7.614099
40
0.6514555
50
272.2303944
51
289.1419329
0
ARC
8
DEFAULT_255_2_778
10
12.2231046
20
13.2955509
40
6.5952869
50
287.3009773
51
288.0103106
0
ARC
8
DEFAULT_255_2_778
10
14.6572217
20
5.8931161
40
1.1973199
50
97.7928686
51
109.2595012
0
ARC
8
DEFAULT_255_2_778
10
14.5723133
20
6.3978215
40
0.6859421
50
92.3145622
51
96.4821841
0
ARC
8
DEFAULT_255_2_778
10
14.585423
20
2.5224593
40
4.5609272
50
89.9997334
51
90.5126999
0
ARC
8
DEFAULT_255_2_778
10
14.5855963
20
2.5267105
40
4.5566762
50
81.669117
51
90.0019116
0
ARC
8
DEFAULT_255_2_778
10
15.7619322
20
6.9150871
40
0.043442
50
42.4776367
51
68.1348332
0
ARC
8
DEFAULT_255_2_778
10
15.7864029
20
6.9380283
40
0.0099096
50
2.0176194
51
40.193275
0
ARC
8
DEFAULT_255_2_778
10
15.7768495
20
6.9432917
40
0.0200679
50
287.2635364
51
345.8245515
0
ARC
8
DEFAULT_255_2_778
10
15.7114742
20
7.0728139
40
0.1649109
50
284.6211324
51
295.6289399
0
ARC
8
DEFAULT_255_2_778
10
15.6266551
20
7.3690449
40
0.4730157
50
282.6460198
51
285.5049045
0
ARC
8
DEFAULT_255_2_778
10
15.7225545
20
6.9460462
40
0.0392953
50
271.5264094
51
281.2357185
0
ARC
8
DEFAULT_255_2_778
10
15.7181537
20
7.0311967
40
0.1245509
50
269.8570965
51
272.506742
0
ARC
8
DEFAULT_255_2_778
10
15.7371304
20
7.6664445
40
0.7600431
50
263.6804969
51
268.5458741
0
ARC
8
DEFAULT_255_2_778
10
16.1125682
20
11.4485662
40
4.5607125
50
262.7499467
51
264.222615
0
ARC
8
DEFAULT_255_2_778
10
17.3460921
20
21.2919701
40
14.481099
50
262.1279757
51
262.8234395
0
ARC
8
DEFAULT_255_2_778
10
21.3245953
20
50.0335448
40
43.4967259
50
261.661208
51
262.1219957
0
ARC
8
DEFAULT_255_2_778
10
27.4185984
20
92.0489943
40
85.9517941
50
261.6915704
51
261.7037117
0
ARC
8
DEFAULT_255_2_778
10
14.608051
20
4.477313
40
2.5520226
50
81.2014383
51
84.2973051
0
ARC
8
DEFAULT_255_2_778
10
14.6080832
20
4.5244673
40
2.5051026
50
84.1908714
51
88.7874941
0
ARC
8
DEFAULT_255_2_778
10
14.6217906
20
4.9871815
40
2.0422058
50
88.8972772
51
89.9918849
0
ARC
8
DEFAULT_255_2_778
10
14.6098684
20
5.6572303
40
1.3722114
50
89.4901128
51
98.5426014
0
ARC
8
DEFAULT_255_2_778
10
14.5030838
20
6.3807324
40
0.6408765
50
98.7100078
51
108.8038029
0
ARC
8
DEFAULT_255_2_778
10
14.4715456
20
6.5006015
40
0.517314
50
109.7765436
51
120.9996938
0
ARC
8
DEFAULT_255_2_778
10
14.8041156
20
5.9119722
40
1.1932913
50
120.1308424
51
120.4322288
0
ARC
8
DEFAULT_255_2_778
10
13.1494649
20
8.6642656
40
2.0181907
50
299.2614789
51
301.3577482
0
ARC
8
DEFAULT_255_2_778
10
14.0227537
20
7.0931964
40
0.2208166
50
271.579875
51
300.8384852
0
ARC
8
DEFAULT_255_2_778
10
14.0293095
20
7.0685035
40
0.1960403
50
259.5674883
51
269.8632861
0
ARC
8
DEFAULT_255_2_778
10
14.0341711
20
7.0389272
40
0.1681391
50
219.9144998
51
256.1110937
0
ARC
8
DEFAULT_255_2_778
10
6.3838652
20
-0.6200638
40
10.6578512
50
45.1131391
51
45.1679908
0
ARC
8
DEFAULT_255_2_778
10
13.7864686
20
6.8465545
40
0.1443601
50
39.4280431
51
77.3384596
0
ARC
8
DEFAULT_255_2_778
10
14.09179
20
6.8773537
40
0.2949767
50
158.0942198
51
167.5577692
0
ARC
8
DEFAULT_255_2_778
10
14.0087743
20
6.8956098
40
0.2099774
50
167.5417356
51
179.7125619
0
ARC
8
DEFAULT_255_2_778
10
14.0145417
20
6.9123813
40
0.2163138
50
184.1669835
51
243.0479954
0
ARC
8
DEFAULT_255_2_778
10
14.5217594
20
7.6385714
40
1.1004174
50
236.6310478
51
240.8413507
0
ARC
8
DEFAULT_255_2_778
10
0.8181378
20
-16.5889441
40
26.7341447
50
60.3987879
51
60.4927526
0
ARC
8
DEFAULT_255_2_778
10
13.6426011
20
5.9664516
40
0.7878568
50
54.6418235
51
61.0680561
0
ARC
8
DEFAULT_255_2_778
10
13.8746696
20
6.3042376
40
0.3781316
50
52.6432006
51
53.7010435
0
ARC
8
DEFAULT_255_2_778
10
13.3604797
20
5.676994
40
1.1890412
50
36.2365166
51
51.2881383
0
ARC
8
DEFAULT_255_2_778
10
10.4716839
20
3.4349106
40
4.8454856
50
35.6535008
51
37.4285605
0
ARC
8
DEFAULT_255_2_778
10
139.4491947
20
96.7202266
40
154.3316503
50
215.8840324
51
215.8980598
0
ARC
8
DEFAULT_255_2_778
10
16.1780182
20
7.4301403
40
2.1202418
50
214.5188755
51
223.3657191
0
ARC
8
DEFAULT_255_2_778
10
15.1285307
20
6.4508904
40
0.6849307
50
224.0962506
51
240.3226394
0
ARC
8
DEFAULT_255_2_778
10
16.2631045
20
4.6373929
40
1.9121449
50
120.9546603
51
140.4169496
0
ARC
8
DEFAULT_255_2_778
10
22.2300682
20
-4.3616291
40
12.7080308
50
122.4707543
51
123.1571401
0
LINE
8
DEFAULT_255_2_778
10
15.4075199
20
6.3596992
11
15.4086377
21
6.3604136
0
ARC
8
DEFAULT_255_2_778
10
13.5828836
20
9.3840677
40
3.5321187
50
301.1245753
51
309.7595578
0
ARC
8
DEFAULT_255_2_778
10
15.893932
20
6.7398867
40
0.0880848
50
233.8019125
51
277.4559456
0
LINE
8
DEFAULT_255_2_778
10
15.9053623
20
6.6525465
11
15.9056751
21
6.6525464
0
ARC
8
DEFAULT_255_2_778
10
15.9014499
20
7.5656221
40
0.9130854
50
270.2651345
51
271.7241359
0
ARC
8
DEFAULT_255_2_778
10
16.0943699
20
0.2337196
40
6.4213622
50
91.4474434
51
91.4764015
0
ARC
8
DEFAULT_255_2_778
10
15.955027
20
5.8500277
40
0.8033306
50
90.1925601
51
91.6306903
0
ARC
8
DEFAULT_255_2_778
10
15.9532953
20
6.3544868
40
0.2988683
50
86.8513663
51
90.1855963
0
ARC
8
DEFAULT_255_2_778
10
15.6900859
20
6.9609473
40
0.4160299
50
312.2314668
51
326.5270903
0
ARC
8
DEFAULT_255_2_778
10
15.3336063
20
7.2031562
40
0.846992
50
326.1601747
51
336.0350285
0
ARC
8
DEFAULT_255_2_778
10
14.9878867
20
7.3612278
40
1.2271202
50
335.8472763
51
348.6976757
0
ARC
8
DEFAULT_255_2_778
10
15.2072765
20
7.3199456
40
1.0038976
50
348.5540944
51
356.8934906
0
ARC
8
DEFAULT_255_2_778
10
15.4254672
20
7.3050379
40
0.7852256
50
357.1168844
51
359.9686313
0
ARC
8
DEFAULT_255_2_778
10
15.6651183
20
7.3113764
40
0.5456163
50
359.2892266
51
14.1357614
0
ARC
8
DEFAULT_255_2_778
10
15.9290398
20
7.3814336
40
0.2725991
50
13.4041258
51
42.031
0
ARC
8
DEFAULT_255_2_778
10
15.9890153
20
7.4288533
40
0.1963635
50
43.4705238
51
67.0727482
0
ARC
8
DEFAULT_255_2_778
10
12.8045436
20
6.0737041
40
0.121943
50
7.6170384
51
73.6304306
0
ARC
8
DEFAULT_255_2_778
10
11.5522952
20
5.6583073
40
1.4393367
50
16.595892
51
17.4475658
0
ARC
8
DEFAULT_255_2_778
10
13.1425544
20
6.1108647
40
0.2149114
50
191.1359211
51
221.103138
0
ARC
8
DEFAULT_255_2_778
10
13.0402075
20
6.0352324
40
0.0886678
50
227.7696743
51
229.4053705
0
ARC
8
DEFAULT_255_2_778
10
13.1002063
20
5.8911059
40
0.1405351
50
109.6965984
51
146.8748961
0
ARC
8
DEFAULT_255_2_778
10
13.1143776
20
5.8422746
40
0.191311
50
89.0377906
51
108.7633626
0
ARC
8
DEFAULT_255_2_778
10
13.1067851
20
5.5825322
40
0.4511559
50
75.5498868
51
88.6276353
0
ARC
8
DEFAULT_255_2_778
10
12.9248294
20
4.7896204
40
1.2645744
50
74.2708925
51
76.5313698
0
ARC
8
DEFAULT_255_2_778
10
12.2405615
20
2.3359296
40
3.8118879
50
73.8810581
51
74.3689669
0
ARC
8
DEFAULT_255_2_778
10
13.6444891
20
7.1103295
40
1.1648249
50
252.7394144
51
258.9520034
0
ARC
8
DEFAULT_255_2_778
10
13.4748127
20
6.2668536
40
0.3045053
50
259.873185
51
269.3857022
0
ARC
8
DEFAULT_255_2_778
10
13.4736624
20
6.1183415
40
0.15599
50
269.2233471
51
285.3331517
0
ARC
8
DEFAULT_255_2_778
10
14.7999907
20
10.015669
40
4.2468614
50
250.5254843
51
252.3864589
0
LINE
8
DEFAULT_255_2_778
10
13.38414
20
6.0117711
11
13.3805278
21
6.013027
0
ARC
8
DEFAULT_255_2_778
10
12.7099317
20
4.2446339
40
1.891273
50
69.2326654
51
79.7369607
0
ARC
8
DEFAULT_255_2_778
10
12.8615088
20
4.9404238
40
1.1798781
50
80.9600423
51
83.0385876
0
ARC
8
DEFAULT_255_2_778
10
13.0706451
20
6.1828099
40
0.0971802
50
186.6228123
51
227.1149149
0
LINE
8
DEFAULT_255_2_778
10
12.9741133
20
6.1716018
11
12.9740606
21
6.1718065
0
ARC
8
DEFAULT_255_2_778
10
12.9080223
20
6.173843
40
0.0660697
50
358.2336747
51
84.4315408
0
ARC
8
DEFAULT_255_2_778
10
12.9145118
20
6.1540252
40
0.0855758
50
90.05252
51
93.8868238
0
ARC
8
DEFAULT_255_2_778
10
12.8535648
20
6.215616
40
0.0600581
50
9.5579448
51
23.333549
0
ARC
8
DEFAULT_255_2_778
10
12.8860012
20
6.2216405
40
0.0270774
50
0.2926542
51
8.3836107
0
ARC
8
DEFAULT_255_2_778
10
12.8971601
20
6.2229627
40
0.0159619
50
252.1872238
51
355.7461489
0
ARC
8
DEFAULT_255_2_778
10
12.8949161
20
6.4031
40
0.1953519
50
265.3869369
51
269.2260068
0
LINE
8
DEFAULT_255_2_778
10
12.8792047
20
6.208381
11
12.8789554
21
6.2083982
0
ARC
8
DEFAULT_255_2_778
10
12.8636217
20
6.0171725
40
0.1918394
50
85.4154677
51
89.2603885
0
ARC
8
DEFAULT_255_2_778
10
12.8611439
20
6.1934165
40
0.0163483
50
72.3601126
51
176.1428839
0
ARC
8
DEFAULT_255_2_778
10
12.871777
20
6.1946006
40
0.0269445
50
180.1794403
51
186.5993592
0
ARC
8
DEFAULT_255_2_778
10
13.6078769
20
5.8977686
40
0.142229
50
29.5455891
51
75.4391558
0
LINE
8
DEFAULT_255_2_778
10
13.6436345
20
6.0354295
11
13.6435165
21
6.0354793
0
ARC
8
DEFAULT_255_2_778
10
13.7450963
20
6.3044888
40
0.2875492
50
236.8633374
51
249.313124
0
ARC
8
DEFAULT_255_2_778
10
13.7062086
20
6.1115071
40
0.127591
50
202.0032524
51
261.5286789
0
LINE
8
DEFAULT_255_2_778
10
13.6874126
20
5.9853082
11
13.6877577
21
5.9851862
0
ARC
8
DEFAULT_255_2_778
10
13.5484622
20
5.5674454
40
0.4403528
50
65.4231167
51
71.5590531
0
ARC
8
DEFAULT_255_2_778
10
13.3938338
20
6.1322212
40
0.2747518
50
355.6965032
51
359.8581225
0
ARC
8
DEFAULT_255_2_778
10
13.5921664
20
6.143538
40
0.0773544
50
351.0777885
51
55.6521278
0
ARC
8
DEFAULT_255_2_778
10
10.2790941
20
7.2392674
40
3.5117361
50
342.6471653
51
342.9124377
0
ARC
8
DEFAULT_255_2_778
10
13.9560156
20
6.0900827
40
0.3405849
50
162.6101606
51
165.9217857
0
ARC
8
DEFAULT_255_2_778
10
13.7380883
20
6.143031
40
0.1163355
50
165.1080902
51
178.5237794
0
ARC
8
DEFAULT_255_2_778
10
13.6534052
20
6.1426492
40
0.0317937
50
173.8995171
51
279.6166865
0
ARC
8
DEFAULT_255_2_778
10
13.6600913
20
6.1972148
40
0.0859235
50
269.0832069
51
269.996729
0
ARC
8
DEFAULT_255_2_778
10
13.6598995
20
6.2114431
40
0.100152
50
270.1069648
51
274.5308189
0
ARC
8
DEFAULT_255_2_778
10
13.3005516
20
5.6841937
40
0.732959
50
59.9295825
51
84.946811
0
ARC
8
DEFAULT_255_2_778
10
13.5267076
20
6.277817
40
0.1468524
50
16.0848516
51
78.9570191
0
ARC
8
DEFAULT_255_2_778
10
13.4719793
20
6.1369082
40
0.2968404
50
73.7916987
51
90.1919978
0
ARC
8
DEFAULT_255_2_778
10
13.4709827
20
6.1205089
40
0.3132381
50
89.9996535
51
91.9174901
0
ARC
8
DEFAULT_255_2_778
10
13.4682363
20
6.14951
40
0.2841668
50
91.559707
51
111.2786714
0
ARC
8
DEFAULT_255_2_778
10
5.0129054
20
10.2722405
40
0.2558131
50
299.0473801
51
315.2078685
0
ARC
8
DEFAULT_255_2_778
10
5.0692278
20
10.2153841
40
0.1757866
50
315.4255764
51
1.4293593
0
ARC
8
DEFAULT_255_2_778
10
4.8756456
20
10.2082989
40
0.3694923
50
1.7789016
51
21.5342938
0
ARC
8
DEFAULT_255_2_778
10
4.0768993
20
9.9025535
40
1.2247424
50
21.1234301
51
29.3306915
0
ARC
8
DEFAULT_255_2_778
10
-0.9765841
20
7.172052
40
6.9685867
50
28.5497734
51
29.2503047
0
ARC
8
DEFAULT_255_2_778
10
16.346757
20
16.8431652
40
12.8714982
50
208.9979037
51
209.1316746
0
ARC
8
DEFAULT_255_2_778
10
6.8073934
20
11.5804839
40
1.9769007
50
204.651029
51
209.6219649
0
ARC
8
DEFAULT_255_2_778
10
5.7905711
20
11.1031589
40
0.8537141
50
200.9720485
51
203.9988666
0
ARC
8
DEFAULT_255_2_778
10
7.2678337
20
11.64149
40
2.4259312
50
193.863663
51
200.3565189
0
ARC
8
DEFAULT_255_2_778
10
7.977232
20
11.8164678
40
3.1565906
50
184.9710488
51
193.8618444
0
ARC
8
DEFAULT_255_2_778
10
7.9229318
20
11.8175966
40
3.1025978
50
180.0564408
51
185.0787084
0
ARC
8
DEFAULT_255_2_778
10
7.3764923
20
11.8203171
40
2.5561632
50
173.9104738
51
180.1294852
0
ARC
8
DEFAULT_255_2_778
10
6.6681129
20
11.8973551
40
1.843609
50
166.9025051
51
173.9557489
0
ARC
8
DEFAULT_255_2_778
10
6.2056018
20
12.0008278
40
1.369688
50
162.723421
51
166.7340039
0
ARC
8
DEFAULT_255_2_778
10
6.333207
20
11.718832
40
1.5921858
50
154.3676264
51
171.645017
0
ARC
8
DEFAULT_255_2_778
10
6.9326618
20
11.6187476
40
2.1998535
50
171.3346098
51
180.1872482
0
ARC
8
DEFAULT_255_2_778
10
7.4425115
20
11.6145417
40
2.7096931
50
180.0630831
51
184.8452631
0
ARC
8
DEFAULT_255_2_778
10
8.217299
20
11.6983058
40
3.4888336
50
185.1412374
51
197.3231752
0
ARC
8
DEFAULT_255_2_778
10
8.4900084
20
11.7663922
40
3.7694813
50
197.076873
51
202.6793399
0
ARC
8
DEFAULT_255_2_778
10
8.0045071
20
11.5617926
40
3.2426325
50
202.6513679
51
207.222881
0
ARC
8
DEFAULT_255_2_778
10
7.6032938
20
11.360315
40
2.793697
50
207.312619
51
208.022062
0
ARC
8
DEFAULT_255_2_778
10
15.7010228
20
6.9798422
40
1.9970586
50
230.5339065
51
231.1430167
0
ARC
8
DEFAULT_255_2_778
10
26.6907472
20
20.2176745
40
19.2021084
50
230.1242939
51
230.3255565
0
ARC
8
DEFAULT_255_2_778
10
13.9261478
20
4.976652
40
0.6785593
50
48.0435546
51
66.8137537
0
ARC
8
DEFAULT_255_2_778
10
13.2766453
20
4.7271177
40
1.2660588
50
43.498514
51
43.6117102
0
ARC
8
DEFAULT_255_2_778
10
13.3152454
20
4.763607
40
1.2129417
50
43.3875427
51
43.5032751
0
ARC
8
DEFAULT_255_2_778
10
13.1084744
20
4.5678273
40
1.4976939
50
43.3050058
51
43.3967495
0
ARC
8
DEFAULT_255_2_778
10
17.4621736
20
8.6099382
40
4.443184
50
222.7295136
51
223.8042125
0
ARC
8
DEFAULT_255_2_778
10
14.5702542
20
5.8112491
40
0.4192062
50
221.3344628
51
244.4123006
0
ARC
8
DEFAULT_255_2_778
10
14.4453557
20
5.57851
40
0.1558231
50
248.8773408
51
254.0025624
0
ARC
8
DEFAULT_255_2_778
10
14.4360847
20
5.5433346
40
0.1194574
50
253.6274051
51
269.585298
0
ARC
8
DEFAULT_255_2_778
10
14.4352903
20
5.5240757
40
0.1001954
50
269.9598374
51
277.3515464
0
ARC
8
DEFAULT_255_2_778
10
14.7911689
20
5.69916
40
0.5577005
50
158.4617844
51
163.6854547
0
ARC
8
DEFAULT_255_2_778
10
14.4724869
20
5.7895947
40
0.2264628
50
162.9952883
51
178.663753
0
ARC
8
DEFAULT_255_2_778
10
14.3380758
20
5.789929
40
0.092123
50
176.921876
51
237.3028352
0
ARC
8
DEFAULT_255_2_778
10
14.3285464
20
5.6005755
40
0.1188465
50
109.7884919
51
137.8670731
0
ARC
8
DEFAULT_255_2_778
10
14.1579606
20
5.4940301
40
0.2037057
50
48.5104174
51
66.1243821
0
ARC
8
DEFAULT_255_2_778
10
13.4459666
20
4.6075645
40
1.3405059
50
49.8111811
51
50.8161687
0
LINE
8
DEFAULT_255_2_778
10
14.3110067
20
5.6316065
11
14.3119899
21
5.6307804
0
ARC
8
DEFAULT_255_2_778
10
14.5209616
20
5.8538646
40
0.3056726
50
226.8708162
51
242.5874694
0
ARC
8
DEFAULT_255_2_778
10
14.4044173
20
5.6364682
40
0.0591265
50
245.8550037
51
268.517228
0
ARC
8
DEFAULT_255_2_778
10
14.4023228
20
5.6181859
40
0.0408283
50
270.7921533
51
324.303396
0
ARC
8
DEFAULT_255_2_778
10
14.3764327
20
5.6423155
40
0.0760662
50
320.9198519
51
326.5652363
0
ARC
8
DEFAULT_255_2_778
10
14.521101
20
5.7970521
40
0.2127494
50
189.4351962
51
247.5657732
0
ARC
8
DEFAULT_255_2_778
10
15.1759168
20
6.0306996
40
0.9054218
50
196.8024417
51
197.2518977
0
ARC
8
DEFAULT_255_2_778
10
17.1997549
20
6.62296
40
3.0141167
50
195.4463281
51
196.4591166
0
ARC
8
DEFAULT_255_2_778
10
13.8062882
20
5.6934455
40
0.5044033
50
14.5534458
51
22.9218045
0
ARC
8
DEFAULT_255_2_778
10
14.1069888
20
5.8156434
40
0.1799116
50
24.3762195
51
29.0865963
0
ARC
8
DEFAULT_255_2_778
10
14.4833499
20
6.4440307
40
1.1093459
50
210.0807666
51
213.4714018
0
ARC
8
DEFAULT_255_2_778
10
13.059062
20
5.5086718
40
0.5946331
50
27.6684134
51
32.9622373
0
ARC
8
DEFAULT_255_2_778
10
13.4496105
20
5.7069759
40
0.1567651
50
3.5064037
51
29.7611906
0
ARC
8
DEFAULT_255_2_778
10
13.5354057
20
5.7161062
40
0.0706779
50
343.8981739
51
0.3708977
0
ARC
8
DEFAULT_255_2_778
10
13.3379206
20
7.4396419
40
1.7632248
50
273.4516351
51
278.6567266
0
ARC
8
DEFAULT_255_2_778
10
13.3652429
20
7.0582176
40
1.3808544
50
272.2912813
51
273.2728549
0
ARC
8
DEFAULT_255_2_778
10
13.3710979
20
6.8981558
40
1.2206866
50
270.0341601
51
272.3170447
0
ARC
8
DEFAULT_255_2_778
10
13.3564929
20
6.356913
40
0.6796167
50
254.2802971
51
271.2927575
0
ARC
8
DEFAULT_255_2_778
10
13.2258179
20
5.9150235
40
0.2189345
50
214.092522
51
255.867929
0
ARC
8
DEFAULT_255_2_778
10
13.0012509
20
5.2556603
40
0.5383845
50
85.3912222
51
90.2102765
0
LINE
8
DEFAULT_255_2_778
10
12.9992751
20
5.7940411
11
12.9985136
21
5.7940415
0
ARC
8
DEFAULT_255_2_778
10
13.0119403
20
4.2197371
40
1.5743616
50
90.4886434
51
93.7537981
0
ARC
8
DEFAULT_255_2_778
10
13.6939389
20
-7.5146441
40
13.3285062
50
93.3767699
51
93.5145819
0
ARC
8
DEFAULT_255_2_778
10
12.6617348
20
9.1313382
40
3.3494599
50
272.2724128
51
273.6825855
0
ARC
8
DEFAULT_255_2_778
10
12.7430197
20
7.1573769
40
1.3738312
50
270.0844924
51
272.149298
0
ARC
8
DEFAULT_255_2_778
10
12.7302766
20
6.340254
40
0.5569027
50
255.0015599
51
271.5196558
0
ARC
8
DEFAULT_255_2_778
10
12.6579857
20
6.0449992
40
0.2530836
50
240.6948098
51
253.5113793
0
ARC
8
DEFAULT_255_2_778
10
12.3012172
20
6.0749738
40
0.342162
50
299.9611388
51
312.8947301
0
LINE
8
DEFAULT_255_2_778
10
12.4720972
20
5.7785369
11
12.47058
21
5.7775851
0
ARC
8
DEFAULT_255_2_778
10
12.5633118
20
5.5892627
40
0.2099155
50
116.2160769
51
154.2062094
0
ARC
8
DEFAULT_255_2_778
10
12.4002527
20
5.7389024
40
0.0638096
50
246.0118699
51
270.0659379
0
ARC
8
DEFAULT_255_2_778
10
12.3996515
20
5.7533133
40
0.0782234
50
270.4941222
51
286.7270576
0
ARC
8
DEFAULT_255_2_778
10
12.3258333
20
5.9350416
40
0.2741256
50
290.5738943
51
307.6821725
0
ARC
8
DEFAULT_255_2_778
10
12.6271009
20
5.5525175
40
0.212818
50
102.2319868
51
128.9200553
0
ARC
8
DEFAULT_255_2_778
10
30.1329415
20
65.2333398
40
62.0084942
50
253.5582299
51
253.6141971
0
ARC
8
DEFAULT_255_2_778
10
13.2702437
20
7.8612792
40
2.2096437
50
253.4308152
51
256.2729459
0
ARC
8
DEFAULT_255_2_778
10
12.9298367
20
6.4286118
40
0.7371782
50
255.5513873
51
267.7301657
0
ARC
8
DEFAULT_255_2_778
10
12.9078455
20
6.1092975
40
0.4173476
50
269.010772
51
269.996276
0
ARC
8
DEFAULT_255_2_778
10
12.916123
20
5.9442373
40
0.2524242
50
268.1146585
51
295.3019977
0
ARC
8
DEFAULT_255_2_778
10
12.9473208
20
5.8651587
40
0.1676916
50
297.21316
51
305.4208243
0
ARC
8
DEFAULT_255_2_778
10
13.2882419
20
6.0051845
40
0.3687233
50
228.6228226
51
264.9483942
0
ARC
8
DEFAULT_255_2_778
10
15.0600328
20
15.1763658
40
9.7076157
50
259.2887197
51
259.3629712
0
ARC
8
DEFAULT_255_2_778
10
13.2318887
20
5.2393945
40
0.3978234
50
53.8723978
51
84.7720999
0
ARC
8
DEFAULT_255_2_778
10
13.3299122
20
5.4060993
40
0.206269
50
45.3350555
51
48.5558285
0
ARC
8
DEFAULT_255_2_778
10
13.7985708
20
5.5209396
40
0.3252246
50
174.3773402
51
179.8773502
0
ARC
8
DEFAULT_255_2_778
10
13.6418638
20
5.5123367
40
0.1687732
50
176.8415117
51
218.8055046
0
ARC
8
DEFAULT_255_2_778
10
13.6124593
20
5.4952024
40
0.1352164
50
220.9563621
51
222.5273511
0
ARC
8
DEFAULT_255_2_778
10
13.811645
20
5.4365611
40
0.2919816
50
180.0028579
51
188.4205529
0
ARC
8
DEFAULT_255_2_778
10
13.8130036
20
5.4363149
40
0.2933402
50
123.6142058
51
179.95475
0
ARC
8
DEFAULT_255_2_778
10
14.057023
20
6.2380718
40
0.6898848
50
233.906743
51
265.0892361
0
ARC
8
DEFAULT_255_2_778
10
14.217937
20
7.1609402
40
1.6251765
50
262.2210248
51
264.7905149
0
ARC
8
DEFAULT_255_2_778
10
14.2782064
20
7.8210509
40
2.2880328
50
264.7884075
51
266.6601919
0
ARC
8
DEFAULT_255_2_778
10
13.2995072
20
3.9348959
40
1.8113911
50
62.178713
51
71.1384239
0
ARC
8
DEFAULT_255_2_778
10
22.4690806
20
28.8528946
40
24.7407468
50
249.6026694
51
249.6986801
0
ARC
8
DEFAULT_255_2_778
10
14.5663829
20
7.6753448
40
2.1369132
50
244.624493
51
250.3053718
0
ARC
8
DEFAULT_255_2_778
10
13.7824437
20
5.8763352
40
0.1863679
50
208.9769927
51
224.9779544
0
ARC
8
DEFAULT_255_2_778
10
14.4101419
20
6.2622615
40
0.9230613
50
209.8059448
51
211.0580983
0
ARC
8
DEFAULT_255_2_778
10
17.6212578
20
8.1103106
40
4.6279958
50
209.7723826
51
209.8981489
0
ARC
8
DEFAULT_255_2_778
10
13.3481102
20
5.6846449
40
0.2860639
50
26.492673
51
42.958557
0
ARC
8
DEFAULT_255_2_778
10
13.5315789
20
5.853981
40
0.0364122
50
44.6900933
51
86.3734959
0
ARC
8
DEFAULT_255_2_778
10
13.5340578
20
5.8639353
40
0.0263856
50
90.3815971
51
115.2296088
0
ARC
8
DEFAULT_255_2_778
10
14.8216937
20
5.5553309
40
0.3637699
50
190.4095339
51
204.5128194
0
ARC
8
DEFAULT_255_2_778
10
11.5494648
20
6.3035177
40
0.8577782
50
280.490708
51
288.1038484
0
ARC
8
DEFAULT_255_2_778
10
11.4858589
20
6.6376938
40
1.1979506
50
272.0833192
51
280.5718853
0
ARC
8
DEFAULT_255_2_778
10
11.4820421
20
6.6867417
40
1.2471065
50
270.0041363
51
272.1766383
0
ARC
8
DEFAULT_255_2_778
10
11.4820381
20
6.6553148
40
1.2156795
50
268.2552576
51
270.0044336
0
ARC
8
DEFAULT_255_2_778
10
11.4562986
20
6.3298044
40
0.8896768
50
249.2489609
51
269.2739206
0
ARC
8
DEFAULT_255_2_778
10
11.2660924
20
5.8438976
40
0.367944
50
213.5555355
51
250.1376316
0
ARC
8
DEFAULT_255_2_778
10
11.1919652
20
5.7809471
40
0.2716175
50
188.0300916
51
211.1318451
0
ARC
8
DEFAULT_255_2_778
10
11.2123123
20
5.7829499
40
0.292046
50
180.5609436
51
187.8615331
0
ARC
8
DEFAULT_255_2_778
10
11.3035611
20
5.7857652
40
0.383323
50
179.9924226
51
180.8482017
0
ARC
8
DEFAULT_255_2_778
10
11.5100841
20
5.7793354
40
0.5898816
50
170.0666949
51
179.3705277
0
ARC
8
DEFAULT_255_2_778
10
11.8301656
20
5.7289485
40
0.9138738
50
165.2039797
51
170.4167291
0
ARC
8
DEFAULT_255_2_778
10
11.8031419
20
5.7437572
40
0.8839952
50
152.5001042
51
165.6846794
0
ARC
8
DEFAULT_255_2_778
10
11.3351916
20
5.987695
40
0.3562803
50
138.9001869
51
152.5485106
0
ARC
8
DEFAULT_255_2_778
10
11.8894414
20
5.2606367
40
1.2652747
50
112.6878889
51
130.5595899
0
ARC
8
DEFAULT_255_2_778
10
11.632594
20
5.587105
40
0.872099
50
89.9980604
51
105.3721817
0
ARC
8
DEFAULT_255_2_778
10
11.6329686
20
5.8632787
40
0.5959254
50
89.9004177
51
90.0331812
0
ARC
8
DEFAULT_255_2_778
10
11.632617
20
5.5862782
40
0.8729258
50
74.6351769
51
89.9089376
0
ARC
8
DEFAULT_255_2_778
10
10.7480799
20
5.984003
40
1.200923
50
21.6981296
51
60.4440822
0
ARC
8
DEFAULT_255_2_778
10
9.7375299
20
4.3897154
40
3.0876201
50
58.7248649
51
68.2873107
0
ARC
8
DEFAULT_255_2_778
10
7.1425644
20
-1.8589524
40
9.8534619
50
67.7108003
51
69.2357231
0
ARC
8
DEFAULT_255_2_778
10
326.5409609
20
833.4478275
40
884.4355422
50
249.0672251
51
249.0727213
0
ARC
8
DEFAULT_255_2_778
10
12.9397296
20
11.2451807
40
4.5367128
50
238.3118053
51
243.7598499
0
LINE
8
DEFAULT_255_2_778
10
10.9338924
20
7.1759819
11
10.9344454
21
7.1756981
0
ARC
8
DEFAULT_255_2_778
10
9.6349427
20
4.4097909
40
3.0559696
50
53.2297745
51
64.8345128
0
ARC
8
DEFAULT_255_2_778
10
10.8153619
20
6.0274379
40
1.0538039
50
29.1039746
51
51.9916901
0
ARC
8
DEFAULT_255_2_778
10
11.7596476
20
5.4819177
40
1.058348
50
91.2743068
51
136.8818451
0
ARC
8
DEFAULT_255_2_778
10
10.7242725
20
5.7712454
40
0.5074357
50
58.8035481
51
71.1688372
0
ARC
8
DEFAULT_255_2_778
10
13.0244366
20
11.8233906
40
5.9673977
50
249.0018433
51
249.0221134
0
ARC
8
DEFAULT_255_2_778
10
10.9989887
20
6.6149756
40
0.3798639
50
231.6911336
51
252.7102811
0
ARC
8
DEFAULT_255_2_778
10
11.0001015
20
6.2873202
40
0.2384329
50
172.8726078
51
179.3482159
0
ARC
8
DEFAULT_255_2_778
10
10.9692336
20
6.2883276
40
0.2075566
50
179.5293694
51
179.9921858
0
ARC
8
DEFAULT_255_2_778
10
10.8891185
20
6.2852246
40
0.1274799
50
178.5924827
51
266.64553
0
ARC
8
DEFAULT_255_2_778
10
11.0726267
20
7.0471714
40
0.9094835
50
257.8791993
51
263.4663719
0
LINE
8
DEFAULT_255_2_778
10
10.9691399
20
6.1435948
11
10.9695723
21
6.1435378
0
ARC
8
DEFAULT_255_2_778
10
10.3457587
20
1.3884311
40
4.7958506
50
82.3147733
51
82.5261548
0
ARC
8
DEFAULT_255_2_778
10
11.3771715
20
5.8284176
40
0.4999825
50
141.2741549
51
179.148269
0
ARC
8
DEFAULT_255_2_778
10
11.5010344
20
5.8125605
40
0.6242248
50
177.8618495
51
180.0035889
0
ARC
8
DEFAULT_255_2_778
10
11.514726
20
5.8114912
40
0.6379171
50
179.9074631
51
205.0858019
0
ARC
8
DEFAULT_255_2_778
10
11.3017607
20
5.7075415
40
0.4009865
50
204.5353199
51
228.031277
0
ARC
8
DEFAULT_255_2_778
10
11.6277739
20
6.3454552
40
1.0062445
50
291.5273785
51
316.6021039
0
ARC
8
DEFAULT_255_2_778
10
12.2731666
20
5.3464384
40
0.3193904
50
74.427183
51
90.0234337
0
ARC
8
DEFAULT_255_2_778
10
12.3155467
20
5.0666228
40
0.6007119
50
94.0580599
51
121.0582679
0
ARC
8
DEFAULT_255_2_778
10
15.1845029
20
-0.6585077
40
7.0028133
50
116.9968646
51
117.1557274
0
ARC
8
DEFAULT_255_2_778
10
29.5992651
20
-28.7767236
40
38.6005889
50
117.1443915
51
117.1553952
0
ARC
8
DEFAULT_255_2_778
10
11.4104728
20
6.6155292
40
1.192302
50
289.9257085
51
298.6290499
0
ARC
8
DEFAULT_255_2_778
10
9.9758013
20
5.8929311
40
0.105603
50
0.6993871
51
14.1259427
0
ARC
8
DEFAULT_255_2_778
10
10.0081406
20
5.8957246
40
0.0732713
50
316.2600846
51
358.8234977
0
ARC
8
DEFAULT_255_2_778
10
9.3713755
20
6.3845153
40
0.8756114
50
321.9207355
51
321.9693335
0
ARC
8
DEFAULT_255_2_778
10
10.1511636
20
5.7684161
40
0.1182538
50
139.96655
51
152.5631436
0
ARC
8
DEFAULT_255_2_778
10
9.3516684
20
6.9063292
40
1.2869342
50
290.2850559
51
302.6623848
0
ARC
8
DEFAULT_255_2_778
10
9.3729602
20
6.8274209
40
1.2055608
50
270.3760441
51
290.6360655
0
ARC
8
DEFAULT_255_2_778
10
9.3789505
20
6.6535462
40
1.0316621
50
255.9483448
51
270.10674
0
ARC
8
DEFAULT_255_2_778
10
9.3726814
20
6.6226329
40
1.0001528
50
253.7052616
51
255.8667658
0
ARC
8
DEFAULT_255_2_778
10
9.3499525
20
6.5451942
40
0.9194475
50
253.5452136
51
253.7107612
0
ARC
8
DEFAULT_255_2_778
10
8.8679336
20
5.7391089
40
0.2341533
50
341.1365726
51
346.0351083
0
ARC
8
DEFAULT_255_2_778
10
10.0086999
20
5.4752809
40
0.9367633
50
162.8345205
51
167.2136762
0
ARC
8
DEFAULT_255_2_778
10
9.2962528
20
5.6968334
40
0.1906692
50
138.6084955
51
163.2604887
0
ARC
8
DEFAULT_255_2_778
10
8.8798525
20
7.1331449
40
1.3384529
50
281.7847034
51
289.9360959
0
ARC
8
DEFAULT_255_2_778
10
8.1272467
20
9.2425948
40
3.5781275
50
289.7478124
51
291.5989239
0
ARC
8
DEFAULT_255_2_778
10
17.6324036
20
-14.9880632
40
22.4502005
50
111.2751768
51
111.3903127
0
ARC
8
DEFAULT_255_2_778
10
10.0227909
20
4.6594107
40
1.3811257
50
100.090798
51
112.8531014
0
ARC
8
DEFAULT_255_2_778
10
9.9190809
20
5.1283843
40
0.9014561
50
89.9631931
51
98.8234787
0
ARC
8
DEFAULT_255_2_778
10
9.9188371
20
5.0488361
40
0.9810044
50
84.5675725
51
89.9519385
0
ARC
8
DEFAULT_255_2_778
10
9.905962
20
4.9121724
40
1.1182732
50
80.313938
51
84.5737707
0
ARC
8
DEFAULT_255_2_778
10
10.3680882
20
6.0351212
40
0.2747518
50
180.1418775
51
184.3034968
0
ARC
8
DEFAULT_255_2_778
10
10.1697556
20
6.046438
40
0.0773544
50
124.3478722
51
188.9222115
0
ARC
8
DEFAULT_255_2_778
10
12.1040928
20
2.2524765
40
4.3353483
50
112.7581301
51
117.1450804
0
LINE
8
DEFAULT_255_2_778
10
10.4269988
20
6.2503011
11
10.4273008
21
6.2504324
0
ARC
8
DEFAULT_255_2_778
10
9.417082
20
8.792299
40
2.7352564
50
291.6744496
51
302.2169663
0
ARC
8
DEFAULT_255_2_778
10
10.2431494
20
7.4095629
40
1.1256657
50
304.1663552
51
308.1961455
0
ARC
8
DEFAULT_255_2_778
10
10.7111825
20
7.5164109
40
1.0173903
50
271.5393184
51
282.9517699
0
ARC
8
DEFAULT_255_2_778
10
10.7256452
20
7.2630325
40
0.7637531
50
270.003032
51
270.9653442
0
ARC
8
DEFAULT_255_2_778
10
10.7179091
20
7.1046767
40
0.6054473
50
244.7883711
51
270.7359403
0
ARC
8
DEFAULT_255_2_778
10
10.6334782
20
6.5305024
40
0.1754648
50
171.3460475
51
179.1690648
0
ARC
8
DEFAULT_255_2_778
10
10.5999565
20
6.5315976
40
0.1419321
50
179.4148673
51
180.0063203
0
ARC
8
DEFAULT_255_2_778
10
10.5490836
20
6.5270899
40
0.0911699
50
177.1758502
51
232.2791196
0
ARC
8
DEFAULT_255_2_778
10
10.6566399
20
6.6725234
40
0.2720405
50
233.100825
51
244.5076633
0
LINE
8
DEFAULT_255_2_778
10
10.5395562
20
6.4269679
11
10.5402883
21
6.4265877
0
ARC
8
DEFAULT_255_2_778
10
10.4691184
20
6.2601221
40
0.1810413
50
41.9750891
51
66.8515698
0
ARC
8
DEFAULT_255_2_778
10
11.287103
20
4.726665
40
1.7901184
50
112.4426173
51
115.8411842
0
ARC
8
DEFAULT_255_2_778
10
29.7666633
20
-33.5976913
40
44.3371538
50
115.7467971
51
115.8971714
0
ARC
8
DEFAULT_255_2_778
10
9.7407785
20
7.5653584
40
1.4391939
50
284.2721927
51
297.3546722
0
ARC
8
DEFAULT_255_2_778
10
9.9675451
20
6.7370216
40
0.5807273
50
270.4383318
51
282.7369484
0
ARC
8
DEFAULT_255_2_778
10
9.9669648
20
6.5522171
40
0.3959376
50
240.4645186
51
270.7268993
0
ARC
8
DEFAULT_255_2_778
10
9.9781548
20
6.5683054
40
0.4154555
50
232.7723378
51
240.2155951
0
ARC
8
DEFAULT_255_2_778
10
9.8624122
20
6.2096611
40
0.1384302
50
168.3967566
51
179.6643499
0
ARC
8
DEFAULT_255_2_778
10
9.8669008
20
6.2138805
40
0.1429571
50
181.3662357
51
201.6246721
0
LINE
8
DEFAULT_255_2_778
10
9.7340053
20
6.1611973
11
9.7340389
21
6.1610987
0
ARC
8
DEFAULT_255_2_778
10
9.6015363
20
6.1085808
40
0.1425309
50
1.3706847
51
21.6211054
0
ARC
8
DEFAULT_255_2_778
10
9.6144799
20
6.1123211
40
0.129547
50
351.8268066
51
359.8536393
0
ARC
8
DEFAULT_255_2_778
10
8.8253363
20
7.7898307
40
1.9281451
50
291.362317
51
298.410208
0
ARC
8
DEFAULT_255_2_778
10
8.9409531
20
7.4435507
40
1.5636502
50
273.1843815
51
292.0388982
0
ARC
8
DEFAULT_255_2_778
10
8.9838246
20
7.0174082
40
1.1359453
50
270.0102219
51
272.2192708
0
ARC
8
DEFAULT_255_2_778
10
8.9699151
20
6.752897
40
0.8715482
50
244.5223631
51
270.9277769
0
ARC
8
DEFAULT_255_2_778
10
8.7373778
20
5.9485789
40
0.1434414
50
115.8162695
51
172.9822862
0
ARC
8
DEFAULT_255_2_778
10
8.6280513
20
7.0196003
40
0.9430613
50
272.8481413
51
287.9187046
0
ARC
8
DEFAULT_255_2_778
10
8.1852988
20
8.3737789
40
2.3677792
50
288.0309826
51
293.2151485
0
ARC
8
DEFAULT_255_2_778
10
13.2307739
20
-3.7070162
40
10.7244278
50
112.1609142
51
112.5466827
0
ARC
8
DEFAULT_255_2_778
10
9.6232884
20
5.269389
40
1.0513131
50
94.0560602
51
114.6134694
0
ARC
8
DEFAULT_255_2_778
10
9.5717469
20
5.6376851
40
0.6807663
50
90.0016079
51
91.9210168
0
ARC
8
DEFAULT_255_2_778
10
9.5716043
20
5.639225
40
0.6792266
50
81.9026257
51
89.9895843
0
ARC
8
DEFAULT_255_2_778
10
9.5658709
20
5.5986866
40
0.7201686
50
77.0377658
51
81.905316
0
ARC
8
DEFAULT_255_2_778
10
9.452545
20
6.4613234
40
0.318456
50
329.6688237
51
336.9851747
0
ARC
8
DEFAULT_255_2_778
10
20.127774
20
1.6754086
40
11.3805608
50
155.8109499
51
155.8206728
0
ARC
8
DEFAULT_255_2_778
10
9.8596729
20
6.3069437
40
0.1175648
50
116.4481268
51
164.3901852
0
ARC
8
DEFAULT_255_2_778
10
9.6394651
20
7.2121802
40
0.8173947
50
281.8495551
51
294.4511022
0
ARC
8
DEFAULT_255_2_778
10
8.9100414
20
8.8682703
40
2.6269664
50
293.9826507
51
295.9247634
0
ARC
8
DEFAULT_255_2_778
10
613.0333565
20
-1251.0196434
40
1394.6141153
50
115.6171372
51
115.6174011
0
ARC
8
DEFAULT_255_2_778
10
10.539697
20
5.6062724
40
1.0197469
50
103.2371498
51
117.786153
0
ARC
8
DEFAULT_255_2_778
10
10.4405161
20
5.9407555
40
0.6717365
50
89.8454988
51
101.5348329
0
ARC
8
DEFAULT_255_2_778
10
10.4421306
20
5.8510395
40
0.7614501
50
87.3970768
51
89.9851814
0
ARC
8
DEFAULT_255_2_778
10
10.5830882
20
6.6366657
40
0.1092666
50
182.3798201
51
193.2057242
0
ARC
8
DEFAULT_255_2_778
10
10.5533831
20
6.6347065
40
0.0795091
50
180.0108253
51
181.858045
0
ARC
8
DEFAULT_255_2_778
10
10.5358012
20
6.6327378
40
0.0619581
50
109.6650724
51
178.1929841
0
LINE
8
DEFAULT_255_2_778
10
10.514951
20
6.6910823
11
10.5155822
21
6.6914504
0
ARC
8
DEFAULT_255_2_778
10
10.4914971
20
6.753557
40
0.0666132
50
291.1964419
51
347.8210786
0
ARC
8
DEFAULT_255_2_778
10
10.2651375
20
7.9603966
40
1.2552034
50
270.0007726
51
283.4273469
0
ARC
8
DEFAULT_255_2_778
10
10.2651483
20
7.9591769
40
1.2539835
50
268.7035574
51
270.000278
0
ARC
8
DEFAULT_255_2_778
10
10.2651498
20
7.9595257
40
1.2543323
50
266.5977637
51
268.7038517
0
ARC
8
DEFAULT_255_2_778
10
10.3871213
20
6.8918227
40
0.2694202
50
213.6552886
51
223.1964613
0
ARC
8
DEFAULT_255_2_778
10
10.2785117
20
6.820631
40
0.1395639
50
197.3934504
51
214.037872
0
ARC
8
DEFAULT_255_2_778
10
10.2274765
20
6.8038748
40
0.0858565
50
180.3698216
51
196.9036096
0
ARC
8
DEFAULT_255_2_778
10
10.2468434
20
6.7940665
40
0.1056276
50
121.2652574
51
174.9738339
0
ARC
8
DEFAULT_255_2_778
10
10.5691425
20
6.3630544
40
0.6434072
50
117.7890454
51
125.8828145
0
ARC
8
DEFAULT_255_2_778
10
-1.7917889
20
28.5767595
40
24.7780408
50
299.1278592
51
299.152597
0
ARC
8
DEFAULT_255_2_778
10
10.0453228
20
7.3889386
40
0.5081406
50
297.3174405
51
308.2834745
0
ARC
8
DEFAULT_255_2_778
10
10.2876741
20
7.0797848
40
0.1153268
50
308.930426
51
332.6518038
0
ARC
8
DEFAULT_255_2_778
10
10.0785862
20
7.4875279
40
0.5561603
50
273.2682162
51
304.0651336
0
ARC
8
DEFAULT_255_2_778
10
9.981029
20
8.2944713
40
1.3683187
50
269.7043802
51
275.4207699
0
ARC
8
DEFAULT_255_2_778
10
9.9883246
20
9.9789361
40
3.0527992
50
266.7642511
51
269.7305724
0
ARC
8
DEFAULT_255_2_778
10
9.606808
20
6.9220107
40
0.2093963
50
0.0205031
51
2.4615198
0
ARC
8
DEFAULT_255_2_778
10
9.6891177
20
6.9166954
40
0.1272007
50
323.7355766
51
2.4287232
0
ARC
8
DEFAULT_255_2_778
10
9.617354
20
7.0010655
40
0.2363576
50
289.9945536
51
317.522979
0
ARC
8
DEFAULT_255_2_778
10
13.980836
20
-2.5024888
40
10.221859
50
114.7696491
51
114.8096017
0
ARC
8
DEFAULT_255_2_778
10
9.7722654
20
6.5552124
40
0.2349952
50
110.049649
51
139.636326
0
ARC
8
DEFAULT_255_2_778
10
9.144885
20
8.3249188
40
1.6784965
50
285.491759
51
290.7022684
0
ARC
8
DEFAULT_255_2_778
10
10.0546781
20
5.9873411
40
0.8301338
50
92.6581609
51
112.4063687
0
ARC
8
DEFAULT_255_2_778
10
10.0170866
20
6.3697271
40
0.4468555
50
75.9444497
51
90.11637
0
ARC
8
DEFAULT_255_2_778
10
10.3259021
20
6.7518472
40
0.2067705
50
165.6185832
51
174.3160014
0
ARC
8
DEFAULT_255_2_778
10
10.3253766
20
6.7519161
40
0.2062407
50
174.3205834
51
179.9998677
0
ARC
8
DEFAULT_255_2_778
10
10.3252701
20
6.7518445
40
0.2061344
50
179.9799704
51
228.7332983
0
ARC
8
DEFAULT_255_2_778
10
9.6625779
20
7.4255702
40
0.981904
50
289.2414374
51
302.4416609
0
ARC
8
DEFAULT_255_2_778
10
9.6340689
20
7.4795048
40
1.042261
50
274.2013127
51
289.7440173
0
ARC
8
DEFAULT_255_2_778
10
9.6529664
20
7.2930387
40
0.8549273
50
270.0298241
51
273.8537546
0
ARC
8
DEFAULT_255_2_778
10
9.6501331
20
7.1516992
40
0.7135951
50
258.1922316
51
270.2632207
0
ARC
8
DEFAULT_255_2_778
10
9.4996911
20
6.424274
40
0.0292657
50
81.313568
51
89.6721397
0
ARC
8
DEFAULT_255_2_778
10
9.4998607
20
6.4391001
40
0.0144392
50
90.0084969
51
195.2916113
0
ARC
8
DEFAULT_255_2_778
10
9.6428775
20
6.4407538
40
0.1570397
50
181.9931221
51
190.038616
0
LINE
8
DEFAULT_255_2_778
10
9.4882421
20
6.41338
11
9.488261
21
6.413254
0
ARC
8
DEFAULT_255_2_778
10
9.3344809
20
6.3860823
40
0.1561622
50
1.9628764
51
10.0202518
0
ARC
8
DEFAULT_255_2_778
10
9.4764382
20
6.3875943
40
0.0146255
50
269.8629111
51
15.209155
0
ARC
8
DEFAULT_255_2_778
10
9.4765711
20
6.4027649
40
0.0297967
50
261.3914619
51
269.6771761
0
ARC
8
DEFAULT_255_2_778
10
10.5164957
20
3.0379549
40
3.4950383
50
107.3866977
51
109.8616938
0
ARC
8
DEFAULT_255_2_778
10
20.2405963
20
-23.937679
40
32.1698165
50
109.8272721
51
110.1105937
0
ARC
8
DEFAULT_255_2_778
10
8.2595585
20
8.5841072
40
2.4895613
50
278.6462626
51
291.6870142
0
ARC
8
DEFAULT_255_2_778
10
8.4849989
20
7.3406074
40
1.2268286
50
270.1101798
51
276.967611
0
ARC
8
DEFAULT_255_2_778
10
8.483741
20
7.1276174
40
1.0138427
50
256.0658414
51
270.2044131
0
ARC
8
DEFAULT_255_2_778
10
8.4756434
20
7.0848258
40
0.9703634
50
249.8586493
51
255.9214647
0
ARC
8
DEFAULT_255_2_778
10
8.1872368
20
6.1549285
40
0.0494684
50
157.5692797
51
173.7403851
0
ARC
8
DEFAULT_255_2_778
10
8.1625754
20
6.1583523
40
0.0245911
50
175.4053619
51
179.9194155
0
ARC
8
DEFAULT_255_2_778
10
8.1562472
20
6.1602173
40
0.0183543
50
185.7234473
51
273.8308559
0
ARC
8
DEFAULT_255_2_778
10
8.1587127
20
6.1235578
40
0.0183817
50
5.6537287
51
93.7990614
0
ARC
8
DEFAULT_255_2_778
10
8.1363142
20
6.1268402
40
0.0407174
50
339.1403864
51
357.9288919
0
ARC
8
DEFAULT_255_2_778
10
8.0980828
20
6.1388133
40
0.0807428
50
339.095973
51
340.8615046
0
ARC
8
DEFAULT_255_2_778
10
8.1421827
20
6.2769559
40
0.1698658
50
270.187858
51
280.6278832
0
ARC
8
DEFAULT_255_2_778
10
8.1389092
20
6.226793
40
0.1197631
50
211.3961277
51
271.8328627
0
ARC
8
DEFAULT_255_2_778
10
8.1426066
20
6.2282281
40
0.1236688
50
180.1021869
51
211.0712523
0
LINE
8
DEFAULT_255_2_778
10
8.0189379
20
6.2280075
11
8.0189379
21
6.2281186
0
ARC
8
DEFAULT_255_2_778
10
8.1316811
20
6.2292145
40
0.1127486
50
128.2941494
51
180.556946
0
ARC
8
DEFAULT_255_2_778
10
8.0343461
20
8.1835806
40
1.8660788
50
270.843309
51
278.1877137
0
ARC
8
DEFAULT_255_2_778
10
7.935443
20
8.7812597
40
2.4717842
50
278.4838491
51
285.4056132
0
ARC
8
DEFAULT_255_2_778
10
6.5380549
20
13.9675966
40
7.8430493
50
285.1822592
51
286.4358622
0
LINE
8
DEFAULT_255_2_778
10
8.7571818
20
6.4450373
11
8.7660238
21
6.4476117
0
ARC
8
DEFAULT_255_2_778
10
9.818859
20
3.0501569
40
3.556847
50
100.7941786
51
107.2176546
0
ARC
8
DEFAULT_255_2_778
10
9.478294
20
4.7061341
40
1.8665483
50
92.4666435
51
100.0450117
0
ARC
8
DEFAULT_255_2_778
10
9.4748487
20
4.7458442
40
1.8267276
50
90.4936226
51
92.4122837
0
ARC
8
DEFAULT_255_2_778
10
9.5492109
20
6.5429196
40
0.0948326
50
148.9482896
51
161.8223604
0
ARC
8
DEFAULT_255_2_778
10
9.7390493
20
6.4177206
40
0.3221821
50
136.0403169
51
147.2875115
0
ARC
8
DEFAULT_255_2_778
10
9.3203561
20
6.8337115
40
0.2681107
50
314.1582552
51
330.5448603
0
ARC
8
DEFAULT_255_2_778
10
9.5140463
20
6.7204396
40
0.0438868
50
334.9683319
51
358.52764
0
ARC
8
DEFAULT_255_2_778
10
9.5289636
20
6.7194535
40
0.0289552
50
359.7197872
51
26.3469277
0
ARC
8
DEFAULT_255_2_778
10
9.3247092
20
7.0981937
40
0.4322825
50
269.9943768
51
302.176313
0
ARC
8
DEFAULT_255_2_778
10
9.3246601
20
7.0980999
40
0.4321886
50
268.5615369
51
270.0008894
0
ARC
8
DEFAULT_255_2_778
10
9.3246947
20
7.0987281
40
0.4328174
50
247.0045416
51
268.5590339
0
ARC
8
DEFAULT_255_2_778
10
9.030972
20
6.644337
40
0.1366279
50
7.7496895
51
24.181646
0
ARC
8
DEFAULT_255_2_778
10
9.1076132
20
6.6572273
40
0.0589988
50
0.0786967
51
5.3815075
0
ARC
8
DEFAULT_255_2_778
10
9.117952
20
6.6571503
40
0.0486601
50
334.6886687
51
0.186123
0
ARC
8
DEFAULT_255_2_778
10
9.0215613
20
6.7106669
40
0.1588391
50
318.0588383
51
332.1020344
0
ARC
8
DEFAULT_255_2_778
10
13.2570135
20
-9.4133601
40
16.5385655
50
104.4154823
51
105.2302373
0
ARC
8
DEFAULT_255_2_778
10
7.5990989
20
11.1644324
40
4.8031161
50
279.5663417
51
285.8677734
0
ARC
8
DEFAULT_255_2_778
10
8.0303473
20
8.7434146
40
2.3442084
50
270.1888118
51
279.0065344
0
ARC
8
DEFAULT_255_2_778
10
8.0374123
20
8.4474141
40
2.0481953
50
265.0596355
51
270.018465
0
ARC
8
DEFAULT_255_2_778
10
8.0354075
20
8.4188652
40
2.0195797
50
263.3179793
51
265.0465505
0
ARC
8
DEFAULT_255_2_778
10
7.4424937
20
6.0757804
40
0.4917566
50
43.2948597
51
77.8957074
0
ARC
8
DEFAULT_255_2_778
10
4.1113078
20
6.9464619
40
3.4563605
50
353.5235772
51
353.6082523
0
ARC
8
DEFAULT_255_2_778
10
10.9750826
20
6.1789633
40
3.4501916
50
173.4859294
51
173.6312914
0
ARC
8
DEFAULT_255_2_778
10
7.6522087
20
6.5805939
40
0.1055389
50
123.7913882
51
185.5548696
0
ARC
8
DEFAULT_255_2_778
10
7.8049922
20
9.3841745
40
2.724092
50
265.5474395
51
268.0842258
0
ARC
8
DEFAULT_255_2_778
10
7.8038425
20
9.3562691
40
2.6961638
50
268.0888204
51
270.0009315
0
ARC
8
DEFAULT_255_2_778
10
7.8000951
20
9.549206
40
2.8891031
50
270.0751864
51
275.6471051
0
ARC
8
DEFAULT_255_2_778
10
7.4480849
20
12.5923937
40
5.9523771
50
276.1365664
51
280.3273572
0
LINE
8
DEFAULT_255_2_778
10
8.5151794
20
6.7364476
11
8.5156668
21
6.7365306
0
ARC
8
DEFAULT_255_2_778
10
9.6265975
20
0.6043775
40
6.2319715
50
96.4641961
51
100.2686075
0
ARC
8
DEFAULT_255_2_778
10
9.2381532
20
3.8172674
40
2.995874
50
91.5788111
51
96.0002192
0
ARC
8
DEFAULT_255_2_778
10
9.500271
20
6.5434726
40
0.4369205
50
108.4272156
51
142.0771438
0
ARC
8
DEFAULT_255_2_778
10
9.9700757
20
5.2230511
40
1.8383624
50
100.1510613
51
109.3102368
0
LINE
8
DEFAULT_255_2_778
10
9.6460753
20
7.0326367
11
9.6507868
21
7.0336112
0
LINE
8
DEFAULT_255_2_778
10
9.6507868
20
7.0336112
11
9.6560864
21
7.0347069
0
ARC
8
DEFAULT_255_2_778
10
9.2851838
20
9.0690652
40
2.0678932
50
280.3326328
51
288.0330607
0
ARC
8
DEFAULT_255_2_778
10
9.766792
20
7.5937929
40
0.5160014
50
287.8934923
51
310.6418149
0
ARC
8
DEFAULT_255_2_778
10
9.8709128
20
7.4561447
40
0.3439026
50
312.4160496
51
314.5826621
0
ARC
8
DEFAULT_255_2_778
10
10.3850122
20
5.8013121
40
1.4360227
50
100.9469675
51
108.164647
0
ARC
8
DEFAULT_255_2_778
10
7.5805399
20
14.837193
40
8.0252858
50
286.7986076
51
287.077865
0
ARC
8
DEFAULT_255_2_778
10
9.6342924
20
7.9299215
40
0.8197741
50
271.9492147
51
288.9062397
0
ARC
8
DEFAULT_255_2_778
10
9.6614958
20
7.588545
40
0.4779237
50
256.0306053
51
270.0815356
0
ARC
8
DEFAULT_255_2_778
10
9.6661365
20
7.6077626
40
0.4976932
50
253.2028502
51
256.0462315
0
ARC
8
DEFAULT_255_2_778
10
9.2121532
20
7.3195517
40
0.3628155
50
292.8255542
51
328.7446972
0
ARC
8
DEFAULT_255_2_778
10
9.1284545
20
7.4818729
40
0.5450787
50
272.740086
51
294.3157766
0
ARC
8
DEFAULT_255_2_778
10
9.1285361
20
7.4700762
40
0.5332918
50
270.0068017
51
272.7919132
0
ARC
8
DEFAULT_255_2_778
10
9.1171831
20
7.3453166
40
0.4086918
50
234.0438837
51
271.600707
0
ARC
8
DEFAULT_255_2_778
10
9.0652132
20
7.2565131
40
0.3064592
50
226.1511477
51
232.1600197
0
ARC
8
DEFAULT_255_2_778
10
8.9014937
20
6.9970924
40
0.0619333
50
141.6685633
51
166.0671105
0
ARC
8
DEFAULT_255_2_778
10
8.8817784
20
7.0030151
40
0.0413842
50
167.4536158
51
179.9111279
0
ARC
8
DEFAULT_255_2_778
10
8.9157753
20
7.0129251
40
0.0760213
50
187.4414846
51
229.6295099
0
ARC
8
DEFAULT_255_2_778
10
8.5613751
20
6.6696162
40
0.4178154
50
40.5713837
51
43.0827487
0
ARC
8
DEFAULT_255_2_778
10
8.8450333
20
6.9073728
40
0.0478724
50
5.6388052
51
45.2331341
0
ARC
8
DEFAULT_255_2_778
10
8.8602736
20
6.9130325
40
0.0324146
50
320.8654288
51
358.3101562
0
ARC
8
DEFAULT_255_2_778
10
8.8410824
20
6.9254711
40
0.055206
50
322.5525304
51
323.4237723
0
ARC
8
DEFAULT_255_2_778
10
7.1496368
20
16.0615075
40
9.3323526
50
280.7058169
51
280.7160447
0
ARC
8
DEFAULT_255_2_778
10
7.171054
20
15.9380859
40
9.2071009
50
280.7072388
51
280.717536
0
LINE
8
DEFAULT_255_2_778
10
8.8816483
20
6.8912868
11
8.8808411
21
6.891134
0
ARC
8
DEFAULT_255_2_778
10
7.2033617
20
15.7430317
40
9.0094411
50
280.7201776
51
280.7305942
0
ARC
8
DEFAULT_255_2_778
10
7.224278
20
15.622516
40
8.8871382
50
280.7217209
51
280.7322094
0
ARC
8
DEFAULT_255_2_778
10
7.2449969
20
15.5031196
40
8.7659718
50
280.7232852
51
280.7338466
0
ARC
8
DEFAULT_255_2_778
10
9.063797
20
5.8975387
40
1.0102861
50
100.710098
51
100.7555943
0
ARC
8
DEFAULT_255_2_778
10
5.67685
20
23.7514806
40
17.1620736
50
280.7353776
51
280.7407172
0
ARC
8
DEFAULT_255_2_778
10
7.2956959
20
15.2062147
40
8.4648195
50
280.7330323
51
280.7437844
0
LINE
8
DEFAULT_255_2_778
10
8.8721254
20
6.8894821
11
8.8713506
21
6.8893351
0
ARC
8
DEFAULT_255_2_778
10
7.325441
20
15.0301433
40
8.2862895
50
280.7413622
51
280.7522338
0
ARC
8
DEFAULT_255_2_778
10
1.8321151
20
43.9377924
40
37.7112583
50
280.7508737
51
280.7556209
0
ARC
8
DEFAULT_255_2_778
10
2.0376474
20
42.8106612
40
36.5655722
50
280.7590963
51
280.7639251
0
ARC
8
DEFAULT_255_2_778
10
2.2319329
20
41.7532194
40
35.4904508
50
280.7647369
51
280.7696434
0
ARC
8
DEFAULT_255_2_778
10
7.4575523
20
14.2579733
40
7.5030316
50
280.7671279
51
280.7785666
0
ARC
8
DEFAULT_255_2_778
10
-5.9737268
20
84.8015146
40
79.3138278
50
280.7765595
51
280.7787096
0
ARC
8
DEFAULT_255_2_778
10
6.1658061
20
21.0117179
40
14.379196
50
280.7784518
51
280.784297
0
ARC
8
DEFAULT_255_2_778
10
-5.3006805
20
81.1912499
40
75.6413896
50
280.7837457
51
280.7859535
0
ARC
8
DEFAULT_255_2_778
10
-4.8370145
20
78.6856614
40
73.0932971
50
280.7919373
51
280.7941903
0
ARC
8
DEFAULT_255_2_778
10
6.9666075
20
16.7531253
40
10.0459775
50
280.7888324
51
280.8009523
0
ARC
8
DEFAULT_255_2_778
10
8.2332022
20
10.1030739
40
3.2763805
50
280.7873537
51
280.7996059
0
ARC
8
DEFAULT_255_2_778
10
6.4077188
20
19.6691523
40
13.0150787
50
280.7935064
51
280.7996547
0
ARC
8
DEFAULT_255_2_778
10
-3.8119266
20
73.1934651
40
67.5062999
50
280.804177
51
280.8065321
0
ARC
8
DEFAULT_255_2_778
10
-3.439697
20
71.2122934
40
65.4904718
50
280.8068098
51
280.8092033
0
ARC
8
DEFAULT_255_2_778
10
-178.6949105
20
987.2493875
40
998.1417129
50
280.8242385
51
280.8293046
0
ARC
8
DEFAULT_255_2_778
10
4.4545841
20
29.3522708
40
22.892707
50
280.5923328
51
280.8221832
0
ARC
8
DEFAULT_255_2_778
10
6.846293
20
16.5050673
40
9.8247827
50
279.3947681
51
280.6542459
0
ARC
8
DEFAULT_255_2_778
10
7.585986
20
11.9984906
40
5.2579111
50
276.3238241
51
279.4586619
0
ARC
8
DEFAULT_255_2_778
10
7.8124616
20
9.9445153
40
3.1914881
50
271.6120481
51
276.3443428
0
ARC
8
DEFAULT_255_2_778
10
7.8421992
20
9.1566712
40
2.4031312
50
270.0126797
51
271.431745
0
ARC
8
DEFAULT_255_2_778
10
7.8278943
20
8.4256727
40
1.6721985
50
259.8629696
51
270.5083676
0
ARC
8
DEFAULT_255_2_778
10
7.6906011
20
7.6780551
40
0.9120945
50
242.4890637
51
260.0870448
0
ARC
8
DEFAULT_255_2_778
10
7.540477
20
7.388443
40
0.5858861
50
205.0169802
51
242.4275947
0
ARC
8
DEFAULT_255_2_778
10
7.6318974
20
7.4314204
40
0.6869042
50
195.9722307
51
205.0407424
0
ARC
8
DEFAULT_255_2_778
10
6.9612346
20
7.2857827
40
0.0445793
50
283.3276568
51
322.5968722
0
ARC
8
DEFAULT_255_2_778
10
7.0334912
20
7.2299284
40
0.0467464
50
107.529892
51
141.9739926
0
ARC
8
DEFAULT_255_2_778
10
7.7418635
20
8.6266916
40
1.5330848
50
241.8851155
51
262.5525356
0
ARC
8
DEFAULT_255_2_778
10
7.969805
20
10.1613611
40
3.0844721
50
262.0491448
51
270.5091379
0
ARC
8
DEFAULT_255_2_778
10
7.9548767
20
14.7657004
40
7.6888062
50
270.3154901
51
273.3935782
0
ARC
8
DEFAULT_255_2_778
10
6.4832375
20
42.3156376
40
35.2779174
50
273.1308817
51
273.3790405
0
ARC
8
DEFAULT_255_2_778
10
9.7653691
20
-12.6393391
40
19.7750056
50
92.6446801
51
93.487151
0
ARC
8
DEFAULT_255_2_778
10
8.8307614
20
7.1685773
40
0.0583414
50
292.3123342
51
353.2019339
0
LINE
8
DEFAULT_255_2_778
10
8.8886927
20
7.1616714
11
8.8887708
21
7.1619083
0
ARC
8
DEFAULT_255_2_778
10
8.9422109
20
7.1576227
40
0.0536117
50
100.0980657
51
175.4150212
0
ARC
8
DEFAULT_255_2_778
10
8.8013457
20
8.2559265
40
1.0537554
50
277.1668302
51
287.488445
0
ARC
8
DEFAULT_255_2_778
10
6.8126443
20
15.1191092
40
8.1990112
50
286.3304329
51
286.5126373
0
LINE
8
DEFAULT_255_2_778
10
9.1430232
20
7.2582492
11
9.1450187
21
7.2588396
0
ARC
8
DEFAULT_255_2_778
10
9.4931098
20
6.2031636
40
1.1115841
50
96.6043779
51
108.2490876
0
ARC
8
DEFAULT_255_2_778
10
9.4295905
20
6.6102441
40
0.7000889
50
89.9951388
51
95.2720322
0
ARC
8
DEFAULT_255_2_778
10
9.4292049
20
6.5772915
40
0.7330416
50
84.705962
51
89.9652176
0
ARC
8
DEFAULT_255_2_778
10
9.4253391
20
6.5293278
40
0.7811575
50
83.9986183
51
84.7482235
0
ARC
8
DEFAULT_255_2_778
10
10.0897706
20
6.3616482
40
1.1098623
50
102.5844804
51
121.6732109
0
ARC
8
DEFAULT_255_2_778
10
10.5123417
20
4.8354105
40
2.6926879
50
102.3284508
51
104.284527
0
ARC
8
DEFAULT_255_2_778
10
10.5368844
20
7.5010186
40
0.6004951
50
180.3757209
51
183.3427847
0
ARC
8
DEFAULT_255_2_778
10
10.0288443
20
7.507501
40
0.0930275
50
144.2866027
51
186.4313215
0
ARC
8
DEFAULT_255_2_778
10
9.8649949
20
9.6494864
40
2.0895496
50
270.1524615
51
272.4223625
0
ARC
8
DEFAULT_255_2_778
10
9.8508437
20
8.2327158
40
0.6730604
50
255.6852538
51
271.6782177
0
ARC
8
DEFAULT_255_2_778
10
9.7538627
20
7.8261996
40
0.2552711
50
238.0056773
51
254.2170763
0
ARC
8
DEFAULT_255_2_778
10
9.7183182
20
7.6348734
40
0.1028349
50
194.1673648
51
268.2387522
0
ARC
8
DEFAULT_255_2_778
10
9.9923679
20
8.7167528
40
1.2166669
50
256.8298265
51
257.9528607
0
ARC
8
DEFAULT_255_2_778
10
9.7110904
20
7.3098646
40
0.2187249
50
56.3376233
51
82.7978929
0
ARC
8
DEFAULT_255_2_778
10
9.7835619
20
7.4338852
40
0.0757991
50
39.3088271
51
49.9560898
0
ARC
8
DEFAULT_255_2_778
10
9.3203902
20
8.9807079
40
1.5870444
50
283.2734332
51
289.1959781
0
ARC
8
DEFAULT_255_2_778
10
9.4141859
20
8.5742748
40
1.1699355
50
275.6821528
51
283.3726781
0
ARC
8
DEFAULT_255_2_778
10
9.4488578
20
8.2505335
40
0.8443557
50
270.1162671
51
275.5160387
0
ARC
8
DEFAULT_255_2_778
10
9.4373722
20
7.9059544
40
0.499949
50
246.2310288
51
271.5128182
0
ARC
8
DEFAULT_255_2_778
10
9.3809821
20
7.7538753
40
0.3381803
50
238.3464019
51
244.5893601
0
ARC
8
DEFAULT_255_2_778
10
9.2269777
20
7.4377435
40
0.0367334
50
129.7052801
51
161.7732163
0
ARC
8
DEFAULT_255_2_778
10
9.217426
20
7.4418378
40
0.0263958
50
163.7298768
51
171.931039
0
ARC
8
DEFAULT_255_2_778
10
9.217557
20
7.441838
40
0.0265255
50
171.9712073
51
180.0336071
0
ARC
8
DEFAULT_255_2_778
10
9.2598838
20
7.4536023
40
0.0698528
50
189.7086453
51
231.5672385
0
ARC
8
DEFAULT_255_2_778
10
9.5276071
20
7.7088723
40
0.4392073
50
224.8934389
51
226.2999975
0
ARC
8
DEFAULT_255_2_778
10
9.1102539
20
7.2561855
40
0.1767561
50
35.3321001
51
49.8746889
0
ARC
8
DEFAULT_255_2_778
10
9.2375162
20
7.3481446
40
0.0198036
50
2.4763718
51
31.208995
0
ARC
8
DEFAULT_255_2_778
10
9.2437571
20
7.349385
40
0.0135498
50
304.3934592
51
358.3730421
0
ARC
8
DEFAULT_255_2_778
10
8.9265372
20
8.0150812
40
0.7508034
50
283.5521536
51
295.6391316
0
ARC
8
DEFAULT_255_2_778
10
8.8977506
20
8.1071476
40
0.8470762
50
271.9691711
51
283.9858053
0
ARC
8
DEFAULT_255_2_778
10
8.9040954
20
7.9980232
40
0.7378027
50
270.0067396
51
271.7679323
0
ARC
8
DEFAULT_255_2_778
10
8.8923747
20
7.7850867
40
0.5249989
50
245.8054517
51
271.2887204
0
ARC
8
DEFAULT_255_2_778
10
8.709227
20
7.2649706
40
0.0522036
50
127.8278495
51
185.9773067
0
LINE
8
DEFAULT_255_2_778
10
8.6573071
20
7.2595344
11
8.6572863
21
7.2593465
0
ARC
8
DEFAULT_255_2_778
10
8.6145362
20
7.2512856
40
0.0435034
50
289.9940136
51
10.6783195
0
ARC
8
DEFAULT_255_2_778
10
7.7504555
20
16.9821687
40
9.8112154
50
273.1332847
51
275.1398373
0
ARC
8
DEFAULT_255_2_778
10
7.9320567
20
13.9636822
40
6.7873349
50
272.800571
51
272.995327
0
ARC
8
DEFAULT_255_2_778
10
7.9950359
20
12.4982036
40
5.3205365
50
270.1012476
51
272.8942472
0
ARC
8
DEFAULT_255_2_778
10
7.9773008
20
10.1432064
40
2.9656552
50
261.3591846
51
270.5242893
0
ARC
8
DEFAULT_255_2_778
10
7.7520986
20
8.6788984
40
1.4841357
50
247.067605
51
261.4614491
0
ARC
8
DEFAULT_255_2_778
10
7.4584591
20
8.0278425
40
0.770303
50
200.9846004
51
248.3136753
0
ARC
8
DEFAULT_255_2_778
10
7.6409089
20
8.08564
40
0.9614176
50
185.6190513
51
200.3067395
0
ARC
8
DEFAULT_255_2_778
10
6.670251
20
7.9476099
40
0.0460303
50
72.475911
51
86.9162406
0
ARC
8
DEFAULT_255_2_778
10
6.6717207
20
7.9648001
40
0.028791
50
87.9965096
51
89.9836456
0
ARC
8
DEFAULT_255_2_778
10
6.6737848
20
7.9716844
40
0.0220029
50
95.3615328
51
196.4113447
0
ARC
8
DEFAULT_255_2_778
10
6.7621352
20
7.9637169
40
0.1094708
50
179.0834672
51
180.0169615
0
ARC
8
DEFAULT_255_2_778
10
6.952079
20
7.9692989
40
0.2994673
50
181.0742447
51
185.9247087
0
ARC
8
DEFAULT_255_2_778
10
3.1576027
20
7.629662
40
3.5102115
50
5.0172428
51
5.0457205
0
ARC
8
DEFAULT_255_2_778
10
6.3746116
20
7.9083398
40
0.2811818
50
0.9008754
51
5.7783976
0
ARC
8
DEFAULT_255_2_778
10
6.6238315
20
7.9071276
40
0.0324203
50
309.4087798
51
10.0060227
0
ARC
8
DEFAULT_255_2_778
10
6.6349304
20
7.9003485
40
0.0205845
50
273.5667162
51
297.4316458
0
ARC
8
DEFAULT_255_2_778
10
7.6617931
20
10.7692455
40
3.0660546
50
233.0030836
51
250.4581261
0
ARC
8
DEFAULT_255_2_778
10
7.2516238
20
10.2226391
40
2.3826696
50
207.4604456
51
232.970778
0
ARC
8
DEFAULT_255_2_778
10
5.9705682
20
9.5112679
40
0.9188045
50
192.7833784
51
204.9353623
0
ARC
8
DEFAULT_255_2_778
10
8.2620656
20
10.1126433
40
3.2875275
50
192.8999715
51
194.1680105
0
ARC
8
DEFAULT_255_2_778
10
6.0242444
20
9.5811165
40
0.9876965
50
187.4500553
51
191.8256343
0
ARC
8
DEFAULT_255_2_778
10
-13.0513152
20
6.8481802
40
18.2827195
50
8.1912137
51
8.227173
0
ARC
8
DEFAULT_255_2_778
10
4.5619471
20
9.4173183
40
0.4835982
50
5.5877958
51
19.9351246
0
ARC
8
DEFAULT_255_2_778
10
4.9666741
20
9.5671489
40
0.0521155
50
16.7908159
51
77.8858815
0
ARC
8
DEFAULT_255_2_778
10
6.3010774
20
9.4401896
40
1.3353714
50
172.3435932
51
179.4531557
0
ARC
8
DEFAULT_255_2_778
10
6.2362832
20
9.44217
40
1.2705619
50
179.5145744
51
179.9996258
0
ARC
8
DEFAULT_255_2_778
10
6.1024659
20
9.4347817
40
1.1367688
50
179.627192
51
203.2828696
0
ARC
8
DEFAULT_255_2_778
10
6.051164
20
9.4185991
40
1.0832618
50
203.5691929
51
220.9027594
0
ARC
8
DEFAULT_255_2_778
10
7.0666165
20
10.1148703
40
2.3024138
50
224.4819697
51
237.4945999
0
ARC
8
DEFAULT_255_2_778
10
8.4085457
20
12.1310065
40
4.724075
50
236.9090974
51
240.7936964
0
ARC
8
DEFAULT_255_2_778
10
12.0458582
20
18.6331628
40
12.1744492
50
240.7836679
51
242.257307
0
ARC
8
DEFAULT_255_2_778
10
-1.7948043
20
-7.6719627
40
17.5496752
50
61.406246
51
62.2424277
0
ARC
8
DEFAULT_255_2_778
10
3.5975596
20
2.2656711
40
6.2433557
50
60.8917381
51
61.2095981
0
ARC
8
DEFAULT_255_2_778
10
6.9722384
20
7.6400411
40
0.3469856
50
166.5915697
51
176.1022406
0
ARC
8
DEFAULT_255_2_778
10
6.9398195
20
7.6429169
40
0.3144469
50
176.2234907
51
179.9893214
0
ARC
8
DEFAULT_255_2_778
10
6.9529832
20
7.6450108
40
0.3276169
50
180.3559366
51
200.9544376
0
ARC
8
DEFAULT_255_2_778
10
7.2498206
20
7.7548775
40
0.644124
50
200.6381313
51
205.8426552
0
ARC
8
DEFAULT_255_2_778
10
6.1125127
20
7.1801285
40
0.630348
50
18.9031344
51
27.7988353
0
ARC
8
DEFAULT_255_2_778
10
6.5596741
20
7.3406086
40
0.1554682
50
6.5732
51
16.3377897
0
ARC
8
DEFAULT_255_2_778
10
6.594131
20
7.3451307
40
0.1207215
50
0.0631742
51
6.3131143
0
ARC
8
DEFAULT_255_2_778
10
6.6033004
20
7.3452388
40
0.1115521
50
356.2299302
51
0.0128423
0
ARC
8
DEFAULT_255_2_778
10
7.166345
20
11.3328438
40
4.020399
50
259.7192942
51
263.5485942
0
ARC
8
DEFAULT_255_2_778
10
7.2268425
20
11.6762209
40
4.3690605
50
256.0823461
51
259.742331
0
ARC
8
DEFAULT_255_2_778
10
7.0926465
20
11.2242775
40
3.8981668
50
243.8740956
51
256.3991165
0
ARC
8
DEFAULT_255_2_778
10
6.4494254
20
9.8951134
40
2.4215787
50
233.8472975
51
243.6898117
0
ARC
8
DEFAULT_255_2_778
10
6.0172341
20
9.2896818
40
1.6777777
50
227.3732891
51
233.5674004
0
ARC
8
DEFAULT_255_2_778
10
5.4319819
20
8.6168431
40
0.7867702
50
189.161614
51
225.5493615
0
ARC
8
DEFAULT_255_2_778
10
6.3897472
20
8.8437489
40
1.7698909
50
184.856668
51
191.4773964
0
ARC
8
DEFAULT_255_2_778
10
4.5999938
20
8.6875155
40
0.0269843
50
277.8959967
51
13.6947906
0
ARC
8
DEFAULT_255_2_778
10
4.6042834
20
8.7066067
40
0.0458234
50
257.3021809
51
269.2715234
0
ARC
8
DEFAULT_255_2_778
10
5.8172401
20
10.6076313
40
2.297816
50
227.087186
51
231.0074877
0
ARC
8
DEFAULT_255_2_778
10
6.239343
20
11.0635132
40
2.9191033
50
223.7894148
51
227.1118916
0
ARC
8
DEFAULT_255_2_778
10
6.8226456
20
11.614393
40
3.7214015
50
217.3843497
51
223.697384
0
ARC
8
DEFAULT_255_2_778
10
7.1100742
20
11.8438934
40
4.0891373
50
210.6008016
51
217.4942256
0
ARC
8
DEFAULT_255_2_778
10
7.8436271
20
12.2729456
40
4.9389441
50
209.8066378
51
210.5530355
0
ARC
8
DEFAULT_255_2_778
10
7.7624835
20
12.2266941
40
4.8455447
50
208.6197663
51
209.8090216
0
ARC
8
DEFAULT_255_2_778
10
7.5511749
20
12.1116978
40
4.6049718
50
207.1956261
51
208.6231244
0
ARC
8
DEFAULT_255_2_778
10
7.0631404
20
11.8641213
40
4.0577401
50
203.9773339
51
207.2357157
0
ARC
8
DEFAULT_255_2_778
10
5.9610251
20
11.3885362
40
2.8574954
50
195.9198782
51
204.2445614
0
ARC
8
DEFAULT_255_2_778
10
4.9334548
20
11.0890853
40
1.7872095
50
188.5006201
51
195.7239766
0
ARC
8
DEFAULT_255_2_778
10
4.3869213
20
11.007038
40
1.2345519
50
180.2494022
51
188.4840397
0
ARC
8
DEFAULT_255_2_778
10
3.9569741
20
11.0113906
40
0.8046517
50
163.0276541
51
180.6925925
0
ARC
8
DEFAULT_255_2_778
10
3.7256713
20
11.0802366
40
0.5633286
50
130.9954811
51
162.8575791
0
ARC
8
DEFAULT_255_2_778
10
3.7747371
20
11.0211108
40
0.640144
50
119.1821245
51
130.8385286
0
ARC
8
DEFAULT_255_2_778
10
6.6202006
20
11.6744786
40
3.1590026
50
181.7137704
51
194.2703051
0
ARC
8
DEFAULT_255_2_778
10
7.3075547
20
11.8604073
40
3.8709931
50
194.4295833
51
205.752905
0
ARC
8
DEFAULT_255_2_778
10
8.9610543
20
12.6519801
40
5.7041947
50
205.6978629
51
211.9559033
0
ARC
8
DEFAULT_255_2_778
10
10.9527129
20
13.8536406
40
8.0301018
50
211.7092959
51
212.3127589
0
ARC
8
DEFAULT_255_2_778
10
11.4864195
20
14.1903028
40
8.6611198
50
212.3077303
51
212.4779036
0
ARC
8
DEFAULT_255_2_778
10
10.54329
20
13.3704112
40
7.4275462
50
211.0489523
51
212.0329659
0
ARC
8
DEFAULT_255_2_778
10
5.2864617
20
10.005506
40
1.1880789
50
208.9297811
51
235.1232086
0
ARC
8
DEFAULT_255_2_778
10
4.9087023
20
9.5280338
40
0.5815314
50
238.759517
51
250.2518732
0
ARC
8
DEFAULT_255_2_778
10
4.8563575
20
8.9693488
40
0.1445931
50
152.4950905
51
175.4957963
0
LINE
8
DEFAULT_255_2_778
10
4.7281075
20
9.0361255
11
4.7282972
21
9.0365459
0
ARC
8
DEFAULT_255_2_778
10
4.6041388
20
9.1021796
40
0.1404389
50
332.1377863
51
358.7301963
0
ARC
8
DEFAULT_255_2_778
10
4.6075968
20
9.0989706
40
0.1369464
50
0.0405139
51
3.9918313
0
ARC
8
DEFAULT_255_2_778
10
6.275538
20
10.7273111
40
2.22834
50
224.778995
51
226.5907121
0
ARC
8
DEFAULT_255_2_778
10
6.4533032
20
10.9037429
40
2.4787967
50
223.022575
51
224.7795301
0
ARC
8
DEFAULT_255_2_778
10
6.6058786
20
11.0467606
40
2.6879215
50
222.0338182
51
223.0323378
0
ARC
8
DEFAULT_255_2_778
10
7.000588
20
11.3928135
40
3.2128064
50
216.5279894
51
221.9044448
0
ARC
8
DEFAULT_255_2_778
10
7.6726253
20
11.8927505
40
4.0504034
50
211.2025016
51
216.5523982
0
ARC
8
DEFAULT_255_2_778
10
8.1482371
20
12.1835591
40
4.6078721
50
205.0739615
51
211.2316373
0
ARC
8
DEFAULT_255_2_778
10
7.7492334
20
12.032675
40
4.1826529
50
187.2781546
51
205.5181771
0
ARC
8
DEFAULT_255_2_778
10
6.6841779
20
11.8625502
40
3.1048104
50
180.9465696
51
186.6539204
0
ARC
8
DEFAULT_255_2_778
10
6.4409314
20
11.8551737
40
2.8614772
50
180.0012011
51
180.8793513
0
ARC
8
DEFAULT_255_2_778
10
6.0200812
20
11.8701128
40
2.4406732
50
165.4116335
51
180.3521111
0
ARC
8
DEFAULT_255_2_778
10
5.5532696
20
11.9872624
40
1.9594092
50
147.3082831
51
165.2886916
0
ARC
8
DEFAULT_255_2_778
10
5.4874049
20
12.0234405
40
1.8844447
50
146.5375945
51
147.1523772
0
ARC
8
DEFAULT_255_2_778
10
5.2650501
20
12.219446
40
1.5913964
50
104.6157471
51
148.0107644
0
ARC
8
DEFAULT_255_2_778
10
5.2789813
20
12.0976745
40
1.7128294
50
89.7694752
51
104.0388149
0
ARC
8
DEFAULT_255_2_778
10
5.2844945
20
11.8204598
40
1.9900305
50
85.0038309
51
89.9603173
0
ARC
8
DEFAULT_255_2_778
10
5.2662265
20
11.6100754
40
2.2012065
50
80.5989447
51
85.0070494
0
ARC
8
DEFAULT_255_2_778
10
5.2462719
20
11.4799646
40
2.3328299
50
80.3527671
51
80.637412
0
ARC
8
DEFAULT_255_2_778
10
5.5963581
20
13.3415146
40
0.4401892
50
77.8860794
51
84.6748473
0
ARC
8
DEFAULT_255_2_778
10
5.6754276
20
13.6926041
40
0.0804066
50
56.1462654
51
80.473975
0
ARC
8
DEFAULT_255_2_778
10
5.7103434
20
13.7454035
40
0.0171131
50
0.4700885
51
54.7502817
0
ARC
8
DEFAULT_255_2_778
10
5.6817288
20
13.7503375
40
0.0459776
50
324.2709138
51
354.0154873
0
ARC
8
DEFAULT_255_2_778
10
4.488088
20
14.5181401
40
1.4651775
50
325.8458321
51
327.1556694
0
ARC
8
DEFAULT_255_2_778
10
5.8821115
20
13.5752792
40
0.2177743
50
146.4744497
51
154.770621
0
ARC
8
DEFAULT_255_2_778
10
8.426121
20
12.0439116
40
3.1860849
50
149.351032
51
161.0815076
0
ARC
8
DEFAULT_255_2_778
10
7.2542235
20
12.4921442
40
1.9326674
50
162.3879272
51
167.7290392
0
ARC
8
DEFAULT_255_2_778
10
4.8589215
20
13.5310871
40
0.8071243
50
300.2325397
51
308.8950099
0
LINE
8
DEFAULT_255_2_778
10
5.2653172
20
12.8337405
11
5.2633652
21
12.8325364
0
ARC
8
DEFAULT_255_2_778
10
5.4458083
20
12.4619381
40
0.4130721
50
116.2107131
51
148.1028143
0
ARC
8
DEFAULT_255_2_778
10
5.0043269
20
12.9711906
40
0.3048195
50
287.3272584
51
308.1414701
0
ARC
8
DEFAULT_255_2_778
10
10.1854921
20
5.4613345
40
8.8195099
50
124.4579929
51
124.4801513
0
ARC
8
DEFAULT_255_2_778
10
5.3419357
20
12.5616375
40
0.2257664
50
96.1705243
51
130.4716882
0
ARC
8
DEFAULT_255_2_778
10
5.3170042
20
12.6648691
40
0.1212285
50
67.1216034
51
89.6860275
0
ARC
8
DEFAULT_255_2_778
10
5.3075932
20
12.6387107
40
0.1489956
50
67.0415006
51
67.6980881
0
ARC
8
DEFAULT_255_2_778
10
11.066898
20
11.933265
40
5.7631219
50
171.5925158
51
179.3654133
0
ARC
8
DEFAULT_255_2_778
10
11.0682303
20
11.9332283
40
5.7644545
50
179.3651954
51
180.0001658
0
ARC
8
DEFAULT_255_2_778
10
11.0722414
20
11.9333317
40
5.7684658
50
180.0011928
51
191.9847307
0
ARC
8
DEFAULT_255_2_778
10
4.3168714
20
10.4792389
40
1.14177
50
7.4491439
51
12.9702717
0
ARC
8
DEFAULT_255_2_778
10
11.1620713
20
11.4591649
40
5.7733163
50
188.2848155
51
188.6635899
0
ARC
8
DEFAULT_255_2_778
10
5.9261359
20
10.6291811
40
0.4731719
50
184.8087426
51
210.9198198
0
ARC
8
DEFAULT_255_2_778
10
5.6712794
20
10.4933959
40
0.1853276
50
215.3968621
51
238.01469
0
ARC
8
DEFAULT_255_2_778
10
5.6206107
20
10.2805893
40
0.0731383
50
96.6932325
51
130.5001814
0
ARC
8
DEFAULT_255_2_778
10
5.6112534
20
10.3826741
40
0.0294567
50
271.6201695
51
330.5783156
0
ARC
8
DEFAULT_255_2_778
10
20.7556602
20
14.7432962
40
15.7390599
50
195.7751149
51
196.1394858
0
ARC
8
DEFAULT_255_2_778
10
21.4423199
20
14.9335636
40
16.4515844
50
195.7512579
51
195.7626619
0
ARC
8
DEFAULT_255_2_778
10
14.8552101
20
13.0962456
40
9.6130847
50
193.3991667
51
195.8693998
0
ARC
8
DEFAULT_255_2_778
10
11.428656
20
12.2869215
40
6.0922599
50
188.0926091
51
193.4626913
0
ARC
8
DEFAULT_255_2_778
10
9.7068585
20
12.0431087
40
4.3532862
50
180.1944968
51
188.1057525
0
ARC
8
DEFAULT_255_2_778
10
8.8335878
20
12.0345499
40
3.479996
50
172.6662514
51
180.1023899
0
ARC
8
DEFAULT_255_2_778
10
8.5327969
20
12.0679752
40
3.1774032
50
170.6607431
51
172.5716949
0
ARC
8
DEFAULT_255_2_778
10
7.5179355
20
12.2285302
40
2.1499482
50
125.9120238
51
170.4937859
0
ARC
8
DEFAULT_255_2_778
10
7.3313698
20
12.4850084
40
1.8327931
50
96.6409997
51
125.8911499
0
ARC
8
DEFAULT_255_2_778
10
7.2685129
20
12.9586289
40
1.3551029
50
90.9385891
51
96.3170413
0
ARC
8
DEFAULT_255_2_778
10
7.2693188
20
12.9327577
40
1.3809838
50
89.9990806
51
90.9544364
0
ARC
8
DEFAULT_255_2_778
10
7.2775302
20
13.0047074
40
1.3090598
50
65.1678964
51
90.3584371
0
ARC
8
DEFAULT_255_2_778
10
7.4538119
20
13.3909601
40
0.8844907
50
45.2860447
51
65.0235819
0
ARC
8
DEFAULT_255_2_778
10
8.3042353
20
13.2283859
40
0.823352
50
106.0852798
51
125.470285
0
ARC
8
DEFAULT_255_2_778
10
9.530278
20
11.3669188
40
3.0519034
50
123.9369605
51
126.445753
0
ARC
8
DEFAULT_255_2_778
10
21.2178208
20
-4.6372476
40
22.8693327
50
126.180764
51
126.2787994
0
ARC
8
DEFAULT_255_2_778
10
6.6754179
20
15.077023
40
1.6292658
50
296.0838142
51
308.3220783
0
ARC
8
DEFAULT_255_2_778
10
7.1241362
20
14.2176866
40
0.6606364
50
287.8930558
51
293.8995124
0
ARC
8
DEFAULT_255_2_778
10
7.073277
20
14.3882683
40
0.8386031
50
283.243365
51
287.6190432
0
ARC
8
DEFAULT_255_2_778
10
6.7928065
20
15.6517988
40
2.1328467
50
279.5071354
51
282.80152
0
ARC
8
DEFAULT_255_2_778
10
7.2122774
20
12.9010508
40
0.6506738
50
95.9268442
51
120.5842878
0
ARC
8
DEFAULT_255_2_778
10
7.231939
20
12.9890578
40
0.58816
50
126.606352
51
152.754431
0
ARC
8
DEFAULT_255_2_778
10
-41.6100579
20
41.0576853
40
55.7453074
50
329.9486834
51
330.0869424
0
ARC
8
DEFAULT_255_2_778
10
0.8668742
20
19.3830289
40
8.5031044
50
312.7777479
51
313.8180079
0
ARC
8
DEFAULT_255_2_778
10
7.4060854
20
12.6496711
40
0.8846502
50
107.8769341
51
137.4697494
0
ARC
8
DEFAULT_255_2_778
10
7.2491741
20
13.0217622
40
0.4836331
50
89.9702878
51
103.7134343
0
ARC
8
DEFAULT_255_2_778
10
7.2484029
20
12.9807271
40
0.5246692
50
79.4969031
51
89.8883919
0
ARC
8
DEFAULT_255_2_778
10
7.230943
20
12.8851494
40
0.6218282
50
72.018158
51
79.5204299
0
ARC
8
DEFAULT_255_2_778
10
10.6464372
20
9.8985863
40
4.8159455
50
122.3382137
51
132.0164858
0
ARC
8
DEFAULT_255_2_778
10
8.2507201
20
13.6041346
40
0.4060494
50
108.3918631
51
115.343807
0
LINE
8
DEFAULT_255_2_778
10
8.1226057
20
13.9894433
11
8.1227832
21
13.9895065
0
ARC
8
DEFAULT_255_2_778
10
8.1039791
20
14.1138593
40
0.1257666
50
278.5988668
51
338.0283105
0
ARC
8
DEFAULT_255_2_778
10
7.2369909
20
12.7309366
40
1.6589304
50
53.6352013
51
83.7278584
0
ARC
8
DEFAULT_255_2_778
10
7.2764999
20
12.8858804
40
1.500764
50
84.5809619
51
90.0157674
0
ARC
8
DEFAULT_255_2_778
10
7.2761603
20
12.8444121
40
1.5422323
50
90.0027268
51
92.0009735
0
ARC
8
DEFAULT_255_2_778
10
7.2523187
20
12.286103
40
2.0998154
50
90.8188194
51
102.5435739
0
ARC
8
DEFAULT_255_2_778
10
7.233337
20
12.3831829
40
2.0009317
50
102.6167468
51
115.3563269
0
ARC
8
DEFAULT_255_2_778
10
7.2749601
20
12.2996286
40
2.0942624
50
115.4064316
51
126.5074797
0
ARC
8
DEFAULT_255_2_778
10
7.3431723
20
12.2032915
40
2.2122788
50
126.4430921
51
129.6437655
0
ARC
8
DEFAULT_255_2_778
10
8.390783
20
22.0286187
40
8.5011728
50
252.8469753
51
253.092516
0
ARC
8
DEFAULT_255_2_778
10
3.8985363
20
7.6396039
40
6.5728813
50
72.4219542
51
74.113914
0
ARC
8
DEFAULT_255_2_778
10
5.3393467
20
12.7656727
40
1.2483222
50
73.3173792
51
89.0512567
0
ARC
8
DEFAULT_255_2_778
10
5.3600838
20
13.0579135
40
0.9559101
50
90.0040417
51
97.6834056
0
ARC
8
DEFAULT_255_2_778
10
5.3639996
20
13.0254179
40
0.9886376
50
97.6565167
51
98.7672219
0
ARC
8
DEFAULT_255_2_778
10
5.6015984
20
11.9795405
40
2.0598904
50
100.8652047
51
140.7994734
0
ARC
8
DEFAULT_255_2_778
10
5.8688638
20
11.6725925
40
2.4619727
50
139.1947679
51
152.7427149
0
ARC
8
DEFAULT_255_2_778
10
5.6444711
20
11.7964585
40
2.20578
50
152.9334483
51
153.8923007
0
ARC
8
DEFAULT_255_2_778
10
5.5432695
20
11.8451439
40
2.09348
50
153.869946
51
157.2990889
0
ARC
8
DEFAULT_255_2_778
10
5.4402074
20
11.8891825
40
1.9814067
50
157.3237615
51
157.9821132
0
ARC
8
DEFAULT_255_2_778
10
3.8280955
20
10.9566628
40
1.6903538
50
97.641873
51
120.8348954
0
ARC
8
DEFAULT_255_2_778
10
3.9371912
20
10.8118705
40
1.8706994
50
121.4309001
51
156.2381973
0
ARC
8
DEFAULT_255_2_778
10
4.2146859
20
10.6711961
40
2.181419
50
155.7933408
51
176.358212
0
ARC
8
DEFAULT_255_2_778
10
4.3079699
20
10.6600857
40
2.2752262
50
176.2282035
51
180.0034082
0
ARC
8
DEFAULT_255_2_778
10
4.3441512
20
10.6604839
40
2.3114076
50
180.013224
51
187.5794304
0
ARC
8
DEFAULT_255_2_778
10
4.3917853
20
10.6667027
40
2.3594459
50
187.5765525
51
193.8786202
0
ARC
8
DEFAULT_255_2_778
10
4.4332564
20
10.6766524
40
2.4020927
50
193.8717454
51
197.4792735
0
ARC
8
DEFAULT_255_2_778
10
4.4554071
20
10.6834417
40
2.4252599
50
197.475083
51
198.3080737
0
ARC
8
DEFAULT_255_2_778
10
-3.1031125
20
16.0033133
40
8.0382194
50
310.17977
51
310.83471
0
ARC
8
DEFAULT_255_2_778
10
-75.1219789
20
101.3216548
40
119.6891777
50
310.1211171
51
310.1691267
0
ARC
8
DEFAULT_255_2_778
10
3.1239831
20
8.3018784
40
1.8668673
50
126.7731406
51
149.3230027
0
ARC
8
DEFAULT_255_2_778
10
2.4915734
20
8.7450413
40
1.0984167
50
152.3754851
51
167.568282
0
ARC
8
DEFAULT_255_2_778
10
2.7134892
20
8.6935549
40
1.3262154
50
167.4600158
51
171.2439538
0
ARC
8
DEFAULT_255_2_778
10
2.8457094
20
8.676526
40
1.4594906
50
171.3733885
51
172.3107512
0
ARC
8
DEFAULT_255_2_778
10
4.051519
20
8.5130197
40
2.6763353
50
172.2957978
51
172.6383408
0
ARC
8
DEFAULT_255_2_778
10
28.8629516
20
5.3168131
40
27.6927883
50
172.6575348
51
172.705178
0
ARC
8
DEFAULT_255_2_778
10
3.0775505
20
8.6046128
40
1.6986769
50
172.2696409
51
177.1293016
0
ARC
8
DEFAULT_255_2_778
10
3.0725386
20
8.6049874
40
1.6936524
50
177.1334668
51
180.0011773
0
ARC
8
DEFAULT_255_2_778
10
3.3093388
20
8.6272882
40
1.9305818
50
180.662889
51
205.0493762
0
ARC
8
DEFAULT_255_2_778
10
4.6202697
20
9.2426365
40
3.3787495
50
205.0904758
51
219.3289456
0
ARC
8
DEFAULT_255_2_778
10
6.3707911
20
10.5827829
40
5.5826345
50
218.5817539
51
220.583992
0
ARC
8
DEFAULT_255_2_778
10
7.8045934
20
11.8133681
40
7.4721123
50
220.5977511
51
222.2732216
0
ARC
8
DEFAULT_255_2_778
10
11.039553
20
14.7505958
40
11.841582
50
222.2603453
51
223.0955528
0
ARC
8
DEFAULT_255_2_778
10
28.4222859
20
31.0208559
40
35.6508398
50
223.1029661
51
223.363083
0
ARC
8
DEFAULT_255_2_778
10
2.1666742
20
6.941918
40
0.5226379
50
310.1277129
51
316.0951734
0
LINE
8
DEFAULT_255_2_778
10
2.5432311
20
6.5794882
11
2.5454742
21
6.5817435
0
ARC
8
DEFAULT_255_2_778
10
2.7395058
20
6.4164394
40
0.2548994
50
111.2522931
51
139.5708513
0
ARC
8
DEFAULT_255_2_778
10
0.3455242
20
4.0152163
40
3.5015
50
45.3940467
51
48.9046173
0
LINE
8
DEFAULT_255_2_778
10
2.8043722
20
6.50812
11
2.8046923
21
6.5078106
0
ARC
8
DEFAULT_255_2_778
10
4.035147
20
7.6737065
40
1.6950906
50
223.4567963
51
238.8184417
0
ARC
8
DEFAULT_255_2_778
10
3.466471
20
6.2990048
40
0.3180513
50
193.7322868
51
226.5423125
0
ARC
8
DEFAULT_255_2_778
10
3.3392023
20
6.1779697
40
0.1429483
50
230.205014
51
232.5404652
0
ARC
8
DEFAULT_255_2_778
10
3.3310912
20
6.1674199
40
0.129641
50
232.5502104
51
233.1324782
0
ARC
8
DEFAULT_255_2_778
10
3.9365317
20
7.0020276
40
1.1607074
50
233.9405484
51
245.4787025
0
ARC
8
DEFAULT_255_2_778
10
4.2923
20
7.7705206
40
2.0075483
50
245.343658
51
253.3910776
0
ARC
8
DEFAULT_255_2_778
10
4.6634709
20
9.0009396
40
3.2927288
50
253.3217365
51
259.4492413
0
ARC
8
DEFAULT_255_2_778
10
4.9978017
20
10.7864926
40
5.1093121
50
259.4298199
51
264.7850701
0
ARC
8
DEFAULT_255_2_778
10
5.164406
20
12.4699888
40
6.8009952
50
264.676408
51
267.9348283
0
ARC
8
DEFAULT_255_2_778
10
5.1981664
20
13.2831702
40
7.6148664
50
267.9014621
51
270.008012
0
ARC
8
DEFAULT_255_2_778
10
5.1996379
20
13.4131695
40
7.7448657
50
269.9969917
51
272.3881073
0
ARC
8
DEFAULT_255_2_778
10
5.2219324
20
12.8976881
40
7.2289031
50
272.381799
51
274.2926347
0
ARC
8
DEFAULT_255_2_778
10
5.2688186
20
12.2539082
40
6.5834198
50
274.3051029
51
275.2211498
0
ARC
8
DEFAULT_255_2_778
10
6.2225044
20
5.8689241
40
0.393724
50
205.7610867
51
242.5850827
0
ARC
8
DEFAULT_255_2_778
10
6.6072186
20
6.4796887
40
1.1146632
50
239.4843364
51
245.8427618
0
ARC
8
DEFAULT_255_2_778
10
7.5604066
20
8.6139826
40
3.4521349
50
245.9046646
51
248.2113436
0
ARC
8
DEFAULT_255_2_778
10
2.3990953
20
-4.0828947
40
10.2537752
50
67.7177694
51
67.7659594
0
ARC
8
DEFAULT_255_2_778
10
1.0651929
20
-7.6735106
40
14.2573171
50
66.5393189
51
66.6090708
0
ARC
8
DEFAULT_255_2_778
10
6.7477479
20
5.4733616
40
0.0652115
50
219.4750008
51
249.944433
0
ARC
8
DEFAULT_255_2_778
10
6.5706092
20
5.3813237
40
0.1365176
50
21.7466764
51
49.7412148
0
ARC
8
DEFAULT_255_2_778
10
6.5196758
20
5.3223881
40
0.21441
50
49.5321485
51
55.5340364
0
ARC
8
DEFAULT_255_2_778
10
6.0387118
20
4.6139142
40
1.0707147
50
55.7695063
51
57.1408249
0
ARC
8
DEFAULT_255_2_778
10
6.6577731
20
5.5930032
40
0.0883293
50
182.0753155
51
244.4350244
0
ARC
8
DEFAULT_255_2_778
10
6.6980677
20
5.594962
40
0.1286693
50
179.9799932
51
182.2972363
0
ARC
8
DEFAULT_255_2_778
10
6.7164144
20
5.5948997
40
0.147016
50
176.9180331
51
179.9582057
0
ARC
8
DEFAULT_255_2_778
10
8.1904931
20
6.0732659
40
0.2155659
50
224.4887593
51
267.9536453
0
ARC
8
DEFAULT_255_2_778
10
8.2445225
20
6.4723753
40
0.6176301
50
264.2642031
51
270.3368715
0
ARC
8
DEFAULT_255_2_778
10
8.2435319
20
7.2096701
40
1.3549222
50
270.1954503
51
272.6195814
0
ARC
8
DEFAULT_255_2_778
10
8.0977577
20
10.6188132
40
4.7671761
50
272.4970977
51
272.9153327
0
ARC
8
DEFAULT_255_2_778
10
8.4474478
20
4.0266253
40
1.8343185
50
90.5545836
51
93.3513058
0
ARC
8
DEFAULT_255_2_778
10
8.4382465
20
5.4572483
40
0.4037002
50
78.242423
51
91.2140422
0
ARC
8
DEFAULT_255_2_778
10
8.4900794
20
5.7062197
40
0.1493905
50
53.5616777
51
78.247067
0
ARC
8
DEFAULT_255_2_778
10
8.4719153
20
5.8051243
40
0.1089932
50
0.2568098
51
11.2586854
0
ARC
8
DEFAULT_255_2_778
10
8.4689669
20
5.8172861
40
0.1125475
50
282.7998693
51
354.0466338
0
ARC
8
DEFAULT_255_2_778
10
8.2984143
20
6.2005852
40
0.5303897
50
285.3137411
51
291.627611
0
ARC
8
DEFAULT_255_2_778
10
7.1282325
20
10.4987191
40
4.9849689
50
284.4775072
51
285.2387725
0
ARC
8
DEFAULT_255_2_778
10
8.5639689
20
4.9641602
40
0.7328078
50
104.9862387
51
106.5513197
0
ARC
8
DEFAULT_255_2_778
10
7.1017515
20
8.4885032
40
3.1956549
50
285.2723495
51
291.8733222
0
ARC
8
DEFAULT_255_2_778
10
8.1019705
20
5.9851357
40
0.4998876
50
292.3811787
51
297.6276372
0
ARC
8
DEFAULT_255_2_778
10
7.5849709
20
6.9577118
40
1.6013309
50
297.8797067
51
300.4714101
0
ARC
8
DEFAULT_255_2_778
10
8.6574682
20
5.1933026
40
0.4642004
50
99.8182783
51
124.1298409
0
ARC
8
DEFAULT_255_2_778
10
8.6056019
20
5.3465329
40
0.305393
50
89.9018747
51
95.1269684
0
ARC
8
DEFAULT_255_2_778
10
8.5727579
20
4.8350975
40
0.8175091
50
76.6771387
51
87.6607945
0
ARC
8
DEFAULT_255_2_778
10
8.9515905
20
6.4541677
40
0.8452964
50
256.9793231
51
268.2084935
0
ARC
8
DEFAULT_255_2_778
10
8.9264178
20
5.9835353
40
0.3742531
50
269.8081053
51
278.5654844
0
ARC
8
DEFAULT_255_2_778
10
8.93585
20
5.9200141
40
0.3100354
50
278.5902112
51
293.0844554
0
ARC
8
DEFAULT_255_2_778
10
9.3984021
20
5.7076735
40
0.3486902
50
192.0626266
51
206.9385496
0
LINE
8
DEFAULT_255_2_778
10
9.0875471
20
5.5497047
11
9.0879598
21
5.5488079
0
ARC
8
DEFAULT_255_2_778
10
8.8090831
20
5.4029238
40
0.3147291
50
7.371441
51
27.6146521
0
ARC
8
DEFAULT_255_2_778
10
9.6391988
20
5.6109537
40
0.238609
50
201.5772625
51
239.1972729
0
ARC
8
DEFAULT_255_2_778
10
9.0695505
20
7.4154774
40
1.9239636
50
280.4135721
51
293.2921881
0
ARC
8
DEFAULT_255_2_778
10
9.2853754
20
6.893029
40
1.3587786
50
293.6443461
51
303.7012573
0
ARC
8
DEFAULT_255_2_778
10
10.2416943
20
6.1719934
40
0.4566823
50
243.6943264
51
253.5491241
0
ARC
8
DEFAULT_255_2_778
10
10.213904
20
6.0774164
40
0.3581069
50
253.5281764
51
267.2243157
0
ARC
8
DEFAULT_255_2_778
10
10.2114564
20
6.0492777
40
0.3298845
50
267.4122648
51
269.9979321
0
ARC
8
DEFAULT_255_2_778
10
10.1809025
20
6.1839131
40
0.465523
50
273.7617575
51
315.0410765
0
ARC
8
DEFAULT_255_2_778
10
9.3222874
20
7.2297398
40
1.8169709
50
310.8324667
51
313.5669853
0
ARC
8
DEFAULT_255_2_778
10
13.6215567
20
2.7657709
40
4.3807183
50
132.2014555
51
134.0710692
0
ARC
8
DEFAULT_255_2_778
10
11.1968466
20
5.4281041
40
0.7797607
50
127.2731948
51
131.6282539
0
ARC
8
DEFAULT_255_2_778
10
10.9497209
20
5.438585
40
0.6502289
50
110.2551234
51
121.2015626
0
ARC
8
DEFAULT_255_2_778
10
12.5206177
20
2.7403185
40
3.772384
50
120.3787719
51
121.593938
0
ARC
8
DEFAULT_255_2_778
10
10.1062924
20
6.5990585
40
0.7800587
50
286.6335241
51
304.1583725
0
ARC
8
DEFAULT_255_2_778
10
10.259489
20
6.1405057
40
0.2972471
50
270.2955359
51
283.6394797
0
ARC
8
DEFAULT_255_2_778
10
10.2609508
20
6.0988163
40
0.255554
50
245.1316804
51
270.0160165
0
ARC
8
DEFAULT_255_2_778
10
10.2947176
20
6.1707772
40
0.3350428
50
231.0933676
51
245.0677637
0
ARC
8
DEFAULT_255_2_778
10
10.3492667
20
6.2433391
40
0.4257795
50
229.2457586
51
231.5137848
0
ARC
8
DEFAULT_255_2_778
10
7.3823188
20
6.916343
40
0.3801173
50
250.784055
51
262.9274336
0
ARC
8
DEFAULT_255_2_778
10
7.5559838
20
8.1418728
40
1.6178471
50
262.1678145
51
263.6639144
0
ARC
8
DEFAULT_255_2_778
10
7.37325
20
6.2628065
40
0.2711339
50
58.4806122
51
89.1150197
0
ARC
8
DEFAULT_255_2_778
10
7.4435466
20
6.4029303
40
0.1157037
50
30.5285412
51
51.8651961
0
ARC
8
DEFAULT_255_2_778
10
7.3650479
20
6.5774507
40
0.2124603
50
267.4094202
51
326.9895499
0
ARC
8
DEFAULT_255_2_778
10
7.2199566
20
7.773063
40
1.4143599
50
274.1507054
51
275.4970698
0
ARC
8
DEFAULT_255_2_778
10
6.8514664
20
12.7011053
40
6.3561572
50
274.1110588
51
274.2483411
0
ARC
8
DEFAULT_255_2_778
10
7.3456289
20
5.5892081
40
0.7730535
50
92.8538958
51
100.2167085
0
ARC
8
DEFAULT_255_2_778
10
4.039071
20
21.6995333
40
15.6733341
50
281.5493577
51
281.6667282
0
ARC
8
DEFAULT_255_2_778
10
5.3823625
20
15.0467663
40
8.8863393
50
279.9384887
51
281.6516853
0
ARC
8
DEFAULT_255_2_778
10
6.0827248
20
11.0060424
40
4.7853819
50
275.7591281
51
280.0287588
0
ARC
8
DEFAULT_255_2_778
10
6.2682207
20
9.1805342
40
2.9504745
50
270.2057098
51
275.7324056
0
ARC
8
DEFAULT_255_2_778
10
6.262198
20
8.0112511
40
1.7812497
50
258.7855231
51
270.534473
0
ARC
8
DEFAULT_255_2_778
10
6.1042142
20
7.2453091
40
0.9992257
50
237.5166163
51
259.1298604
0
ARC
8
DEFAULT_255_2_778
10
5.9895355
20
7.0438079
40
0.7677469
50
227.4957368
51
236.6598246
0
ARC
8
DEFAULT_255_2_778
10
6.0538707
20
7.041648
40
0.8110973
50
193.1619717
51
224.0401348
0
ARC
8
DEFAULT_255_2_778
10
6.6165197
20
7.2393647
40
1.4054629
50
195.6424938
51
195.7884537
0
ARC
8
DEFAULT_255_2_778
10
5.2022885
20
6.9070238
40
0.0766341
50
322.530247
51
359.9691167
0
ARC
8
DEFAULT_255_2_778
10
5.2035867
20
6.9069934
40
0.0753358
50
359.9916616
51
0.9967795
0
ARC
8
DEFAULT_255_2_778
10
6.5422939
20
10.0834588
40
3.4172715
50
248.3025649
51
260.5949811
0
ARC
8
DEFAULT_255_2_778
10
6.5620662
20
10.2259392
40
3.5610698
50
260.6557446
51
267.3063495
0
ARC
8
DEFAULT_255_2_778
10
6.4430448
20
7.7458445
40
1.0781245
50
267.4304925
51
270.0687217
0
ARC
8
DEFAULT_255_2_778
10
6.4046064
20
9.5724197
40
2.9049706
50
270.7836628
51
274.6971174
0
ARC
8
DEFAULT_255_2_778
10
6.9338296
20
2.8529176
40
3.835369
50
91.986984
51
94.3564619
0
ARC
8
DEFAULT_255_2_778
10
6.8501257
20
4.9756418
40
1.7110483
50
90.036154
51
91.6503347
0
ARC
8
DEFAULT_255_2_778
10
6.8608866
20
5.7038468
40
0.9829143
50
79.0311409
51
90.6902215
0
ARC
8
DEFAULT_255_2_778
10
6.9668426
20
6.3751521
40
0.3046367
50
50.3357389
51
74.5667763
0
ARC
8
DEFAULT_255_2_778
10
-22.5889827
20
-34.7975592
40
50.9866306
50
54.3000682
51
54.3034995
0
ARC
8
DEFAULT_255_2_778
10
7.4207713
20
6.9377156
40
0.418142
50
232.0748715
51
245.5060861
0
ARC
8
DEFAULT_255_2_778
10
4.8517436
20
7.7743863
40
0.1426024
50
82.2686503
51
85.7905476
0
ARC
8
DEFAULT_255_2_778
10
4.8692171
20
7.8676618
40
0.0480611
50
37.1767793
51
87.9603301
0
ARC
8
DEFAULT_255_2_778
10
6.1379104
20
9.1735839
40
1.7732188
50
226.0620408
51
244.5092308
0
ARC
8
DEFAULT_255_2_778
10
6.789033
20
10.5110984
40
3.2607758
50
244.2962934
51
255.6884723
0
ARC
8
DEFAULT_255_2_778
10
7.2115119
20
11.993738
40
4.8020289
50
255.1769814
51
257.4358102
0
ARC
8
DEFAULT_255_2_778
10
6.5309021
20
9.1017498
40
1.8315783
50
258.5372489
51
264.3600525
0
ARC
8
DEFAULT_255_2_778
10
8.1419312
20
23.1179643
40
15.9398675
50
263.5485246
51
263.6484068
0
ARC
8
DEFAULT_255_2_778
10
2.7828443
20
-24.9966906
40
32.4723193
50
83.603522
51
83.6425827
0
ARC
8
DEFAULT_255_2_778
10
6.2644219
20
5.6997307
40
1.5796238
50
75.91733
51
85.0575163
0
ARC
8
DEFAULT_255_2_778
10
6.5059363
20
6.7224127
40
0.5291131
50
67.4306152
51
74.3378004
0
ARC
8
DEFAULT_255_2_778
10
6.5421675
20
6.8723774
40
0.377498
50
44.2122842
51
63.7702279
0
ARC
8
DEFAULT_255_2_778
10
-17.6408993
20
-19.5272593
40
36.1785772
50
47.4671444
51
47.474755
0
ARC
8
DEFAULT_255_2_778
10
7.0792015
20
7.3833937
40
0.3635112
50
223.6748794
51
246.0798354
0
ARC
8
DEFAULT_255_2_778
10
7.1358315
20
7.0360983
40
0.2045716
50
175.7934901
51
179.9493969
0
ARC
8
DEFAULT_255_2_778
10
7.0832305
20
7.0341392
40
0.1519855
50
179.1932872
51
210.7474314
0
ARC
8
DEFAULT_255_2_778
10
7.263209
20
7.1453704
40
0.3635495
50
211.3117364
51
218.6790925
0
LINE
8
DEFAULT_255_2_778
10
6.9794011
20
6.9181673
11
6.979658
21
6.9178323
0
ARC
8
DEFAULT_255_2_778
10
6.8383256
20
6.7893858
40
0.19098
50
9.3696868
51
42.2653565
0
ARC
8
DEFAULT_255_2_778
10
6.8620085
20
6.800029
40
0.1660134
50
4.0326692
51
7.0754944
0
ARC
8
DEFAULT_255_2_778
10
6.5708926
20
12.4042524
40
5.6111665
50
273.2199424
51
274.6687299
0
ARC
8
DEFAULT_255_2_778
10
6.5842219
20
12.1631204
40
5.3696666
50
271.7001736
51
273.2224588
0
ARC
8
DEFAULT_255_2_778
10
6.5944332
20
11.810185
40
5.0165835
50
270.0117807
51
271.7031951
0
ARC
8
DEFAULT_255_2_778
10
6.592889
20
11.2757379
40
4.482137
50
267.2298645
51
270.0329248
0
ARC
8
DEFAULT_255_2_778
10
6.5677528
20
10.7280772
40
3.9339017
50
265.2646993
51
267.2100399
0
ARC
8
DEFAULT_255_2_778
10
6.4298173
20
9.469519
40
2.6684635
50
251.8171532
51
265.9854623
0
ARC
8
DEFAULT_255_2_778
10
6.027188
20
8.2381557
40
1.3729481
50
232.7177423
51
251.7452357
0
ARC
8
DEFAULT_255_2_778
10
5.7343786
20
7.8487968
40
0.8857882
50
197.251771
51
232.5318402
0
ARC
8
DEFAULT_255_2_778
10
5.8865656
20
7.8898797
40
1.0433291
50
182.4514322
51
196.927781
0
ARC
8
DEFAULT_255_2_778
10
6.0720645
20
7.9052979
40
1.2293405
50
181.915616
51
182.7995795
0
ARC
8
DEFAULT_255_2_778
10
5.0795982
20
7.8609575
40
0.2362095
50
169.4207544
51
179.2124877
0
ARC
8
DEFAULT_255_2_778
10
4.8578937
20
7.9056979
40
0.0105795
50
102.3434098
51
187.459241
0
ARC
8
DEFAULT_255_2_778
10
4.8556321
20
7.9079255
40
0.0081074
50
88.6055182
51
89.9999158
0
ARC
8
DEFAULT_255_2_778
10
4.8550968
20
7.8982506
40
0.017795
50
81.4820835
51
87.6407117
0
ARC
8
DEFAULT_255_2_778
10
4.8601738
20
7.9315851
40
0.0159241
50
261.1816598
51
268.6183694
0
ARC
8
DEFAULT_255_2_778
10
4.8599138
20
7.9204188
40
0.0047548
50
268.5057565
51
294.8377202
0
ARC
8
DEFAULT_255_2_778
10
1.2042816
20
12.7032318
40
2.3406492
50
352.644804
51
355.1099072
0
ARC
8
DEFAULT_255_2_778
10
-12.2141863
20
14.421083
40
15.8686301
50
352.2226401
51
352.695777
0
ARC
8
DEFAULT_255_2_778
10
18.8274359
20
10.2226328
40
15.4556576
50
172.3740699
51
172.4478322
0
ARC
8
DEFAULT_255_2_778
10
8.0507317
20
11.6271371
40
4.5879054
50
172.1474995
51
175.0976267
0
ARC
8
DEFAULT_255_2_778
10
6.0407661
20
11.8125258
40
2.5694826
50
175.3862253
51
176.6353367
0
ARC
8
DEFAULT_255_2_778
10
5.431889
20
11.8457479
40
1.959707
50
176.5601806
51
179.8985671
0
ARC
8
DEFAULT_255_2_778
10
4.6912425
20
11.8404595
40
1.2190889
50
179.5883952
51
188.4560136
0
ARC
8
DEFAULT_255_2_778
10
4.354538
20
11.7976429
40
0.8797776
50
188.9223945
51
190.1433405
0
ARC
8
DEFAULT_255_2_778
10
3.9496952
20
10.85848
40
0.9097792
50
120.458808
51
132.6060815
0
ARC
8
DEFAULT_255_2_778
10
3.8725266
20
10.9435783
40
0.7949054
50
132.664442
51
152.8386679
0
ARC
8
DEFAULT_255_2_778
10
4.0275057
20
10.8786732
40
0.9625109
50
153.6125438
51
177.4860849
0
ARC
8
DEFAULT_255_2_778
10
4.3616068
20
10.8445443
40
1.2979329
50
176.6278165
51
180.0287993
0
ARC
8
DEFAULT_255_2_778
10
4.6261002
20
10.8486744
40
1.5624335
50
180.1753815
51
187.7668654
0
ARC
8
DEFAULT_255_2_778
10
5.0358809
20
10.9018328
40
1.9756408
50
187.6883251
51
192.6522524
0
ARC
8
DEFAULT_255_2_778
10
5.9708355
20
11.144154
40
2.9411388
50
193.2688511
51
206.7852109
0
ARC
8
DEFAULT_255_2_778
10
6.5408836
20
11.4005816
40
3.56569
50
206.335653
51
210.2610464
0
ARC
8
DEFAULT_255_2_778
10
6.4314282
20
11.3373759
40
3.4392974
50
210.2704736
51
211.1603762
0
ARC
8
DEFAULT_255_2_778
10
6.2922539
20
11.2527464
40
3.2764125
50
211.1532816
51
212.7579938
0
ARC
8
DEFAULT_255_2_778
10
6.0703445
20
11.1100098
40
3.0125613
50
212.7586993
51
214.1410329
0
ARC
8
DEFAULT_255_2_778
10
5.8151624
20
10.9367813
40
2.7041362
50
214.1376912
51
215.5957685
0
ARC
8
DEFAULT_255_2_778
10
6.2154488
20
11.2886152
40
3.2348518
50
216.5363135
51
227.1505941
0
ARC
8
DEFAULT_255_2_778
10
12.3620962
20
17.4359366
40
11.9263447
50
225.5854805
51
225.8731752
0
ARC
8
DEFAULT_255_2_778
10
5.1989822
20
9.9443986
40
1.5633711
50
223.1495347
51
242.7856459
0
ARC
8
DEFAULT_255_2_778
10
4.8062161
20
9.2604148
40
0.7763409
50
245.4795158
51
257.4565912
0
ARC
8
DEFAULT_255_2_778
10
4.3086267
20
8.5571449
40
0.3334747
50
328.7020815
51
350.5867989
0
ARC
8
DEFAULT_255_2_778
10
3.049532
20
9.2399807
40
1.7654809
50
330.7369741
51
330.9944413
0
ARC
8
DEFAULT_255_2_778
10
8.7099553
20
6.0577494
40
4.7281327
50
150.6254295
51
150.8960443
0
ARC
8
DEFAULT_255_2_778
10
4.8280033
20
8.2053241
40
0.2919864
50
148.5905798
51
168.5666381
0
ARC
8
DEFAULT_255_2_778
10
5.1268847
20
8.163695
40
0.5934756
50
170.3475279
51
177.5617469
0
ARC
8
DEFAULT_255_2_778
10
5.1025853
20
8.165149
40
0.5691364
50
177.6039258
51
179.9971515
0
ARC
8
DEFAULT_255_2_778
10
5.1344898
20
8.168676
40
0.6010509
50
180.3335173
51
201.2070956
0
ARC
8
DEFAULT_255_2_778
10
5.636333
20
8.3688963
40
1.1413481
50
201.4643442
51
210.8690673
0
ARC
8
DEFAULT_255_2_778
10
1.2039297
20
5.7196841
40
4.0224222
50
28.751902
51
30.8656759
0
ARC
8
DEFAULT_255_2_778
10
4.2394394
20
7.3896162
40
0.5579045
50
19.7240869
51
28.3500326
0
ARC
8
DEFAULT_255_2_778
10
5.6097465
20
10.4479115
40
2.9918552
50
234.6632587
51
253.5918009
0
ARC
8
DEFAULT_255_2_778
10
6.5883726
20
11.7133206
40
4.5906335
50
214.8072926
51
233.8339606
0
ARC
8
DEFAULT_255_2_778
10
157.8942979
20
121.9141879
40
191.7731882
50
215.9881157
51
216.0368764
0
ARC
8
DEFAULT_255_2_778
10
8.9438334
20
13.7393819
40
7.6861725
50
214.6596463
51
215.9690804
0
ARC
8
DEFAULT_255_2_778
10
4.9778031
20
11.0501234
40
2.8948788
50
203.4379368
51
215.5195905
0
ARC
8
DEFAULT_255_2_778
10
3.7190013
20
10.4877737
40
1.516338
50
188.749972
51
202.8614806
0
ARC
8
DEFAULT_255_2_778
10
5.0619444
20
10.7606666
40
2.8859064
50
185.7968561
51
190.0489978
0
ARC
8
DEFAULT_255_2_778
10
4.8359907
20
10.7380582
40
2.6588248
50
180.9612902
51
185.8039441
0
ARC
8
DEFAULT_255_2_778
10
4.701525
20
10.7342921
40
2.5243153
50
180.0014469
51
180.927023
0
ARC
8
DEFAULT_255_2_778
10
4.4066907
20
10.7445777
40
2.229505
50
166.2683896
51
180.2659696
0
ARC
8
DEFAULT_255_2_778
10
3.9284126
20
10.8677335
40
1.7356736
50
144.1136326
51
166.4699158
0
ARC
8
DEFAULT_255_2_778
10
3.7551338
20
10.9800895
40
1.5294619
50
114.4294538
51
143.7186457
0
ARC
8
DEFAULT_255_2_778
10
3.8656834
20
10.738157
40
1.7954547
50
100.0970625
51
114.4484594
0
ARC
8
DEFAULT_255_2_778
10
4.110946
20
9.2549215
40
2.7702805
50
217.7161042
51
246.448385
0
ARC
8
DEFAULT_255_2_778
10
5.6860317
20
10.402936
40
4.7188774
50
216.0747749
51
217.0432008
0
ARC
8
DEFAULT_255_2_778
10
3.9335735
20
9.1558742
40
2.5682459
50
207.0844616
51
216.6097993
0
ARC
8
DEFAULT_255_2_778
10
3.0986178
20
8.7244942
40
1.6284505
50
190.8414424
51
206.9467114
0
ARC
8
DEFAULT_255_2_778
10
2.9474042
20
8.6873081
40
1.4729634
50
179.9719123
51
190.5271295
0
ARC
8
DEFAULT_255_2_778
10
3.0115928
20
8.687534
40
1.5371521
50
175.1129156
51
179.9815052
0
ARC
8
DEFAULT_255_2_778
10
3.0845857
20
8.6816022
40
1.6103849
50
172.2234313
51
175.1238802
0
ARC
8
DEFAULT_255_2_778
10
2.6870043
20
8.7371091
40
1.2089499
50
166.0851005
51
172.2802829
0
ARC
8
DEFAULT_255_2_778
10
2.7084446
20
8.7324821
40
1.2308738
50
163.6421205
51
166.1160411
0
ARC
8
DEFAULT_255_2_778
10
2.3660071
20
8.8665214
40
0.8651459
50
130.1758776
51
165.7731807
0
ARC
8
DEFAULT_255_2_778
10
2.0995844
20
9.1478229
40
0.4788433
50
89.7149837
51
127.532098
0
ARC
8
DEFAULT_255_2_778
10
2.1013135
20
9.07109
40
0.5555706
50
82.9550911
51
89.9326702
0
ARC
8
DEFAULT_255_2_778
10
2.0946078
20
9.0124442
40
0.6145961
50
79.5282583
51
83.0052154
0
ARC
8
DEFAULT_255_2_778
10
-1.1969357
20
8.2970552
40
3.6501815
50
16.9174814
51
21.1958488
0
LINE
8
DEFAULT_255_2_778
10
2.2952836
20
9.3592366
11
2.2956268
21
9.3581576
0
ARC
8
DEFAULT_255_2_778
10
4.5351582
20
9.9960261
40
2.3285998
50
195.8981346
51
205.8575218
0
ARC
8
DEFAULT_255_2_778
10
3.2281914
20
9.3952962
40
0.8909716
50
207.750296
51
212.5666386
0
ARC
8
DEFAULT_255_2_778
10
2.4818018
20
8.9366743
40
0.0214458
50
257.912788
51
269.4373219
0
ARC
8
DEFAULT_255_2_778
10
2.4802785
20
8.9283201
40
0.0131563
50
275.7260657
51
12.9834769
0
ARC
8
DEFAULT_255_2_778
10
2.4278917
20
8.9349938
40
0.0653124
50
356.7366581
51
356.9370838
0
ARC
8
DEFAULT_255_2_778
10
2.6187539
20
8.9311358
40
0.1256435
50
139.2810468
51
179.832119
0
ARC
8
DEFAULT_255_2_778
10
2.9695026
20
8.6614638
40
0.5679281
50
139.9031036
51
141.7455474
0
LINE
8
DEFAULT_255_2_778
10
2.5350625
20
9.0272561
11
2.5354693
21
9.0277445
0
ARC
8
DEFAULT_255_2_778
10
2.4190498
20
9.1395267
40
0.1613963
50
316.1641423
51
342.5409716
0
ARC
8
DEFAULT_255_2_778
10
6.4931352
20
11.7690562
40
4.7475048
50
214.3381332
51
236.2480097
0
ARC
8
DEFAULT_255_2_778
10
5.7489102
20
10.800955
40
3.5300133
50
237.5613763
51
249.55197
0
ARC
8
DEFAULT_255_2_778
10
5.8058099
20
10.9495774
40
3.6891494
50
249.5303506
51
253.2418944
0
ARC
8
DEFAULT_255_2_778
10
5.0832044
20
7.3727303
40
0.3439677
50
172.587874
51
179.9728537
0
ARC
8
DEFAULT_255_2_778
10
5.2518842
20
7.3826241
40
0.5127396
50
181.0874382
51
191.283176
0
LINE
8
DEFAULT_255_2_778
10
4.7490547
20
7.2823024
11
4.7491832
21
7.2815557
0
ARC
8
DEFAULT_255_2_778
10
4.2415086
20
7.1800892
40
0.5177151
50
1.0937224
51
11.3025011
0
ARC
8
DEFAULT_255_2_778
10
4.4158716
20
7.1899906
40
0.3432579
50
355.3735889
51
359.996782
0
ARC
8
DEFAULT_255_2_778
10
4.7448549
20
7.2304181
40
0.069373
50
271.6068779
51
280.9319191
0
ARC
8
DEFAULT_255_2_778
10
4.7424981
20
7.2766756
40
0.1156831
50
269.9629075
51
272.1312884
0
ARC
8
DEFAULT_255_2_778
10
4.7520966
20
7.4797261
40
0.3188804
50
258.1149085
51
268.2616362
0
ARC
8
DEFAULT_255_2_778
10
4.925824
20
8.3683909
40
1.2243429
50
254.2294057
51
258.7240786
0
ARC
8
DEFAULT_255_2_778
10
5.42972
20
10.1889546
40
3.1133441
50
252.0318397
51
254.4111619
0
ARC
8
DEFAULT_255_2_778
10
6.004703
20
11.9945604
40
5.0082727
50
251.4057776
51
252.1470261
0
ARC
8
DEFAULT_255_2_778
10
6.4928585
20
13.4410571
40
6.5349186
50
250.3368946
51
251.3931632
0
ARC
8
DEFAULT_255_2_778
10
6.6711286
20
13.9466714
40
7.0710354
50
249.8946655
51
250.3551985
0
ARC
8
DEFAULT_255_2_778
10
6.2693523
20
12.851371
40
5.9043708
50
249.4752684
51
249.9022983
0
ARC
8
DEFAULT_255_2_778
10
5.3256523
20
10.5532229
40
3.4221248
50
227.6684361
51
250.7819402
0
ARC
8
DEFAULT_255_2_778
10
4.5585495
20
9.6329304
40
2.2258297
50
218.3099667
51
226.3129092
0
ARC
8
DEFAULT_255_2_778
10
3.8763279
20
9.0364273
40
1.3215013
50
200.5115728
51
216.3525819
0
ARC
8
DEFAULT_255_2_778
10
-1.1724473
20
7.0132016
40
4.1180446
50
22.2632931
51
25.2073113
0
ARC
8
DEFAULT_255_2_778
10
1.1533008
20
8.0926414
40
1.5541054
50
25.7188998
51
29.2455095
0
ARC
8
DEFAULT_255_2_778
10
2.7989922
20
8.6462681
40
0.3552482
50
144.6302141
51
180.149902
0
ARC
8
DEFAULT_255_2_778
10
2.9660812
20
8.6299783
40
0.5225619
50
178.3155818
51
180.0073002
0
ARC
8
DEFAULT_255_2_778
10
3.1177402
20
8.6356869
40
0.6742456
50
180.4907711
51
192.752999
0
ARC
8
DEFAULT_255_2_778
10
3.2878573
20
8.6677992
40
0.8472778
50
192.3314945
51
193.0017501
0
ARC
8
DEFAULT_255_2_778
10
3.5678345
20
8.748081
40
1.1382411
50
193.768617
51
211.1029493
0
ARC
8
DEFAULT_255_2_778
10
3.5077786
20
8.7056061
40
1.0648906
50
210.8153537
51
215.034718
0
ARC
8
DEFAULT_255_2_778
10
3.3703941
20
8.6103943
40
0.8977414
50
215.0927219
51
216.9453609
0
ARC
8
DEFAULT_255_2_778
10
3.9964995
20
9.1017322
40
1.6935297
50
217.498832
51
229.8370221
0
ARC
8
DEFAULT_255_2_778
10
4.6282505
20
9.8445312
40
2.6686456
50
229.7572894
51
239.4063132
0
ARC
8
DEFAULT_255_2_778
10
5.3699405
20
11.1229673
40
4.1466195
50
239.5750299
51
252.2494647
0
ARC
8
DEFAULT_255_2_778
10
5.4941331
20
11.4371623
40
4.4837761
50
251.9620687
51
256.2646817
0
ARC
8
DEFAULT_255_2_778
10
5.3812264
20
10.9715255
40
4.0046469
50
256.2520701
51
259.9860423
0
ARC
8
DEFAULT_255_2_778
10
5.3068407
20
10.567248
40
3.5935948
50
260.0331315
51
260.9585502
0
ARC
8
DEFAULT_255_2_778
10
5.3981923
20
7.1887314
40
0.6778556
50
194.5616425
51
221.3634891
0
ARC
8
DEFAULT_255_2_778
10
5.5173675
20
7.3239726
40
0.8569743
50
222.8845548
51
246.2782734
0
ARC
8
DEFAULT_255_2_778
10
5.6423423
20
6.5720109
40
0.4708616
50
183.9708743
51
203.8255988
0
ARC
8
DEFAULT_255_2_778
10
6.1763123
20
6.813767
40
1.0569988
50
204.121248
51
210.2865837
0
ARC
8
DEFAULT_255_2_778
10
-11.5046408
20
-3.1756253
40
19.2508497
50
29.3642377
51
29.4205216
0
ARC
8
DEFAULT_255_2_778
10
4.6055748
20
5.8674912
40
0.7763137
50
20.5663545
51
30.7331519
0
ARC
8
DEFAULT_255_2_778
10
6.1287378
20
13.7901196
40
7.6912513
50
250.8880818
51
264.057134
0
ARC
8
DEFAULT_255_2_778
10
5.3251574
20
9.0654644
40
3.3267923
50
269.9970503
51
272.8558787
0
ARC
8
DEFAULT_255_2_778
10
5.3387274
20
9.4831359
40
3.7444889
50
260.6155253
51
269.7897401
0
ARC
8
DEFAULT_255_2_778
10
5.5853038
20
11.1045411
40
5.3844417
50
258.3848393
51
260.8401331
0
ARC
8
DEFAULT_255_2_778
10
6.6603322
20
16.1283598
40
10.5219076
50
255.4915132
51
258.158677
0
ARC
8
DEFAULT_255_2_778
10
11.9083746
20
37.0469476
40
32.0885691
50
255.71747
51
255.777043
0
ARC
8
DEFAULT_255_2_778
10
4.6359872
20
8.5291594
40
2.6581415
50
252.3665897
51
255.9797054
0
ARC
8
DEFAULT_255_2_778
10
4.5972661
20
8.404461
40
2.5275728
50
251.7907105
51
252.34681
0
ARC
8
DEFAULT_255_2_778
10
4.3338011
20
7.6896287
40
1.7664131
50
237.7201691
51
252.6630773
0
ARC
8
DEFAULT_255_2_778
10
3.7665156
20
6.7899365
40
0.7028075
50
217.7730652
51
237.6489624
0
ARC
8
DEFAULT_255_2_778
10
3.521523
20
6.590225
40
0.3869028
50
202.125385
51
216.6188086
0
ARC
8
DEFAULT_255_2_778
10
3.1540849
20
6.4747487
40
0.0315628
50
286.6170025
51
313.8249366
0
ARC
8
DEFAULT_255_2_778
10
5.4125116
20
3.7878098
40
3.4785109
50
130.003847
51
130.0134852
0
ARC
8
DEFAULT_255_2_778
10
3.195275
20
6.4338992
40
0.0264053
50
90.3557815
51
135.6622115
0
ARC
8
DEFAULT_255_2_778
10
6.0311266
20
14.3506204
40
8.3845142
50
250.2300458
51
254.0653064
0
ARC
8
DEFAULT_255_2_778
10
5.7433385
20
13.323217
40
7.3175806
50
254.0235344
51
259.948741
0
ARC
8
DEFAULT_255_2_778
10
5.5967768
20
12.5450504
40
6.5257834
50
260.0233665
51
262.3265704
0
ARC
8
DEFAULT_255_2_778
10
6.5621217
20
18.3772526
40
12.4359319
50
261.5066946
51
262.5974381
0
ARC
8
DEFAULT_255_2_778
10
-19.9798332
20
-182.8153477
40
190.4998908
50
82.4544661
51
82.4774036
0
ARC
8
DEFAULT_255_2_778
10
4.4257196
20
0.9451458
40
5.1262189
50
78.3032521
51
83.1684991
0
ARC
8
DEFAULT_255_2_778
10
5.1369709
20
4.364213
40
1.6339612
50
63.2187089
51
78.4199643
0
ARC
8
DEFAULT_255_2_778
10
5.696146
20
6.0232316
40
0.2673633
50
271.8245649
51
311.4727279
0
ARC
8
DEFAULT_255_2_778
10
5.5698396
20
7.0484252
40
1.2994341
50
271.789908
51
275.9552801
0
ARC
8
DEFAULT_255_2_778
10
5.2237988
20
15.4369619
40
9.695049
50
272.1676747
51
272.2855007
0
ARC
8
DEFAULT_255_2_778
10
5.6352486
20
4.1280632
40
1.6214047
50
91.5813244
51
95.1178797
0
ARC
8
DEFAULT_255_2_778
10
6.6656687
20
6.8741727
40
1.1493563
50
270.0130107
51
273.4538443
0
ARC
8
DEFAULT_255_2_778
10
6.6633039
20
6.7847114
40
1.0598983
50
246.2020152
51
270.1419415
0
ARC
8
DEFAULT_255_2_778
10
6.7732658
20
7.014436
40
1.3144851
50
229.6337197
51
245.8570005
0
ARC
8
DEFAULT_255_2_778
10
6.0608141
20
5.9802229
40
0.1426959
50
132.4928892
51
166.7602764
0
ARC
8
DEFAULT_255_2_778
10
6.0692956
20
5.9462615
40
0.1742676
50
85.7080947
51
126.9981125
0
ARC
8
DEFAULT_255_2_778
10
6.0795595
20
5.5617257
40
0.5583216
50
85.2666919
51
89.7149261
0
ARC
8
DEFAULT_255_2_778
10
5.9948279
20
4.5196661
40
1.6038199
50
83.8488542
51
85.3219159
0
ARC
8
DEFAULT_255_2_778
10
6.2707934
20
6.9745815
40
0.866606
50
263.0998484
51
268.0116214
0
ARC
8
DEFAULT_255_2_778
10
6.2452859
20
6.4217407
40
0.3132766
50
269.1658045
51
269.9917479
0
ARC
8
DEFAULT_255_2_778
10
6.2454966
20
6.366014
40
0.25755
50
269.9430865
51
272.4733319
0
ARC
8
DEFAULT_255_2_778
10
5.9299723
20
12.0196024
40
5.9199167
50
273.1629716
51
285.5402772
0
ARC
8
DEFAULT_255_2_778
10
9.901955
20
9.7868266
40
4.2117269
50
235.4934705
51
236.794543
0
ARC
8
DEFAULT_255_2_778
10
8.4744442
20
7.6232113
40
1.6196656
50
237.1315621
51
237.6607161
0
ARC
8
DEFAULT_255_2_778
10
8.0332466
20
6.8899812
40
0.7644002
50
236.201759
51
253.7004756
0
ARC
8
DEFAULT_255_2_778
10
7.8569416
20
6.317822
40
0.1659808
50
256.6834134
51
271.170546
0
ARC
8
DEFAULT_255_2_778
10
7.8577397
20
6.6582559
40
0.506387
50
270.2933547
51
273.0549449
0
ARC
8
DEFAULT_255_2_778
10
7.7611844
20
8.6767684
40
2.5272014
50
272.8020251
51
272.9834321
0
ARC
8
DEFAULT_255_2_778
10
7.9306031
20
5.5264164
40
0.6277202
50
90.5362032
51
93.4600919
0
ARC
8
DEFAULT_255_2_778
10
7.938046
20
6.07279
40
0.0824022
50
17.8143218
51
99.3005736
0
ARC
8
DEFAULT_255_2_778
10
7.8918149
20
6.0554316
40
0.1317487
50
16.3883274
51
18.8505064
0
ARC
8
DEFAULT_255_2_778
10
6.6936237
20
8.683635
40
2.9099782
50
292.0344776
51
297.0770348
0
ARC
8
DEFAULT_255_2_778
10
6.3285435
20
9.5773155
40
3.8753493
50
285.9627995
51
292.080856
0
ARC
8
DEFAULT_255_2_778
10
6.349244
20
9.481207
40
3.7772594
50
280.8537566
51
286.0618334
0
ARC
8
DEFAULT_255_2_778
10
6.4895394
20
8.737367
40
3.0203089
50
275.298598
51
280.8970361
0
ARC
8
DEFAULT_255_2_778
10
6.5413944
20
8.2456066
40
2.5258688
50
274.2256229
51
275.1574792
0
ARC
8
DEFAULT_255_2_778
10
10.5145341
20
8.2515231
40
3.5924009
50
309.0081335
51
309.6993133
0
ARC
8
DEFAULT_255_2_778
10
12.550418
20
5.7232999
40
0.3465065
50
292.1229974
51
310.5534219
0
ARC
8
DEFAULT_255_2_778
10
12.5043777
20
5.6443479
40
0.3724913
50
319.4736561
51
353.0234532
0
ARC
8
DEFAULT_255_2_778
10
12.8665957
20
5.5248985
40
0.0745851
50
84.2169297
51
89.8698493
0
ARC
8
DEFAULT_255_2_778
10
12.873253
20
5.5470576
40
0.0528258
50
97.0547156
51
191.9663299
0
ARC
8
DEFAULT_255_2_778
10
15.4391228
20
5.2190247
40
2.6366827
50
173.0930522
51
173.1263436
0
ARC
8
DEFAULT_255_2_778
10
12.6933672
20
5.5405981
40
0.1281592
50
335.5258405
51
357.2728555
0
ARC
8
DEFAULT_255_2_778
10
2.7294932
20
12.5371879
40
4.0916473
50
350.2908552
51
351.9089702
0
ARC
8
DEFAULT_255_2_778
10
-24.8465211
20
17.2400259
40
32.0658001
50
350.0979997
51
350.3178839
0
ARC
8
DEFAULT_255_2_778
10
10.8778459
20
10.9715444
40
4.204463
50
169.6644396
51
173.9050221
0
ARC
8
DEFAULT_255_2_778
10
8.4977122
20
11.2364532
40
1.809688
50
174.2436693
51
179.7693451
0
ARC
8
DEFAULT_255_2_778
10
7.7275516
20
11.2313723
40
1.0395863
50
179.3184344
51
193.391325
0
ARC
8
DEFAULT_255_2_778
10
7.4263937
20
11.1692088
40
0.7322782
50
194.1170574
51
194.2703547
0
ARC
8
DEFAULT_255_2_778
10
6.5886691
20
11.1610745
40
0.2147238
50
306.6060506
51
359.2686557
0
ARC
8
DEFAULT_255_2_778
10
6.1559892
20
11.2228845
40
0.6505966
50
354.3058738
51
0.3049373
0
ARC
8
DEFAULT_255_2_778
10
5.311616
20
11.2177917
40
1.4949851
50
0.3278887
51
3.570621
0
ARC
8
DEFAULT_255_2_778
10
0.4648804
20
10.9440312
40
6.3494262
50
3.3123631
51
3.627941
0
ARC
8
DEFAULT_255_2_778
10
8.7001801
20
11.4856659
40
1.9037423
50
180.7194313
51
184.2130994
0
ARC
8
DEFAULT_255_2_778
10
7.5801624
20
11.4617742
40
0.7835745
50
179.5590937
51
180.0008729
0
ARC
8
DEFAULT_255_2_778
10
8.3492621
20
11.7587358
40
1.5462114
50
172.8714963
51
176.1110633
0
ARC
8
DEFAULT_255_2_778
10
10.2274123
20
11.5313115
40
3.4380743
50
170.8611812
51
172.9948658
0
ARC
8
DEFAULT_255_2_778
10
11.7907185
20
11.2831173
40
5.0209575
50
168.0126457
51
170.8982858
0
ARC
8
DEFAULT_255_2_778
10
10.6569923
20
11.5333289
40
3.8599973
50
164.6044079
51
168.1504704
0
ARC
8
DEFAULT_255_2_778
10
8.8899236
20
12.0187757
40
2.0274615
50
160.9835189
51
164.57338
0
ARC
8
DEFAULT_255_2_778
10
9.0820392
20
11.8812882
40
2.2548984
50
147.3956797
51
159.2710443
0
ARC
8
DEFAULT_255_2_778
10
1.7454735
20
16.47288
40
6.4001849
50
328.1582716
51
330.7931551
0
ARC
8
DEFAULT_255_2_778
10
5.9975102
20
14.0773823
40
1.5199048
50
331.4001891
51
336.0834366
0
ARC
8
DEFAULT_255_2_778
10
8.9862003
20
12.0836463
40
2.1107798
50
139.2598306
51
157.9149176
0
ARC
8
DEFAULT_255_2_778
10
9.9696155
20
11.6430212
40
3.1879389
50
157.2221003
51
164.025931
0
ARC
8
DEFAULT_255_2_778
10
10.583155
20
11.4632518
40
3.8272625
50
163.9663419
51
169.387353
0
ARC
8
DEFAULT_255_2_778
10
10.7841127
20
11.4223495
40
4.032317
50
169.3419901
51
172.3045931
0
ARC
8
DEFAULT_255_2_778
10
8.3396466
20
10.3619288
40
0.7607008
50
82.5476288
51
86.2616344
0
ARC
8
DEFAULT_255_2_778
10
8.3396757
20
10.3623348
40
0.7602938
50
86.2618278
51
89.9998059
0
ARC
8
DEFAULT_255_2_778
10
8.3395108
20
10.3641133
40
0.7585153
50
89.9873503
51
120.0909442
0
ARC
8
DEFAULT_255_2_778
10
8.6609112
20
10.4476697
40
0.9057636
50
140.7783561
51
154.298209
0
ARC
8
DEFAULT_255_2_778
10
9.1860687
20
10.1902743
40
1.4905988
50
154.1377095
51
164.6876541
0
ARC
8
DEFAULT_255_2_778
10
9.766705
20
10.0291027
40
2.0931862
50
164.6297584
51
177.1209901
0
ARC
8
DEFAULT_255_2_778
10
9.8457681
20
10.0199972
40
2.1726128
50
176.9858892
51
178.7488631
0
ARC
8
DEFAULT_255_2_778
10
9.8120889
20
10.0207479
40
2.1389251
50
178.7492689
51
179.9987193
0
ARC
8
DEFAULT_255_2_778
10
9.5502114
20
10.0121711
40
1.8770674
50
179.736739
51
191.6839166
0
ARC
8
DEFAULT_255_2_778
10
8.9909701
20
9.8968991
40
1.3060698
50
191.7001376
51
203.3138087
0
ARC
8
DEFAULT_255_2_778
10
8.7578402
20
9.8042171
40
1.0553185
50
203.7020329
51
204.7436529
0
ARC
8
DEFAULT_255_2_778
10
7.1187424
20
9.4323323
40
0.684241
50
354.1426418
51
0.1694684
0
ARC
8
DEFAULT_255_2_778
10
6.4119085
20
9.4136897
40
1.3912255
50
0.8511518
51
8.6913661
0
ARC
8
DEFAULT_255_2_778
10
0.3540421
20
8.5602012
40
7.5088421
50
8.144042
51
9.07613
0
ARC
8
DEFAULT_255_2_778
10
9.9359267
20
10.1339456
40
2.2017374
50
181.3051451
51
190.1829538
0
ARC
8
DEFAULT_255_2_778
10
8.8482043
20
10.0841882
40
1.1134438
50
177.7601894
51
180.0201647
0
ARC
8
DEFAULT_255_2_778
10
9.0841716
20
10.0947904
40
1.3489621
50
160.2406417
51
178.601891
0
ARC
8
DEFAULT_255_2_778
10
8.39519
20
10.3712901
40
0.6076842
50
104.2518392
51
162.8150577
0
ARC
8
DEFAULT_255_2_778
10
8.3954714
20
10.2936906
40
0.6832242
50
89.7023791
51
102.6724437
0
ARC
8
DEFAULT_255_2_778
10
8.398463
20
10.1415462
40
0.8353596
50
85.9662274
51
89.9617741
0
ARC
8
DEFAULT_255_2_778
10
8.3936667
20
10.0665633
40
0.9104942
50
84.2674783
51
85.9970788
0
ARC
8
DEFAULT_255_2_778
10
8.4351627
20
10.5814597
40
0.3941583
50
51.5684608
51
82.7930822
0
ARC
8
DEFAULT_255_2_778
10
-1.0088085
20
-2.958378
40
16.9014779
50
54.8687209
51
55.0220041
0
ARC
8
DEFAULT_255_2_778
10
9.3127648
20
11.7064616
40
1.0315222
50
234.7330565
51
238.2922902
0
ARC
8
DEFAULT_255_2_778
10
8.6417855
20
10.8952244
40
0.1448945
50
332.7602296
51
350.1474948
0
ARC
8
DEFAULT_255_2_778
10
8.6674212
20
10.8898887
40
0.118727
50
350.5675645
51
359.9481055
0
ARC
8
DEFAULT_255_2_778
10
8.6252027
20
10.8770948
40
0.1614445
50
4.5069491
51
58.0007199
0
ARC
8
DEFAULT_255_2_778
10
8.3923455
20
10.5599872
40
0.5545439
50
54.9577867
51
76.368574
0
ARC
8
DEFAULT_255_2_778
10
8.3423301
20
10.4166036
40
0.7058315
50
75.1659126
51
82.3811499
0
ARC
8
DEFAULT_255_2_778
10
8.4884023
20
9.4154083
40
0.0735255
50
85.4687526
51
89.8631429
0
ARC
8
DEFAULT_255_2_778
10
8.484257
20
9.4756375
40
0.0139806
50
71.9972275
51
156.6365227
0
ARC
8
DEFAULT_255_2_778
10
8.4772274
20
9.4808618
40
0.0058134
50
176.8463425
51
180.0087674
0
ARC
8
DEFAULT_255_2_778
10
8.4821392
20
9.481757
40
0.0107625
50
184.7756941
51
225.9449187
0
ARC
8
DEFAULT_255_2_778
10
8.498996
20
9.4971401
40
0.0335691
50
223.5241765
51
242.722158
0
ARC
8
DEFAULT_255_2_778
10
8.3374003
20
8.9394122
40
0.5477658
50
46.5012398
51
74.5188137
0
ARC
8
DEFAULT_255_2_778
10
8.1508917
20
8.7423348
40
0.8191048
50
29.7454773
51
46.5267491
0
ARC
8
DEFAULT_255_2_778
10
7.8544743
20
8.563637
40
1.1651541
50
21.7812326
51
30.1430704
0
ARC
8
DEFAULT_255_2_778
10
7.7257822
20
8.5090964
40
1.3048998
50
17.3984982
51
21.9082957
0
ARC
8
DEFAULT_255_2_778
10
7.8603704
20
8.5504021
40
1.1641187
50
14.4907434
51
17.4392566
0
ARC
8
DEFAULT_255_2_778
10
8.2797446
20
8.6579588
40
0.7311726
50
12.3558229
51
14.5536038
0
ARC
8
DEFAULT_255_2_778
10
8.7867693
20
8.7694324
40
0.2120388
50
11.5545669
51
12.248474
0
ARC
8
DEFAULT_255_2_778
10
9.0365396
20
8.8306548
40
0.0460216
50
204.043759
51
212.2188674
0
ARC
8
DEFAULT_255_2_778
10
9.0082582
20
8.8113776
40
0.0118811
50
206.2742416
51
247.7867193
0
ARC
8
DEFAULT_255_2_778
10
9.0043014
20
8.8034796
40
0.0031473
50
260.2138036
51
269.9046489
0
ARC
8
DEFAULT_255_2_778
10
9.0018046
20
8.8079414
40
0.0080066
50
288.1305798
51
0.4477275
0
ARC
8
DEFAULT_255_2_778
10
8.9777011
20
8.8154887
40
0.0329708
50
346.8788132
51
2.7582977
0
ARC
8
DEFAULT_255_2_778
10
8.669448
20
8.8105521
40
0.3412481
50
1.0953251
51
5.891016
0
ARC
8
DEFAULT_255_2_778
10
8.0991878
20
8.7603181
40
0.9136927
50
5.3541775
51
6.1790041
0
ARC
8
DEFAULT_255_2_778
10
7.7840143
20
8.7263096
40
1.2306957
50
6.1737512
51
7.285456
0
ARC
8
DEFAULT_255_2_778
10
8.4636824
20
8.8131279
40
0.5455051
50
7.293151
51
7.5077715
0
ARC
8
DEFAULT_255_2_778
10
8.4742643
20
8.8040193
40
0.5363052
50
8.6203237
51
10.0003841
0
ARC
8
DEFAULT_255_2_778
10
7.8819082
20
8.7010553
40
1.1375424
50
9.9265523
51
11.8545211
0
ARC
8
DEFAULT_255_2_778
10
7.6103095
20
8.6448178
40
1.4149016
50
11.823919
51
14.5129231
0
ARC
8
DEFAULT_255_2_778
10
7.6529847
20
8.6573672
40
1.3704439
50
14.4521087
51
19.3226919
0
ARC
8
DEFAULT_255_2_778
10
7.8773419
20
8.7358221
40
1.1327648
50
19.3328883
51
23.6131108
0
ARC
8
DEFAULT_255_2_778
10
8.3699808
20
8.9788207
40
0.5845875
50
21.1305314
51
52.5125035
0
ARC
8
DEFAULT_255_2_778
10
8.5587099
20
9.2005792
40
0.2941391
50
55.3955244
51
90.111626
0
ARC
8
DEFAULT_255_2_778
10
8.5585588
20
9.1630364
40
0.3316816
50
90.072886
51
97.5431308
0
ARC
8
DEFAULT_255_2_778
10
8.5627607
20
9.128358
40
0.3666118
50
97.4826804
51
100.7766906
0
ARC
8
DEFAULT_255_2_778
10
10.1852964
20
5.5277436
40
0.1522598
50
0.3481191
51
9.1683393
0
ARC
8
DEFAULT_255_2_778
10
10.266568
20
5.5240907
40
0.0711329
50
287.3758337
51
3.689958
0
ARC
8
DEFAULT_255_2_778
10
9.9069454
20
6.3590235
40
0.9798682
50
291.1095062
51
292.8730513
0
ARC
8
DEFAULT_255_2_778
10
9.7553946
20
6.7647543
40
1.4129611
50
285.4881752
51
290.9171463
0
ARC
8
DEFAULT_255_2_778
10
10.4670955
20
5.5161001
40
0.158687
50
314.5964524
51
349.8751433
0
ARC
8
DEFAULT_255_2_778
10
10.5892845
20
5.8528303
40
0.3662105
50
270.0617391
51
275.3313332
0
ARC
8
DEFAULT_255_2_778
10
10.5910636
20
5.8271597
40
0.3405425
50
250.0451223
51
269.767072
0
ARC
8
DEFAULT_255_2_778
10
10.834435
20
6.5349141
40
1.0889373
50
248.5164445
51
250.7177117
0
ARC
8
DEFAULT_255_2_778
10
8.0900441
20
-0.5439439
40
6.5033065
50
68.8582987
51
68.8777065
0
ARC
8
DEFAULT_255_2_778
10
10.240025
20
5.0635918
40
0.4979874
50
67.1286789
51
78.7460761
0
ARC
8
DEFAULT_255_2_778
10
8.2043999
20
9.336556
40
0.0714715
50
53.8996084
51
77.286099
0
ARC
8
DEFAULT_255_2_778
10
8.2089664
20
9.3527931
40
0.0546346
50
78.2101372
51
89.958604
0
ARC
8
DEFAULT_255_2_778
10
8.2188234
20
9.315552
40
0.0923987
50
96.0992747
51
143.7410553
0
ARC
8
DEFAULT_255_2_778
10
8.5987291
20
8.9911946
40
0.5917221
50
140.1699616
51
150.6439406
0
ARC
8
DEFAULT_255_2_778
10
7.0938491
20
9.8480075
40
1.1399923
50
325.3735578
51
330.1893813
0
ARC
8
DEFAULT_255_2_778
10
7.8465365
20
9.3335183
40
0.2283213
50
317.1046444
51
324.285697
0
ARC
8
DEFAULT_255_2_778
10
7.9187031
20
9.267789
40
0.1307164
50
312.5578381
51
316.6804245
0
ARC
8
DEFAULT_255_2_778
10
9.2569178
20
9.8583605
40
1.4261097
50
208.4054546
51
208.7918833
0
ARC
8
DEFAULT_255_2_778
10
19.8335349
20
15.5831919
40
13.4526854
50
208.3952645
51
208.4233413
0
ARC
8
DEFAULT_255_2_778
10
7.8538533
20
9.1346968
40
0.1542124
50
19.3318953
51
74.3664542
0
ARC
8
DEFAULT_255_2_778
10
8.1321694
20
9.3519149
40
0.2465273
50
196.183547
51
223.0976076
0
LINE
8
DEFAULT_255_2_778
10
7.9521573
20
9.1834767
11
7.9524645
21
9.1830974
0
ARC
8
DEFAULT_255_2_778
10
7.7608135
20
9.0065636
40
0.2605653
50
19.0485159
51
42.6488315
0
ARC
8
DEFAULT_255_2_778
10
9.5161324
20
9.307482
40
1.5243847
50
188.1413958
51
198.6844587
0
ARC
8
DEFAULT_255_2_778
10
8.8025935
20
9.0655054
40
0.7709328
50
198.6371004
51
222.0146792
0
ARC
8
DEFAULT_255_2_778
10
8.9422547
20
9.1411089
40
0.9260521
50
219.7058452
51
223.5192292
0
ARC
8
DEFAULT_255_2_778
10
8.6471913
20
8.8395746
40
0.5046901
50
221.7620666
51
243.2681773
0
ARC
8
DEFAULT_255_2_778
10
8.491448
20
8.5416164
40
0.1685977
50
244.9919677
51
268.5897104
0
ARC
8
DEFAULT_255_2_778
10
8.4873952
20
8.4905819
40
0.1175121
50
269.9528801
51
276.4082994
0
ARC
8
DEFAULT_255_2_778
10
6.1749208
20
6.6607215
40
2.8884289
50
36.3762024
51
40.99427
0
LINE
8
DEFAULT_255_2_778
10
8.3550352
20
8.5554833
11
8.3523136
21
8.5586991
0
ARC
8
DEFAULT_255_2_778
10
9.4528811
20
9.5885707
40
1.5072772
50
205.1291676
51
223.0994096
0
ARC
8
DEFAULT_255_2_778
10
8.9029191
20
9.2903824
40
0.8834898
50
196.246782
51
202.7666984
0
ARC
8
DEFAULT_255_2_778
10
8.7327099
20
8.9237035
40
0.6884496
50
145.2628758
51
170.0040132
0
ARC
8
DEFAULT_255_2_778
10
8.4685341
20
9.0895376
40
0.3771316
50
126.2163926
51
143.0970858
0
ARC
8
DEFAULT_255_2_778
10
8.8369124
20
8.5104147
40
0.2846206
50
162.2037732
51
173.3279265
0
ARC
8
DEFAULT_255_2_778
10
8.7872245
20
8.5170688
40
0.2344976
50
173.5321957
51
179.9445335
0
ARC
8
DEFAULT_255_2_778
10
8.825752
20
8.5404255
40
0.2740031
50
184.8423168
51
247.5044682
0
ARC
8
DEFAULT_255_2_778
10
9.0619746
20
8.9007043
40
0.7018697
50
240.92661
51
243.4581718
0
ARC
8
DEFAULT_255_2_778
10
9.1675608
20
9.1158736
40
0.9415448
50
243.5610297
51
247.3724114
0
ARC
8
DEFAULT_255_2_778
10
5.8112926
20
4.9480998
40
4.4548395
50
47.7720251
51
48.1593706
0
ARC
8
DEFAULT_255_2_778
10
223.9950231
20
248.2757366
40
322.3669465
50
228.1159825
51
228.1179213
0
ARC
8
DEFAULT_255_2_778
10
9.1128322
20
8.728905
40
0.5665345
50
198.8418897
51
233.3710837
0
ARC
8
DEFAULT_255_2_778
10
8.9905509
20
8.6592107
40
0.4291144
50
188.2813006
51
195.30563
0
ARC
8
DEFAULT_255_2_778
10
8.4488529
20
7.8700036
40
0.0381775
50
278.0679595
51
351.9779814
0
ARC
8
DEFAULT_255_2_778
10
8.5238709
20
7.8599071
40
0.0375017
50
93.1642371
51
172.5919313
0
ARC
8
DEFAULT_255_2_778
10
8.5211782
20
7.8347545
40
0.0626001
50
78.077109
51
89.4300897
0
ARC
8
DEFAULT_255_2_778
10
8.6337962
20
6.4868854
40
1.4126402
50
91.2007639
51
94.0465317
0
ARC
8
DEFAULT_255_2_778
10
8.6343573
20
6.459715
40
1.4398163
50
89.9973746
51
91.2004284
0
ARC
8
DEFAULT_255_2_778
10
8.6318649
20
6.260873
40
1.6386604
50
86.0638117
51
89.9105445
0
ARC
8
DEFAULT_255_2_778
10
8.5132695
20
4.5996915
40
3.3040671
50
84.2559317
51
85.9895375
0
ARC
8
DEFAULT_255_2_778
10
9.1004259
20
10.2089075
40
2.3358614
50
263.6964313
51
267.518897
0
ARC
8
DEFAULT_255_2_778
10
9.0279668
20
8.829508
40
0.9547024
50
268.2797286
51
269.9760334
0
ARC
8
DEFAULT_255_2_778
10
9.0322976
20
8.5711104
40
0.6963207
50
269.6107828
51
283.1715462
0
ARC
8
DEFAULT_255_2_778
10
9.017522
20
8.6172653
40
0.7446384
50
283.4692996
51
292.2360955
0
ARC
8
DEFAULT_255_2_778
10
9.1890873
20
8.3313737
40
0.4181584
50
274.8353435
51
285.2833813
0
ARC
8
DEFAULT_255_2_778
10
9.1918221
20
8.3064133
40
0.3930569
50
270.0047264
51
274.7448039
0
ARC
8
DEFAULT_255_2_778
10
9.2097926
20
8.4236546
40
0.5106133
50
237.2403836
51
267.9867611
0
ARC
8
DEFAULT_255_2_778
10
9.7090728
20
9.3184433
40
1.534601
50
237.1656082
51
239.6423625
0
ARC
8
DEFAULT_255_2_778
10
7.4267296
20
5.854586
40
2.6136898
50
56.2981082
51
59.2794134
0
ARC
8
DEFAULT_255_2_778
10
8.531569
20
7.701632
40
0.4614749
50
60.0528195
51
67.3462789
0
ARC
8
DEFAULT_255_2_778
10
8.9604256
20
8.1906803
40
0.2589398
50
194.1216146
51
239.6635014
0
LINE
8
DEFAULT_255_2_778
10
8.829641
20
7.9671962
11
8.830934
21
7.9662044
0
ARC
8
DEFAULT_255_2_778
10
8.233176
20
7.1738542
40
0.9925389
50
50.1548061
51
52.968687
0
ARC
8
DEFAULT_255_2_778
10
8.7515808
20
8.5190395
40
0.5948617
50
277.3234859
51
281.3952284
0
ARC
8
DEFAULT_255_2_778
10
8.7519076
20
8.5164478
40
0.5922495
50
270.0012499
51
277.3240902
0
ARC
8
DEFAULT_255_2_778
10
8.7520008
20
8.5172322
40
0.5930338
50
217.1006836
51
269.9922385
0
ARC
8
DEFAULT_255_2_778
10
8.3394144
20
8.1066336
40
0.0802736
50
138.804732
51
164.7583384
0
ARC
8
DEFAULT_255_2_778
10
8.3227417
20
8.1124262
40
0.0626761
50
165.8606103
51
180.0350524
0
ARC
8
DEFAULT_255_2_778
10
8.3882658
20
8.1254666
40
0.1288656
50
185.825053
51
219.2550238
0
ARC
8
DEFAULT_255_2_778
10
8.1495921
20
7.9343153
40
0.1769293
50
20.1846865
51
38.2799781
0
ARC
8
DEFAULT_255_2_778
10
8.2776664
20
7.9855753
40
0.0392299
50
0.4336669
51
14.4495778
0
ARC
8
DEFAULT_255_2_778
10
8.2863209
20
7.9857994
40
0.0305743
50
324.175349
51
0.1365099
0
ARC
8
DEFAULT_255_2_778
10
9.5358017
20
10.9108604
40
3.1876103
50
244.8885411
51
247.4057054
0
ARC
8
DEFAULT_255_2_778
10
9.3758413
20
10.5674431
40
2.8087675
50
243.0929538
51
244.8702233
0
ARC
8
DEFAULT_255_2_778
10
8.7972343
20
9.5341629
40
1.6262224
50
221.3970783
51
244.7971488
0
ARC
8
DEFAULT_255_2_778
10
8.1155401
20
8.9213021
40
0.7096409
50
180.7614151
51
220.6746071
0
ARC
8
DEFAULT_255_2_778
10
8.1181819
20
8.9109057
40
0.7122207
50
171.0058447
51
179.9222796
0
ARC
8
DEFAULT_255_2_778
10
8.2162495
20
8.8955177
40
0.811488
50
164.0536529
51
171.0151976
0
ARC
8
DEFAULT_255_2_778
10
8.3094034
20
8.8699791
40
0.9080742
50
161.1344232
51
164.1190826
0
ARC
8
DEFAULT_255_2_778
10
8.1715125
20
8.737896
40
0.8376439
50
149.4546179
51
156.8193424
0
ARC
8
DEFAULT_255_2_778
10
8.0461142
20
8.7913362
40
0.7013334
50
156.800157
51
166.225353
0
ARC
8
DEFAULT_255_2_778
10
7.9599231
20
8.8124937
40
0.6125836
50
166.2278408
51
179.0594823
0
ARC
8
DEFAULT_255_2_778
10
7.9421106
20
8.8136753
40
0.5947548
50
179.1451244
51
179.9980682
0
ARC
8
DEFAULT_255_2_778
10
8.0562682
20
8.8344245
40
0.7092155
50
181.674898
51
221.2894583
0
ARC
8
DEFAULT_255_2_778
10
8.6227797
20
9.2967717
40
1.4402123
50
220.2383671
51
239.1332676
0
ARC
8
DEFAULT_255_2_778
10
8.9296004
20
9.7597714
40
1.9952134
50
238.3916472
51
245.8897723
0
ARC
8
DEFAULT_255_2_778
10
8.9308517
20
9.7567573
40
1.9929747
50
245.8215386
51
250.9366341
0
ARC
8
DEFAULT_255_2_778
10
8.8519388
20
9.5269159
40
1.7499642
50
250.9207819
51
255.2794237
0
ARC
8
DEFAULT_255_2_778
10
8.7933288
20
9.3099579
40
1.5252353
50
255.337876
51
256.9184645
0
ARC
8
DEFAULT_255_2_778
10
2.713204
20
6.3135321
40
0.1479199
50
183.8643028
51
196.9515967
0
ARC
8
DEFAULT_255_2_778
10
2.9525624
20
6.3301826
40
0.3878565
50
179.3931652
51
183.935425
0
ARC
8
DEFAULT_255_2_778
10
6.1924857
20
6.3338693
40
3.6277582
50
179.9394694
51
179.9933485
0
ARC
8
DEFAULT_255_2_778
10
-1.0523389
20
6.3415298
40
3.6170704
50
359.9393633
51
359.9931792
0
ARC
8
DEFAULT_255_2_778
10
2.4741657
20
6.3599264
40
0.0925018
50
348.2564051
51
64.318964
0
ARC
8
DEFAULT_255_2_778
10
2.455473
20
6.3166017
40
0.139661
50
65.1103572
51
67.9026
0
ARC
8
DEFAULT_255_2_778
10
3.184631
20
6.2992967
40
0.6923421
50
167.7662796
51
178.5439571
0
ARC
8
DEFAULT_255_2_778
10
3.1841146
20
6.299309
40
0.6918256
50
178.5438902
51
180.0004792
0
ARC
8
DEFAULT_255_2_778
10
3.1839184
20
6.2992608
40
0.6916294
50
179.9964866
51
201.4086587
0
ARC
8
DEFAULT_255_2_778
10
4.6200178
20
6.934982
40
2.2617003
50
203.1228337
51
222.6271017
0
ARC
8
DEFAULT_255_2_778
10
4.4150199
20
7.8970369
40
2.5832395
50
245.4120251
51
254.8732737
0
ARC
8
DEFAULT_255_2_778
10
3.8443361
20
6.6595314
40
1.2204977
50
231.4792582
51
245.6008637
0
ARC
8
DEFAULT_255_2_778
10
3.5321209
20
6.2518348
40
0.7071417
50
222.3017077
51
230.6980938
0
ARC
8
DEFAULT_255_2_778
10
0.1786376
20
2.3151136
40
4.4708668
50
50.7213292
51
50.9441476
0
ARC
8
DEFAULT_255_2_778
10
-74.2634248
20
-89.9774925
40
123.0438041
50
51.1047314
51
51.1503374
0
ARC
8
DEFAULT_255_2_778
10
3.4998032
20
6.6736265
40
1.008945
50
206.2506127
51
234.8809682
0
ARC
8
DEFAULT_255_2_778
10
3.1838506
20
6.4765171
40
0.6394694
50
198.8316122
51
202.9303753
0
ARC
8
DEFAULT_255_2_778
10
9.9010547
20
14.4520563
40
1.4276435
50
243.0255488
51
245.044473
0
ARC
8
DEFAULT_255_2_778
10
8.420419
20
11.5068925
40
1.8687904
50
63.5268479
51
64.1064386
0
ARC
8
DEFAULT_255_2_778
10
8.9636567
20
12.6398551
40
0.6123672
50
63.5389448
51
70.3012677
0
ARC
8
DEFAULT_255_2_778
10
9.0944472
20
13.0133859
40
0.2166279
50
69.5682561
51
88.2214385
0
ARC
8
DEFAULT_255_2_778
10
9.0993756
20
13.1304142
40
0.0995115
50
88.9664151
51
113.7416143
0
ARC
8
DEFAULT_255_2_778
10
9.208544
20
13.5078044
40
0.3228598
50
242.4694009
51
255.3944491
0
ARC
8
DEFAULT_255_2_778
10
9.1087375
20
13.0485175
40
0.1479959
50
31.4359314
51
82.8346152
0
ARC
8
DEFAULT_255_2_778
10
7.4541336
20
16.0942303
40
3.4617442
50
299.4007286
51
300.9603737
0
ARC
8
DEFAULT_255_2_778
10
7.0831743
20
16.7398335
40
4.2063127
50
299.455456
51
299.4858128
0
ARC
8
DEFAULT_255_2_778
10
7.1102155
20
16.6905891
40
4.1501365
50
299.4341538
51
299.4647048
0
ARC
8
DEFAULT_255_2_778
10
-17.4634521
20
60.2645267
40
54.1756615
50
299.4196561
51
299.4219799
0
ARC
8
DEFAULT_255_2_778
10
-17.2739643
20
59.9658811
40
53.8224539
50
299.3977918
51
299.4001145
0
ARC
8
DEFAULT_255_2_778
10
7.1893988
20
16.5469801
40
3.9861508
50
299.3632184
51
299.3943574
0
ARC
8
DEFAULT_255_2_778
10
6.2512875
20
18.2141685
40
5.8991509
50
299.3432445
51
299.3641366
0
ARC
8
DEFAULT_255_2_778
10
6.2900458
20
18.1447623
40
5.8196564
50
299.324444
51
299.3454713
0
ARC
8
DEFAULT_255_2_778
10
6.3286722
20
18.0774993
40
5.7420949
50
299.295955
51
299.3171151
0
ARC
8
DEFAULT_255_2_778
10
6.3666481
20
18.0094343
40
5.6641529
50
299.276545
51
299.2978438
0
ARC
8
DEFAULT_255_2_778
10
6.4042376
20
17.9420375
40
5.5869826
50
299.2568551
51
299.2782945
0
ARC
8
DEFAULT_255_2_778
10
6.4407368
20
17.8757317
40
5.511297
50
299.2411193
51
299.2626982
0
ARC
8
DEFAULT_255_2_778
10
6.4775661
20
17.8096548
40
5.4356495
50
299.2208875
51
299.2426106
0
ARC
8
DEFAULT_255_2_778
10
6.5133203
20
17.7446523
40
5.3614645
50
299.2046687
51
299.2265351
0
ARC
8
DEFAULT_255_2_778
10
20.750745
20
-8.1356191
40
24.1766736
50
118.7302496
51
119.3672903
0
ARC
8
DEFAULT_255_2_778
10
9.6794766
20
11.4291422
40
1.697538
50
117.549056
51
138.606306
0
ARC
8
DEFAULT_255_2_778
10
11.1903023
20
10.2879483
40
3.5883722
50
140.8885555
51
141.597568
0
ARC
8
DEFAULT_255_2_778
10
10.9825148
20
10.4429521
40
3.3292592
50
141.4667352
51
150.2653342
0
ARC
8
DEFAULT_255_2_778
10
9.8770264
20
11.0439079
40
2.0714334
50
149.5329945
51
168.1096007
0
ARC
8
DEFAULT_255_2_778
10
9.1673464
20
11.2208454
40
1.3407945
50
169.2599762
51
174.8755625
0
ARC
8
DEFAULT_255_2_778
10
5.673768
20
11.5532305
40
2.168592
50
353.5396159
51
354.3732116
0
ARC
8
DEFAULT_255_2_778
10
10.4419175
20
11.0249459
40
2.6287453
50
173.7916658
51
173.9017565
0
ARC
8
DEFAULT_255_2_778
10
8.6354458
20
11.2111593
40
0.812742
50
173.4260215
51
178.1393955
0
ARC
8
DEFAULT_255_2_778
10
8.2754505
20
11.2267767
40
0.4524465
50
178.6359083
51
179.9828521
0
ARC
8
DEFAULT_255_2_778
10
7.9890089
20
11.2136627
40
0.1665327
50
175.4367253
51
211.7844139
0
ARC
8
DEFAULT_255_2_778
10
7.8990603
20
11.1669105
40
0.0658917
50
218.4401326
51
267.0863888
0
ARC
8
DEFAULT_255_2_778
10
10.8607578
20
10.9073216
40
2.9713724
50
170.1551876
51
176.2607192
0
ARC
8
DEFAULT_255_2_778
10
9.9502588
20
11.0674508
40
2.0469033
50
158.9662573
51
170.2138001
0
ARC
8
DEFAULT_255_2_778
10
10.0249313
20
11.0269148
40
2.131178
50
150.6344976
51
158.6696173
0
ARC
8
DEFAULT_255_2_778
10
10.5836852
20
10.7225604
40
2.7674001
50
148.8615669
51
150.8157307
0
ARC
8
DEFAULT_255_2_778
10
9.9665378
20
11.1991892
40
1.9946814
50
113.854657
51
151.4138366
0
ARC
8
DEFAULT_255_2_778
10
9.9502805
20
11.1501678
40
2.0332363
50
99.2138188
51
112.8769555
0
ARC
8
DEFAULT_255_2_778
10
10.0365599
20
10.6316494
40
2.5588804
50
89.800813
51
99.2617679
0
ARC
8
DEFAULT_255_2_778
10
10.0453698
20
10.2390429
40
2.9514715
50
89.3158601
51
89.9983314
0
ARC
8
DEFAULT_255_2_778
10
10.0673565
20
12.8625591
40
0.3280128
50
81.2954346
51
87.6841248
0
ARC
8
DEFAULT_255_2_778
10
9.7098217
20
10.2986914
40
2.9166638
50
81.4669722
51
81.9751056
0
ARC
8
DEFAULT_255_2_778
10
10.3662612
20
14.6842081
40
1.5177105
50
261.5254036
51
262.3519237
0
ARC
8
DEFAULT_255_2_778
10
10.2227151
20
13.5799294
40
0.4041783
50
261.6860369
51
269.0202523
0
ARC
8
DEFAULT_255_2_778
10
10.2218052
20
13.2605048
40
0.084907
50
265.9470212
51
298.1127196
0
ARC
8
DEFAULT_255_2_778
10
10.2446598
20
13.211432
40
0.0309967
50
303.6021529
51
3.3944681
0
ARC
8
DEFAULT_255_2_778
10
10.1970867
20
13.2111806
40
0.0785432
50
1.52242
51
19.7360107
0
ARC
8
DEFAULT_255_2_778
10
10.0930293
20
13.1762837
40
0.1882861
50
19.0385987
51
28.2446222
0
ARC
8
DEFAULT_255_2_778
10
10.001229
20
13.130144
40
0.2910046
50
27.6938633
51
28.7702274
0
ARC
8
DEFAULT_255_2_778
10
8.9543699
20
12.6608554
40
1.3766956
50
41.4901341
51
61.4748385
0
ARC
8
DEFAULT_255_2_778
10
8.8536181
20
12.4745815
40
1.5884708
50
61.490452
51
76.7609096
0
ARC
8
DEFAULT_255_2_778
10
8.7787157
20
12.1730905
40
1.8991068
50
76.6442808
51
85.8027789
0
ARC
8
DEFAULT_255_2_778
10
8.7198666
20
11.7479991
40
2.3275287
50
85.1238636
51
88.9497388
0
ARC
8
DEFAULT_255_2_778
10
8.7483842
20
12.7589461
40
1.3162666
50
89.3842797
51
89.9966647
0
ARC
8
DEFAULT_255_2_778
10
8.7230487
20
13.4588146
40
0.6169217
50
87.6392199
51
112.0531771
0
ARC
8
DEFAULT_255_2_778
10
8.6138398
20
13.7642086
40
0.2931758
50
114.6819847
51
130.4810862
0
ARC
8
DEFAULT_255_2_778
10
8.6828749
20
11.4553781
40
2.545076
50
92.6622577
51
95.8490591
0
ARC
8
DEFAULT_255_2_778
10
8.6715047
20
11.6909831
40
2.3091973
50
90.0190243
51
92.6519731
0
ARC
8
DEFAULT_255_2_778
10
8.6807987
20
12.1259084
40
1.8742989
50
78.8988135
51
90.3075499
0
ARC
8
DEFAULT_255_2_778
10
8.7901704
20
12.6640623
40
1.3251612
50
62.3046318
51
79.0591306
0
ARC
8
DEFAULT_255_2_778
10
8.9567177
20
12.9727034
40
0.9744828
50
19.744161
51
62.5409251
0
ARC
8
DEFAULT_255_2_778
10
11.0212891
20
9.4933168
40
1.9811807
50
212.4012713
51
220.1524789
0
ARC
8
DEFAULT_255_2_778
10
260.0207121
20
175.3821251
40
301.1793083
50
213.6624941
51
213.664051
0
ARC
8
DEFAULT_255_2_778
10
6.0771522
20
6.2889383
40
3.9106355
50
33.344809
51
35.331875
0
ARC
8
DEFAULT_255_2_778
10
9.3746472
20
8.4541194
40
0.1441115
50
138.0240116
51
156.8450917
0
ARC
8
DEFAULT_255_2_778
10
9.3203992
20
8.4780794
40
0.084815
50
157.3170032
51
179.5333323
0
ARC
8
DEFAULT_255_2_778
10
9.3653522
20
8.4955611
40
0.130847
50
187.3728228
51
238.6263434
0
ARC
8
DEFAULT_255_2_778
10
9.8628259
20
9.123995
40
0.9315145
50
232.6142851
51
235.2084723
0
ARC
8
DEFAULT_255_2_778
10
9.1973689
20
8.1744492
40
0.2280372
50
33.6326291
51
54.0294399
0
ARC
8
DEFAULT_255_2_778
10
8.7179864
20
7.8569523
40
0.8030255
50
29.3274197
51
33.5495969
0
ARC
8
DEFAULT_255_2_778
10
9.752069
20
8.4459209
40
0.3870637
50
210.3621924
51
212.8797415
0
ARC
8
DEFAULT_255_2_778
10
9.4911805
20
8.2700637
40
0.0727502
50
208.104367
51
243.3680194
0
ARC
8
DEFAULT_255_2_778
10
9.4711806
20
8.2381177
40
0.0354076
50
249.1350801
51
270.2444533
0
ARC
8
DEFAULT_255_2_778
10
9.4695667
20
8.2591197
40
0.0564369
50
271.7920774
51
296.8761566
0
ARC
8
DEFAULT_255_2_778
10
9.4457413
20
8.3131607
40
0.1154551
50
295.2988216
51
302.051358
0
ARC
8
DEFAULT_255_2_778
10
9.3742593
20
8.2544056
40
0.1860333
50
292.2389651
51
332.3259067
0
ARC
8
DEFAULT_255_2_778
10
9.3669587
20
8.2795651
40
0.2121023
50
269.4677258
51
291.4921374
0
ARC
8
DEFAULT_255_2_778
10
9.3654205
20
8.3321282
40
0.2646566
50
261.7320439
51
269.9064264
0
ARC
8
DEFAULT_255_2_778
10
9.3780354
20
8.3964186
40
0.3301087
50
223.7836856
51
261.1699174
0
ARC
8
DEFAULT_255_2_778
10
9.3190774
20
8.1840469
40
0.1800824
50
185.1110708
51
233.804674
0
ARC
8
DEFAULT_255_2_778
10
9.3438482
20
8.2261684
40
0.2287552
50
235.0280957
51
270.9149813
0
ARC
8
DEFAULT_255_2_778
10
9.347502
20
8.2604844
40
0.2630421
50
269.9997926
51
272.2622116
0
ARC
8
DEFAULT_255_2_778
10
9.353996
20
8.2321613
40
0.2345461
50
270.9500762
51
322.0755117
0
ARC
8
DEFAULT_255_2_778
10
9.4254093
20
7.9014754
40
0.2183994
50
41.3178916
51
58.65729
0
LINE
8
DEFAULT_255_2_778
10
9.5894398
20
8.0456705
11
9.5899384
21
8.0451562
0
ARC
8
DEFAULT_255_2_778
10
9.7178698
20
8.1488992
40
0.164709
50
219.0395254
51
251.9411337
0
ARC
8
DEFAULT_255_2_778
10
9.5256612
20
7.9695198
40
0.1429769
50
9.1695129
51
57.1138325
0
ARC
8
DEFAULT_255_2_778
10
11.4023418
20
10.4146297
40
2.9397975
50
231.5726279
51
232.268399
0
ARC
8
DEFAULT_255_2_778
10
9.6146882
20
8.1767444
40
0.0761802
50
186.5882458
51
238.7716707
0
LINE
8
DEFAULT_255_2_778
10
11.067811
20
6.940304
11
11.068511
21
6.939704
0
LINE
8
DEFAULT_255_2_778
10
10.174811
20
7.242404
11
10.175611
21
7.242404
0
LINE
8
DEFAULT_255_2_778
10
7.608611
20
11.532404
11
7.697011
21
11.954104
0
LINE
8
DEFAULT_255_2_778
10
7.697011
20
11.954104
11
7.697211
21
11.952804
0
LINE
8
DEFAULT_255_2_778
10
9.967911
20
7.761304
11
9.967911
21
7.761304
0
LINE
8
DEFAULT_255_2_778
10
10.253911
20
7.228904
11
10.253911
21
7.228904
0
LINE
8
DEFAULT_255_2_778
10
6.708211
20
10.433304
11
6.714611
21
10.433804
0
LINE
8
DEFAULT_255_2_778
10
9.759611
20
7.930904
11
9.759611
21
7.930904
0
LINE
8
DEFAULT_255_2_778
10
6.636811
20
13.126204
11
6.636211
21
13.125704
0
LINE
8
DEFAULT_255_2_778
10
11.195511
20
5.887004
11
11.195511
21
5.887004
0
LINE
8
DEFAULT_255_2_778
10
6.834911
20
8.215004
11
6.827011
21
8.215604
0
LINE
8
DEFAULT_255_2_778
10
9.521811
20
7.673704
11
9.521511
21
7.673404
0
LINE
8
DEFAULT_255_2_778
10
10.653911
20
6.940304
11
10.653911
21
6.940304
0
LINE
8
DEFAULT_255_2_778
10
12.694411
20
7.833004
11
12.694411
21
7.833004
0
LINE
8
DEFAULT_255_2_778
10
14.639911
20
5.840404
11
14.639911
21
5.840404
0
LINE
8
DEFAULT_255_2_778
10
15.045011
20
7.722404
11
15.039211
21
7.721904
0
LINE
8
DEFAULT_255_2_778
10
11.419611
20
6.733404
11
11.419611
21
6.733404
0
LINE
8
DEFAULT_255_2_778
10
10.528311
20
13.037104
11
10.550211
21
13.022504
0
LINE
8
DEFAULT_255_2_778
10
14.169711
20
8.477004
11
14.171111
21
8.477004
0
LINE
8
DEFAULT_255_2_778
10
14.018111
20
8.046504
11
14.034011
21
8.046504
0
LINE
8
DEFAULT_255_2_778
10
14.942811
20
7.871604
11
15.054511
21
7.871604
0
LINE
8
DEFAULT_255_2_778
10
15.150311
20
7.870804
11
15.166111
21
7.871604
0
LINE
8
DEFAULT_255_2_778
10
15.166111
20
7.871604
11
15.168811
21
7.871604
0
LINE
8
DEFAULT_255_2_778
10
15.071711
20
7.919504
11
15.070411
21
7.918704
0
LINE
8
DEFAULT_255_2_778
10
15.070411
20
7.918704
11
15.054211
21
7.928204
0
LINE
8
DEFAULT_255_2_778
10
14.416811
20
7.736704
11
14.416811
21
7.736704
0
LINE
8
DEFAULT_255_2_778
10
11.770211
20
7.354904
11
11.834011
21
7.498504
0
LINE
8
DEFAULT_255_2_778
10
11.770011
20
7.323404
11
11.770011
21
7.355404
0
LINE
8
DEFAULT_255_2_778
10
11.770011
20
7.355404
11
11.770211
21
7.354904
0
LINE
8
DEFAULT_255_2_778
10
15.819411
20
6.748704
11
15.819411
21
6.764604
0
LINE
8
DEFAULT_255_2_778
10
15.245811
20
7.035304
11
15.778111
21
6.955404
0
LINE
8
DEFAULT_255_2_778
10
16.065511
20
7.609704
11
16.058811
21
7.609704
0
LINE
8
DEFAULT_255_2_778
10
12.845011
20
6.191504
11
12.838911
21
6.190704
0
LINE
8
DEFAULT_255_2_778
10
13.731611
20
5.967904
11
13.731611
21
5.967904
0
LINE
8
DEFAULT_255_2_778
10
13.667811
20
6.111604
11
13.667811
21
6.111604
0
LINE
8
DEFAULT_255_2_778
10
13.365111
20
6.414304
11
13.365111
21
6.414304
0
LINE
8
DEFAULT_255_2_778
10
5.137111
20
10.047804
11
5.137111
21
10.048604
0
LINE
8
DEFAULT_255_2_778
10
14.448111
20
5.424704
11
14.448111
21
5.424704
0
LINE
8
DEFAULT_255_2_778
10
14.264211
20
5.903104
11
14.272411
21
5.903904
0
LINE
8
DEFAULT_255_2_778
10
13.512811
20
5.403804
11
13.522811
21
5.393804
0
LINE
8
DEFAULT_255_2_778
10
13.522811
20
5.887804
11
13.523411
21
5.888004
0
LINE
8
DEFAULT_255_2_778
10
14.490711
20
5.404404
11
14.543911
21
5.404404
0
LINE
8
DEFAULT_255_2_778
10
14.543911
20
5.404404
11
14.463911
21
5.489604
0
LINE
8
DEFAULT_255_2_778
10
14.490711
20
5.404404
11
14.490711
21
5.404404
0
LINE
8
DEFAULT_255_2_778
10
11.033611
20
5.409404
11
11.997011
21
5.409404
0
LINE
8
DEFAULT_255_2_778
10
11.816811
20
5.494604
11
11.816011
21
5.488204
0
LINE
8
DEFAULT_255_2_778
10
5.232411
20
8.709304
11
5.423911
21
8.501604
0
LINE
8
DEFAULT_255_2_778
10
4.594211
20
8.661904
11
4.371411
21
8.821704
0
LINE
8
DEFAULT_255_2_778
10
8.070311
20
13.967604
11
8.076911
21
13.971104
0
LINE
8
DEFAULT_255_2_778
10
5.931711
20
13.906804
11
5.918411
21
13.894904
0
LINE
8
DEFAULT_255_2_778
10
6.287011
20
5.405204
11
6.741311
21
5.405204
0
LINE
8
DEFAULT_255_2_778
10
6.569611
20
5.602804
11
8.036711
21
5.922204
0
LINE
8
DEFAULT_255_2_778
10
8.355211
20
5.666604
11
7.640111
21
5.405704
0
LINE
8
DEFAULT_255_2_778
10
7.640111
20
5.405704
11
7.943511
21
5.405704
0
LINE
8
DEFAULT_255_2_778
10
9.121211
20
5.443304
11
9.051411
21
5.406004
0
LINE
8
DEFAULT_255_2_778
10
9.051411
20
5.406004
11
9.517011
21
5.406004
0
LINE
8
DEFAULT_255_2_778
10
10.071311
20
5.920804
11
10.078211
21
5.918704
0
LINE
8
DEFAULT_255_2_778
10
7.247411
20
6.557204
11
7.257211
21
6.557404
0
LINE
8
DEFAULT_255_2_778
10
4.861911
20
7.916104
11
4.862211
21
7.916604
0
LINE
8
DEFAULT_255_2_778
10
3.550911
20
12.505804
11
3.536411
21
12.503704
0
LINE
8
DEFAULT_255_2_778
10
3.610511
20
6.522804
11
3.011711
21
6.713804
0
LINE
8
DEFAULT_255_2_778
10
3.011711
20
6.713804
11
3.004011
21
6.715404
0
LINE
8
DEFAULT_255_2_778
10
5.490611
20
5.743004
11
5.490911
21
5.742804
0
LINE
8
DEFAULT_255_2_778
10
6.727511
20
5.726604
11
6.734911
21
5.726904
0
LINE
8
DEFAULT_255_2_778
10
12.680911
20
5.402304
11
12.787511
21
5.402304
0
LINE
8
DEFAULT_255_2_778
10
12.810011
20
5.487504
11
12.809211
21
5.487504
0
LINE
8
DEFAULT_255_2_778
10
6.796611
20
11.467804
11
6.806611
21
11.863604
0
LINE
8
DEFAULT_255_2_778
10
6.788111
20
11.962304
11
6.780411
21
11.961304
0
LINE
8
DEFAULT_255_2_778
10
8.435911
20
11.116204
11
8.438311
21
11.116204
0
LINE
8
DEFAULT_255_2_778
10
8.494211
20
9.488504
11
8.494211
21
9.488704
0
LINE
8
DEFAULT_255_2_778
10
10.132711
20
5.403104
11
10.578511
21
5.403104
0
LINE
8
DEFAULT_255_2_778
10
10.337211
20
5.552004
11
10.335611
21
5.552004
0
LINE
8
DEFAULT_255_2_778
10
8.245711
20
9.393804
11
8.246511
21
9.394304
0
LINE
8
DEFAULT_255_2_778
10
8.565911
20
8.597404
11
8.565911
21
8.597404
0
LINE
8
DEFAULT_255_2_778
10
8.448111
20
7.824304
11
8.454211
21
7.832204
0
LINE
8
DEFAULT_255_2_778
10
2.955911
20
5.403304
11
3.740911
21
5.403304
0
LINE
8
DEFAULT_255_2_778
10
2.578611
20
6.270104
11
2.571711
21
6.270404
0
LINE
8
DEFAULT_255_2_778
10
9.872911
20
13.301404
11
9.298711
21
13.157704
0
LINE
8
DEFAULT_255_2_778
10
10.256311
20
13.270204
11
9.985611
21
13.572904
0
LINE
8
DEFAULT_255_2_778
10
9.873911
20
13.301904
11
9.872911
21
13.301404
0
LINE
8
DEFAULT_255_2_778
10
9.507011
20
8.215304
11
9.507011
21
8.215804
0
LINE
8
DEFAULT_255_2_778
10
9.539011
20
8.168004
11
9.539011
21
8.168004
0
ENDSEC
0
EOF