0
SECTION
2
HEADER
9
$MEASUREMENT
70
1
0
ENDSEC
0
SECTION
2
TABLES
0
TABLE
2
LTYPE
0
LTYPE
72
65
70
64
2
CONTINUOUS
3
______
73
0
40
0
0
ENDTAB
0
TABLE
2
LAYER
0
LAYER
2
DEFAULT_255_2_778
70
0
62
255
6
CONTINUOUS
0
ENDTAB
0
ENDSEC
0
SECTION
2
ENTITIES
0
ARC
8
DEFAULT_255_2_778
10
11.5397807
20
1.5082467
40
0.4688988
50
276.1640537
51
295.0928106
0
ARC
8
DEFAULT_255_2_778
10
11.5009839
20
1.7466708
40
0.7102286
50
273.1486684
51
277.2105543
0
ARC
8
DEFAULT_255_2_778
10
11.4975485
20
1.8034595
40
0.7671205
50
269.991811
51
273.1718917
0
ARC
8
DEFAULT_255_2_778
10
11.4937623
20
1.7306087
40
0.6942794
50
258.3052242
51
270.3034133
0
ARC
8
DEFAULT_255_2_778
10
11.418854
20
1.375868
40
0.3317222
50
245.9250186
51
258.5553437
0
ARC
8
DEFAULT_255_2_778
10
11.1853518
20
0.9797962
40
0.1353772
50
16.1017968
51
43.5104455
0
LINE
8
DEFAULT_255_2_778
10
11.3154183
20
1.0173423
11
11.3154646
21
1.0172227
0
ARC
8
DEFAULT_255_2_778
10
11.5012114
20
1.0798198
40
0.1960108
50
198.6239218
51
212.9522723
0
ARC
8
DEFAULT_255_2_778
10
11.4892906
20
-0.2542063
40
1.2368523
50
91.3813445
51
97.0850568
0
LINE
8
DEFAULT_255_2_778
10
11.4594742
20
0.9822866
11
11.4620874
21
0.9823937
0
ARC
8
DEFAULT_255_2_778
10
11.4670652
20
1.7105417
40
0.728165
50
269.6083199
51
284.1260945
0
ARC
8
DEFAULT_255_2_778
10
11.6134526
20
1.1334884
40
0.1328392
50
283.6399396
51
337.3358459
0
ARC
8
DEFAULT_255_2_778
10
10.6927915
20
1.6103928
40
0.1827568
50
277.9707507
51
346.5657489
0
ARC
8
DEFAULT_255_2_778
10
8.4888168
20
2.6185648
40
2.6031653
50
336.1967112
51
336.351902
0
ARC
8
DEFAULT_255_2_778
10
-3.2512086
20
7.7569597
40
15.418441
50
336.3601971
51
336.3929564
0
ARC
8
DEFAULT_255_2_778
10
13.4441965
20
0.4610817
40
2.8015036
50
156.1645366
51
156.4043774
0
ARC
8
DEFAULT_255_2_778
10
10.7353313
20
1.9306871
40
0.3678327
50
275.182417
51
293.4371247
0
ARC
8
DEFAULT_255_2_778
10
10.7298992
20
1.9765226
40
0.4139735
50
269.963834
51
275.3581505
0
ARC
8
DEFAULT_255_2_778
10
10.7457822
20
2.1488674
40
0.5865404
50
240.5788573
51
268.422755
0
ARC
8
DEFAULT_255_2_778
10
10.7890764
20
2.2493055
40
0.6953898
50
240.1285839
51
241.536896
0
ARC
8
DEFAULT_255_2_778
10
10.6031318
20
1.6601426
40
0.1609939
50
184.9319257
51
217.6717938
0
ARC
8
DEFAULT_255_2_778
10
10.5993076
20
1.688346
40
0.17693
50
225.6838831
51
274.5082554
0
ARC
8
DEFAULT_255_2_778
10
10.6370394
20
2.2190186
40
0.7074565
50
268.0701159
51
270.0794138
0
ARC
8
DEFAULT_255_2_778
10
10.6279414
20
3.4997376
40
1.9882005
50
270.2904434
51
271.8482422
0
ARC
8
DEFAULT_255_2_778
10
10.7626926
20
-0.7724302
40
2.286093
50
90.5429495
51
91.7703906
0
ARC
8
DEFAULT_255_2_778
10
10.7477101
20
0.4090456
40
1.1045348
50
90.0052468
51
90.3465578
0
ARC
8
DEFAULT_255_2_778
10
10.7482504
20
0.6631734
40
0.8504073
50
88.5321832
51
90.0432192
0
ARC
8
DEFAULT_255_2_778
10
10.7176187
20
1.5238575
40
0.0534676
50
299.0113102
51
348.6135097
0
LINE
8
DEFAULT_255_2_778
10
10.7435496
20
1.4770988
11
10.7429465
21
1.4766516
0
ARC
8
DEFAULT_255_2_778
10
10.7674082
20
1.4315958
40
0.0512679
50
118.4984111
51
170.5632976
0
ARC
8
DEFAULT_255_2_778
10
10.5682704
20
6.1346871
40
2.7629123
50
162.6071786
51
166.0682628
0
ARC
8
DEFAULT_255_2_778
10
10.0109464
20
6.3098581
40
2.178708
50
158.4255505
51
162.6220589
0
ARC
8
DEFAULT_255_2_778
10
9.6030652
20
6.4712903
40
1.7400426
50
153.5762203
51
158.4301737
0
ARC
8
DEFAULT_255_2_778
10
9.3912536
20
6.57483
40
1.5042843
50
150.5472857
51
153.5177552
0
ARC
8
DEFAULT_255_2_778
10
9.2838366
20
6.6359414
40
1.380701
50
144.5402123
51
150.5637178
0
ARC
8
DEFAULT_255_2_778
10
9.4758448
20
6.4936749
40
1.6196356
50
139.7077985
51
144.3813991
0
ARC
8
DEFAULT_255_2_778
10
35.7766887
20
-15.9957326
40
36.2246483
50
139.3029231
51
139.4775815
0
ARC
8
DEFAULT_255_2_778
10
10.5532741
20
5.8150629
40
2.8805084
50
129.6758065
51
141.0747992
0
ARC
8
DEFAULT_255_2_778
10
8.7923325
20
7.9211804
40
0.1356573
50
112.3339261
51
125.1489966
0
ARC
8
DEFAULT_255_2_778
10
10.6149636
20
3.7523826
40
4.685444
50
113.2437871
51
113.5782288
0
ARC
8
DEFAULT_255_2_778
10
8.7411595
20
8.1498218
40
0.0955472
50
284.9945437
51
334.153934
0
ARC
8
DEFAULT_255_2_778
10
8.7872147
20
8.1181853
40
0.0411716
50
345.9175438
51
0.1506506
0
ARC
8
DEFAULT_255_2_778
10
8.7705634
20
8.1171672
40
0.0578337
50
1.1160003
51
23.5967882
0
ARC
8
DEFAULT_255_2_778
10
8.7449327
20
8.1079059
40
0.0850472
50
22.4022712
51
22.9744639
0
ARC
8
DEFAULT_255_2_778
10
9.3212708
20
7.0355217
40
1.2125789
50
114.2504061
51
134.886671
0
ARC
8
DEFAULT_255_2_778
10
10.1141778
20
6.2417961
40
2.3344971
50
134.9269269
51
152.1857233
0
ARC
8
DEFAULT_255_2_778
10
10.5514329
20
5.9751174
40
2.8458461
50
151.5446406
51
155.7849936
0
ARC
8
DEFAULT_255_2_778
10
10.3532507
20
6.0634945
40
2.6288528
50
155.7700475
51
159.1141045
0
ARC
8
DEFAULT_255_2_778
10
9.201443
20
6.3895121
40
1.4404078
50
154.8925607
51
165.6323237
0
ARC
8
DEFAULT_255_2_778
10
13.160502
20
5.2797135
40
5.5518032
50
164.6758711
51
166.0351026
0
ARC
8
DEFAULT_255_2_778
10
68.5620073
20
-8.6407648
40
62.6753954
50
165.9079049
51
165.9559852
0
ARC
8
DEFAULT_255_2_778
10
-5.4473713
20
9.8728886
40
13.6144695
50
345.7506924
51
345.953361
0
ARC
8
DEFAULT_255_2_778
10
-0.1818856
20
8.4636924
40
8.164419
50
345.5931797
51
346.2404369
0
ARC
8
DEFAULT_255_2_778
10
9.6434156
20
5.9233677
40
1.9840208
50
165.1353155
51
170.315048
0
ARC
8
DEFAULT_255_2_778
10
8.4614177
20
6.1288928
40
0.7843023
50
170.5888356
51
179.5402911
0
ARC
8
DEFAULT_255_2_778
10
8.0985256
20
6.1262929
40
0.4214788
50
178.7910443
51
203.5781559
0
ARC
8
DEFAULT_255_2_778
10
7.5275105
20
6.1291587
40
0.2520323
50
317.133059
51
5.4704663
0
ARC
8
DEFAULT_255_2_778
10
5.7552605
20
6.1985857
40
2.0236438
50
358.7144704
51
359.912933
0
ARC
8
DEFAULT_255_2_778
10
-8.7212041
20
6.2675159
40
16.5002631
50
359.7499667
51
359.7677898
0
ARC
8
DEFAULT_255_2_778
10
8.5672543
20
6.2188162
40
0.7885403
50
172.4589396
51
181.3205696
0
ARC
8
DEFAULT_255_2_778
10
10.6565692
20
2.098927
40
0.1926433
50
204.5449762
51
231.6500059
0
ARC
8
DEFAULT_255_2_778
10
10.9057706
20
2.3869685
40
0.5733994
50
229.9797264
51
240.7263425
0
ARC
8
DEFAULT_255_2_778
10
11.1013416
20
2.7195374
40
0.9591611
50
240.2499204
51
246.3439669
0
ARC
8
DEFAULT_255_2_778
10
10.9737259
20
2.4195876
40
0.6332201
50
246.0307964
51
250.3892774
0
ARC
8
DEFAULT_255_2_778
10
10.7911555
20
1.9025234
40
0.0848871
50
249.3357346
51
258.2948559
0
ARC
8
DEFAULT_255_2_778
10
13.7558522
20
5.2031161
40
4.5101397
50
228.13289
51
228.6116961
0
ARC
8
DEFAULT_255_2_778
10
-306.1664472
20
-352.5096353
40
475.3947389
50
48.1925337
51
48.1936763
0
ARC
8
DEFAULT_255_2_778
10
10.2291738
20
1.3519125
40
0.7130632
50
44.3934489
51
69.2905326
0
ARC
8
DEFAULT_255_2_778
10
11.0089972
20
1.4142366
40
0.2003898
50
179.0664322
51
179.9996566
0
ARC
8
DEFAULT_255_2_778
10
10.9803931
20
1.4145514
40
0.1717861
50
180.104594
51
218.1254254
0
ARC
8
DEFAULT_255_2_778
10
11.6275313
20
1.8563053
40
0.9550148
50
215.0027878
51
215.8850585
0
ARC
8
DEFAULT_255_2_778
10
-18.346329
20
-19.7456019
40
35.9919042
50
35.7720746
51
35.7771847
0
ARC
8
DEFAULT_255_2_778
10
10.5629661
20
1.0739547
40
0.3661277
50
29.402416
51
36.9241245
0
ARC
8
DEFAULT_255_2_778
10
11.0403952
20
1.8959627
40
0.6615205
50
256.1405499
51
266.5962835
0
ARC
8
DEFAULT_255_2_778
10
11.0378493
20
1.8485436
40
0.6140338
50
266.5707297
51
269.9690759
0
ARC
8
DEFAULT_255_2_778
10
11.0495879
20
1.5978532
40
0.3635437
50
268.0973663
51
292.9367723
0
ARC
8
DEFAULT_255_2_778
10
11.1492822
20
1.3700183
40
0.1149098
50
291.430123
51
0.0422045
0
ARC
8
DEFAULT_255_2_778
10
11.1194716
20
1.3699966
40
0.1447205
50
0.0420798
51
4.5596976
0
ARC
8
DEFAULT_255_2_778
10
11.0681346
20
1.5960611
40
0.2903359
50
269.9065791
51
312.3533166
0
ARC
8
DEFAULT_255_2_778
10
11.0556687
20
1.6797705
40
0.374237
50
269.9983696
51
271.8363661
0
ARC
8
DEFAULT_255_2_778
10
11.0556477
20
1.6806186
40
0.3750852
50
268.9531868
51
270.001573
0
ARC
8
DEFAULT_255_2_778
10
11.0447133
20
1.6172218
40
0.3116525
50
225.9529017
51
270.7504512
0
ARC
8
DEFAULT_255_2_778
10
10.9778566
20
1.5328071
40
0.2047722
50
214.2698834
51
222.9759397
0
ARC
8
DEFAULT_255_2_778
10
8.380286
20
4.8851221
40
1.6281726
50
173.1504741
51
178.5658612
0
ARC
8
DEFAULT_255_2_778
10
8.6992485
20
4.8734086
40
1.947332
50
178.4562074
51
180.010525
0
ARC
8
DEFAULT_255_2_778
10
9.1609321
20
4.8805753
40
2.4090275
50
180.178958
51
186.3337044
0
ARC
8
DEFAULT_255_2_778
10
9.9627494
20
4.9710675
40
3.215934
50
186.3601471
51
194.6169407
0
ARC
8
DEFAULT_255_2_778
10
9.7633649
20
4.9116667
40
3.0080212
50
194.4805128
51
198.9597144
0
ARC
8
DEFAULT_255_2_778
10
8.9468719
20
4.6298639
40
2.1442669
50
198.9267668
51
203.1560523
0
ARC
8
DEFAULT_255_2_778
10
8.374594
20
4.3892121
40
1.5234649
50
203.2980833
51
204.9996009
0
ARC
8
DEFAULT_255_2_778
10
8.1896604
20
4.3035908
40
1.3196731
50
205.0237229
51
205.7000497
0
ARC
8
DEFAULT_255_2_778
10
5.3399141
20
3.0206809
40
1.806278
50
22.2686514
51
23.1672897
0
ARC
8
DEFAULT_255_2_778
10
-30.2020361
20
-11.4125498
40
40.1670366
50
22.0166768
51
22.1090925
0
ARC
8
DEFAULT_255_2_778
10
7.6059835
20
3.8441055
40
0.6038957
50
199.2379926
51
218.1572736
0
ARC
8
DEFAULT_255_2_778
10
7.2362689
20
3.5568091
40
0.1357076
50
219.2177769
51
268.6988949
0
ARC
8
DEFAULT_255_2_778
10
7.2331863
20
3.5530929
40
0.1319565
50
270.0004536
51
271.801206
0
ARC
8
DEFAULT_255_2_778
10
6.0319111
20
3.1224882
40
1.2418833
50
13.9179768
51
20.6358476
0
ARC
8
DEFAULT_255_2_778
10
3.5997747
20
2.21511
40
3.8377652
50
20.5165456
51
23.284676
0
ARC
8
DEFAULT_255_2_778
10
41.7798937
20
18.5798748
40
37.7017027
50
202.8792157
51
203.192421
0
ARC
8
DEFAULT_255_2_778
10
10.2619878
20
5.3054885
40
3.502556
50
196.574182
51
203.2684674
0
ARC
8
DEFAULT_255_2_778
10
8.5571131
20
4.7955691
40
1.7230605
50
183.8957674
51
196.4941676
0
ARC
8
DEFAULT_255_2_778
10
8.7234528
20
4.7961926
40
1.8890885
50
180.1475367
51
183.5718641
0
ARC
8
DEFAULT_255_2_778
10
8.6196672
20
4.7950131
40
1.7853005
50
180.0032251
51
180.118261
0
ARC
8
DEFAULT_255_2_778
10
8.2542075
20
4.8078125
40
1.4198992
50
166.4550862
51
180.5205419
0
ARC
8
DEFAULT_255_2_778
10
7.6781337
20
4.9524174
40
0.8259996
50
144.5369736
51
166.8478454
0
ARC
8
DEFAULT_255_2_778
10
7.4533973
20
5.107017
40
0.5532769
50
98.5568328
51
144.07437
0
ARC
8
DEFAULT_255_2_778
10
7.4878042
20
4.9345675
40
0.7289743
50
89.8275562
51
99.2143246
0
ARC
8
DEFAULT_255_2_778
10
7.4889854
20
4.7821585
40
0.8813805
50
84.8321061
51
89.9341596
0
ARC
8
DEFAULT_255_2_778
10
7.4755085
20
4.6320909
40
1.032052
50
80.3497074
51
84.8373851
0
ARC
8
DEFAULT_255_2_778
10
7.4566629
20
4.5150041
40
1.1506416
50
78.9990691
51
80.4019334
0
ARC
8
DEFAULT_255_2_778
10
7.4238369
20
5.300445
40
0.4267074
50
30.0352215
51
53.7365409
0
ARC
8
DEFAULT_255_2_778
10
18.1706077
20
12.433806
40
12.4728909
50
213.6959478
51
213.7951514
0
ARC
8
DEFAULT_255_2_778
10
8.2235598
20
5.7497392
40
0.4892225
50
211.232895
51
230.5998018
0
ARC
8
DEFAULT_255_2_778
10
11.4600054
20
3.391648
40
4.0622184
50
149.212047
51
150.8280936
0
LINE
8
DEFAULT_255_2_778
10
7.9702855
20
5.4709442
11
7.9722248
21
5.474233
0
ARC
8
DEFAULT_255_2_778
10
6.6240999
20
6.3264351
40
1.5948948
50
327.7014321
51
338.9471029
0
ARC
8
DEFAULT_255_2_778
10
7.596765
20
4.9447927
40
0.9591807
50
57.4715545
51
65.1851639
0
ARC
8
DEFAULT_255_2_778
10
7.6299365
20
5.016609
40
0.8800736
50
65.1831072
51
74.485575
0
ARC
8
DEFAULT_255_2_778
10
7.6330358
20
5.0245276
40
0.8716152
50
74.5426505
51
74.8379217
0
ARC
8
DEFAULT_255_2_778
10
7.6432237
20
5.0639194
40
0.83093
50
74.8055384
51
85.2642217
0
ARC
8
DEFAULT_255_2_778
10
7.6446649
20
5.0769633
40
0.8178118
50
85.2893984
51
89.9991238
0
ARC
8
DEFAULT_255_2_778
10
7.6619358
20
5.0017311
40
0.8932108
50
91.1071212
51
154.5143784
0
ARC
8
DEFAULT_255_2_778
10
7.7082057
20
4.9662696
40
0.9503139
50
153.7847345
51
173.120392
0
ARC
8
DEFAULT_255_2_778
10
10.4568868
20
2.288119
40
0.2247399
50
198.0721128
51
210.0444839
0
ARC
8
DEFAULT_255_2_778
10
10.4257007
20
2.2585095
40
0.1831936
50
206.9099799
51
237.8666377
0
ARC
8
DEFAULT_255_2_778
10
10.3579673
20
2.1635775
40
0.0671291
50
243.7353792
51
245.121942
0
ARC
8
DEFAULT_255_2_778
10
10.3506925
20
2.1454707
40
0.047653
50
243.8983732
51
268.8092824
0
ARC
8
DEFAULT_255_2_778
10
10.3492959
20
2.1351906
40
0.0373648
50
270.623029
51
316.3544318
0
ARC
8
DEFAULT_255_2_778
10
10.4280146
20
2.2770666
40
0.1754493
50
216.9450875
51
252.8687401
0
ARC
8
DEFAULT_255_2_778
10
2.3228
20
-4.7362305
40
10.5432169
50
40.9342967
51
41.0693884
0
ARC
8
DEFAULT_255_2_778
10
10.0964101
20
2.0421649
40
0.2293832
50
40.249534
51
50.2021034
0
ARC
8
DEFAULT_255_2_778
10
8.1310407
20
7.0466099
40
1.8381428
50
143.0363006
51
155.4740319
0
ARC
8
DEFAULT_255_2_778
10
8.9910429
20
6.6478775
40
2.7860719
50
155.3554881
51
164.4618859
0
ARC
8
DEFAULT_255_2_778
10
10.1491053
20
6.322269
40
3.9890353
50
164.4117965
51
172.1483491
0
ARC
8
DEFAULT_255_2_778
10
11.4272379
20
6.1437975
40
5.2795667
50
172.1245353
51
180.1234849
0
ARC
8
DEFAULT_255_2_778
10
11.9554272
20
6.132749
40
5.8077437
50
180.0032564
51
181.9275925
0
ARC
8
DEFAULT_255_2_778
10
12.0101533
20
6.1343475
40
5.8624926
50
181.9252149
51
184.9960363
0
ARC
8
DEFAULT_255_2_778
10
6.1180906
20
5.7634019
40
0.148916
50
290.3734824
51
359.0153768
0
ARC
8
DEFAULT_255_2_778
10
5.8329713
20
5.8166051
40
0.4375808
50
352.6787155
51
0.336
0
ARC
8
DEFAULT_255_2_778
10
5.4444859
20
5.8140288
40
0.8260748
50
0.3566759
51
5.7609487
0
ARC
8
DEFAULT_255_2_778
10
4.1347645
20
5.6837273
40
2.1422614
50
5.7121645
51
7.9011007
0
ARC
8
DEFAULT_255_2_778
10
9.6077051
20
6.4485958
40
3.3838691
50
186.6517277
51
187.9904598
0
ARC
8
DEFAULT_255_2_778
10
6.9095804
20
6.1321177
40
0.6672501
50
182.9823716
51
186.4960228
0
ARC
8
DEFAULT_255_2_778
10
10.7686788
20
6.2731768
40
4.5288572
50
180.0002602
51
182.2243374
0
ARC
8
DEFAULT_255_2_778
10
10.7554587
20
6.273584
40
4.5156371
50
165.2050234
51
180.0054282
0
ARC
8
DEFAULT_255_2_778
10
8.6608596
20
6.7728757
40
2.3635584
50
155.3074422
51
163.9409586
0
ARC
8
DEFAULT_255_2_778
10
14.7328619
20
4.1510749
40
8.9769362
50
156.2228262
51
156.2936181
0
ARC
8
DEFAULT_255_2_778
10
2.7083943
20
9.5304636
40
4.1964308
50
335.2021192
51
339.3034131
0
ARC
8
DEFAULT_255_2_778
10
5.4829615
20
8.4600306
40
1.2227847
50
340.2765635
51
344.6869303
0
ARC
8
DEFAULT_255_2_778
10
12.2436798
20
0.0839997
40
0.4134277
50
209.4389667
51
226.3205833
0
ARC
8
DEFAULT_255_2_778
10
12.2392474
20
0.0937689
40
0.4175504
50
227.6863744
51
271.8301413
0
ARC
8
DEFAULT_255_2_778
10
12.2510609
20
0.2877546
40
0.6113251
50
270.1426091
51
279.3206619
0
ARC
8
DEFAULT_255_2_778
10
12.218403
20
0.4525271
40
0.7792312
50
279.7280305
51
315.5998674
0
ARC
8
DEFAULT_255_2_778
10
12.4410733
20
0.2356722
40
0.4684146
50
315.4949031
51
339.603789
0
ARC
8
DEFAULT_255_2_778
10
12.5949138
20
0.173701
40
0.3026546
50
340.4502368
51
359.6315122
0
ARC
8
DEFAULT_255_2_778
10
12.6267323
20
0.171773
40
0.2708298
50
359.9960821
51
2.9594685
0
ARC
8
DEFAULT_255_2_778
10
12.6274753
20
0.171433
40
0.2701057
50
3.0396349
51
25.8382363
0
ARC
8
DEFAULT_255_2_778
10
12.5760778
20
0.1465234
40
0.3272214
50
25.8415039
51
39.2770057
0
ARC
8
DEFAULT_255_2_778
10
12.4980746
20
0.0833205
40
0.4276153
50
39.2158417
51
48.893526
0
ARC
8
DEFAULT_255_2_778
10
12.4531805
20
0.034835
40
0.4936686
50
48.6672213
51
49.2643292
0
ARC
8
DEFAULT_255_2_778
10
12.4566099
20
0.1893296
40
0.3870361
50
24.5286595
51
34.5633205
0
ARC
8
DEFAULT_255_2_778
10
12.5322382
20
0.223564
40
0.3040207
50
10.6217789
51
24.5761649
0
ARC
8
DEFAULT_255_2_778
10
12.5676231
20
0.2310057
40
0.2678716
50
0.0396978
51
10.4524031
0
ARC
8
DEFAULT_255_2_778
10
12.5142851
20
0.2428905
40
0.3214225
50
313.3223272
51
357.9140746
0
ARC
8
DEFAULT_255_2_778
10
12.2793228
20
0.4663851
40
0.645464
50
294.0581718
51
314.8844852
0
ARC
8
DEFAULT_255_2_778
10
12.1815947
20
0.6618556
40
0.8638474
50
275.5684224
51
294.6917588
0
ARC
8
DEFAULT_255_2_778
10
12.1900868
20
0.5832907
40
0.7848296
50
270.0428741
51
275.5079361
0
ARC
8
DEFAULT_255_2_778
10
12.1847301
20
0.4262318
40
0.6277987
50
251.9127025
51
270.5424835
0
ARC
8
DEFAULT_255_2_778
10
12.1356648
20
0.2665455
40
0.4607796
50
236.8408861
51
251.5475777
0
ARC
8
DEFAULT_255_2_778
10
8.2364043
20
3.396462
40
1.5914137
50
212.4741528
51
246.3303449
0
ARC
8
DEFAULT_255_2_778
10
8.5000046
20
3.9532217
40
2.2072346
50
245.8655137
51
258.962311
0
ARC
8
DEFAULT_255_2_778
10
8.6429562
20
4.6260109
40
2.8949698
50
258.734738
51
265.2937908
0
ARC
8
DEFAULT_255_2_778
10
8.6727982
20
4.9158809
40
3.1863164
50
265.1866434
51
267.1288726
0
ARC
8
DEFAULT_255_2_778
10
8.9570285
20
10.7047381
40
8.982146
50
267.1677096
51
267.7906212
0
ARC
8
DEFAULT_255_2_778
10
8.5739848
20
-0.0418147
40
1.7714658
50
82.104404
51
88.8106504
0
ARC
8
DEFAULT_255_2_778
10
8.7299947
20
1.1275854
40
0.5917522
50
65.0825967
51
81.5130234
0
ARC
8
DEFAULT_255_2_778
10
8.7430439
20
1.1640238
40
0.5532191
50
61.5215904
51
64.7183035
0
ARC
8
DEFAULT_255_2_778
10
9.011542
20
1.738752
40
0.0885756
50
266.9531286
51
269.9730944
0
ARC
8
DEFAULT_255_2_778
10
9.0105853
20
1.7165406
40
0.0663707
50
270.7900236
51
334.3423988
0
ARC
8
DEFAULT_255_2_778
10
4.3677051
20
4.8762536
40
5.681696
50
325.8625964
51
325.9010792
0
ARC
8
DEFAULT_255_2_778
10
9.1262418
20
1.6664969
40
0.0590009
50
92.7670886
51
155.5023846
0
ARC
8
DEFAULT_255_2_778
10
9.1226823
20
1.6432217
40
0.0822103
50
77.8865746
51
89.5043872
0
ARC
8
DEFAULT_255_2_778
10
9.2374006
20
3.0363465
40
1.3163582
50
265.7537848
51
268.902469
0
ARC
8
DEFAULT_255_2_778
10
9.2354081
20
2.9580412
40
1.2380291
50
268.9252474
51
269.9972768
0
ARC
8
DEFAULT_255_2_778
10
9.2384366
20
2.8308274
40
1.1108196
50
269.8407586
51
281.7339815
0
ARC
8
DEFAULT_255_2_778
10
9.1153515
20
3.2707856
40
1.5669228
50
282.869037
51
295.3911929
0
ARC
8
DEFAULT_255_2_778
10
4.7584386
20
13.1552134
40
12.3684513
50
293.9903717
51
294.2079674
0
LINE
8
DEFAULT_255_2_778
10
9.8301205
20
1.8744053
11
9.8310345
21
1.8748155
0
ARC
8
DEFAULT_255_2_778
10
11.8563868
20
-2.5896716
40
4.9024175
50
112.9977869
51
114.4018214
0
ARC
8
DEFAULT_255_2_778
10
10.3803172
20
-2.5050875
40
4.4499246
50
95.6652946
51
97.1476914
0
ARC
8
DEFAULT_255_2_778
10
8.7847402
20
10.4885988
40
8.6413829
50
276.5888243
51
276.9249521
0
ARC
8
DEFAULT_255_2_778
10
9.5714056
20
3.5096657
40
1.6183953
50
270.821731
51
277.2727093
0
ARC
8
DEFAULT_255_2_778
10
9.5794646
20
2.3959149
40
0.5047054
50
249.9173846
51
271.7202571
0
ARC
8
DEFAULT_255_2_778
10
9.5142283
20
2.1932159
40
0.2920492
50
233.2857015
51
248.2825738
0
ARC
8
DEFAULT_255_2_778
10
9.504851
20
1.9304533
40
0.1676824
50
170.1628362
51
178.3026177
0
ARC
8
DEFAULT_255_2_778
10
9.46965
20
1.9321167
40
0.132449
50
178.5708409
51
179.997854
0
ARC
8
DEFAULT_255_2_778
10
9.4182477
20
1.9277862
40
0.0811624
50
176.9379783
51
229.4329153
0
ARC
8
DEFAULT_255_2_778
10
9.4814282
20
2.011891
40
0.1862617
50
231.494878
51
247.0266064
0
ARC
8
DEFAULT_255_2_778
10
11.1608043
20
5.5825307
40
4.1319839
50
244.9108782
51
245.0341537
0
ARC
8
DEFAULT_255_2_778
10
9.3800547
20
1.7284004
40
0.1143032
50
35.8239101
51
71.255947
0
ARC
8
DEFAULT_255_2_778
10
9.2312802
20
2.6081483
40
0.8479503
50
277.2186465
51
286.5438993
0
ARC
8
DEFAULT_255_2_778
10
9.2385017
20
2.5586302
40
0.7979178
50
270.0022183
51
277.1510071
0
ARC
8
DEFAULT_255_2_778
10
9.2533031
20
2.7217141
40
0.9611152
50
247.9005339
51
269.1194395
0
ARC
8
DEFAULT_255_2_778
10
9.7436338
20
4.0062741
40
2.335951
50
244.0229571
51
248.6109836
0
ARC
8
DEFAULT_255_2_778
10
14.0973692
20
13.151119
40
12.4642098
50
244.2100917
51
244.4443369
0
ARC
8
DEFAULT_255_2_778
10
8.6848019
20
1.9024469
40
0.0279119
50
111.5841781
51
162.9646131
0
ARC
8
DEFAULT_255_2_778
10
8.6825257
20
1.9046457
40
0.0251324
50
166.2389013
51
180.3256837
0
ARC
8
DEFAULT_255_2_778
10
8.7339785
20
1.9115498
40
0.0769083
50
185.2573047
51
207.9062571
0
ARC
8
DEFAULT_255_2_778
10
9.8405773
20
2.397599
40
1.2853523
50
203.963139
51
204.0433316
0
ARC
8
DEFAULT_255_2_778
10
8.5949936
20
1.8351633
40
0.0815455
50
5.9713694
51
28.3703075
0
ARC
8
DEFAULT_255_2_778
10
8.6521456
20
1.8439006
40
0.0239523
50
290.7407015
51
359.3925162
0
ARC
8
DEFAULT_255_2_778
10
8.6343186
20
1.8730062
40
0.0578362
50
292.0530326
51
297.0582907
0
ARC
8
DEFAULT_255_2_778
10
9.2487564
20
8.0953784
40
6.3039039
50
262.3261555
51
264.6048143
0
ARC
8
DEFAULT_255_2_778
10
9.1165019
20
7.0817466
40
5.2816912
50
261.360746
51
262.2796828
0
ARC
8
DEFAULT_255_2_778
10
8.7834661
20
5.1784452
40
3.3502395
50
249.9158121
51
262.1022573
0
ARC
8
DEFAULT_255_2_778
10
8.1850578
20
3.5299754
40
1.596526
50
233.4585484
51
249.7698625
0
ARC
8
DEFAULT_255_2_778
10
7.7487153
20
2.9601549
40
0.8789896
50
189.2319553
51
234.19485
0
ARC
8
DEFAULT_255_2_778
10
7.8830833
20
2.9769977
40
1.0143311
50
179.8596303
51
188.953353
0
ARC
8
DEFAULT_255_2_778
10
8.0180069
20
2.9792642
40
1.1492516
50
177.7500142
51
179.9891033
0
ARC
8
DEFAULT_255_2_778
10
8.0598206
20
2.9778423
40
1.1910889
50
177.0278186
51
177.7606363
0
ARC
8
DEFAULT_255_2_778
10
7.293608
20
2.8415166
40
0.4673313
50
154.9212149
51
163.1779716
0
ARC
8
DEFAULT_255_2_778
10
28.9830517
20
-4.27484
40
23.2942619
50
161.862153
51
161.8792983
0
ARC
8
DEFAULT_255_2_778
10
6.603866
20
3.0283776
40
0.247198
50
323.3333134
51
346.3730013
0
ARC
8
DEFAULT_255_2_778
10
6.7530431
20
2.9273261
40
0.0676734
50
310.5451501
51
316.5213981
0
ARC
8
DEFAULT_255_2_778
10
8.0459724
20
4.6340288
40
2.1565849
50
231.2051439
51
234.6107748
0
ARC
8
DEFAULT_255_2_778
10
8.380345
20
5.0520927
40
2.6919177
50
228.3520326
51
231.2333047
0
ARC
8
DEFAULT_255_2_778
10
8.6707277
20
5.3787103
40
3.1289545
50
224.9896175
51
228.3532837
0
ARC
8
DEFAULT_255_2_778
10
8.812966
20
5.5232673
40
3.3317495
50
223.9134378
51
225.0184445
0
ARC
8
DEFAULT_255_2_778
10
8.8614805
20
5.5703902
40
3.3993819
50
216.4666072
51
223.9184697
0
ARC
8
DEFAULT_255_2_778
10
8.0037741
20
5.0033575
40
2.3732024
50
191.8397516
51
217.7649198
0
ARC
8
DEFAULT_255_2_778
10
7.2091558
20
4.7858769
40
1.5516678
50
185.9807615
51
189.999896
0
ARC
8
DEFAULT_255_2_778
10
7.1593699
20
4.779436
40
1.5014821
50
183.0981851
51
185.9342677
0
ARC
8
DEFAULT_255_2_778
10
6.9785081
20
4.7696755
40
1.3203571
50
180.0328694
51
183.099436
0
ARC
8
DEFAULT_255_2_778
10
6.640999
20
4.7778129
40
0.9828882
50
166.4722686
51
180.5185228
0
ARC
8
DEFAULT_255_2_778
10
6.3089634
20
4.8611895
40
0.6405701
50
140.8543106
51
166.7759354
0
ARC
8
DEFAULT_255_2_778
10
6.3036012
20
4.8419988
40
0.6487839
50
103.8170506
51
139.2407733
0
ARC
8
DEFAULT_255_2_778
10
6.4342487
20
4.3837132
40
1.1251447
50
89.7983309
51
104.7040681
0
ARC
8
DEFAULT_255_2_778
10
6.4483503
20
4.0562895
40
1.4525966
50
89.9983926
51
90.4000124
0
ARC
8
DEFAULT_255_2_778
10
6.4469181
20
3.9120336
40
1.5968532
50
86.0928256
51
89.9471518
0
ARC
8
DEFAULT_255_2_778
10
6.4323326
20
3.684914
40
1.824439
50
83.7190272
51
86.1218563
0
ARC
8
DEFAULT_255_2_778
10
6.5922575
20
5.3682529
40
0.1360622
50
33.9274714
51
73.0458793
0
ARC
8
DEFAULT_255_2_778
10
6.4584826
20
5.2895709
40
0.2911282
50
20.6487877
51
32.0812048
0
ARC
8
DEFAULT_255_2_778
10
10.8079549
20
7.0800451
40
4.412597
50
202.4885239
51
202.5601863
0
ARC
8
DEFAULT_255_2_778
10
6.9844411
20
5.4827573
40
0.2689881
50
200.8232057
51
213.3446359
0
ARC
8
DEFAULT_255_2_778
10
7.5187365
20
4.9789877
40
0.8383075
50
148.9348695
51
154.8770316
0
ARC
8
DEFAULT_255_2_778
10
-2.3814646
20
10.7405171
40
10.6164546
50
329.870761
51
329.8853886
0
ARC
8
DEFAULT_255_2_778
10
6.3969927
20
5.6781567
40
0.4836036
50
326.8786571
51
347.2833966
0
ARC
8
DEFAULT_255_2_778
10
6.4799905
20
4.6241983
40
1.0241504
50
67.6925423
51
68.1015349
0
ARC
8
DEFAULT_255_2_778
10
6.4951891
20
4.6650622
40
0.9805671
50
68.034997
51
77.6086876
0
ARC
8
DEFAULT_255_2_778
10
6.5072246
20
4.7187041
40
0.9255919
50
77.6238083
51
89.5921985
0
ARC
8
DEFAULT_255_2_778
10
6.5077467
20
4.7335849
40
0.910708
50
89.6183787
51
90.0017762
0
ARC
8
DEFAULT_255_2_778
10
6.5216176
20
4.6587418
40
0.9856491
50
90.8079873
51
144.4268324
0
ARC
8
DEFAULT_255_2_778
10
6.4613533
20
4.6818445
40
0.9233352
50
143.4173489
51
179.4236183
0
ARC
8
DEFAULT_255_2_778
10
6.3863941
20
4.6911212
40
0.8483293
50
179.9992089
51
180.7307709
0
ARC
8
DEFAULT_255_2_778
10
7.235636
20
4.7037579
40
1.6976641
50
180.7916721
51
196.3043935
0
ARC
8
DEFAULT_255_2_778
10
7.6497902
20
4.8547247
40
2.1377366
50
197.0716447
51
217.9525243
0
ARC
8
DEFAULT_255_2_778
10
9.0215927
20
5.8856256
40
3.8535668
50
217.4948251
51
225.5762125
0
ARC
8
DEFAULT_255_2_778
10
11.57045
20
8.4250707
40
7.4514143
50
225.2468138
51
227.1399583
0
ARC
8
DEFAULT_255_2_778
10
14.0822447
20
11.1028513
40
11.1228389
50
227.0382909
51
227.052314
0
ARC
8
DEFAULT_255_2_778
10
11.2140485
20
8.0208291
40
6.9126834
50
227.0487996
51
227.0727909
0
ARC
8
DEFAULT_255_2_778
10
11.1373433
20
7.9361179
40
6.798415
50
227.0599035
51
227.0840995
0
ARC
8
DEFAULT_255_2_778
10
14.7716377
20
11.8434499
40
12.1346438
50
227.07941
51
227.0928555
0
ARC
8
DEFAULT_255_2_778
10
10.9860313
20
7.7698842
40
6.5736409
50
227.0881879
51
227.112806
0
ARC
8
DEFAULT_255_2_778
10
15.0308453
20
12.1227142
40
12.5156648
50
227.1070117
51
227.1202642
0
ARC
8
DEFAULT_255_2_778
10
11.1309757
20
7.9223577
40
6.7840004
50
227.1167054
51
227.1409493
0
LINE
8
DEFAULT_255_2_778
10
6.516518
20
2.9494871
11
6.5175951
21
2.9484876
0
ARC
8
DEFAULT_255_2_778
10
15.0555371
20
12.1494438
40
12.5520536
50
227.1405074
51
227.1537571
0
ARC
8
DEFAULT_255_2_778
10
15.0343011
20
12.1264132
40
12.5207268
50
227.1533373
51
227.1666096
0
ARC
8
DEFAULT_255_2_778
10
14.879306
20
11.9592093
40
12.2927341
50
227.1665464
51
227.1799478
0
ARC
8
DEFAULT_255_2_778
10
15.2893724
20
12.4018155
40
12.8961035
50
227.1802059
51
227.1928698
0
ARC
8
DEFAULT_255_2_778
10
69.0695639
20
70.472536
40
92.0448089
50
227.1962082
51
227.1979672
0
ARC
8
DEFAULT_255_2_778
10
14.9790514
20
12.0671171
40
12.4396803
50
227.2069304
51
227.2198327
0
ARC
8
DEFAULT_255_2_778
10
66.180375
20
67.4050688
40
87.8310887
50
227.2229988
51
227.2248104
0
ARC
8
DEFAULT_255_2_778
10
14.1517394
20
11.1711605
40
11.2201798
50
227.2273538
51
227.2414122
0
ARC
8
DEFAULT_255_2_778
10
63.5837895
20
64.6362109
40
84.0352826
50
227.2441141
51
227.245975
0
ARC
8
DEFAULT_255_2_778
10
14.3985715
20
11.4363311
40
11.5824504
50
227.2489665
51
227.2623508
0
ARC
8
DEFAULT_255_2_778
10
10.5412452
20
7.2603048
40
5.897544
50
227.2531916
51
227.2792507
0
ARC
8
DEFAULT_255_2_778
10
59.8336734
20
60.6385354
40
78.5541265
50
227.2789228
51
227.2808623
0
ARC
8
DEFAULT_255_2_778
10
10.4046195
20
7.1076859
40
5.6927294
50
227.2741497
51
227.3006823
0
ARC
8
DEFAULT_255_2_778
10
13.859495
20
10.8491291
40
10.7853279
50
227.2911032
51
227.3049868
0
ARC
8
DEFAULT_255_2_778
10
56.4848061
20
57.0547602
40
73.6492882
50
227.3076014
51
227.309617
0
ARC
8
DEFAULT_255_2_778
10
10.2095165
20
6.8888211
40
5.3995713
50
227.3024508
51
227.3297064
0
ARC
8
DEFAULT_255_2_778
10
13.4818896
20
10.4360867
40
10.2256999
50
227.3195953
51
227.3338633
0
ARC
8
DEFAULT_255_2_778
10
53.3549204
20
53.7016109
40
69.0624586
50
227.3362587
51
227.3383531
0
ARC
8
DEFAULT_255_2_778
10
13.2438092
20
10.1741028
40
9.8717061
50
227.3340696
51
227.3485957
0
ARC
8
DEFAULT_255_2_778
10
13.1279969
20
10.0465441
40
9.699421
50
227.3412306
51
227.3558875
0
ARC
8
DEFAULT_255_2_778
10
50.5689443
20
50.7039116
40
64.9700829
50
227.3579829
51
227.3601522
0
ARC
8
DEFAULT_255_2_778
10
12.8991094
20
9.7959294
40
9.3600166
50
227.3622958
51
227.3772239
0
ARC
8
DEFAULT_255_2_778
10
12.7895501
20
9.6750117
40
9.1968521
50
227.3693438
51
227.384406
0
ARC
8
DEFAULT_255_2_778
10
89.3448966
20
92.8690854
40
122.254249
50
227.3800344
51
227.3811578
0
ARC
8
DEFAULT_255_2_778
10
12.576423
20
9.4395585
40
8.879276
50
227.3832452
51
227.3985791
0
ARC
8
DEFAULT_255_2_778
10
12.4727918
20
9.3249567
40
8.7247726
50
227.3900918
51
227.4055633
0
ARC
8
DEFAULT_255_2_778
10
12.3705331
20
9.2118493
40
8.5722981
50
227.3970579
51
227.4126693
0
ARC
8
DEFAULT_255_2_778
10
44.7420588
20
44.4228676
40
56.4025342
50
227.4069096
51
227.4092619
0
ARC
8
DEFAULT_255_2_778
10
43.9844688
20
43.6048442
40
55.2875959
50
227.4135519
51
227.4159311
0
ARC
8
DEFAULT_255_2_778
10
43.2377998
20
42.7985144
40
54.1886578
50
227.4203098
51
227.4227164
0
ARC
8
DEFAULT_255_2_778
10
78.446816
20
81.1315978
40
106.2376737
50
227.4274907
51
227.4287077
0
ARC
8
DEFAULT_255_2_778
10
77.0309484
20
79.6041952
40
104.1549953
50
227.4338772
51
227.4351079
0
ARC
8
DEFAULT_255_2_778
10
75.6353225
20
78.0984703
40
102.1019757
50
227.4403746
51
227.4416192
0
ARC
8
DEFAULT_255_2_778
10
11.7102377
20
8.4778289
40
7.5850451
50
227.4354706
51
227.4520819
0
ARC
8
DEFAULT_255_2_778
10
11.6227603
20
8.3804811
40
7.4541751
50
227.4414622
51
227.4582204
0
ARC
8
DEFAULT_255_2_778
10
11.5364362
20
8.2843965
40
7.3250155
50
227.4475573
51
227.4644651
0
ARC
8
DEFAULT_255_2_778
10
70.575799
20
72.6178552
40
94.6430563
50
227.4577
51
227.4589974
0
ARC
8
DEFAULT_255_2_778
10
11.368668
20
8.0974451
40
7.0738396
50
227.4594145
51
227.4766244
0
ARC
8
DEFAULT_255_2_778
10
37.3483818
20
36.416975
40
45.5048337
50
227.4688457
51
227.4714981
0
ARC
8
DEFAULT_255_2_778
10
66.9259639
20
68.6712449
40
89.2675036
50
227.4750653
51
227.4764058
0
ARC
8
DEFAULT_255_2_778
10
11.130373
20
7.8300446
40
6.7157041
50
227.4688219
51
227.4864888
0
ARC
8
DEFAULT_255_2_778
10
64.6104572
20
66.1656447
40
85.8558432
50
227.4864678
51
227.4878379
0
ARC
8
DEFAULT_255_2_778
10
-28.629949
20
-35.677448
40
52.2231269
50
47.3795876
51
47.5859959
0
ARC
8
DEFAULT_255_2_778
10
0.5249323
20
-3.972148
40
9.1507245
50
46.9149913
51
47.2851815
0
ARC
8
DEFAULT_255_2_778
10
7.2933712
20
2.5295579
40
0.5486107
50
160.6867298
51
171.6278484
0
ARC
8
DEFAULT_255_2_778
10
7.3871653
20
2.5171966
40
0.6432067
50
171.7549649
51
174.487653
0
ARC
8
DEFAULT_255_2_778
10
8.1864793
20
2.4458215
40
1.4456921
50
174.7150321
51
176.8431698
0
ARC
8
DEFAULT_255_2_778
10
3.5655206
20
2.7073014
40
3.1826609
50
355.7998646
51
356.7241616
0
ARC
8
DEFAULT_255_2_778
10
6.7784153
20
2.513259
40
0.0550407
50
225.2031888
51
246.3059972
0
ARC
8
DEFAULT_255_2_778
10
6.7648404
20
2.4837915
40
0.0226097
50
247.7988517
51
269.2365574
0
ARC
8
DEFAULT_255_2_778
10
6.7583157
20
2.4958652
40
0.0352354
50
280.1733471
51
335.369689
0
ARC
8
DEFAULT_255_2_778
10
5.6585512
20
3.2388154
40
1.361972
50
326.2012253
51
326.8652456
0
ARC
8
DEFAULT_255_2_778
10
6.8515218
20
2.4699756
40
0.0578565
50
96.0296786
51
155.0861661
0
ARC
8
DEFAULT_255_2_778
10
6.8454234
20
2.4807713
40
0.0467406
50
86.0612536
51
89.9743038
0
ARC
8
DEFAULT_255_2_778
10
9.9743672
20
2.1270761
40
0.2039803
50
269.5693348
51
313.976861
0
ARC
8
DEFAULT_255_2_778
10
10.0230995
20
2.0457496
40
0.1136514
50
324.831081
51
2.5981903
0
ARC
8
DEFAULT_255_2_778
10
10.0707435
20
2.5183662
40
0.4720855
50
270.5715453
51
278.0231451
0
ARC
8
DEFAULT_255_2_778
10
10.0716694
20
2.4880257
40
0.4417377
50
269.9979916
51
270.4907123
0
ARC
8
DEFAULT_255_2_778
10
10.0824018
20
2.6316081
40
0.5854189
50
255.002048
51
268.9480379
0
ARC
8
DEFAULT_255_2_778
10
11.6554309
20
9.3686604
40
7.5033939
50
256.6448312
51
256.7127685
0
LINE
8
DEFAULT_255_2_778
10
9.9222467
20
2.0681812
11
9.9197234
21
2.0687797
0
ARC
8
DEFAULT_255_2_778
10
9.7183158
20
1.2817305
40
0.812411
50
75.6459261
51
82.3450954
0
ARC
8
DEFAULT_255_2_778
10
9.9598919
20
2.0836514
40
0.1333975
50
178.6038824
51
179.9975463
0
ARC
8
DEFAULT_255_2_778
10
9.9037831
20
2.0814669
40
0.0773198
50
178.3767996
51
271.9526135
0
ARC
8
DEFAULT_255_2_778
10
10.0168139
20
2.6642704
40
0.6692465
50
260.5053175
51
264.0365798
0
ARC
8
DEFAULT_255_2_778
10
9.7349118
20
0.1063756
40
1.9041502
50
82.9325623
51
83.5964225
0
ARC
8
DEFAULT_255_2_778
10
9.945139
20
1.7292064
40
0.2679335
50
68.1555262
51
84.849138
0
ARC
8
DEFAULT_255_2_778
10
10.0158289
20
1.9737718
40
0.0292976
50
0.266851
51
8.1034019
0
ARC
8
DEFAULT_255_2_778
10
10.0275697
20
1.9752348
40
0.0176065
50
252.2788658
51
355.6789287
0
ARC
8
DEFAULT_255_2_778
10
10.025471
20
2.1723073
40
0.2138684
50
264.8898576
51
269.1264773
0
LINE
8
DEFAULT_255_2_778
10
10.0064216
20
1.9592889
11
10.0060326
21
1.9593186
0
ARC
8
DEFAULT_255_2_778
10
9.9875681
20
1.7510734
40
0.2090622
50
84.9330026
51
89.1764243
0
ARC
8
DEFAULT_255_2_778
10
9.9851028
20
1.9427518
40
0.0182036
50
72.5122602
51
176.2105493
0
ARC
8
DEFAULT_255_2_778
10
10.0120117
20
1.9453922
40
0.0450956
50
181.8264401
51
199.3773981
0
ARC
8
DEFAULT_255_2_778
10
10.0593486
20
1.9595656
40
0.0944824
50
197.9610623
51
201.6539592
0
ARC
8
DEFAULT_255_2_778
10
13.6227102
20
2.0981786
40
0.0415343
50
97.0201092
51
173.6094705
0
LINE
8
DEFAULT_255_2_778
10
13.617634
20
2.1394016
11
13.6181108
21
2.1395801
0
ARC
8
DEFAULT_255_2_778
10
13.6124569
20
2.1818891
40
0.042685
50
277.6114928
51
352.0720138
0
ARC
8
DEFAULT_255_2_778
10
13.6044542
20
2.1235905
40
0.072629
50
46.1889688
51
93.2661323
0
LINE
8
DEFAULT_255_2_778
10
13.6003163
20
2.1961015
11
13.600159
21
2.1961016
0
ARC
8
DEFAULT_255_2_778
10
13.5958544
20
2.1240235
40
0.0722065
50
86.5823316
51
133.957649
0
ARC
8
DEFAULT_255_2_778
10
13.693744
20
2.1556457
40
0.1494032
50
172.1692036
51
179.7018878
0
ARC
8
DEFAULT_255_2_778
10
13.5890577
20
2.1479178
40
0.0455166
50
169.2303792
51
262.3951192
0
ARC
8
DEFAULT_255_2_778
10
15.9629249
20
-0.1180368
40
0.1644264
50
194.4973028
51
250.0079236
0
ARC
8
DEFAULT_255_2_778
10
16.8177268
20
1.5889297
40
2.0724571
50
243.9226984
51
244.8463261
0
ARC
8
DEFAULT_255_2_778
10
15.8023901
20
-0.3415054
40
0.145073
50
22.0688925
51
63.1261042
0
ARC
8
DEFAULT_255_2_778
10
12.3320752
20
-5.8008362
40
6.6133583
50
57.6792067
51
57.8129686
0
ARC
8
DEFAULT_255_2_778
10
15.9264933
20
-0.0701846
40
0.1516354
50
215.9461793
51
241.8310025
0
ARC
8
DEFAULT_255_2_778
10
16.2865854
20
2.0627581
40
0.0780563
50
249.174049
51
269.5310193
0
ARC
8
DEFAULT_255_2_778
10
16.2809568
20
2.0755979
40
0.0910304
50
273.142109
51
314.3678348
0
ARC
8
DEFAULT_255_2_778
10
16.5180166
20
1.8311201
40
0.2495098
50
125.5761233
51
134.0260814
0
ARC
8
DEFAULT_255_2_778
10
16.3809785
20
2.0208961
40
0.0154659
50
92.8635059
51
121.6816728
0
ARC
8
DEFAULT_255_2_778
10
16.378998
20
2.0240118
40
0.0123899
50
19.3079211
51
84.4058401
0
ARC
8
DEFAULT_255_2_778
10
16.3554656
20
2.0092179
40
0.0399711
50
24.5125815
51
28.2034978
0
ARC
8
DEFAULT_255_2_778
10
20.2974001
20
-2.9136527
40
6.2969561
50
128.3329913
51
129.0369595
0
ARC
8
DEFAULT_255_2_778
10
-70.7029026
20
109.61642
40
138.4237197
50
308.9468464
51
308.9581889
0
ARC
8
DEFAULT_255_2_778
10
15.1212294
20
3.3490168
40
1.828183
50
298.9109822
51
310.5656305
0
ARC
8
DEFAULT_255_2_778
10
15.4646663
20
2.7797675
40
1.1641214
50
293.9287345
51
297.6592043
0
ARC
8
DEFAULT_255_2_778
10
15.3991994
20
2.936828
40
1.3342416
50
289.7714438
51
293.7628169
0
ARC
8
DEFAULT_255_2_778
10
14.467109
20
5.5712804
40
4.1287127
50
287.8162306
51
289.5770179
0
ARC
8
DEFAULT_255_2_778
10
15.9323276
20
0.8370504
40
0.8285153
50
104.1098596
51
129.222112
0
ARC
8
DEFAULT_255_2_778
10
15.380581
20
1.9814001
40
0.5032699
50
273.1725992
51
273.7849954
0
ARC
8
DEFAULT_255_2_778
10
15.301018
20
2.4180842
40
0.9456064
50
276.8501377
51
298.6446663
0
ARC
8
DEFAULT_255_2_778
10
13.515201
20
6.1602395
40
5.0908836
50
296.0929708
51
297.1139597
0
ARC
8
DEFAULT_255_2_778
10
18.1593063
20
-2.8598217
40
5.054546
50
115.634886
51
117.3715847
0
ARC
8
DEFAULT_255_2_778
10
18.5305863
20
-3.065983
40
5.4066218
50
117.458896
51
118.2378729
0
ARC
8
DEFAULT_255_2_778
10
30.7425641
20
-26.6145919
40
31.9333873
50
117.2281009
51
117.418794
0
ARC
8
DEFAULT_255_2_778
10
14.9419851
20
4.2006967
40
2.6970773
50
296.1808314
51
303.546409
0
ARC
8
DEFAULT_255_2_778
10
15.8587294
20
2.7765317
40
1.0037817
50
304.8571394
51
308.3932888
0
ARC
8
DEFAULT_255_2_778
10
16.2119199
20
2.307993
40
0.4174463
50
310.3385351
51
322.4529725
0
ARC
8
DEFAULT_255_2_778
10
-209.679904
20
186.7740173
40
292.0588781
50
320.7669173
51
320.769699
0
ARC
8
DEFAULT_255_2_778
10
16.7436734
20
1.9377128
40
0.2299714
50
110.1550511
51
146.5189152
0
ARC
8
DEFAULT_255_2_778
10
16.8098544
20
1.6281203
40
0.5452317
50
94.3144962
51
105.4687724
0
ARC
8
DEFAULT_255_2_778
10
16.8081108
20
1.6430465
40
0.530217
50
89.9971956
51
94.2479538
0
ARC
8
DEFAULT_255_2_778
10
16.7664915
20
1.364976
40
0.8093596
50
58.0373723
51
87.0505708
0
ARC
8
DEFAULT_255_2_778
10
15.4583367
20
-1.1249822
40
3.6203123
50
60.6875449
51
61.3352992
0
ARC
8
DEFAULT_255_2_778
10
20.9216105
20
8.5118355
40
7.4574418
50
240.3352318
51
241.288282
0
ARC
8
DEFAULT_255_2_778
10
16.7479231
20
1.434643
40
0.7983825
50
42.2357252
51
89.9790383
0
ARC
8
DEFAULT_255_2_778
10
16.7482397
20
1.4356975
40
0.7973278
50
90.0017658
51
97.2778055
0
ARC
8
DEFAULT_255_2_778
10
16.7016306
20
2.0516319
40
0.1832304
50
107.270042
51
134.3907952
0
ARC
8
DEFAULT_255_2_778
10
18.1517811
20
0.3385813
40
2.4272207
50
130.5613447
51
131.060091
0
ARC
8
DEFAULT_255_2_778
10
16.3624873
20
2.3717629
40
0.2814712
50
295.4481767
51
313.8437251
0
ARC
8
DEFAULT_255_2_778
10
16.3644085
20
2.4664333
40
0.3685793
50
274.3687184
51
288.8402429
0
ARC
8
DEFAULT_255_2_778
10
15.6892354
20
8.1247414
40
6.0667143
50
276.5577303
51
276.6566541
0
ARC
8
DEFAULT_255_2_778
10
16.3948873
20
1.8016057
40
0.2963911
50
92.4765718
51
113.3609519
0
ARC
8
DEFAULT_255_2_778
10
16.3057985
20
2.0185384
40
0.0620603
50
117.2719234
51
183.1056598
0
ARC
8
DEFAULT_255_2_778
10
16.3643864
20
2.0159299
40
0.1205593
50
180.3582111
51
190.0272906
0
ARC
8
DEFAULT_255_2_778
10
16.4023923
20
2.0217336
40
0.1589978
50
189.7021046
51
191.5856885
0
ARC
8
DEFAULT_255_2_778
10
12.0071082
20
0.962227
40
0.1556468
50
276.5836952
51
318.3076898
0
ARC
8
DEFAULT_255_2_778
10
11.9679673
20
1.143521
40
0.3407141
50
269.6809226
51
279.6283357
0
ARC
8
DEFAULT_255_2_778
10
11.9667183
20
1.2596781
40
0.4568662
50
264.9195625
51
269.918681
0
ARC
8
DEFAULT_255_2_778
10
11.9719558
20
1.3276277
40
0.5250132
50
248.8354398
51
265.0068935
0
ARC
8
DEFAULT_255_2_778
10
11.8842147
20
1.0990327
40
0.2801598
50
239.0744635
51
248.6900402
0
ARC
8
DEFAULT_255_2_778
10
11.7761935
20
0.8289555
40
0.0466682
50
140.4020817
51
174.6946846
0
ARC
8
DEFAULT_255_2_778
10
11.7686256
20
0.8306496
40
0.0389887
50
176.1454032
51
180.0143626
0
ARC
8
DEFAULT_255_2_778
10
11.7762384
20
0.8311055
40
0.0466037
50
180.5725909
51
198.4410011
0
ARC
8
DEFAULT_255_2_778
10
11.9191126
20
0.8926394
40
0.2020366
50
202.18109
51
215.4801441
0
ARC
8
DEFAULT_255_2_778
10
11.6465663
20
0.697623
40
0.1330955
50
2.4009945
51
35.7442507
0
ARC
8
DEFAULT_255_2_778
10
11.6659077
20
0.7036364
40
0.113638
50
346.1333746
51
359.7793588
0
ARC
8
DEFAULT_255_2_778
10
11.7791115
20
1.9445591
40
1.2681608
50
269.8699914
51
274.4578527
0
ARC
8
DEFAULT_255_2_778
10
11.8515769
20
1.2168284
40
0.5372281
50
272.7850405
51
291.9917609
0
ARC
8
DEFAULT_255_2_778
10
12.0185875
20
0.8240168
40
0.1107297
50
287.9725558
51
356.7193785
0
ARC
8
DEFAULT_255_2_778
10
12.0048442
20
0.8167226
40
0.1242953
50
0.4414111
51
14.8021833
0
ARC
8
DEFAULT_255_2_778
10
11.9669411
20
0.8079371
40
0.1631895
50
14.3844851
51
18.1241321
0
ARC
8
DEFAULT_255_2_778
10
16.2495838
20
1.9135803
40
0.311355
50
85.3298696
51
90.2720208
0
ARC
8
DEFAULT_255_2_778
10
16.2541166
20
1.2748563
40
0.9500943
50
90.3625
51
92.4369039
0
LINE
8
DEFAULT_255_2_778
10
16.2137194
20
2.2240916
11
16.2133664
21
2.2240787
0
ARC
8
DEFAULT_255_2_778
10
16.1735109
20
3.1636294
40
0.9403956
50
270.3540248
51
272.4290183
0
ARC
8
DEFAULT_255_2_778
10
16.1685397
20
2.380227
40
0.1573452
50
241.156727
51
273.929143
0
ARC
8
DEFAULT_255_2_778
10
16.0536253
20
2.2795765
40
0.0538856
50
316.378831
51
4.2798824
0
ARC
8
DEFAULT_255_2_778
10
16.2298442
20
2.2827967
40
0.1224861
50
149.9265269
51
179.6251759
0
ARC
8
DEFAULT_255_2_778
10
16.2303796
20
2.2797867
40
0.1244796
50
144.8220899
51
148.8510087
0
ARC
8
DEFAULT_255_2_778
10
15.946537
20
2.4076827
40
0.1905666
50
342.8538092
51
359.646991
0
ARC
8
DEFAULT_255_2_778
10
15.9817107
20
2.4072071
40
0.1553908
50
359.7424371
51
19.0016528
0
ARC
8
DEFAULT_255_2_778
10
15.2640584
20
1.9770239
40
0.9892614
50
29.0777862
51
29.1581595
0
ARC
8
DEFAULT_255_2_778
10
15.5547562
20
2.1507327
40
0.6508445
50
28.2723657
51
43.3318847
0
ARC
8
DEFAULT_255_2_778
10
15.5494182
20
2.1283277
40
0.6702212
50
44.4120139
51
56.1616954
0
ARC
8
DEFAULT_255_2_778
10
15.041128
20
1.3916731
40
1.5651836
50
55.7229547
51
59.0131468
0
ARC
8
DEFAULT_255_2_778
10
14.1323039
20
-0.0969866
40
3.3093144
50
58.7932979
51
59.3667636
0
ARC
8
DEFAULT_255_2_778
10
14.9158731
20
1.2271953
40
1.7706662
50
59.3504206
51
63.1382434
0
ARC
8
DEFAULT_255_2_778
10
15.2066379
20
1.7884469
40
1.1386098
50
63.4298821
51
64.2356499
0
ARC
8
DEFAULT_255_2_778
10
15.357026
20
2.1227811
40
0.7722059
50
63.5020097
51
83.6113517
0
ARC
8
DEFAULT_255_2_778
10
15.3357813
20
1.9163099
40
0.9797605
50
83.7202233
51
90.1779135
0
ARC
8
DEFAULT_255_2_778
10
15.3349725
20
1.547021
40
1.3490466
50
90.094862
51
93.8797384
0
ARC
8
DEFAULT_255_2_778
10
15.3676003
20
1.0580907
40
1.8390641
50
93.863251
51
96.7819358
0
ARC
8
DEFAULT_255_2_778
10
15.4007922
20
0.7545438
40
2.1444088
50
96.7048107
51
96.8821217
0
ARC
8
DEFAULT_255_2_778
10
16.7178285
20
-17.101694
40
20.0470821
50
94.5032068
51
95.0677807
0
ARC
8
DEFAULT_255_2_778
10
16.078277
20
-9.952797
40
12.8696379
50
95.0430302
51
96.4331451
0
ARC
8
DEFAULT_255_2_778
10
15.6313333
20
-6.0059411
40
8.8975573
50
96.420854
51
98.5891205
0
ARC
8
DEFAULT_255_2_778
10
15.0621568
20
-2.4253035
40
5.2721469
50
98.2844619
51
105.1895678
0
ARC
8
DEFAULT_255_2_778
10
14.4283668
20
-0.059307
40
2.8227587
50
105.3575294
51
112.5694563
0
ARC
8
DEFAULT_255_2_778
10
13.9752762
20
1.0235323
40
1.6489535
50
112.4723903
51
122.7560559
0
ARC
8
DEFAULT_255_2_778
10
13.7289695
20
1.4239883
40
1.178948
50
123.2193366
51
126.3110206
0
ARC
8
DEFAULT_255_2_778
10
13.7722941
20
1.3740215
40
1.2448788
50
126.5560089
51
141.0149107
0
ARC
8
DEFAULT_255_2_778
10
14.3297735
20
0.9209589
40
1.9632433
50
140.9726051
51
147.8973251
0
ARC
8
DEFAULT_255_2_778
10
18.356598
20
-1.5946807
40
6.7112677
50
147.9743058
51
149.9581217
0
ARC
8
DEFAULT_255_2_778
10
7.0664632
20
4.9872692
40
6.3574504
50
328.8826879
51
329.5479068
0
ARC
8
DEFAULT_255_2_778
10
10.6433827
20
2.8172569
40
2.1737848
50
325.3156315
51
329.1264402
0
ARC
8
DEFAULT_255_2_778
10
11.3723636
20
2.3212875
40
1.2921291
50
323.5883162
51
325.0054528
0
ARC
8
DEFAULT_255_2_778
10
9.0498515
20
-3.796147
40
6.3192496
50
57.8535127
51
58.7030344
0
ARC
8
DEFAULT_255_2_778
10
8.3868559
20
-4.8865119
40
7.5953604
50
58.7022455
51
59.4243575
0
ARC
8
DEFAULT_255_2_778
10
6.7112908
20
-7.7429799
40
10.9069842
50
59.4791129
51
60.826235
0
ARC
8
DEFAULT_255_2_778
10
-1.1894921
20
-21.940505
40
27.1548115
50
60.87306
51
61.6957006
0
ARC
8
DEFAULT_255_2_778
10
41.6001003
20
57.5173862
40
63.0921037
50
241.3075883
51
241.6971121
0
ARC
8
DEFAULT_255_2_778
10
16.0759644
20
11.0435745
40
10.0707971
50
236.3966339
51
241.7491038
0
ARC
8
DEFAULT_255_2_778
10
12.940267
20
6.2820305
40
4.3696022
50
229.248779
51
236.0879121
0
ARC
8
DEFAULT_255_2_778
10
11.7923946
20
4.9530529
40
2.6135312
50
219.3598539
51
229.2936643
0
ARC
8
DEFAULT_255_2_778
10
11.365353
20
4.584101
40
2.0494177
50
218.0337785
51
218.9561354
0
ARC
8
DEFAULT_255_2_778
10
11.6561485
20
4.7655741
40
2.390547
50
205.3264159
51
217.1654029
0
ARC
8
DEFAULT_255_2_778
10
10.925654
20
4.4360085
40
1.5893508
50
180.8250438
51
205.8526594
0
ARC
8
DEFAULT_255_2_778
10
10.6591586
20
4.4137572
40
1.3226907
50
168.5182349
51
180.0274688
0
ARC
8
DEFAULT_255_2_778
10
10.6986238
20
4.4045955
40
1.3631902
50
159.2526961
51
168.4710529
0
ARC
8
DEFAULT_255_2_778
10
9.1796447
20
5.1461509
40
0.3557075
50
313.3528102
51
334.3437708
0
ARC
8
DEFAULT_255_2_778
10
1.4343974
20
9.3423003
40
9.1641908
50
331.6607571
51
331.845582
0
ARC
8
DEFAULT_255_2_778
10
9.9338441
20
4.8057252
40
0.4702953
50
143.2671535
51
153.1439127
0
ARC
8
DEFAULT_255_2_778
10
9.321565
20
5.1108062
40
0.2365696
50
354.2248818
51
359.8812215
0
ARC
8
DEFAULT_255_2_778
10
9.3709464
20
5.1108232
40
0.1871885
50
359.8446765
51
12.1113252
0
ARC
8
DEFAULT_255_2_778
10
9.2744649
20
5.0908965
40
0.2857043
50
11.9589684
51
13.4228407
0
ARC
8
DEFAULT_255_2_778
10
9.714037
20
5.204113
40
0.168336
50
186.1369792
51
196.1752267
0
ARC
8
DEFAULT_255_2_778
10
9.5991527
20
5.1888363
40
0.0525574
50
180.0159212
51
182.9659602
0
ARC
8
DEFAULT_255_2_778
10
9.6032156
20
5.1874395
40
0.0566373
50
144.9599385
51
178.6015999
0
ARC
8
DEFAULT_255_2_778
10
9.5928673
20
5.1974304
40
0.0424874
50
147.751239
51
147.9801271
0
ARC
8
DEFAULT_255_2_778
10
7.1501178
20
7.8858001
40
3.5914777
50
312.0783709
51
317.6786128
0
ARC
8
DEFAULT_255_2_778
10
-483.5043782
20
467.2112813
40
675.6936098
50
316.893048
51
316.8981814
0
ARC
8
DEFAULT_255_2_778
10
11.5396006
20
4.0630334
40
2.2280644
50
122.4183852
51
139.437297
0
ARC
8
DEFAULT_255_2_778
10
10.9422143
20
4.9144408
40
1.1900487
50
111.5893429
51
120.1140081
0
ARC
8
DEFAULT_255_2_778
10
10.6948814
20
6.2100932
40
0.2684473
50
224.7802795
51
272.4766546
0
ARC
8
DEFAULT_255_2_778
10
10.7031843
20
6.4038517
40
0.461967
50
270.4089542
51
284.0184331
0
ARC
8
DEFAULT_255_2_778
10
10.6589024
20
6.5742649
40
0.6380338
50
284.1695931
51
305.8342
0
ARC
8
DEFAULT_255_2_778
10
10.5552279
20
6.7182336
40
0.8154468
50
305.817696
51
310.4051314
0
ARC
8
DEFAULT_255_2_778
10
10.4142245
20
6.8844691
40
1.0334285
50
310.384029
51
314.2751143
0
ARC
8
DEFAULT_255_2_778
10
10.1259774
20
7.1707873
40
1.4396725
50
314.5339508
51
323.2622563
0
ARC
8
DEFAULT_255_2_778
10
9.7677267
20
7.4422993
40
1.8891766
50
323.1622968
51
333.982713
0
ARC
8
DEFAULT_255_2_778
10
9.962184
20
7.3585706
40
1.6777283
50
333.6393786
51
347.0150193
0
ARC
8
DEFAULT_255_2_778
10
10.4132949
20
7.2494046
40
1.213634
50
347.2516312
51
356.271233
0
ARC
8
DEFAULT_255_2_778
10
10.6167928
20
7.2328991
40
1.0094986
50
356.4549197
51
359.9715584
0
ARC
8
DEFAULT_255_2_778
10
10.8121291
20
7.2381087
40
0.8141822
50
359.5981231
51
14.8159739
0
ARC
8
DEFAULT_255_2_778
10
10.9527577
20
7.2710651
40
0.6698143
50
15.1667068
51
22.2418859
0
ARC
8
DEFAULT_255_2_778
10
10.779596
20
7.2728646
40
0.8321294
50
17.6091076
51
22.9740024
0
ARC
8
DEFAULT_255_2_778
10
10.6577828
20
7.2222997
40
0.9640174
50
22.9150982
51
30.4062388
0
ARC
8
DEFAULT_255_2_778
10
10.6552488
20
7.2216994
40
0.9665068
50
30.3608984
51
39.8593248
0
ARC
8
DEFAULT_255_2_778
10
10.6789215
20
7.2412591
40
0.9357993
50
39.8689715
51
48.9417624
0
ARC
8
DEFAULT_255_2_778
10
10.6824864
20
7.2448542
40
0.930747
50
48.9618771
51
56.7922982
0
ARC
8
DEFAULT_255_2_778
10
11.033297
20
7.7944051
40
0.2789121
50
55.2605158
51
69.3962164
0
ARC
8
DEFAULT_255_2_778
10
10.9919138
20
7.705757
40
0.3765283
50
68.2486868
51
68.29998
0
ARC
8
DEFAULT_255_2_778
10
10.3799193
20
6.4996736
40
1.7277834
50
64.2283701
51
69.1302163
0
ARC
8
DEFAULT_255_2_778
10
11.4596296
20
8.5885199
40
0.6637396
50
225.6239999
51
236.8354544
0
ARC
8
DEFAULT_255_2_778
10
10.5581864
20
7.179812
40
1.0100323
50
22.6331169
51
55.9832528
0
ARC
8
DEFAULT_255_2_778
10
10.1229126
20
7.2361473
40
1.4073287
50
5.1565738
51
13.6599929
0
ARC
8
DEFAULT_255_2_778
10
10.248259
20
7.2489701
40
1.2813382
50
3.7159256
51
5.0892728
0
ARC
8
DEFAULT_255_2_778
10
10.3672782
20
7.2558961
40
1.1621206
50
0.0508441
51
3.755476
0
ARC
8
DEFAULT_255_2_778
10
10.7803467
20
7.2442552
40
0.7491588
50
344.0198095
51
0.969211
0
ARC
8
DEFAULT_255_2_778
10
11.1645033
20
7.1346293
40
0.3496669
50
320.5822867
51
343.9590792
0
ARC
8
DEFAULT_255_2_778
10
15.7768491
20
7.9624097
40
4.4673179
50
192.4283745
51
193.5914701
0
ARC
8
DEFAULT_255_2_778
10
113.7240438
20
29.4629074
40
104.7465483
50
192.3388549
51
192.3827311
0
ARC
8
DEFAULT_255_2_778
10
7.9110781
20
6.3135099
40
3.5690951
50
12.3899939
51
13.2832229
0
ARC
8
DEFAULT_255_2_778
10
9.726434
20
6.7466386
40
1.702795
50
13.1339601
51
18.4411027
0
ARC
8
DEFAULT_255_2_778
10
9.4450025
20
6.6475149
40
2.0011369
50
18.5845034
51
21.9150302
0
ARC
8
DEFAULT_255_2_778
10
8.7259421
20
6.364476
40
2.7738818
50
21.7954412
51
22.1406813
0
ARC
8
DEFAULT_255_2_778
10
9.3561897
20
6.6314567
40
2.0895105
50
21.8729212
51
28.4049242
0
ARC
8
DEFAULT_255_2_778
10
9.8759616
20
6.9093196
40
1.5001384
50
28.5135886
51
38.4231258
0
ARC
8
DEFAULT_255_2_778
10
10.5421839
20
7.4306838
40
0.6542059
50
38.911322
51
70.2155666
0
ARC
8
DEFAULT_255_2_778
10
10.3815046
20
7.0257066
40
1.0897571
50
69.4733122
51
83.8941969
0
ARC
8
DEFAULT_255_2_778
10
10.3268406
20
6.6086569
40
1.5102883
50
83.5150314
51
90.1091559
0
ARC
8
DEFAULT_255_2_778
10
10.3256321
20
6.333913
40
1.7850302
50
90.0535646
51
94.8477222
0
ARC
8
DEFAULT_255_2_778
10
10.347476
20
6.0967317
40
2.0232099
50
94.8964903
51
108.0383697
0
ARC
8
DEFAULT_255_2_778
10
10.2279173
20
6.4536066
40
1.6468569
50
107.9279196
51
116.2351406
0
ARC
8
DEFAULT_255_2_778
10
9.9786458
20
6.9554392
40
1.0865288
50
116.1425834
51
125.4955011
0
ARC
8
DEFAULT_255_2_778
10
9.7604832
20
7.266547
40
0.7065696
50
125.7405399
51
132.3898485
0
ARC
8
DEFAULT_255_2_778
10
13.5650387
20
-3.5880236
40
12.1552127
50
110.1430329
51
110.6211245
0
ARC
8
DEFAULT_255_2_778
10
11.1684586
20
3.0154276
40
5.130414
50
106.3230297
51
110.4110802
0
ARC
8
DEFAULT_255_2_778
10
10.4958988
20
5.2995976
40
2.7492911
50
100.1849253
51
106.2505288
0
ARC
8
DEFAULT_255_2_778
10
10.3201409
20
6.2889696
40
1.744432
50
91.094003
51
100.2492393
0
ARC
8
DEFAULT_255_2_778
10
10.3050945
20
6.6415986
40
1.3916049
50
90.0011031
51
90.7518188
0
ARC
8
DEFAULT_255_2_778
10
10.3290773
20
7.0469465
40
0.9865492
50
61.7761424
51
91.3945426
0
ARC
8
DEFAULT_255_2_778
10
10.4494802
20
7.3336587
40
0.6776272
50
35.0738663
51
59.2807233
0
ARC
8
DEFAULT_255_2_778
10
10.167077
20
7.1171589
40
1.0332646
50
13.6388499
51
35.900567
0
ARC
8
DEFAULT_255_2_778
10
10.36221
20
7.1626757
40
0.8329031
50
1.7712288
51
13.7612516
0
ARC
8
DEFAULT_255_2_778
10
10.5039601
20
7.1710402
40
0.6909739
50
0.0050903
51
1.4412711
0
ARC
8
DEFAULT_255_2_778
10
10.2477259
20
7.120598
40
0.9485535
50
0.0133671
51
3.0520285
0
ARC
8
DEFAULT_255_2_778
10
10.3704647
20
7.1154128
40
0.8258323
50
336.083592
51
0.375104
0
ARC
8
DEFAULT_255_2_778
10
10.0604872
20
7.3303567
40
1.1984281
50
293.7011443
51
332.6956586
0
ARC
8
DEFAULT_255_2_778
10
9.6268595
20
8.0612632
40
2.0445984
50
295.8795009
51
296.5958493
0
ARC
8
DEFAULT_255_2_778
10
9.596607
20
8.1237763
40
2.1140469
50
294.8264441
51
295.8776839
0
ARC
8
DEFAULT_255_2_778
10
10.3511661
20
6.2756339
40
0.150605
50
332.0742904
51
1.2194424
0
ARC
8
DEFAULT_255_2_778
10
10.03169
20
6.2636333
40
0.4702929
50
1.8528343
51
11.3445012
0
ARC
8
DEFAULT_255_2_778
10
11.060828
20
6.462615
40
0.577926
50
183.8906175
51
190.6162558
0
ARC
8
DEFAULT_255_2_778
10
10.3147383
20
6.2216926
40
0.2634678
50
49.9597348
51
77.3708766
0
ARC
8
DEFAULT_255_2_778
10
10.2112088
20
5.8268802
40
0.6715246
50
76.1162707
51
90.359486
0
ARC
8
DEFAULT_255_2_778
10
10.2027244
20
5.6213337
40
0.8770683
50
89.7209793
51
89.999998
0
ARC
8
DEFAULT_255_2_778
10
10.2013785
20
5.6377134
40
0.8606897
50
89.9103996
51
100.6048779
0
ARC
8
DEFAULT_255_2_778
10
10.1617333
20
5.8655042
40
0.6295006
50
100.8736941
51
103.8883366
0
ARC
8
DEFAULT_255_2_778
10
10.2714047
20
5.5856311
40
0.9283478
50
106.3137846
51
144.9422068
0
ARC
8
DEFAULT_255_2_778
10
10.7797142
20
5.142418
40
1.6005871
50
142.4059626
51
149.196251
0
ARC
8
DEFAULT_255_2_778
10
10.9004928
20
5.068018
40
1.7424283
50
149.1287265
51
154.5226084
0
ARC
8
DEFAULT_255_2_778
10
10.7905687
20
5.1193305
40
1.6211218
50
154.4886148
51
158.5786861
0
ARC
8
DEFAULT_255_2_778
10
9.3840868
20
5.7599847
40
0.113569
50
205.3270936
51
238.9401266
0
ARC
8
DEFAULT_255_2_778
10
9.6250584
20
6.083741
40
0.5167366
50
234.5687154
51
237.3809209
0
ARC
8
DEFAULT_255_2_778
10
9.1377942
20
5.2886292
40
0.4160232
50
50.4159211
51
59.8878087
0
ARC
8
DEFAULT_255_2_778
10
9.3847269
20
5.5861216
40
0.02941
50
6.942031
51
51.8645359
0
ARC
8
DEFAULT_255_2_778
10
9.3965867
20
5.5901663
40
0.0173414
50
316.828504
51
358.3807417
0
ARC
8
DEFAULT_255_2_778
10
9.3455787
20
5.4838851
40
0.1138704
50
56.0123013
51
91.846524
0
ARC
8
DEFAULT_255_2_778
10
9.3232205
20
5.2002971
40
0.3978386
50
87.3074478
51
90.1162623
0
ARC
8
DEFAULT_255_2_778
10
9.3287992
20
4.5487594
40
1.049395
50
90.3486717
51
92.5351034
0
ARC
8
DEFAULT_255_2_778
10
9.7161769
20
-5.6572159
40
11.2627003
50
92.2073492
51
92.222906
0
ARC
8
DEFAULT_255_2_778
10
9.2284321
20
6.7180951
40
1.1222408
50
270.4109978
51
272.5993307
0
ARC
8
DEFAULT_255_2_778
10
9.2349394
20
5.9408508
40
0.3449712
50
265.8099387
51
270.2562388
0
ARC
8
DEFAULT_255_2_778
10
9.3890708
20
5.2848354
40
0.3598396
50
119.8928711
51
142.5343423
0
ARC
8
DEFAULT_255_2_778
10
9.4599268
20
5.2572411
40
0.4333832
50
145.3380328
51
179.300176
0
ARC
8
DEFAULT_255_2_778
10
10.0573918
20
5.2004609
40
1.0326832
50
176.5539349
51
180.1254195
0
ARC
8
DEFAULT_255_2_778
10
11.3287239
20
5.2147128
40
2.304072
50
180.4106207
51
183.7589536
0
ARC
8
DEFAULT_255_2_778
10
24.369507
20
5.9791086
40
15.3671899
50
183.4152252
51
183.5886874
0
ARC
8
DEFAULT_255_2_778
10
5.9657536
20
4.7972469
40
3.0745763
50
0.546368
51
4.1028345
0
ARC
8
DEFAULT_255_2_778
10
7.6538539
20
4.825128
40
1.386337
50
357.4552431
51
0.059405
0
ARC
8
DEFAULT_255_2_778
10
8.040206
20
4.8055394
40
0.999499
50
351.0126653
51
357.5936969
0
ARC
8
DEFAULT_255_2_778
10
8.8235299
20
4.6880735
40
0.2075389
50
329.1317787
51
349.260978
0
ARC
8
DEFAULT_255_2_778
10
9.1440405
20
4.4822933
40
0.1735783
50
145.1052285
51
167.9354926
0
ARC
8
DEFAULT_255_2_778
10
9.0163345
20
4.5162895
40
0.0421005
50
176.8901765
51
179.9835718
0
ARC
8
DEFAULT_255_2_778
10
9.1133566
20
4.5142584
40
0.1391376
50
179.1586119
51
179.9940839
0
ARC
8
DEFAULT_255_2_778
10
9.2482133
20
4.5328793
40
0.2746253
50
183.8848919
51
207.1979803
0
ARC
8
DEFAULT_255_2_778
10
8.7508881
20
4.2750309
40
0.2855729
50
8.1805295
51
27.6048674
0
ARC
8
DEFAULT_255_2_778
10
8.9381947
20
4.3106655
40
0.0954917
50
0.0182612
51
3.0016075
0
ARC
8
DEFAULT_255_2_778
10
8.9564714
20
4.3099487
40
0.0772185
50
336.7778052
51
0.554444
0
ARC
8
DEFAULT_255_2_778
10
8.4970002
20
3.3196426
40
1.0966719
50
56.0245509
51
61.0742399
0
ARC
8
DEFAULT_255_2_778
10
-1188.9227054
20
-1825.2515468
40
2186.8427979
50
56.781089
51
56.7812777
0
ARC
8
DEFAULT_255_2_778
10
9.5726951
20
4.8813012
40
0.7995117
50
235.1549895
51
245.8610483
0
ARC
8
DEFAULT_255_2_778
10
14.7639509
20
6.0388638
40
5.8319893
50
198.8800561
51
205.052058
0
ARC
8
DEFAULT_255_2_778
10
11.4559694
20
4.4696569
40
2.1708439
50
204.5018935
51
224.2743652
0
ARC
8
DEFAULT_255_2_778
10
13.2379512
20
7.382193
40
5.544197
50
233.0034142
51
233.9629199
0
ARC
8
DEFAULT_255_2_778
10
13.4933042
20
7.7316462
40
5.9770039
50
233.9542787
51
234.2554125
0
ARC
8
DEFAULT_255_2_778
10
14.4912783
20
9.1461153
40
7.7080352
50
234.3766474
51
237.3950282
0
ARC
8
DEFAULT_255_2_778
10
17.0513335
20
13.1445133
40
12.4557785
50
237.3854023
51
239.6287932
0
ARC
8
DEFAULT_255_2_778
10
23.8313525
20
24.793918
40
25.9345212
50
239.7179573
51
241.597917
0
LINE
8
DEFAULT_255_2_778
10
11.495437
20
1.9811018
11
11.4994292
21
1.9789286
0
ARC
8
DEFAULT_255_2_778
10
14.9868532
20
8.3842433
40
7.29316
50
241.4335699
51
241.451354
0
LINE
8
DEFAULT_255_2_778
10
11.5014175
20
1.9778464
11
11.5034019
21
1.9767665
0
LINE
8
DEFAULT_255_2_778
10
11.5034019
20
1.9767665
11
11.5053825
21
1.9756887
0
LINE
8
DEFAULT_255_2_778
10
11.5053825
20
1.9756887
11
11.5073591
21
1.9746132
0
LINE
8
DEFAULT_255_2_778
10
11.5073591
20
1.9746132
11
11.5093319
21
1.9735399
0
LINE
8
DEFAULT_255_2_778
10
11.5093319
20
1.9735399
11
11.5113008
21
1.9724688
0
LINE
8
DEFAULT_255_2_778
10
11.5113008
20
1.9724688
11
11.5132659
21
1.9713999
0
LINE
8
DEFAULT_255_2_778
10
11.5132659
20
1.9713999
11
11.5152271
21
1.9703332
0
LINE
8
DEFAULT_255_2_778
10
11.5152271
20
1.9703332
11
11.5171845
21
1.9692686
0
LINE
8
DEFAULT_255_2_778
10
11.5171845
20
1.9692686
11
11.519138
21
1.9682063
0
LINE
8
DEFAULT_255_2_778
10
11.519138
20
1.9682063
11
11.5210878
21
1.9671462
0
LINE
8
DEFAULT_255_2_778
10
11.5210878
20
1.9671462
11
11.5230337
21
1.9660882
0
ARC
8
DEFAULT_255_2_778
10
14.8445859
20
8.0733162
40
6.952046
50
241.459455
51
241.477673
0
LINE
8
DEFAULT_255_2_778
10
11.5249757
20
1.9650324
11
11.5288522
21
1.9629253
0
LINE
8
DEFAULT_255_2_778
10
11.5288522
20
1.9629253
11
11.5327135
21
1.9608268
0
ARC
8
DEFAULT_255_2_778
10
18.8545629
20
15.4313856
40
15.3318437
50
241.4739476
51
241.486216
0
LINE
8
DEFAULT_255_2_778
10
11.5355981
20
1.9592594
11
11.5375155
21
1.9582176
0
LINE
8
DEFAULT_255_2_778
10
11.5375155
20
1.9582176
11
11.5413427
21
1.9561385
0
LINE
8
DEFAULT_255_2_778
10
11.5413427
20
1.9561385
11
11.5432488
21
1.9551032
0
LINE
8
DEFAULT_255_2_778
10
11.5432488
20
1.9551032
11
11.5470534
21
1.9530369
0
LINE
8
DEFAULT_255_2_778
10
11.5470534
20
1.9530369
11
11.5489483
21
1.9520079
0
ARC
8
DEFAULT_255_2_778
10
-11.6020654
20
-40.6906805
40
48.5218333
50
61.4970734
51
61.5021554
0
LINE
8
DEFAULT_255_2_778
10
11.5527305
20
1.9499543
11
11.5564978
21
1.9479092
0
LINE
8
DEFAULT_255_2_778
10
11.5564978
20
1.9479092
11
11.5602502
21
1.9458724
0
LINE
8
DEFAULT_255_2_778
10
11.5602502
20
1.9458724
11
11.5639879
21
1.943844
0
LINE
8
DEFAULT_255_2_778
10
11.5639879
20
1.943844
11
11.5677108
21
1.941824
0
LINE
8
DEFAULT_255_2_778
10
11.5677108
20
1.941824
11
11.5695649
21
1.940818
0
LINE
8
DEFAULT_255_2_778
10
11.5695649
20
1.940818
11
11.5732657
21
1.9388104
0
LINE
8
DEFAULT_255_2_778
10
11.5732657
20
1.9388104
11
11.5751088
21
1.9378107
0
LINE
8
DEFAULT_255_2_778
10
11.5751088
20
1.9378107
11
11.5787878
21
1.9358154
0
ARC
8
DEFAULT_255_2_778
10
6.1494541
20
-8.0780706
40
11.3910305
50
61.5238308
51
61.5343145
0
LINE
8
DEFAULT_255_2_778
10
11.58062
20
1.9348218
11
11.5824485
21
1.9338303
0
LINE
8
DEFAULT_255_2_778
10
11.5824485
20
1.9338303
11
11.5842735
21
1.9328408
0
LINE
8
DEFAULT_255_2_778
10
11.5842735
20
1.9328408
11
11.5879162
21
1.9308659
0
ARC
8
DEFAULT_255_2_778
10
-9.7004165
20
-37.344528
40
44.6738142
50
61.5358086
51
61.5411017
0
ARC
8
DEFAULT_255_2_778
10
20.3571435
20
18.097855
40
18.3921413
50
241.536761
51
241.5479656
0
LINE
8
DEFAULT_255_2_778
10
11.5947065
20
1.9271853
11
11.5983078
21
1.9252337
0
ARC
8
DEFAULT_255_2_778
10
-9.2052309
20
-36.4729014
40
43.6715468
50
61.5464713
51
61.5518238
0
LINE
8
DEFAULT_255_2_778
10
11.6018948
20
1.92329
11
11.6054676
21
1.9213544
0
ARC
8
DEFAULT_255_2_778
10
-8.8670778
20
-35.8778725
40
42.9872849
50
61.554063
51
61.5594573
0
LINE
8
DEFAULT_255_2_778
10
11.6090262
20
1.9194267
11
11.6107985
21
1.9184667
0
LINE
8
DEFAULT_255_2_778
10
11.6107985
20
1.9184667
11
11.6125672
21
1.9175088
0
LINE
8
DEFAULT_255_2_778
10
11.6125672
20
1.9175088
11
11.6160976
21
1.9155969
0
LINE
8
DEFAULT_255_2_778
10
11.6160976
20
1.9155969
11
11.6196139
21
1.9136928
0
LINE
8
DEFAULT_255_2_778
10
11.6196139
20
1.9136928
11
11.6213652
21
1.9127446
0
ARC
8
DEFAULT_255_2_778
10
-8.1255447
20
-34.5654038
40
41.4800646
50
61.5662616
51
61.5717519
0
LINE
8
DEFAULT_255_2_778
10
11.6248606
20
1.9108522
11
11.6266013
21
1.9099099
0
ARC
8
DEFAULT_255_2_778
10
-7.8841265
20
-34.1384631
40
40.9896779
50
61.5705678
51
61.5760904
0
LINE
8
DEFAULT_255_2_778
10
11.6300759
20
1.9080292
11
11.6318063
21
1.9070926
0
ARC
8
DEFAULT_255_2_778
10
-7.6448106
20
-33.7152542
40
40.5035745
50
61.5749262
51
61.5804815
0
LINE
8
DEFAULT_255_2_778
10
11.6352601
20
1.9052234
11
11.6387002
21
1.9033619
0
ARC
8
DEFAULT_255_2_778
10
-488.5349932
20
-922.5775591
40
1051.1130752
50
61.5847722
51
61.5851969
0
ARC
8
DEFAULT_255_2_778
10
17.327059
20
12.3993616
40
11.938315
50
241.5816947
51
241.5956049
0
LINE
8
DEFAULT_255_2_778
10
11.6481018
20
1.8982755
11
11.6497963
21
1.8973589
0
LINE
8
DEFAULT_255_2_778
10
11.6497963
20
1.8973589
11
11.6531783
21
1.8955297
0
LINE
8
DEFAULT_255_2_778
10
11.6531783
20
1.8955297
11
11.6548627
21
1.8946187
0
ARC
8
DEFAULT_255_2_778
10
-6.6021549
20
-31.8698174
40
38.3843176
50
61.593435
51
61.59914
0
LINE
8
DEFAULT_255_2_778
10
11.6582245
20
1.8928007
11
11.6598987
21
1.8918954
0
ARC
8
DEFAULT_255_2_778
10
-467.9382062
20
-885.1615488
40
1008.4037658
50
61.6010629
51
61.6014946
0
ARC
8
DEFAULT_255_2_778
10
-461.2457648
20
-872.9507411
40
994.4794638
50
61.6052089
51
61.6056431
0
LINE
8
DEFAULT_255_2_778
10
11.6732114
20
1.8846982
11
11.6748557
21
1.8838095
0
LINE
8
DEFAULT_255_2_778
10
11.6748557
20
1.8838095
11
11.6764967
21
1.8829226
0
LINE
8
DEFAULT_255_2_778
10
11.6764967
20
1.8829226
11
11.679772
21
1.8811525
0
ARC
8
DEFAULT_255_2_778
10
-5.5053215
20
-29.925114
40
36.1519851
50
61.6115368
51
61.6174135
0
LINE
8
DEFAULT_255_2_778
10
11.6830341
20
1.8793897
11
11.6862832
21
1.8776341
0
ARC
8
DEFAULT_255_2_778
10
-71109.9346657
20
-131877.9932023
40
149835.1937904
50
61.6622387
51
61.6624167
0
ARC
8
DEFAULT_255_2_778
10
-10.1218779
20
-39.5313482
40
46.7983705
50
61.1760787
51
61.6566419
0
ARC
8
DEFAULT_255_2_778
10
-1.1230276
20
-23.1356232
40
28.0954726
50
61.0226002
51
61.133749
0
ARC
8
DEFAULT_255_2_778
10
11.5212397
20
-0.2137934
40
1.9179996
50
53.4190209
51
59.7238522
0
ARC
8
DEFAULT_255_2_778
10
-20.5232143
20
-45.0943973
40
57.0639968
50
54.4233576
51
54.4379771
0
ARC
8
DEFAULT_255_2_778
10
19.3397487
20
10.6256458
40
11.4471637
50
234.4002419
51
234.5947442
0
ARC
8
DEFAULT_255_2_778
10
13.5390228
20
2.4114288
40
1.3916225
50
233.3211591
51
242.6282168
0
ARC
8
DEFAULT_255_2_778
10
13.122393
20
1.632046
40
0.5080807
50
243.9425166
51
251.578156
0
ARC
8
DEFAULT_255_2_778
10
13.0992021
20
1.5757272
40
0.4473392
50
252.1167628
51
260.7121204
0
ARC
8
DEFAULT_255_2_778
10
13.0825
20
1.4759615
40
0.346186
50
260.7752506
51
269.8626425
0
ARC
8
DEFAULT_255_2_778
10
13.0786219
20
1.4557505
40
0.3259883
50
270.5357525
51
299.8486239
0
ARC
8
DEFAULT_255_2_778
10
12.755866
20
2.0468322
40
0.9993994
50
299.0317989
51
303.8898425
0
ARC
8
DEFAULT_255_2_778
10
22.6772163
20
-13.1142351
40
17.1194838
50
123.1208317
51
123.1603619
0
ARC
8
DEFAULT_255_2_778
10
13.7179531
20
0.6469433
40
0.6989955
50
115.5085145
51
124.4024541
0
ARC
8
DEFAULT_255_2_778
10
15.1373969
20
3.8421313
40
3.0880058
50
236.1415055
51
237.7565267
0
ARC
8
DEFAULT_255_2_778
10
14.573013
20
2.9568396
40
2.0381333
50
237.8979373
51
237.9806426
0
ARC
8
DEFAULT_255_2_778
10
13.9374271
20
1.8536168
40
0.7671366
50
234.5398351
51
265.541682
0
ARC
8
DEFAULT_255_2_778
10
13.8778331
20
1.4852884
40
0.3964871
50
269.9944406
51
272.2081161
0
ARC
8
DEFAULT_255_2_778
10
13.8792092
20
1.4599422
40
0.371107
50
272.1465977
51
280.8764397
0
ARC
8
DEFAULT_255_2_778
10
13.226998
20
-1.6819319
40
2.8698016
50
75.4237888
51
76.4929278
0
ARC
8
DEFAULT_255_2_778
10
16.3191442
20
11.284942
40
10.4606644
50
256.1175865
51
256.6133843
0
ARC
8
DEFAULT_255_2_778
10
13.9768856
20
1.9333099
40
0.8207659
50
241.0911418
51
258.2195357
0
ARC
8
DEFAULT_255_2_778
10
13.6762273
20
1.3954817
40
0.2046379
50
179.9996619
51
241.9864402
0
ARC
8
DEFAULT_255_2_778
10
13.7392261
20
1.3948829
40
0.2676371
50
172.5496954
51
179.8715651
0
ARC
8
DEFAULT_255_2_778
10
13.7817688
20
1.3899653
40
0.3104591
50
170.4259453
51
172.6678596
0
ARC
8
DEFAULT_255_2_778
10
13.503147
20
1.2252129
40
0.2181308
50
97.2460741
51
129.4375752
0
ARC
8
DEFAULT_255_2_778
10
14.7819195
20
-0.6146958
40
2.4581324
50
125.2111358
51
125.9539259
0
ARC
8
DEFAULT_255_2_778
10
13.1603773
20
1.5764805
40
0.268935
50
274.8326612
51
311.524511
0
ARC
8
DEFAULT_255_2_778
10
13.1804434
20
1.5284021
40
0.2199158
50
193.9426115
51
270.6749442
0
ARC
8
DEFAULT_255_2_778
10
13.1176075
20
1.5023277
40
0.1529866
50
180.046512
51
190.1325215
0
ARC
8
DEFAULT_255_2_778
10
13.1133693
20
1.5022046
40
0.1487483
50
177.7665164
51
180.0004161
0
ARC
8
DEFAULT_255_2_778
10
13.1330681
20
1.5072346
40
0.1683359
50
139.9557259
51
179.7389339
0
ARC
8
DEFAULT_255_2_778
10
13.2128533
20
1.4076007
40
0.2945755
50
103.4437194
51
135.0985538
0
ARC
8
DEFAULT_255_2_778
10
13.6070052
20
0.1456266
40
1.6161119
50
103.4964792
51
106.6345345
0
LINE
8
DEFAULT_255_2_778
10
13.229828
20
1.7171082
11
13.2330396
21
1.717909
0
ARC
8
DEFAULT_255_2_778
10
13.0660717
20
2.5084897
40
0.8080199
50
281.9254218
51
293.4996209
0
ARC
8
DEFAULT_255_2_778
10
13.300338
20
1.9592795
40
0.2109886
50
294.6285231
51
318.000375
0
ARC
8
DEFAULT_255_2_778
10
13.2736336
20
2.6367176
40
0.8389306
50
270.0108636
51
282.634529
0
ARC
8
DEFAULT_255_2_778
10
13.2737956
20
2.6328492
40
0.8350622
50
268.4641425
51
269.9997999
0
ARC
8
DEFAULT_255_2_778
10
13.2737701
20
2.6315195
40
0.8337322
50
266.3252438
51
268.4634446
0
ARC
8
DEFAULT_255_2_778
10
13.3063291
20
1.8816889
40
0.1189534
50
177.7304344
51
223.7030152
0
ARC
8
DEFAULT_255_2_778
10
14.6003721
20
2.0203826
40
1.4192417
50
184.7351045
51
185.4170536
0
ARC
8
DEFAULT_255_2_778
10
11.7370078
20
1.7848267
40
1.4537957
50
4.6714078
51
5.5645468
0
ARC
8
DEFAULT_255_2_778
10
12.9549574
20
1.9117202
40
0.2294275
50
3.517656
51
22.3604146
0
ARC
8
DEFAULT_255_2_778
10
13.1018315
20
2.6341153
40
0.6384621
50
270.2307133
51
275.8705268
0
ARC
8
DEFAULT_255_2_778
10
13.0911801
20
2.2555129
40
0.2601906
50
242.8367442
51
272.9129033
0
ARC
8
DEFAULT_255_2_778
10
13.0372841
20
2.1350875
40
0.1286341
50
192.1555216
51
239.7058438
0
ARC
8
DEFAULT_255_2_778
10
13.2656649
20
2.003419
40
0.3692509
50
102.7242563
51
163.5469793
0
ARC
8
DEFAULT_255_2_778
10
12.8935204
20
1.9867659
40
0.4760018
50
34.5621932
51
52.3417282
0
ARC
8
DEFAULT_255_2_778
10
-64.1029427
20
-56.9043614
40
97.411582
50
37.3936558
51
37.3968325
0
ARC
8
DEFAULT_255_2_778
10
13.7568932
20
2.5861822
40
0.5748515
50
215.4820279
51
227.2432683
0
ARC
8
DEFAULT_255_2_778
10
13.348682
20
2.2063661
40
0.0459191
50
293.0135309
51
3.1016703
0
ARC
8
DEFAULT_255_2_778
10
13.1382554
20
2.195004
40
0.2566522
50
3.0926717
51
13.3113261
0
ARC
8
DEFAULT_255_2_778
10
13.6727514
20
2.3156237
40
0.291311
50
181.0607679
51
192.1932265
0
ARC
8
DEFAULT_255_2_778
10
13.5584389
20
2.3106751
40
0.1769492
50
168.3517728
51
180.1439133
0
ARC
8
DEFAULT_255_2_778
10
13.350816
20
2.3263511
40
0.039746
50
30.2959036
51
94.3889509
0
ARC
8
DEFAULT_255_2_778
10
13.3141444
20
2.0066141
40
0.3609366
50
84.6537663
51
87.4746709
0
LINE
8
DEFAULT_255_2_778
10
13.3300477
20
2.3672003
11
13.3296173
21
2.3672227
0
ARC
8
DEFAULT_255_2_778
10
13.3211134
20
2.4343442
40
0.067658
50
229.9457227
51
277.220589
0
ARC
8
DEFAULT_255_2_778
10
13.301626
20
2.3984014
40
0.0288015
50
177.566867
51
213.3766646
0
ARC
8
DEFAULT_255_2_778
10
13.3401103
20
2.3985399
40
0.0672685
50
165.4678279
51
179.0765267
0
ARC
8
DEFAULT_255_2_778
10
13.3802441
20
2.3896939
40
0.1083484
50
163.9214243
51
166.2650337
0
ARC
8
DEFAULT_255_2_778
10
13.7947352
20
1.7531761
40
0.8445137
50
115.9312952
51
127.8852923
0
ARC
8
DEFAULT_255_2_778
10
14.1649426
20
1.0106991
40
1.674147
50
109.0450806
51
116.2138008
0
ARC
8
DEFAULT_255_2_778
10
14.5975207
20
-0.2284347
40
2.9866122
50
104.0094978
51
109.1324719
0
ARC
8
DEFAULT_255_2_778
10
15.1162452
20
-2.3118418
40
5.1336239
50
99.4683986
51
103.9976505
0
ARC
8
DEFAULT_255_2_778
10
15.4964236
20
-4.4810202
40
7.3358136
50
97.6304475
51
99.610247
0
ARC
8
DEFAULT_255_2_778
10
15.7081335
20
-6.0666665
40
8.9355309
50
95.2870235
51
97.6258833
0
ARC
8
DEFAULT_255_2_778
10
15.7702771
20
-6.6908053
40
9.5627416
50
93.8253452
51
95.3131941
0
ARC
8
DEFAULT_255_2_778
10
15.7452658
20
-6.3212966
40
9.1923876
50
93.2505603
51
93.823452
0
ARC
8
DEFAULT_255_2_778
10
15.2869355
20
1.8526907
40
1.0055801
50
90.0185749
51
93.5863348
0
ARC
8
DEFAULT_255_2_778
10
15.292751
20
2.00041
40
0.8578828
50
69.5023731
51
90.4101773
0
ARC
8
DEFAULT_255_2_778
10
15.312649
20
2.0671672
40
0.7883988
50
38.4260839
51
69.1580408
0
ARC
8
DEFAULT_255_2_778
10
15.2906866
20
2.0467102
40
0.8183218
50
22.8059986
51
38.5924748
0
ARC
8
DEFAULT_255_2_778
10
15.4220381
20
1.2090363
40
1.3121881
50
61.655213
51
76.0189697
0
ARC
8
DEFAULT_255_2_778
10
15.1629216
20
0.1855326
40
2.3679777
50
75.9182832
51
85.811319
0
ARC
8
DEFAULT_255_2_778
10
15.036367
20
-1.253636
40
3.8126042
50
85.4942565
51
89.8934058
0
ARC
8
DEFAULT_255_2_778
10
15.02502
20
-2.0113044
40
4.5703032
50
89.7688248
51
90.0012311
0
ARC
8
DEFAULT_255_2_778
10
15.0427862
20
-3.3221731
40
5.881199
50
90.1740389
51
94.2675692
0
ARC
8
DEFAULT_255_2_778
10
15.2194851
20
-5.9440884
40
8.5090146
50
94.1403127
51
95.3613282
0
ARC
8
DEFAULT_255_2_778
10
14.0434089
20
6.6540989
40
4.1439516
50
272.431472
51
275.2756426
0
ARC
8
DEFAULT_255_2_778
10
23.3368462
20
-180.4094793
40
183.1504461
50
92.8534895
51
92.8576176
0
ARC
8
DEFAULT_255_2_778
10
14.2584176
20
0.4674138
40
2.0464775
50
91.4667489
51
99.4670191
0
ARC
8
DEFAULT_255_2_778
10
14.026399
20
1.8921911
40
0.6029677
50
99.9885645
51
119.1675032
0
ARC
8
DEFAULT_255_2_778
10
13.9057378
20
-6.6646355
40
9.0849883
50
89.9990613
51
91.0924009
0
ARC
8
DEFAULT_255_2_778
10
13.9039628
20
-6.8847669
40
9.3051198
50
86.2192248
51
89.9881538
0
ARC
8
DEFAULT_255_2_778
10
14.6297257
20
7.2431325
40
4.8443302
50
268.6729463
51
269.5935022
0
ARC
8
DEFAULT_255_2_778
10
14.6748621
20
14.0684236
40
11.6697702
50
269.609645
51
269.9586745
0
ARC
8
DEFAULT_255_2_778
10
14.6901597
20
-0.8797406
40
3.2784828
50
87.5531383
51
90.4144484
0
ARC
8
DEFAULT_255_2_778
10
14.7591155
20
1.0197642
40
1.3778201
50
85.5514825
51
87.0457047
0
ARC
8
DEFAULT_255_2_778
10
14.7865973
20
1.3363551
40
1.0600553
50
76.8357541
51
85.7051563
0
ARC
8
DEFAULT_255_2_778
10
14.7754504
20
1.2896869
40
1.1080357
50
75.8707038
51
76.8240884
0
ARC
8
DEFAULT_255_2_778
10
15.8110052
20
2.7334441
40
0.8328917
50
206.3162868
51
229.9439972
0
ARC
8
DEFAULT_255_2_778
10
20.2198766
20
7.4114968
40
7.2599521
50
227.0691107
51
227.451149
0
LINE
8
DEFAULT_255_2_778
10
15.3105622
20
2.0630825
11
15.3106809
21
2.0629733
0
ARC
8
DEFAULT_255_2_778
10
14.6582617
20
1.2689542
40
1.0276756
50
31.1207582
51
50.5911884
0
ARC
8
DEFAULT_255_2_778
10
14.9671776
20
2.2924847
40
0.7538688
50
299.8181381
51
319.2211112
0
ARC
8
DEFAULT_255_2_778
10
13.9473363
20
4.0423356
40
2.7792072
50
294.290371
51
300.1214313
0
LINE
8
DEFAULT_255_2_778
10
15.0905942
20
1.5091649
11
15.0891954
21
1.5085041
0
ARC
8
DEFAULT_255_2_778
10
15.8987606
20
-0.3569038
40
2.033505
50
113.4602801
51
123.8777445
0
ARC
8
DEFAULT_255_2_778
10
15.0415136
20
0.9052289
40
0.5078627
50
122.9560004
51
168.9429683
0
ARC
8
DEFAULT_255_2_778
10
15.0683117
20
0.9104597
40
0.5332592
50
170.0468443
51
176.3506672
0
ARC
8
DEFAULT_255_2_778
10
15.3323184
20
0.5175927
40
0.903369
50
118.9562673
51
151.8056712
0
ARC
8
DEFAULT_255_2_778
10
16.9612693
20
-2.1016676
40
3.9869387
50
117.4933431
51
121.2162593
0
LINE
8
DEFAULT_255_2_778
10
15.1207169
20
1.4350039
11
15.12208
21
1.4357322
0
ARC
8
DEFAULT_255_2_778
10
14.0951415
20
3.5141802
40
2.3183072
50
296.2934754
51
306.9282936
0
ARC
8
DEFAULT_255_2_778
10
14.9506874
20
2.3377699
40
0.8641774
50
308.4462206
51
321.5249647
0
ARC
8
DEFAULT_255_2_778
10
16.3922914
20
0.8431294
40
1.2251974
50
119.3652519
51
128.6408078
0
ARC
8
DEFAULT_255_2_778
10
25.6257174
20
-14.7988804
40
19.3888882
50
120.3499365
51
120.4781484
0
ARC
8
DEFAULT_255_2_778
10
15.5264384
20
2.5630454
40
0.6990052
50
295.6393328
51
325.2586568
0
ARC
8
DEFAULT_255_2_778
10
16.2541181
20
2.1723622
40
0.0266106
50
196.7310767
51
269.5622354
0
ARC
8
DEFAULT_255_2_778
10
16.2822268
20
2.2733218
40
0.1306734
50
257.4869144
51
270.3977799
0
ARC
8
DEFAULT_255_2_778
10
16.2890633
20
2.2255736
40
0.0831338
50
265.9100257
51
301.620236
0
ARC
8
DEFAULT_255_2_778
10
16.324478
20
2.1650999
40
0.0131619
50
308.3767278
51
358.2659096
0
ARC
8
DEFAULT_255_2_778
10
16.3745269
20
2.3287251
40
0.1649014
50
264.0852351
51
269.7918171
0
ARC
8
DEFAULT_255_2_778
10
16.3830704
20
2.21005
40
0.0471207
50
258.8121404
51
348.4328386
0
ARC
8
DEFAULT_255_2_778
10
16.3714747
20
2.1201893
40
0.0990064
50
54.3107333
51
91.1142013
0
ARC
8
DEFAULT_255_2_778
10
16.3452666
20
1.8402459
40
0.3797083
50
86.3333455
51
90.2062474
0
ARC
8
DEFAULT_255_2_778
10
16.3444569
20
1.5419002
40
0.6780518
50
90.0470748
51
91.2370407
0
ARC
8
DEFAULT_255_2_778
10
16.3678204
20
0.5634755
40
1.6567543
50
91.3143384
51
92.1444621
0
ARC
8
DEFAULT_255_2_778
10
16.2621561
20
3.2619724
40
1.043817
50
270.4451365
51
272.3977691
0
ARC
8
DEFAULT_255_2_778
10
16.2682396
20
2.4424325
40
0.2242548
50
264.5226456
51
270.5176176
0
ARC
8
DEFAULT_255_2_778
10
15.6229041
20
2.2920762
40
0.297608
50
211.0340774
51
255.2303763
0
ARC
8
DEFAULT_255_2_778
10
17.3357555
20
3.5759704
40
2.4368785
50
215.3334994
51
216.1443999
0
LINE
8
DEFAULT_255_2_778
10
15.3477509
20
2.1666389
11
15.3471584
21
2.1674706
0
ARC
8
DEFAULT_255_2_778
10
14.8646737
20
1.8534197
40
0.5756905
50
33.0602385
51
47.3879255
0
ARC
8
DEFAULT_255_2_778
10
15.3447775
20
2.0282278
40
0.2647642
50
93.0615116
51
109.951367
0
ARC
8
DEFAULT_255_2_778
10
15.3426839
20
2.0499092
40
0.2430037
50
90.0042342
51
92.8416106
0
ARC
8
DEFAULT_255_2_778
10
15.348192
20
2.0812414
40
0.2117438
50
0.0630141
51
91.4954746
0
ARC
8
DEFAULT_255_2_778
10
15.3179434
20
2.0824331
40
0.2419941
50
343.1699989
51
359.7729662
0
ARC
8
DEFAULT_255_2_778
10
15.2899479
20
2.0896381
40
0.2708794
50
341.6370634
51
343.4257897
0
ARC
8
DEFAULT_255_2_778
10
13.7906574
20
0.9442773
40
1.4307642
50
139.6160641
51
146.6184093
0
LINE
8
DEFAULT_255_2_778
10
12.7008157
20
1.8712785
11
12.7013903
21
1.8719823
0
ARC
8
DEFAULT_255_2_778
10
11.9797697
20
2.5173786
40
0.9681285
50
318.1914821
51
334.2054297
0
ARC
8
DEFAULT_255_2_778
10
11.7283588
20
1.1095864
40
1.4948278
50
40.0132916
51
41.2962433
0
LINE
8
DEFAULT_255_2_778
10
12.8732404
20
2.0707088
11
12.8741493
21
2.069634
0
ARC
8
DEFAULT_255_2_778
10
13.0970045
20
2.2150202
40
0.2660857
50
213.1195968
51
258.5437483
0
ARC
8
DEFAULT_255_2_778
10
13.0767452
20
2.1969261
40
0.2448687
50
262.3515869
51
270.1356523
0
ARC
8
DEFAULT_255_2_778
10
13.0758201
20
2.2761993
40
0.3241446
50
270.2660079
51
279.1889158
0
ARC
8
DEFAULT_255_2_778
10
13.058544
20
2.3913906
40
0.4406186
50
279.0145926
51
283.530707
0
ARC
8
DEFAULT_255_2_778
10
12.741656
20
1.8656164
40
0.4311211
50
6.4825507
51
13.0551096
0
ARC
8
DEFAULT_255_2_778
10
12.8368763
20
1.876698
40
0.3352586
50
0.1142219
51
6.4380674
0
ARC
8
DEFAULT_255_2_778
10
12.9464024
20
1.8740971
40
0.2257556
50
283.8916344
51
0.8297646
0
ARC
8
DEFAULT_255_2_778
10
12.7647247
20
2.3832755
40
0.7655748
50
270.9443136
51
287.9451524
0
ARC
8
DEFAULT_255_2_778
10
12.7207936
20
3.0580099
40
1.441315
50
269.9612606
51
272.2485099
0
ARC
8
DEFAULT_255_2_778
10
12.720135
20
3.308758
40
1.6920629
50
268.9095601
51
269.9893019
0
ARC
8
DEFAULT_255_2_778
10
12.8114337
20
1.6133684
40
0.1235532
50
178.3149106
51
209.1685809
0
ARC
8
DEFAULT_255_2_778
10
12.7871488
20
1.6176229
40
0.1055731
50
217.639109
51
277.6119462
0
ARC
8
DEFAULT_255_2_778
10
12.8018877
20
1.7237217
40
0.2107431
50
269.7949002
51
270.0684965
0
ARC
8
DEFAULT_255_2_778
10
12.7829177
20
2.3020174
40
0.7892732
50
271.3955182
51
277.7439625
0
ARC
8
DEFAULT_255_2_778
10
13.533608
20
-4.0491788
40
5.6062717
50
96.4747837
51
96.5996871
0
ARC
8
DEFAULT_255_2_778
10
13.0068204
20
0.654393
40
0.8733253
50
93.0249702
51
96.9323961
0
ARC
8
DEFAULT_255_2_778
10
13.1354402
20
1.4900288
40
0.1784727
50
168.2079312
51
178.0748595
0
ARC
8
DEFAULT_255_2_778
10
13.0987353
20
1.4921487
40
0.1417201
50
178.4329371
51
179.9913668
0
ARC
8
DEFAULT_255_2_778
10
13.0929567
20
1.4939018
40
0.1359525
50
180.7298371
51
209.6439504
0
ARC
8
DEFAULT_255_2_778
10
14.2588643
20
2.0687258
40
1.4356449
50
206.5662733
51
206.7306018
0
LINE
8
DEFAULT_255_2_778
10
12.9766449
20
1.4229783
11
12.9769725
21
1.4223271
0
ARC
8
DEFAULT_255_2_778
10
12.8514456
20
1.3485929
40
0.1455808
50
2.3784354
51
30.4298748
0
ARC
8
DEFAULT_255_2_778
10
12.8571496
20
1.3517971
40
0.1397801
50
359.9937025
51
1.1631007
0
ARC
8
DEFAULT_255_2_778
10
12.847811
20
1.3518449
40
0.1491188
50
357.0619353
51
359.9757377
0
ARC
8
DEFAULT_255_2_778
10
13.1778443
20
1.6430873
40
0.3494763
50
238.78616
51
258.4622974
0
ARC
8
DEFAULT_255_2_778
10
13.165844
20
1.5965312
40
0.3014705
50
258.9271812
51
270.0076286
0
ARC
8
DEFAULT_255_2_778
10
13.1503336
20
1.7120331
40
0.4172622
50
272.1357893
51
303.1545232
0
ARC
8
DEFAULT_255_2_778
10
13.0845255
20
1.5796028
40
0.3653589
50
309.7747298
51
323.5824023
0
ARC
8
DEFAULT_255_2_778
10
13.1478529
20
1.5029755
40
0.265951
50
285.0128785
51
309.850688
0
ARC
8
DEFAULT_255_2_778
10
13.1462863
20
1.5165714
40
0.2794959
50
269.7394659
51
284.6010941
0
ARC
8
DEFAULT_255_2_778
10
13.150948
20
1.6449849
40
0.4079497
50
252.0684535
51
269.1667465
0
ARC
8
DEFAULT_255_2_778
10
13.2208927
20
1.8843579
40
0.6572687
50
246.7608842
51
252.6918477
0
ARC
8
DEFAULT_255_2_778
10
13.584331
20
2.6486286
40
1.503282
50
235.4552321
51
245.5261543
0
ARC
8
DEFAULT_255_2_778
10
14.6660332
20
4.3451918
40
3.5148103
50
236.5784823
51
236.6136123
0
ARC
8
DEFAULT_255_2_778
10
14.6312528
20
4.2930386
40
3.4521241
50
236.5480576
51
236.5835188
0
ARC
8
DEFAULT_255_2_778
10
-464.2788869
20
-712.944144
40
858.9771015
50
56.2672387
51
56.2759475
0
ARC
8
DEFAULT_255_2_778
10
11.6796317
20
0.0771872
40
1.6930586
50
56.2710507
51
59.4576506
0
ARC
8
DEFAULT_255_2_778
10
12.1255207
20
0.8230173
40
0.8241351
50
59.8060474
51
61.1695924
0
ARC
8
DEFAULT_255_2_778
10
17.2040936
20
1.6351237
40
0.313376
50
21.1429757
51
45.9615941
0
ARC
8
DEFAULT_255_2_778
10
16.9747936
20
1.5413137
40
0.5610975
50
7.2057465
51
21.6318344
0
ARC
8
DEFAULT_255_2_778
10
16.7094192
20
1.5019775
40
0.8293299
50
359.843747
51
7.6022292
0
ARC
8
DEFAULT_255_2_778
10
16.5318018
20
1.5009868
40
1.0069449
50
353.8931375
51
359.927683
0
ARC
8
DEFAULT_255_2_778
10
16.5274333
20
1.4955302
40
1.0107253
50
336.3400376
51
354.2270492
0
ARC
8
DEFAULT_255_2_778
10
16.937321
20
1.3146973
40
0.562723
50
319.9859024
51
336.4562709
0
ARC
8
DEFAULT_255_2_778
10
17.1749725
20
1.1085424
40
0.2482086
50
287.7866169
51
321.1602407
0
ARC
8
DEFAULT_255_2_778
10
17.2058301
20
1.0333692
40
0.1673256
50
270.0387323
51
285.5879878
0
ARC
8
DEFAULT_255_2_778
10
17.2063457
20
1.0402908
40
0.1742476
50
255.3395151
51
269.86764
0
ARC
8
DEFAULT_255_2_778
10
17.2112093
20
1.0610089
40
0.1955229
50
251.4891877
51
255.4972702
0
ARC
8
DEFAULT_255_2_778
10
16.1433997
20
1.1421143
40
1.0358628
50
346.1473206
51
349.5725784
0
ARC
8
DEFAULT_255_2_778
10
16.3842496
20
1.0979457
40
0.7909965
50
349.5615527
51
353.6066754
0
ARC
8
DEFAULT_255_2_778
10
16.5781897
20
1.076585
40
0.5958839
50
353.5712934
51
358.8983371
0
ARC
8
DEFAULT_255_2_778
10
16.6719475
20
1.0736427
40
0.5020881
50
359.0283265
51
359.9969269
0
ARC
8
DEFAULT_255_2_778
10
16.8399642
20
1.0813495
40
0.334161
50
358.6738498
51
21.1761583
0
ARC
8
DEFAULT_255_2_778
10
16.9102746
20
1.0911406
40
0.2655602
50
24.6884053
51
79.8684993
0
ARC
8
DEFAULT_255_2_778
10
16.7353155
20
0.4490273
40
0.930328
50
76.2152859
51
87.6747513
0
ARC
8
DEFAULT_255_2_778
10
16.5905899
20
-2.424078
40
3.8070428
50
87.2527692
51
90.5062751
0
ARC
8
DEFAULT_255_2_778
10
16.5598117
20
-55.680713
40
57.0635291
50
90.0028727
51
90.0231845
0
ARC
8
DEFAULT_255_2_778
10
16.5135917
20
58.69264
40
57.3098333
50
270.0027791
51
270.0231239
0
ARC
8
DEFAULT_255_2_778
10
16.4881823
20
6.5484981
40
5.1657683
50
268.0039878
51
270.3126598
0
ARC
8
DEFAULT_255_2_778
10
16.419067
20
4.1349577
40
2.7513259
50
267.3828096
51
267.6918214
0
ARC
8
DEFAULT_255_2_778
10
17.116691
20
18.0481811
40
16.6820058
50
266.4881856
51
267.1713042
0
ARC
8
DEFAULT_255_2_778
10
-4.6991046
20
-349.1911766
40
351.2047966
50
86.6056763
51
86.6078962
0
ARC
8
DEFAULT_255_2_778
10
13.7386964
20
-37.9738855
40
39.4418194
50
86.5950313
51
86.6983041
0
ARC
8
DEFAULT_255_2_778
10
15.5445845
20
-6.1116619
40
7.5285447
50
86.4534827
51
88.6484577
0
ARC
8
DEFAULT_255_2_778
10
15.6583469
20
-1.9931955
40
3.4085812
50
88.9273222
51
89.9743009
0
ARC
8
DEFAULT_255_2_778
10
15.6540731
20
-0.7609333
40
2.1763262
50
89.8472331
51
93.0384663
0
ARC
8
DEFAULT_255_2_778
10
15.6035394
20
0.1953109
40
1.2187478
50
93.0490174
51
96.9894606
0
ARC
8
DEFAULT_255_2_778
10
15.6179136
20
0.1308089
40
1.2845355
50
97.2757468
51
101.0735712
0
ARC
8
DEFAULT_255_2_778
10
15.6177181
20
0.1228922
40
1.2922685
50
100.9976464
51
105.1977046
0
ARC
8
DEFAULT_255_2_778
10
15.450566
20
0.6718999
40
0.7188524
50
103.8120091
51
122.0780118
0
ARC
8
DEFAULT_255_2_778
10
15.1643195
20
1.1182466
40
0.1887135
50
120.4075628
51
163.0153663
0
ARC
8
DEFAULT_255_2_778
10
15.1011069
20
1.1466183
40
0.1202831
50
167.1482956
51
180.0382205
0
ARC
8
DEFAULT_255_2_778
10
15.1075372
20
1.1466099
40
0.1267135
50
180.0324642
51
186.4835646
0
ARC
8
DEFAULT_255_2_778
10
15.0643132
20
1.4853308
40
0.3625817
50
256.8189346
51
270.2504724
0
ARC
8
DEFAULT_255_2_778
10
15.0403227
20
1.8437814
40
0.7214823
50
272.0314802
51
288.6755129
0
ARC
8
DEFAULT_255_2_778
10
13.493822
20
6.9489893
40
6.0554661
50
287.0700467
51
288.057104
0
ARC
8
DEFAULT_255_2_778
10
15.8437724
20
-0.1778474
40
1.4489799
50
99.0042384
51
109.0513588
0
ARC
8
DEFAULT_255_2_778
10
15.7271962
20
0.4576157
40
0.8032559
50
92.5089033
51
97.8853751
0
ARC
8
DEFAULT_255_2_778
10
15.7420518
20
-3.8959688
40
5.156313
50
89.9997937
51
90.5557958
0
ARC
8
DEFAULT_255_2_778
10
15.7414571
20
-3.9249392
40
5.1852835
50
81.6670683
51
89.9932238
0
ARC
8
DEFAULT_255_2_778
10
17.0740905
20
1.0669635
40
0.0522214
50
44.2467065
51
67.1917873
0
ARC
8
DEFAULT_255_2_778
10
17.1026813
20
1.0949994
40
0.0121793
50
2.5835057
51
43.616116
0
ARC
8
DEFAULT_255_2_778
10
17.093323
20
1.1005768
40
0.0221048
50
288.1622126
51
346.8511884
0
ARC
8
DEFAULT_255_2_778
10
17.0293457
20
1.2239554
40
0.1608365
50
283.9121355
51
296.1433574
0
ARC
8
DEFAULT_255_2_778
10
16.9841302
20
1.3839257
40
0.3270305
50
280.0383418
51
284.8629676
0
ARC
8
DEFAULT_255_2_778
10
17.0347883
20
1.102653
40
0.0412425
50
271.4225846
51
278.8508798
0
ARC
8
DEFAULT_255_2_778
10
17.0315652
20
1.1778595
40
0.1165137
50
269.8875883
51
272.0889128
0
ARC
8
DEFAULT_255_2_778
10
17.0409842
20
1.6076367
40
0.5463759
50
264.7806894
51
268.9882551
0
ARC
8
DEFAULT_255_2_778
10
17.2486031
20
4.0694594
40
3.0169272
50
263.4155201
51
265.1071445
0
ARC
8
DEFAULT_255_2_778
10
17.955453
20
10.3277885
40
9.3150413
50
262.6811758
51
263.5105085
0
ARC
8
DEFAULT_255_2_778
10
19.4036212
20
21.6264829
40
20.7061643
50
262.0059678
51
262.6894127
0
ARC
8
DEFAULT_255_2_778
10
20.8361425
20
31.9133136
40
31.0922563
50
261.4780007
51
262.0280593
0
ARC
8
DEFAULT_255_2_778
10
20.8843956
20
32.2520162
40
31.43437
50
261.4351853
51
261.4825058
0
ARC
8
DEFAULT_255_2_778
10
15.7591937
20
-1.7415136
40
2.9433566
50
81.3290314
51
83.9258626
0
ARC
8
DEFAULT_255_2_778
10
15.7548992
20
-1.7331107
40
2.9354598
50
83.8251555
51
88.7584891
0
ARC
8
DEFAULT_255_2_778
10
15.7723043
20
-1.1660893
40
2.3681999
50
88.8822525
51
89.9914397
0
ARC
8
DEFAULT_255_2_778
10
15.7602206
20
-0.4251582
40
1.6273163
50
89.5620865
51
97.8666354
0
ARC
8
DEFAULT_255_2_778
10
15.6429949
20
0.4241222
40
0.7699838
50
97.8753106
51
108.3385531
0
ARC
8
DEFAULT_255_2_778
10
15.5935551
20
0.6142994
40
0.5740547
50
109.6268718
51
120.4666134
0
ARC
8
DEFAULT_255_2_778
10
15.916239
20
0.0355837
40
1.2365713
50
119.7576518
51
120.4245557
0
ARC
8
DEFAULT_255_2_778
10
14.04387
20
3.1504423
40
2.397823
50
299.3225859
51
301.3125934
0
ARC
8
DEFAULT_255_2_778
10
15.0871575
20
1.2782755
40
0.2547026
50
271.5594432
51
300.9495157
0
ARC
8
DEFAULT_255_2_778
10
15.0946183
20
1.2515767
40
0.22791
50
259.8957828
51
269.8669363
0
ARC
8
DEFAULT_255_2_778
10
15.1021187
20
1.2308478
40
0.209109
50
222.1143088
51
256.8746988
0
ARC
8
DEFAULT_255_2_778
10
13.8748555
20
-0.0149341
40
1.5400443
50
45.8788649
51
47.4783691
0
ARC
8
DEFAULT_255_2_778
10
14.8237912
20
1.030516
40
0.1283705
50
44.2630616
51
75.8679147
0
ARC
8
DEFAULT_255_2_778
10
15.171213
20
1.0277303
40
0.3407403
50
158.0674917
51
166.8766021
0
ARC
8
DEFAULT_255_2_778
10
15.0755579
20
1.0497071
40
0.2425937
50
166.8020822
51
179.2569387
0
ARC
8
DEFAULT_255_2_778
10
15.0421637
20
1.0512952
40
0.2091848
50
179.5732717
51
180.0068562
0
ARC
8
DEFAULT_255_2_778
10
15.0726403
20
1.0665681
40
0.2401493
50
183.6523122
51
241.4617807
0
ARC
8
DEFAULT_255_2_778
10
15.630132
20
1.8417324
40
1.1934591
50
235.7187967
51
240.7484313
0
ARC
8
DEFAULT_255_2_778
10
-3.5222501
20
-31.6373581
40
37.3768295
50
60.1454114
51
60.2107875
0
ARC
8
DEFAULT_255_2_778
10
14.6132402
20
-0.064582
40
0.9662432
50
54.7117998
51
60.8459729
0
ARC
8
DEFAULT_255_2_778
10
14.9096144
20
0.3663105
40
0.4433673
50
52.0237034
51
53.8065549
0
ARC
8
DEFAULT_255_2_778
10
14.3648628
20
-0.319393
40
1.3191097
50
37.3649541
51
51.6991891
0
ARC
8
DEFAULT_255_2_778
10
11.139968
20
-2.8891158
40
5.4424168
50
36.0894624
51
38.2621972
0
LINE
8
DEFAULT_255_2_778
10
15.5379755
20
0.3167275
11
15.5400934
21
0.3138601
0
ARC
8
DEFAULT_255_2_778
10
17.6207897
20
1.7614629
40
2.534729
50
214.8274924
51
224.247678
0
ARC
8
DEFAULT_255_2_778
10
16.3931217
20
0.5884396
40
0.8369826
50
225.3668107
51
240.4812987
0
ARC
8
DEFAULT_255_2_778
10
17.6099152
20
-1.473984
40
2.1057103
50
121.2948255
51
140.6870266
0
ARC
8
DEFAULT_255_2_778
10
23.3186991
20
-10.0265271
40
12.3869522
50
122.3720521
51
123.3102868
0
LINE
8
DEFAULT_255_2_778
10
16.6865406
20
0.4353587
11
16.6870409
21
0.4356778
0
ARC
8
DEFAULT_255_2_778
10
14.5536471
20
3.9669258
40
4.1256614
50
301.1381577
51
309.3464949
0
ARC
8
DEFAULT_255_2_778
10
15.89684
20
2.2512339
40
1.9478937
50
310.7890474
51
311.3423356
0
ARC
8
DEFAULT_255_2_778
10
17.2465511
20
0.8817155
40
0.1122682
50
235.8536727
51
277.0262266
0
ARC
8
DEFAULT_255_2_778
10
17.2571801
20
1.856813
40
1.0865272
50
270.1658437
51
271.2250605
0
ARC
8
DEFAULT_255_2_778
10
17.3034026
20
-0.283125
40
1.0539098
50
90.209509
51
91.2501067
0
ARC
8
DEFAULT_255_2_778
10
17.3009287
20
0.513449
40
0.2573324
50
86.5009958
51
90.3072232
0
ARC
8
DEFAULT_255_2_778
10
17.0083415
20
1.1123255
40
0.4604613
50
312.0307718
51
325.7075091
0
ARC
8
DEFAULT_255_2_778
10
16.6324787
20
1.3747129
40
0.9188361
50
325.3951389
51
334.9658846
0
ARC
8
DEFAULT_255_2_778
10
16.2043213
20
1.5772343
40
1.392471
50
334.8705225
51
347.7801018
0
ARC
8
DEFAULT_255_2_778
10
16.2616989
20
1.565306
40
1.3338687
50
347.7591934
51
348.6749824
0
ARC
8
DEFAULT_255_2_778
10
16.4333283
20
1.5345116
40
1.1595393
50
348.5016038
51
356.3220435
0
ARC
8
DEFAULT_255_2_778
10
16.6853097
20
1.5155116
40
0.9068621
50
356.4987385
51
359.9534263
0
ARC
8
DEFAULT_255_2_778
10
16.9575306
20
1.521439
40
0.6346761
50
359.3983443
51
12.9171854
0
ARC
8
DEFAULT_255_2_778
10
17.2474776
20
1.5908282
40
0.3365667
50
12.4374996
51
35.847858
0
ARC
8
DEFAULT_255_2_778
10
17.3404016
20
1.6541591
40
0.2241773
50
36.6363715
51
67.6538913
0
ARC
8
DEFAULT_255_2_778
10
13.7212021
20
0.0926815
40
0.1391483
50
7.3920236
51
73.7954054
0
ARC
8
DEFAULT_255_2_778
10
12.2727408
20
-0.3844409
40
1.6618914
50
16.4813191
51
17.3296171
0
ARC
8
DEFAULT_255_2_778
10
14.129116
20
0.1420227
40
0.2684575
50
191.8178931
51
217.7128346
0
ARC
8
DEFAULT_255_2_778
10
13.9930604
20
0.0502344
40
0.1052149
50
223.5022226
51
228.8559779
0
ARC
8
DEFAULT_255_2_778
10
14.0589874
20
-0.1175934
40
0.1616029
50
115.0099896
51
146.754581
0
ARC
8
DEFAULT_255_2_778
10
14.07273
20
-0.1601149
40
0.2060214
50
88.6370942
51
113.4738035
0
ARC
8
DEFAULT_255_2_778
10
14.0665834
20
-0.4515433
40
0.4975143
50
75.828823
51
88.7277088
0
ARC
8
DEFAULT_255_2_778
10
13.8943341
20
-1.2173884
40
1.2823875
50
74.3254882
51
76.7441718
0
ARC
8
DEFAULT_255_2_778
10
13.2853088
20
-3.4014178
40
3.5497407
50
73.6725693
51
74.3850004
0
ARC
8
DEFAULT_255_2_778
10
14.7266393
20
1.4351141
40
1.4971184
50
252.7721341
51
257.7668299
0
ARC
8
DEFAULT_255_2_778
10
14.4823947
20
0.3208179
40
0.3563805
50
258.1831919
51
269.1032175
0
ARC
8
DEFAULT_255_2_778
10
14.4789127
20
0.133877
40
0.1694088
50
269.2911533
51
284.398176
0
ARC
8
DEFAULT_255_2_778
10
14.4878851
20
0.0924006
40
0.1270145
50
285.1302845
51
287.1007032
0
ARC
8
DEFAULT_255_2_778
10
15.8698627
20
4.2548759
40
4.4899449
50
250.4835126
51
252.5738945
0
LINE
8
DEFAULT_255_2_778
10
14.3698704
20
0.022899
11
14.3692665
21
0.023109
0
ARC
8
DEFAULT_255_2_778
10
13.58909
20
-2.0465598
40
2.2118328
50
69.345705
51
78.8733234
0
ARC
8
DEFAULT_255_2_778
10
13.786957
20
-1.1798209
40
1.3234749
50
80.0373256
51
83.2578805
0
ARC
8
DEFAULT_255_2_778
10
14.0127597
20
0.211521
40
0.1043636
50
187.839391
51
227.5605332
0
ARC
8
DEFAULT_255_2_778
10
17.4917688
20
1.1453372
40
3.7057216
50
194.745233
51
194.8230329
0
ARC
8
DEFAULT_255_2_778
10
13.8285176
20
0.1976868
40
0.0796949
50
3.2114615
51
60.7529156
0
ARC
8
DEFAULT_255_2_778
10
13.8518216
20
0.2165103
40
0.0530669
50
72.8668879
51
90.6990551
0
ARC
8
DEFAULT_255_2_778
10
13.8519637
20
0.1809982
40
0.0885785
50
90.5107544
51
101.7353676
0
ARC
8
DEFAULT_255_2_778
10
13.8572088
20
0.1508517
40
0.1191659
50
101.2564012
51
101.5573691
0
ARC
8
DEFAULT_255_2_778
10
13.7676347
20
0.2394232
40
0.0714871
50
10.6433076
51
23.214465
0
ARC
8
DEFAULT_255_2_778
10
13.8058633
20
0.2470876
40
0.0325041
50
0.4053639
51
9.8114024
0
ARC
8
DEFAULT_255_2_778
10
13.820136
20
0.2485435
40
0.0182715
50
252.5979078
51
356.1528388
0
ARC
8
DEFAULT_255_2_778
10
13.8175742
20
0.4325415
40
0.2014542
50
264.7258321
51
269.1744131
0
LINE
8
DEFAULT_255_2_778
10
13.7990562
20
0.2319403
11
13.7982051
21
0.2320084
0
ARC
8
DEFAULT_255_2_778
10
13.7784177
20
0.021587
40
0.2113497
50
84.6278589
51
89.0619018
0
ARC
8
DEFAULT_255_2_778
10
13.7766594
20
0.2167524
40
0.016978
50
72.0992306
51
175.005682
0
ARC
8
DEFAULT_255_2_778
10
13.7871124
20
0.2183636
40
0.0273668
50
180.2787145
51
188.3242434
0
ARC
8
DEFAULT_255_2_778
10
14.6409966
20
-0.1052479
40
0.1590115
50
28.6541593
51
75.9345883
0
LINE
8
DEFAULT_255_2_778
10
14.6796411
20
0.0489963
11
14.67846
21
0.0494828
0
ARC
8
DEFAULT_255_2_778
10
14.7915683
20
0.3553597
40
0.3261198
50
237.6019633
51
249.7064314
0
ARC
8
DEFAULT_255_2_778
10
14.7515154
20
0.1339433
40
0.145082
50
201.8267658
51
261.6967246
0
LINE
8
DEFAULT_255_2_778
10
14.7305637
20
-0.0096178
11
14.7312028
21
-0.0098408
0
ARC
8
DEFAULT_255_2_778
10
14.5740097
20
-0.4877075
40
0.5030569
50
65.7613269
51
71.7914997
0
ARC
8
DEFAULT_255_2_778
10
14.4120524
20
0.1572788
40
0.2960591
50
355.5876157
51
359.8781121
0
ARC
8
DEFAULT_255_2_778
10
14.6153482
20
0.1693658
40
0.0936302
50
352.1939708
51
50.0327326
0
ARC
8
DEFAULT_255_2_778
10
14.6457156
20
0.1938625
40
0.0558602
50
57.7885906
51
62.702034
0
ARC
8
DEFAULT_255_2_778
10
18.3421984
20
-0.9175949
40
3.8501157
50
162.4478083
51
162.6945814
0
ARC
8
DEFAULT_255_2_778
10
15.0059926
20
0.1208602
40
0.356028
50
162.540409
51
166.5918959
0
ARC
8
DEFAULT_255_2_778
10
14.7887097
20
0.1712129
40
0.1329989
50
165.986782
51
178.7379209
0
ARC
8
DEFAULT_255_2_778
10
14.6915169
20
0.1696308
40
0.0360573
50
172.8123779
51
279.3052348
0
ARC
8
DEFAULT_255_2_778
10
14.6976302
20
0.1933927
40
0.0593455
50
269.7266618
51
270.0914076
0
ARC
8
DEFAULT_255_2_778
10
14.6974627
20
0.2392569
40
0.1052102
50
270.1428024
51
275.3289725
0
ARC
8
DEFAULT_255_2_778
10
14.3476223
20
0.047514
40
0.4333015
50
81.8551968
51
88.1998176
0
ARC
8
DEFAULT_255_2_778
10
14.2817348
20
-0.3020549
40
0.7888351
50
66.6987013
51
80.7149509
0
ARC
8
DEFAULT_255_2_778
10
13.9414472
20
-1.1520383
40
1.7042626
50
65.0685279
51
67.4952289
0
ARC
8
DEFAULT_255_2_778
10
13.2917686
20
-2.5713665
40
3.2652018
50
65.1602356
51
65.2292338
0
ARC
8
DEFAULT_255_2_778
10
15.8373571
20
2.8856674
40
2.7563935
50
244.7926323
51
245.7951245
0
ARC
8
DEFAULT_255_2_778
10
14.5422182
20
0.3313939
40
0.1698436
50
13.693837
51
86.3132307
0
ARC
8
DEFAULT_255_2_778
10
14.4957658
20
0.1679544
40
0.3378389
50
80.2223282
51
90.1246985
0
ARC
8
DEFAULT_255_2_778
10
14.4950952
20
0.1368108
40
0.3689819
50
90.0100348
51
93.8797383
0
ARC
8
DEFAULT_255_2_778
10
14.4934238
20
0.1450389
40
0.3606612
50
93.703274
51
111.5012129
0
ARC
8
DEFAULT_255_2_778
10
4.8154085
20
4.8947002
40
0.3015372
50
299.0515733
51
313.5357834
0
ARC
8
DEFAULT_255_2_778
10
4.888451
20
4.8190378
40
0.1963758
50
313.2921969
51
343.0404071
0
ARC
8
DEFAULT_255_2_778
10
4.8692712
20
4.8222627
40
0.2156769
50
343.7072159
51
0.4365515
0
ARC
8
DEFAULT_255_2_778
10
4.6888881
20
4.8129036
40
0.3962064
50
1.5912769
51
20.6257007
0
ARC
8
DEFAULT_255_2_778
10
3.9661035
20
4.5509769
40
1.1649671
50
20.1598607
51
28.3383541
0
ARC
8
DEFAULT_255_2_778
10
-0.3742339
20
2.2651793
40
6.070367
50
27.8815844
51
29.2122246
0
ARC
8
DEFAULT_255_2_778
10
8.6715348
20
7.3151802
40
4.2895803
50
207.5058187
51
209.1184759
0
ARC
8
DEFAULT_255_2_778
10
6.1335667
20
5.9987228
40
1.4305104
50
201.9873614
51
207.68532
0
ARC
8
DEFAULT_255_2_778
10
5.6387079
20
5.7918345
40
0.894209
50
199.9451513
51
201.5667497
0
ARC
8
DEFAULT_255_2_778
10
7.1373366
20
6.3843582
40
2.5054894
50
194.6047158
51
200.9919056
0
ARC
8
DEFAULT_255_2_778
10
7.9886873
20
6.6066225
40
3.3853754
50
187.4280312
51
194.6117456
0
ARC
8
DEFAULT_255_2_778
10
8.3028239
20
6.6546117
40
3.7030863
50
184.4723471
51
187.535946
0
ARC
8
DEFAULT_255_2_778
10
8.156066
20
6.6449609
40
3.5560232
50
180.0422239
51
184.5017112
0
ARC
8
DEFAULT_255_2_778
10
7.5672688
20
6.6489779
40
2.9672324
50
173.9324701
51
180.1281687
0
ARC
8
DEFAULT_255_2_778
10
6.7662099
20
6.7345786
40
2.161613
50
167.6052791
51
173.9443665
0
ARC
8
DEFAULT_255_2_778
10
6.2049835
20
6.8551551
40
1.5875888
50
162.7099272
51
167.507891
0
ARC
8
DEFAULT_255_2_778
10
6.3134022
20
6.5452717
40
1.8025951
50
154.2993583
51
170.8173992
0
ARC
8
DEFAULT_255_2_778
10
6.9893777
20
6.4261196
40
2.4889414
50
170.5929069
51
180.2193387
0
ARC
8
DEFAULT_255_2_778
10
7.5964495
20
6.4199468
40
3.0959967
50
180.0620942
51
184.8123515
0
ARC
8
DEFAULT_255_2_778
10
8.4755822
20
6.5143735
40
3.9800039
50
185.1051804
51
197.2198077
0
ARC
8
DEFAULT_255_2_778
10
8.8002543
20
6.596052
40
4.3143409
50
196.9794602
51
202.3039355
0
ARC
8
DEFAULT_255_2_778
10
8.2907917
20
6.3848702
40
3.7628473
50
202.2730117
51
206.8057829
0
ARC
8
DEFAULT_255_2_778
10
7.807075
20
6.1454903
40
3.2231613
50
206.8854982
51
208.0242843
0
ARC
8
DEFAULT_255_2_778
10
16.7228407
20
0.8336185
40
1.8619315
50
230.2354138
51
232.9086877
0
ARC
8
DEFAULT_255_2_778
10
74.3046467
20
71.0089003
40
92.6376259
50
230.6149975
51
230.6217401
0
ARC
8
DEFAULT_255_2_778
10
15.0071102
20
-1.1580816
40
0.7671677
50
47.6964854
51
66.9620743
0
ARC
8
DEFAULT_255_2_778
10
13.8961585
20
-1.7697713
40
1.9307196
50
42.9587423
51
43.0375571
0
ARC
8
DEFAULT_255_2_778
10
13.6459865
20
-2.0028043
40
2.2726119
50
42.8931136
51
42.9602264
0
ARC
8
DEFAULT_255_2_778
10
13.334848
20
-2.292019
40
2.6974088
50
42.8398448
51
42.8955509
0
ARC
8
DEFAULT_255_2_778
10
18.0904746
20
2.0769078
40
3.7604664
50
222.3820182
51
223.7492013
0
ARC
8
DEFAULT_255_2_778
10
15.740656
20
-0.2016551
40
0.4878415
50
221.2741524
51
244.2678039
0
ARC
8
DEFAULT_255_2_778
10
15.5926409
20
-0.480314
40
0.1729948
50
248.3625697
51
258.867937
0
ARC
8
DEFAULT_255_2_778
10
15.5850985
20
-0.5174536
40
0.1350982
50
258.9654556
51
269.8422218
0
ARC
8
DEFAULT_255_2_778
10
15.5848026
20
-0.5319523
40
0.120599
50
269.9638034
51
277.2077893
0
ARC
8
DEFAULT_255_2_778
10
15.9759762
20
-0.353704
40
0.6213909
50
157.8280067
51
162.5919838
0
ARC
8
DEFAULT_255_2_778
10
15.6314592
20
-0.250228
40
0.2617318
50
161.6431869
51
178.4597396
0
ARC
8
DEFAULT_255_2_778
10
15.4743512
20
-0.2486388
40
0.1046711
50
177.0175905
51
238.0967574
0
ARC
8
DEFAULT_255_2_778
10
15.4656122
20
-0.46364
40
0.1344665
50
110.2668665
51
137.9047488
0
ARC
8
DEFAULT_255_2_778
10
15.2809731
20
-0.5563968
40
0.2016263
50
49.9121401
51
65.1097316
0
ARC
8
DEFAULT_255_2_778
10
14.2037634
20
-1.9212916
40
1.9403058
50
50.2250563
51
51.5309121
0
ARC
8
DEFAULT_255_2_778
10
15.9280823
20
0.1501396
40
0.7548943
50
230.2249604
51
233.6624109
0
ARC
8
DEFAULT_255_2_778
10
15.5918809
20
-0.3168495
40
0.1795993
50
231.7840104
51
252.6515511
0
ARC
8
DEFAULT_255_2_778
10
15.5559639
20
-0.420804
40
0.0697412
50
255.3519476
51
269.548957
0
ARC
8
DEFAULT_255_2_778
10
15.555214
20
-0.4362351
40
0.0543081
50
270.2119718
51
320.5098737
0
ARC
8
DEFAULT_255_2_778
10
15.5306998
20
-0.4111288
40
0.0892733
50
318.0794443
51
323.6851355
0
ARC
8
DEFAULT_255_2_778
10
15.6836784
20
-0.2602507
40
0.2192745
50
189.8245327
51
248.3088929
0
ARC
8
DEFAULT_255_2_778
10
16.5491393
20
0.0390824
40
1.1327333
50
195.8629052
51
197.2947999
0
ARC
8
DEFAULT_255_2_778
10
20.2688557
20
1.0939397
40
4.9991285
50
195.4732965
51
195.8394379
0
ARC
8
DEFAULT_255_2_778
10
14.9178675
20
-0.3698167
40
0.548687
50
13.7099729
51
24.9036401
0
ARC
8
DEFAULT_255_2_778
10
15.2488622
20
-0.2236953
40
0.1870635
50
27.0006646
51
34.4416382
0
ARC
8
DEFAULT_255_2_778
10
15.8849475
20
0.6371958
40
1.5480198
50
210.0378001
51
212.6265093
0
ARC
8
DEFAULT_255_2_778
10
12.7457145
20
-1.3363491
40
2.1601235
50
31.6843601
51
31.8194809
0
ARC
8
DEFAULT_255_2_778
10
13.8096346
20
-0.6842648
40
0.9122841
50
29.0048334
51
31.9304704
0
ARC
8
DEFAULT_255_2_778
10
14.3985173
20
-0.3678067
40
0.2439722
50
10.8762211
51
31.0653295
0
ARC
8
DEFAULT_255_2_778
10
14.5455679
20
-0.3341929
40
0.093369
50
0.1758813
51
7.6446751
0
ARC
8
DEFAULT_255_2_778
10
14.5741968
20
-0.3346889
40
0.0647444
50
340.7839051
51
0.6925908
0
ARC
8
DEFAULT_255_2_778
10
14.3277271
20
1.6970453
40
2.0759601
50
273.1564519
51
278.5212218
0
ARC
8
DEFAULT_255_2_778
10
14.3633664
20
1.1850002
40
1.5627469
50
272.6499521
51
272.8854806
0
ARC
8
DEFAULT_255_2_778
10
14.3704757
20
1.0082188
40
1.3858263
50
270.0488754
51
272.6942596
0
ARC
8
DEFAULT_255_2_778
10
14.3553736
20
0.3916823
40
0.7694617
50
254.5427533
51
271.2126507
0
ARC
8
DEFAULT_255_2_778
10
14.2181227
20
-0.0825559
40
0.2758597
50
216.5917437
51
255.7667893
0
ARC
8
DEFAULT_255_2_778
10
13.9486294
20
-0.8609741
40
0.6158495
50
85.5293389
51
90.005829
0
ARC
8
DEFAULT_255_2_778
10
13.9451831
20
-1.1395431
40
0.8944248
50
89.7832522
51
90.0003434
0
ARC
8
DEFAULT_255_2_778
10
13.9589954
20
-1.9822333
40
1.7371701
50
90.4557414
51
93.7163333
0
ARC
8
DEFAULT_255_2_778
10
14.5906892
20
-12.8686117
40
12.6418248
50
93.3752596
51
93.5631054
0
ARC
8
DEFAULT_255_2_778
10
13.5518784
20
3.6484156
40
3.9078478
50
272.3624533
51
273.7141951
0
ARC
8
DEFAULT_255_2_778
10
13.6509252
20
1.3186538
40
1.5759861
50
270.0943253
51
272.2560166
0
ARC
8
DEFAULT_255_2_778
10
13.6386006
20
0.4020091
40
0.6595079
50
256.3872055
51
271.29623
0
ARC
8
DEFAULT_255_2_778
10
13.559007
20
0.0499998
40
0.2987044
50
240.8994505
51
255.3339175
0
ARC
8
DEFAULT_255_2_778
10
13.0597183
20
0.1602078
40
0.5129533
50
303.9241769
51
313.6421224
0
ARC
8
DEFAULT_255_2_778
10
18.7276756
20
-7.8406774
40
9.2923018
50
125.3911122
51
125.4635305
0
ARC
8
DEFAULT_255_2_778
10
13.525193
20
-0.5704963
40
0.3529759
50
122.329715
51
146.3290393
0
ARC
8
DEFAULT_255_2_778
10
13.2611142
20
-0.3105134
40
0.0708059
50
245.2173543
51
269.7428394
0
ARC
8
DEFAULT_255_2_778
10
13.2585603
20
-0.2920183
40
0.0893283
50
271.4344336
51
297.0250878
0
ARC
8
DEFAULT_255_2_778
10
13.0840614
20
0.0288227
40
0.4545274
50
298.2430035
51
307.3671597
0
ARC
8
DEFAULT_255_2_778
10
13.5046254
20
-0.5121639
40
0.2307532
50
99.0738415
51
128.8354466
0
ARC
8
DEFAULT_255_2_778
10
20.6515153
20
23.4947049
40
24.8403005
50
253.1912185
51
253.3347824
0
ARC
8
DEFAULT_255_2_778
10
14.247173
20
2.0681174
40
2.4770858
50
253.1183679
51
256.1147858
0
ARC
8
DEFAULT_255_2_778
10
13.8684874
20
0.4990532
40
0.8630421
50
255.5225704
51
266.9177946
0
ARC
8
DEFAULT_255_2_778
10
13.838985
20
0.1272613
40
0.4902931
50
268.0244112
51
269.9812403
0
ARC
8
DEFAULT_255_2_778
10
13.8471376
20
-0.0646604
40
0.298487
50
268.4040563
51
292.9540366
0
ARC
8
DEFAULT_255_2_778
10
13.8824599
20
-0.1617783
40
0.1953569
50
294.5232721
51
305.7633065
0
ARC
8
DEFAULT_255_2_778
10
14.2716563
20
-0.0093564
40
0.4151171
50
228.5078455
51
264.8946226
0
ARC
8
DEFAULT_255_2_778
10
15.0714384
20
4.0311038
40
4.5318431
50
259.3603321
51
259.4136992
0
ARC
8
DEFAULT_255_2_778
10
16.3805041
20
11.0536604
40
11.675368
50
259.4302561
51
259.499342
0
ARC
8
DEFAULT_255_2_778
10
14.2027553
20
-0.914917
40
0.4912849
50
57.4762873
51
84.1645104
0
ARC
8
DEFAULT_255_2_778
10
14.3227627
20
-0.6899773
40
0.2379222
50
45.6654292
51
52.714208
0
ARC
8
DEFAULT_255_2_778
10
14.8581822
20
-0.5576739
40
0.3710862
50
174.1418132
51
179.8558897
0
ARC
8
DEFAULT_255_2_778
10
14.6811779
20
-0.5657877
40
0.1942914
50
177.3310551
51
214.6100212
0
ARC
8
DEFAULT_255_2_778
10
14.65012
20
-0.5810735
40
0.1601275
50
216.4207553
51
222.9599972
0
ARC
8
DEFAULT_255_2_778
10
14.9849812
20
-0.6845479
40
0.4520825
50
157.604489
51
180.7161458
0
ARC
8
DEFAULT_255_2_778
10
14.8309803
20
-0.6221621
40
0.28593
50
119.5800876
51
157.4053857
0
ARC
8
DEFAULT_255_2_778
10
15.0465142
20
0.028105
40
0.5371276
50
228.3904307
51
262.921248
0
ARC
8
DEFAULT_255_2_778
10
15.3177581
20
1.401419
40
1.9359813
50
259.9622409
51
264.6606892
0
ARC
8
DEFAULT_255_2_778
10
16.0809541
20
8.9222144
40
9.4953527
50
264.2983612
51
264.7337117
0
ARC
8
DEFAULT_255_2_778
10
14.2755582
20
-10.5684371
40
10.0787381
50
84.4293405
51
84.683507
0
ARC
8
DEFAULT_255_2_778
10
14.5082771
20
-1.9501084
40
1.5975094
50
62.1756746
51
72.4911215
0
ARC
8
DEFAULT_255_2_778
10
23.2916421
20
23.4114308
40
25.2425807
50
250.7191673
51
250.7968614
0
ARC
8
DEFAULT_255_2_778
10
15.4095396
20
1.0040776
40
1.4899312
50
241.1154537
51
252.3010104
0
ARC
8
DEFAULT_255_2_778
10
14.8337705
20
-0.1589432
40
0.2018802
50
208.9874418
51
224.5221124
0
ARC
8
DEFAULT_255_2_778
10
15.5235438
20
0.2555683
40
1.0065205
50
208.4107031
51
210.5990468
0
ARC
8
DEFAULT_255_2_778
10
14.2218753
20
-0.429586
40
0.4646629
50
26.3529301
51
36.9442581
0
ARC
8
DEFAULT_255_2_778
10
14.5613562
20
-0.1718969
40
0.0385093
50
34.1018947
51
81.8233876
0
ARC
8
DEFAULT_255_2_778
10
14.5670229
20
-0.1533619
40
0.0195838
50
90.5549348
51
121.6933588
0
ARC
8
DEFAULT_255_2_778
10
16.0444661
20
-0.5128348
40
0.433615
50
190.8016447
51
204.289091
0
ARC
8
DEFAULT_255_2_778
10
12.2946625
20
0.3237129
40
0.9658059
50
280.9458246
51
288.1386004
0
ARC
8
DEFAULT_255_2_778
10
12.2217161
20
0.6922924
40
1.341532
50
273.3906467
51
281.0155726
0
ARC
8
DEFAULT_255_2_778
10
12.2140061
20
0.7790385
40
1.4285845
50
270.0075128
51
273.4935627
0
ARC
8
DEFAULT_255_2_778
10
12.2140921
20
0.738013
40
1.387559
50
268.2327299
51
270.0041827
0
ARC
8
DEFAULT_255_2_778
10
12.187298
20
0.3880099
40
1.0370194
50
250.4377138
51
269.1160712
0
ARC
8
DEFAULT_255_2_778
10
11.9922951
20
-0.1494995
40
0.4652583
50
221.5535591
51
250.902229
0
ARC
8
DEFAULT_255_2_778
10
11.8825417
20
-0.2589959
40
0.3106292
50
187.8642837
51
219.8677123
0
ARC
8
DEFAULT_255_2_778
10
12.4919837
20
-0.2798101
40
0.9174061
50
179.9995284
51
181.3546505
0
ARC
8
DEFAULT_255_2_778
10
12.4934609
20
-0.2799049
40
0.9188833
50
145.2313278
51
179.9936169
0
ARC
8
DEFAULT_255_2_778
10
11.9675108
20
0.0158287
40
0.3232539
50
127.8055741
51
135.0756993
0
ARC
8
DEFAULT_255_2_778
10
12.5638196
20
-0.7273101
40
1.2760276
50
125.2661892
51
128.5064462
0
ARC
8
DEFAULT_255_2_778
10
12.9710229
20
-1.2948164
40
1.9744995
50
122.7931007
51
125.4057141
0
ARC
8
DEFAULT_255_2_778
10
12.885154
20
-1.157389
40
1.8124678
50
119.8308336
51
122.8641502
0
ARC
8
DEFAULT_255_2_778
10
12.5200043
20
-0.5100161
40
1.0692458
50
113.8601973
51
120.1128617
0
ARC
8
DEFAULT_255_2_778
10
12.3053195
20
-0.0338026
40
0.5469031
50
109.7586625
51
113.4720008
0
ARC
8
DEFAULT_255_2_778
10
12.3335952
20
-0.1519187
40
0.6677569
50
93.8161311
51
108.6157523
0
ARC
8
DEFAULT_255_2_778
10
12.3687508
20
-0.4824444
40
0.9999752
50
91.0854007
51
94.5655723
0
ARC
8
DEFAULT_255_2_778
10
12.3709856
20
-0.5668361
40
1.0843942
50
89.99717
51
91.1189928
0
ARC
8
DEFAULT_255_2_778
10
12.3717154
20
-0.6022416
40
1.1197999
50
80.0000231
51
90.0346011
0
ARC
8
DEFAULT_255_2_778
10
12.4427113
20
-0.202735
40
0.7140347
50
73.2214601
51
80.043667
0
ARC
8
DEFAULT_255_2_778
10
11.4086891
20
-0.0008385
40
1.3304258
50
21.2288932
51
58.1980817
0
ARC
8
DEFAULT_255_2_778
10
10.333632
20
-1.622866
40
3.2760138
50
57.1682231
51
68.7152076
0
ARC
8
DEFAULT_255_2_778
10
7.4908765
20
-8.5110479
40
10.7272942
50
67.9225208
51
69.5164175
0
ARC
8
DEFAULT_255_2_778
10
-70.5399838
20
-215.5367705
40
231.9702498
50
69.3556733
51
69.3795165
0
ARC
8
DEFAULT_255_2_778
10
13.9476249
20
6.0905415
40
5.312167
50
238.2772067
51
243.5158388
0
LINE
8
DEFAULT_255_2_778
10
11.5786618
20
1.3358455
11
11.5814694
21
1.3343925
0
ARC
8
DEFAULT_255_2_778
10
10.0528026
20
-1.8822597
40
3.5614145
50
53.2164502
51
64.5812806
0
ARC
8
DEFAULT_255_2_778
10
11.4024959
20
-0.0312024
40
1.2710048
50
30.0886174
51
51.9799456
0
ARC
8
DEFAULT_255_2_778
10
12.5369665
20
-0.6850855
40
1.2915542
50
91.5409861
51
105.0123833
0
ARC
8
DEFAULT_255_2_778
10
12.5020199
20
-0.5275214
40
1.1303377
50
105.3702288
51
126.1837844
0
ARC
8
DEFAULT_255_2_778
10
12.8037128
20
-0.9410034
40
1.6421832
50
126.1626514
51
134.8019873
0
ARC
8
DEFAULT_255_2_778
10
11.3365716
20
-0.2945377
40
0.6042905
50
59.1404072
51
70.9712798
0
LINE
8
DEFAULT_255_2_778
10
11.5335957
20
0.2767315
11
11.5331929
21
0.276887
0
ARC
8
DEFAULT_255_2_778
10
11.6644653
20
0.697406
40
0.4405323
50
231.6339273
51
252.6633332
0
ARC
8
DEFAULT_255_2_778
10
11.6455685
20
0.3197387
40
0.2565711
50
172.7761416
51
178.8991613
0
ARC
8
DEFAULT_255_2_778
10
11.6063383
20
0.3210092
40
0.2173243
50
179.0353583
51
180.0024077
0
ARC
8
DEFAULT_255_2_778
10
11.520405
20
0.3132468
40
0.1316196
50
176.622925
51
228.4673941
0
ARC
8
DEFAULT_255_2_778
10
11.6089975
20
0.4689591
40
0.3091366
50
235.3276982
51
266.1946002
0
ARC
8
DEFAULT_255_2_778
10
12.0490388
20
3.3415461
40
3.2142096
50
261.7618379
51
262.4987736
0
ARC
8
DEFAULT_255_2_778
10
11.2174997
20
-2.9167889
40
3.0991312
50
82.0425913
51
82.361717
0
ARC
8
DEFAULT_255_2_778
10
12.1002629
20
-0.2062771
40
0.5784393
50
141.6653921
51
172.1992871
0
ARC
8
DEFAULT_255_2_778
10
12.1831623
20
-0.2233123
40
0.6629076
50
171.7130375
51
176.8061174
0
ARC
8
DEFAULT_255_2_778
10
12.2086232
20
-0.2248821
40
0.6884162
50
176.7937375
51
180.0070852
0
ARC
8
DEFAULT_255_2_778
10
12.2452418
20
-0.2241977
40
0.7250351
50
180.0608119
51
207.0540337
0
ARC
8
DEFAULT_255_2_778
10
12.0843633
20
-0.3082664
40
0.5435259
50
206.8751137
51
224.9554767
0
ARC
8
DEFAULT_255_2_778
10
12.3759776
20
0.3820162
40
1.1550154
50
291.54489
51
316.5099425
0
ARC
8
DEFAULT_255_2_778
10
13.1138165
20
-0.787122
40
0.3873846
50
75.0221994
51
86.7045488
0
ARC
8
DEFAULT_255_2_778
10
13.1151482
20
-0.7735964
40
0.3738052
50
86.7891696
51
90.0026597
0
ARC
8
DEFAULT_255_2_778
10
13.1408383
20
-0.9635211
40
0.5643158
50
92.6110139
51
119.1909203
0
ARC
8
DEFAULT_255_2_778
10
14.8318866
20
-4.4273345
40
4.418125
50
116.4264028
51
117.5462887
0
ARC
8
DEFAULT_255_2_778
10
12.2188192
20
0.5288645
40
1.1849382
50
288.4453702
51
298.7443175
0
ARC
8
DEFAULT_255_2_778
10
10.4847892
20
-0.1296072
40
0.1284901
50
0.5524039
51
12.4992811
0
ARC
8
DEFAULT_255_2_778
10
10.5235669
20
-0.1269308
40
0.089718
50
317.4469352
51
359.0818969
0
LINE
8
DEFAULT_255_2_778
10
10.5896578
20
-0.1876047
11
10.5893228
21
-0.1880477
0
ARC
8
DEFAULT_255_2_778
10
10.7068554
20
-0.2823775
40
0.1507051
50
141.2500516
51
151.64317
0
ARC
8
DEFAULT_255_2_778
10
9.75062
20
1.056661
40
1.5115533
50
291.587385
51
303.0164114
0
ARC
8
DEFAULT_255_2_778
10
9.8100739
20
0.893424
40
1.3379004
50
274.095459
51
291.7918539
0
ARC
8
DEFAULT_255_2_778
10
9.8247709
20
0.76775
40
1.2115111
50
270.0077205
51
273.8266416
0
ARC
8
DEFAULT_255_2_778
10
9.8243228
20
0.731181
40
1.1749423
50
258.5856203
51
270.0298126
0
ARC
8
DEFAULT_255_2_778
10
9.8262163
20
0.7385657
40
1.1825556
50
253.1298329
51
258.5665015
0
ARC
8
DEFAULT_255_2_778
10
9.2326643
20
-0.3159069
40
0.261999
50
342.8649325
51
345.5397684
0
ARC
8
DEFAULT_255_2_778
10
9.0223117
20
-0.2603005
40
0.4795753
50
345.3822944
51
345.9364149
0
ARC
8
DEFAULT_255_2_778
10
10.4624806
20
-0.5901803
40
0.9980371
50
162.7317433
51
167.6570233
0
ARC
8
DEFAULT_255_2_778
10
9.7176848
20
-0.3566431
40
0.2174966
50
137.8896316
51
163.2378093
0
ARC
8
DEFAULT_255_2_778
10
9.3150322
20
1.1145243
40
1.3471105
50
280.318823
51
289.2411419
0
ARC
8
DEFAULT_255_2_778
10
8.6029075
20
3.1619072
40
3.5148042
50
289.2026914
51
291.8047662
0
ARC
8
DEFAULT_255_2_778
10
23.6813219
20
-35.1832593
40
37.6885441
50
111.3871139
51
111.434592
0
ARC
8
DEFAULT_255_2_778
10
10.5866533
20
-1.621141
40
1.6630249
50
101.3319691
51
112.9744834
0
ARC
8
DEFAULT_255_2_778
10
10.4355193
20
-0.9811973
40
1.0061103
50
89.9734738
51
100.0537815
0
ARC
8
DEFAULT_255_2_778
10
10.4352817
20
-1.054297
40
1.0792101
50
84.9666638
51
89.962655
0
ARC
8
DEFAULT_255_2_778
10
10.4238656
20
-1.1838998
40
1.2093148
50
80.7513712
51
84.966604
0
ARC
8
DEFAULT_255_2_778
10
10.4097297
20
-1.2770924
40
1.3035682
50
80.2122864
51
80.796453
0
ARC
8
DEFAULT_255_2_778
10
10.9521797
20
0.0317962
40
0.3217642
50
180.148762
51
184.3302084
0
ARC
8
DEFAULT_255_2_778
10
10.71568
20
0.0449477
40
0.086403
50
124.2778979
51
189.3160459
0
ARC
8
DEFAULT_255_2_778
10
10.6931724
20
0.0641652
40
0.0583671
50
116.2755048
51
116.6228671
0
ARC
8
DEFAULT_255_2_778
10
12.8548889
20
-4.14326
40
4.7886287
50
112.6881502
51
117.1822801
0
LINE
8
DEFAULT_255_2_778
10
11.0078418
20
0.2748146
11
11.0140471
21
0.2775039
0
ARC
8
DEFAULT_255_2_778
10
9.8131014
20
3.2825825
40
3.2361656
50
291.7835619
51
301.3822561
0
ARC
8
DEFAULT_255_2_778
10
10.7883621
20
1.6100966
40
1.3010471
50
303.0712414
51
308.3735539
0
ARC
8
DEFAULT_255_2_778
10
11.2875957
20
1.9922353
40
1.4356578
50
282.3329897
51
282.4062038
0
ARC
8
DEFAULT_255_2_778
10
11.3374088
20
1.7256038
40
1.1645692
50
270.53161
51
282.7407103
0
ARC
8
DEFAULT_255_2_778
10
11.3374373
20
1.2140455
40
0.6530497
50
252.3880175
51
270.9455377
0
ARC
8
DEFAULT_255_2_778
10
11.268228
20
0.9760819
40
0.4053442
50
239.7021929
51
251.534909
0
ARC
8
DEFAULT_255_2_778
10
11.2633797
20
0.5956072
40
0.2019612
50
171.3156237
51
178.6214176
0
ARC
8
DEFAULT_255_2_778
10
11.2269405
20
0.5970821
40
0.1654981
50
178.8283712
51
179.9973815
0
ARC
8
DEFAULT_255_2_778
10
11.1662968
20
0.592232
40
0.1049668
50
177.347532
51
224.6440264
0
ARC
8
DEFAULT_255_2_778
10
11.2572484
20
0.7024036
40
0.2475185
50
227.9963657
51
245.686633
0
ARC
8
DEFAULT_255_2_778
10
12.5726431
20
3.2189331
40
3.0867197
50
242.6669442
51
242.694438
0
ARC
8
DEFAULT_255_2_778
10
11.0735118
20
0.2820847
40
0.2111331
50
43.1949175
51
66.8093688
0
ARC
8
DEFAULT_255_2_778
10
12.0501348
20
-1.4645152
40
2.0623189
50
113.5106954
51
115.9111546
0
ARC
8
DEFAULT_255_2_778
10
18.7646157
20
-15.2741862
40
17.417815
50
115.9275529
51
116.3225036
0
ARC
8
DEFAULT_255_2_778
10
8.1494361
20
6.2284792
40
6.5623382
50
295.7774136
51
296.1455641
0
ARC
8
DEFAULT_255_2_778
10
10.2433871
20
1.7961117
40
1.6609549
50
284.4234772
51
297.2246054
0
ARC
8
DEFAULT_255_2_778
10
10.4996131
20
0.8609692
40
0.691632
50
270.4977971
51
283.1626604
0
ARC
8
DEFAULT_255_2_778
10
10.498298
20
0.6152988
40
0.4459954
50
238.7093439
51
270.940945
0
ARC
8
DEFAULT_255_2_778
10
10.5046852
20
0.6199792
40
0.4533224
50
231.9906915
51
238.3267286
0
ARC
8
DEFAULT_255_2_778
10
10.3884172
20
0.2328282
40
0.1656181
50
169.5732005
51
179.7283695
0
ARC
8
DEFAULT_255_2_778
10
10.3954191
20
0.237367
40
0.1726589
50
181.2457382
51
200.4906314
0
LINE
8
DEFAULT_255_2_778
10
10.2336844
20
0.1769271
11
10.233977
21
0.1760206
0
ARC
8
DEFAULT_255_2_778
10
10.0684991
20
0.1140716
40
0.1766935
50
1.2104001
51
20.5240842
0
ARC
8
DEFAULT_255_2_778
10
10.0834252
20
0.1180959
40
0.1617281
50
353.2552881
51
359.8966356
0
ARC
8
DEFAULT_255_2_778
10
9.1969487
20
2.0495725
40
2.2137579
50
291.8112697
51
298.2285566
0
ARC
8
DEFAULT_255_2_778
10
9.3116037
20
1.7267702
40
1.8715126
50
277.3678172
51
292.2242703
0
ARC
8
DEFAULT_255_2_778
10
9.3861551
20
1.2499337
40
1.3891115
50
271.6231793
51
276.8403931
0
ARC
8
DEFAULT_255_2_778
10
9.3907834
20
1.1316287
40
1.2707237
50
270.0055728
51
271.5656736
0
ARC
8
DEFAULT_255_2_778
10
9.3743859
20
0.8435076
40
0.9827414
50
243.2420627
51
270.9632606
0
ARC
8
DEFAULT_255_2_778
10
9.0952975
20
-0.0537391
40
0.1645519
50
116.2826312
51
173.1098525
0
ARC
8
DEFAULT_255_2_778
10
8.9735672
20
1.1473056
40
1.0546367
50
272.6557612
51
286.5584938
0
ARC
8
DEFAULT_255_2_778
10
8.5538339
20
2.493102
40
2.4643151
50
286.9951989
51
293.3732633
0
ARC
8
DEFAULT_255_2_778
10
14.3798755
20
-11.4646815
40
12.6608118
50
112.1524036
51
112.5162472
0
ARC
8
DEFAULT_255_2_778
10
10.1206371
20
-0.8714034
40
1.2444364
50
95.3000896
51
114.4359501
0
ARC
8
DEFAULT_255_2_778
10
10.0506217
20
-0.4184386
40
0.7874342
50
90.0054634
51
93.2714267
0
ARC
8
DEFAULT_255_2_778
10
10.0504102
20
-0.4138522
40
0.7828479
50
82.1676109
51
89.9900151
0
ARC
8
DEFAULT_255_2_778
10
10.0442139
20
-0.4591493
40
0.8285668
50
77.3805939
51
82.1699906
0
ARC
8
DEFAULT_255_2_778
10
9.8788534
20
0.5448673
40
0.3977265
50
330.5635635
51
336.9332208
0
LINE
8
DEFAULT_255_2_778
10
10.2447812
20
0.3890366
11
10.2455976
21
0.3908591
0
ARC
8
DEFAULT_255_2_778
10
10.3836423
20
0.350382
40
0.1438567
50
118.1677888
51
163.6579322
0
ARC
8
DEFAULT_255_2_778
10
10.0950004
20
1.449618
40
0.9971545
50
282.7891278
51
296.1718222
0
ARC
8
DEFAULT_255_2_778
10
8.9049688
20
4.0453248
40
3.8523849
50
295.0287698
51
295.8060673
0
ARC
8
DEFAULT_255_2_778
10
-4.0075721
20
30.8305723
40
33.5876005
50
295.7454775
51
295.7880114
0
ARC
8
DEFAULT_255_2_778
10
11.2099535
20
-0.571316
40
1.3078796
50
105.1885596
51
117.5777295
0
ARC
8
DEFAULT_255_2_778
10
11.0602133
20
-0.0977979
40
0.8119282
50
90.8505192
51
103.7453378
0
ARC
8
DEFAULT_255_2_778
10
11.0633869
20
-0.1747952
40
0.8889665
50
89.9990369
51
90.9813802
0
ARC
8
DEFAULT_255_2_778
10
11.0633716
20
-0.1941552
40
0.9083267
50
88.8921217
51
89.9980877
0
ARC
8
DEFAULT_255_2_778
10
11.2064917
20
0.7433612
40
0.1289446
50
183.2213209
51
193.1611977
0
ARC
8
DEFAULT_255_2_778
10
11.1705913
20
0.7406281
40
0.09295
50
180.0252041
51
182.7828149
0
ARC
8
DEFAULT_255_2_778
10
11.1431807
20
0.7398005
40
0.0655441
50
106.6308923
51
179.3122702
0
ARC
8
DEFAULT_255_2_778
10
11.3660851
20
0.3213578
40
0.5385148
50
116.5980975
51
116.6641158
0
ARC
8
DEFAULT_255_2_778
10
12.7830797
20
-2.5134703
40
3.7077613
50
116.4905898
51
116.5640529
0
ARC
8
DEFAULT_255_2_778
10
11.1110451
20
0.8654831
40
0.0631536
50
286.7348949
51
342.9836847
0
ARC
8
DEFAULT_255_2_778
10
10.8425094
20
2.2224399
40
1.4142213
50
270.0021558
51
283.4492231
0
ARC
8
DEFAULT_255_2_778
10
10.84257
20
2.2219149
40
1.4136964
50
268.243856
51
269.9996989
0
ARC
8
DEFAULT_255_2_778
10
10.8425931
20
2.222283
40
1.414065
50
266.3403487
51
268.2433788
0
ARC
8
DEFAULT_255_2_778
10
10.9812674
20
1.0254132
40
0.3135921
50
214.3538899
51
223.1106023
0
ARC
8
DEFAULT_255_2_778
10
10.8627447
20
0.9454198
40
0.1706051
50
200.1941937
51
214.6368976
0
ARC
8
DEFAULT_255_2_778
10
10.7976104
20
0.921315
40
0.1011536
50
180.5696567
51
200.1157807
0
ARC
8
DEFAULT_255_2_778
10
10.8119542
20
0.9114113
40
0.1158346
50
122.8062057
51
175.5943856
0
ARC
8
DEFAULT_255_2_778
10
11.1631014
20
0.4489166
40
0.6962439
50
116.9244389
51
126.475899
0
ARC
8
DEFAULT_255_2_778
10
-7.975674
20
35.6325776
40
39.3562893
50
298.573424
51
298.5868629
0
ARC
8
DEFAULT_255_2_778
10
10.5544317
20
1.666634
40
0.6648267
50
296.9691739
51
306.5204333
0
ARC
8
DEFAULT_255_2_778
10
10.8602618
20
1.2522404
40
0.1498013
50
306.8382139
51
329.2738603
0
ARC
8
DEFAULT_255_2_778
10
10.6487207
20
1.6297638
40
0.5674378
50
271.6182709
51
306.8510413
0
ARC
8
DEFAULT_255_2_778
10
10.5571726
20
2.4755006
40
1.4170372
50
269.7953991
51
274.3537333
0
ARC
8
DEFAULT_255_2_778
10
10.5771822
20
4.5669382
40
3.5085553
50
266.4759009
51
269.5905993
0
ARC
8
DEFAULT_255_2_778
10
11.2323371
20
16.8671791
40
15.8261379
50
266.7431998
51
266.8457544
0
ARC
8
DEFAULT_255_2_778
10
10.0907691
20
1.0574934
40
0.2426359
50
0.0171238
51
2.1512968
0
ARC
8
DEFAULT_255_2_778
10
10.1800376
20
1.0519775
40
0.1534691
50
326.7494678
51
2.0868263
0
ARC
8
DEFAULT_255_2_778
10
10.1000861
20
1.142404
40
0.271777
50
289.619481
51
320.0333241
0
LINE
8
DEFAULT_255_2_778
10
10.1913411
20
0.8864055
11
10.1897703
21
0.8856724
0
ARC
8
DEFAULT_255_2_778
10
10.2926043
20
0.6094367
40
0.2947559
50
110.418736
51
136.8291491
0
ARC
8
DEFAULT_255_2_778
10
9.5469989
20
2.7005845
40
1.9625797
50
285.6866608
51
290.6471258
0
LINE
8
DEFAULT_255_2_778
10
10.239027
20
0.8640616
11
10.2403378
21
0.8645282
0
ARC
8
DEFAULT_255_2_778
10
10.6025285
20
-0.0113917
40
0.947849
50
92.7793151
51
112.4649748
0
ARC
8
DEFAULT_255_2_778
10
10.5578209
20
0.445765
40
0.4895791
50
75.6652827
51
90.1466222
0
ARC
8
DEFAULT_255_2_778
10
10.9132022
20
0.8619334
40
0.2412846
50
166.0498953
51
173.7040588
0
ARC
8
DEFAULT_255_2_778
10
10.9117162
20
0.8621105
40
0.2397882
50
173.707179
51
179.9984387
0
ARC
8
DEFAULT_255_2_778
10
10.9108057
20
0.8620449
40
0.2388777
50
179.9826923
51
228.4401784
0
ARC
8
DEFAULT_255_2_778
10
10.1629378
20
1.605293
40
1.0942833
50
289.8240266
51
302.5893295
0
ARC
8
DEFAULT_255_2_778
10
10.1214578
20
1.6875571
40
1.1857919
50
271.0142851
51
290.3615004
0
ARC
8
DEFAULT_255_2_778
10
10.1336008
20
1.4953344
40
0.9934229
50
269.9987223
51
270.5102924
0
ARC
8
DEFAULT_255_2_778
10
10.1304034
20
1.3946097
40
0.8927038
50
258.6052458
51
270.2037948
0
ARC
8
DEFAULT_255_2_778
10
9.9488866
20
0.4878189
40
0.0320981
50
80.7719717
51
89.6441324
0
ARC
8
DEFAULT_255_2_778
10
9.9495939
20
0.5028541
40
0.0170698
50
91.7052897
51
196.0133247
0
ARC
8
DEFAULT_255_2_778
10
10.1161366
20
0.5035834
40
0.1830309
50
181.7026224
51
189.2463746
0
LINE
8
DEFAULT_255_2_778
10
9.935484
20
0.474174
11
9.9356059
21
0.4733011
0
ARC
8
DEFAULT_255_2_778
10
9.7488394
20
0.4425124
40
0.1892873
50
1.8754229
51
9.3611122
0
ARC
8
DEFAULT_255_2_778
10
9.9228662
20
0.4442236
40
0.0158084
50
272.6112995
51
16.4760287
0
ARC
8
DEFAULT_255_2_778
10
9.9238627
20
0.4584513
40
0.030021
50
258.8045931
51
269.4726642
0
ARC
8
DEFAULT_255_2_778
10
11.1163288
20
-3.3961368
40
4.0084404
50
107.3941223
51
109.8935862
0
ARC
8
DEFAULT_255_2_778
10
21.6509403
20
-32.570735
40
35.0267441
50
109.8585901
51
110.1599735
0
ARC
8
DEFAULT_255_2_778
10
8.5002388
20
3.0242579
40
2.9208044
50
279.1454268
51
291.6797165
0
ARC
8
DEFAULT_255_2_778
10
8.780865
20
1.5292761
40
1.4007793
50
270.1360461
51
277.5317985
0
ARC
8
DEFAULT_255_2_778
10
8.7797865
20
1.2633437
40
1.1348516
50
255.9571573
51
270.2223759
0
ARC
8
DEFAULT_255_2_778
10
8.7682276
20
1.2048114
40
1.0752678
50
250.3438052
51
255.7978743
0
ARC
8
DEFAULT_255_2_778
10
8.4601367
20
0.1699487
40
0.0580383
50
157.4544558
51
172.2148675
0
ARC
8
DEFAULT_255_2_778
10
8.4309059
20
0.1746142
40
0.0284527
50
173.5500049
51
179.847483
0
ARC
8
DEFAULT_255_2_778
10
8.4229027
20
0.1767539
40
0.0205533
50
185.7633938
51
273.159776
0
LINE
8
DEFAULT_255_2_778
10
8.4240356
20
0.1562319
11
8.4244349
21
0.1561364
0
ARC
8
DEFAULT_255_2_778
10
8.4254024
20
0.1350756
40
0.021083
50
4.633038
51
92.6302619
0
ARC
8
DEFAULT_255_2_778
10
8.4003307
20
0.13819
40
0.0461074
50
340.6600591
51
358.24586
0
ARC
8
DEFAULT_255_2_778
10
8.3576849
20
0.1507297
40
0.0905285
50
339.4159532
51
342.1101536
0
ARC
8
DEFAULT_255_2_778
10
8.4062723
20
0.3114478
40
0.1959125
50
270.5206434
51
280.6366811
0
ARC
8
DEFAULT_255_2_778
10
8.4069974
20
0.2895096
40
0.1739694
50
270.0003204
51
270.3474974
0
ARC
8
DEFAULT_255_2_778
10
8.4029788
20
0.2538715
40
0.1383897
50
219.0921094
51
271.664427
0
ARC
8
DEFAULT_255_2_778
10
8.4053898
20
0.2536328
40
0.1401208
50
180.2575521
51
218.3946949
0
ARC
8
DEFAULT_255_2_778
10
8.3977953
20
0.2535199
40
0.1325259
50
179.9796828
51
180.2234938
0
ARC
8
DEFAULT_255_2_778
10
8.3929965
20
0.2548295
40
0.1277336
50
127.8418829
51
180.5663784
0
ARC
8
DEFAULT_255_2_778
10
8.2829773
20
2.4800219
40
2.1245562
50
270.8537592
51
277.526565
0
ARC
8
DEFAULT_255_2_778
10
8.2023573
20
3.0041456
40
2.654748
50
277.7698551
51
284.7299338
0
ARC
8
DEFAULT_255_2_778
10
6.9781261
20
7.6880395
40
7.4959863
50
284.676848
51
286.5198691
0
LINE
8
DEFAULT_255_2_778
10
9.1095935
20
0.5014787
11
9.1111849
21
0.5019417
0
ARC
8
DEFAULT_255_2_778
10
10.4156358
20
-3.7336339
40
4.4318949
50
101.4981561
51
107.1175179
0
ARC
8
DEFAULT_255_2_778
10
9.9487285
20
-1.5688693
40
2.2176559
50
93.7730148
51
100.8258671
0
ARC
8
DEFAULT_255_2_778
10
9.9402487
20
-1.4825103
40
2.1309277
50
90.5973142
51
93.698303
0
ARC
8
DEFAULT_255_2_778
10
10.1092716
20
0.5727321
40
0.2056273
50
134.9423208
51
158.4380379
0
ARC
8
DEFAULT_255_2_778
10
10.9072828
20
-0.1192121
40
1.261404
50
137.8063855
51
138.3992904
0
ARC
8
DEFAULT_255_2_778
10
9.7349671
20
0.9687423
40
0.3383677
50
314.6431677
51
328.7311243
0
ARC
8
DEFAULT_255_2_778
10
9.978018
20
0.8178921
40
0.0523967
50
331.7737598
51
358.0009476
0
ARC
8
DEFAULT_255_2_778
10
9.997806
20
0.8162143
40
0.0325772
50
359.7361128
51
26.2083431
0
ARC
8
DEFAULT_255_2_778
10
9.810206
20
1.173795
40
0.4059508
50
286.6438171
51
302.2845002
0
ARC
8
DEFAULT_255_2_778
10
9.7397091
20
1.3807061
40
0.6244398
50
273.250657
51
287.4035442
0
ARC
8
DEFAULT_255_2_778
10
9.7444063
20
1.3131962
40
0.5567727
50
270.0233263
51
273.1619942
0
ARC
8
DEFAULT_255_2_778
10
9.7356186
20
1.1326754
40
0.3763598
50
246.9967471
51
271.3724599
0
ARC
8
DEFAULT_255_2_778
10
9.6888737
20
1.0037787
40
0.2395582
50
240.7811256
51
245.2402807
0
ARC
8
DEFAULT_255_2_778
10
9.4207596
20
0.7277458
40
0.1653383
50
9.3894351
51
23.8887643
0
ARC
8
DEFAULT_255_2_778
10
9.5146887
20
0.7455703
40
0.0697964
50
0.1679478
51
7.5324565
0
ARC
8
DEFAULT_255_2_778
10
9.5295112
20
0.7455954
40
0.0549738
50
333.8207708
51
0.1871017
0
ARC
8
DEFAULT_255_2_778
10
9.4153191
20
0.8107063
40
0.1863517
50
317.82965
51
331.3442037
0
ARC
8
DEFAULT_255_2_778
10
13.9858759
20
-16.4112614
40
17.6620855
50
104.5342099
51
105.3782178
0
ARC
8
DEFAULT_255_2_778
10
7.7326332
20
6.1164389
40
5.7176013
50
280.3780554
51
285.9318049
0
ARC
8
DEFAULT_255_2_778
10
8.2889656
20
3.1999929
40
2.7487346
50
270.894523
51
279.9224863
0
ARC
8
DEFAULT_255_2_778
10
8.3016409
20
2.914552
40
2.4631442
50
270.0003063
51
270.7033721
0
ARC
8
DEFAULT_255_2_778
10
8.3013671
20
2.8773348
40
2.4259272
50
265.9453267
51
270.0067773
0
ARC
8
DEFAULT_255_2_778
10
8.3016319
20
2.8780873
40
2.4266964
50
263.4147278
51
265.9403477
0
ARC
8
DEFAULT_255_2_778
10
7.6388492
20
0.1136866
40
0.5224393
50
42.6131726
51
64.9132661
0
ARC
8
DEFAULT_255_2_778
10
7.6221214
20
0.1102729
40
0.5327997
50
63.4395766
51
75.4113707
0
ARC
8
DEFAULT_255_2_778
10
7.6832447
20
0.3322625
40
0.302589
50
76.0245952
51
80.9704853
0
ARC
8
DEFAULT_255_2_778
10
5.0084838
20
0.967147
40
2.7429131
50
352.9627822
51
353.1754924
0
ARC
8
DEFAULT_255_2_778
10
17.6087099
20
-0.5456041
40
9.9477968
50
173.1217508
51
173.1480503
0
ARC
8
DEFAULT_255_2_778
10
7.8686135
20
0.6542367
40
0.1363697
50
131.7326104
51
183.5706654
0
ARC
8
DEFAULT_255_2_778
10
7.8064543
20
0.7036655
40
0.0596506
50
112.1812859
51
118.6676987
0
ARC
8
DEFAULT_255_2_778
10
8.0366415
20
4.1096764
40
3.3602906
50
265.6870524
51
267.870154
0
ARC
8
DEFAULT_255_2_778
10
8.0343008
20
4.0526498
40
3.3032164
50
267.8739653
51
270.0001008
0
ARC
8
DEFAULT_255_2_778
10
8.0314331
20
4.2174348
40
3.4680026
50
270.0474741
51
274.8818756
0
ARC
8
DEFAULT_255_2_778
10
7.8517688
20
6.0773538
40
5.3365042
50
275.1044474
51
279.2899757
0
ARC
8
DEFAULT_255_2_778
10
5.9573087
20
18.2169831
40
17.6229651
50
278.9970342
51
279.4092146
0
ARC
8
DEFAULT_255_2_778
10
-10.7329803
20
119.4341168
40
120.2069448
50
279.3702684
51
279.3903482
0
ARC
8
DEFAULT_255_2_778
10
10.3446819
20
-7.6209332
40
8.5847966
50
97.0117829
51
99.8237832
0
ARC
8
DEFAULT_255_2_778
10
9.7685944
20
-3.1142008
40
4.0415027
50
92.8217725
51
96.7051838
0
ARC
8
DEFAULT_255_2_778
10
9.9608215
20
0.6193014
40
0.4948711
50
109.2534234
51
142.2307336
0
ARC
8
DEFAULT_255_2_778
10
10.3650197
20
-0.4274264
40
1.6167485
50
101.2796683
51
110.544775
0
ARC
8
DEFAULT_255_2_778
10
11.9109961
20
-7.4301912
40
8.7878585
50
101.6427431
51
102.2341351
0
LINE
8
DEFAULT_255_2_778
10
10.1375303
20
1.1768568
11
10.1402317
21
1.1774181
0
ARC
8
DEFAULT_255_2_778
10
9.6894437
20
3.6105749
40
2.474563
50
280.4961087
51
287.6005621
0
ARC
8
DEFAULT_255_2_778
10
10.2429365
20
1.8657807
40
0.6440819
50
287.6011865
51
307.3770421
0
ARC
8
DEFAULT_255_2_778
10
10.3721265
20
1.6790057
40
0.4173715
50
308.8490007
51
313.7480252
0
ARC
8
DEFAULT_255_2_778
10
10.9564934
20
-0.1979396
40
1.6029624
50
100.6324501
51
108.0948
0
ARC
8
DEFAULT_255_2_778
10
9.0436285
20
5.8921788
40
4.7806412
50
286.1810073
51
287.2166428
0
ARC
8
DEFAULT_255_2_778
10
10.1267321
20
2.0882921
40
0.8258482
50
271.397416
51
287.5577359
0
ARC
8
DEFAULT_255_2_778
10
10.1463056
20
1.8012087
40
0.5385196
50
257.0019508
51
270.0602789
0
ARC
8
DEFAULT_255_2_778
10
10.1527964
20
1.8297796
40
0.5678183
50
252.9210158
51
257.0122074
0
ARC
8
DEFAULT_255_2_778
10
9.54947
20
1.6128295
40
0.5447494
50
278.0902365
51
323.2643151
0
ARC
8
DEFAULT_255_2_778
10
9.5490483
20
1.6134863
40
0.5454592
50
274.8883536
51
278.1243806
0
ARC
8
DEFAULT_255_2_778
10
9.5491107
20
1.6128597
40
0.5448295
50
270.0003633
51
274.8874347
0
ARC
8
DEFAULT_255_2_778
10
9.5491178
20
1.6130083
40
0.544978
50
232.9594651
51
269.9996163
0
ARC
8
DEFAULT_255_2_778
10
9.2782469
20
1.1323599
40
0.0733445
50
141.5162831
51
163.5211527
0
ARC
8
DEFAULT_255_2_778
10
9.2539083
20
1.1405147
40
0.0477011
50
164.621349
51
179.8470445
0
ARC
8
DEFAULT_255_2_778
10
9.292035
20
1.1518597
40
0.0865576
50
187.4463139
51
229.5720161
0
ARC
8
DEFAULT_255_2_778
10
8.8924311
20
0.7651955
40
0.4699674
50
40.4850413
51
43.0429527
0
ARC
8
DEFAULT_255_2_778
10
9.2115268
20
1.0318351
40
0.0543317
50
5.6024082
51
45.1018261
0
ARC
8
DEFAULT_255_2_778
10
9.2294828
20
1.0380706
40
0.0361281
50
322.3514882
51
358.5228115
0
ARC
8
DEFAULT_255_2_778
10
9.210354
20
1.049872
40
0.0585291
50
322.5737371
51
324.6429246
0
ARC
8
DEFAULT_255_2_778
10
8.1237246
20
7.0067081
40
6.098596
50
280.6987423
51
280.7076848
0
ARC
8
DEFAULT_255_2_778
10
7.0039459
20
12.9257051
40
12.1225836
50
280.6967723
51
280.705742
0
ARC
8
DEFAULT_255_2_778
10
9.5122303
20
-0.3546967
40
1.3926139
50
100.6846953
51
100.7234617
0
ARC
8
DEFAULT_255_2_778
10
8.1504887
20
6.8440774
40
5.9338238
50
280.6998388
51
280.7089062
0
ARC
8
DEFAULT_255_2_778
10
7.0604214
20
12.5945044
40
11.7866565
50
280.707597
51
280.7166983
0
ARC
8
DEFAULT_255_2_778
10
7.5948774
20
9.7612196
40
8.9034042
50
280.7052695
51
280.7157401
0
LINE
8
DEFAULT_255_2_778
10
9.2487469
20
1.0127727
11
9.247839
21
1.0126008
0
LINE
8
DEFAULT_255_2_778
10
9.247839
20
1.0126008
11
9.2469341
21
1.0124295
0
ARC
8
DEFAULT_255_2_778
10
7.1390756
20
12.1391603
40
11.3246283
50
280.7177597
51
280.7270491
0
LINE
8
DEFAULT_255_2_778
10
9.2451301
20
1.0120879
11
9.2442345
21
1.0119183
0
ARC
8
DEFAULT_255_2_778
10
7.1790471
20
11.9041972
40
11.0863312
50
280.7265106
51
280.7359031
0
LINE
8
DEFAULT_255_2_778
10
9.2424489
20
1.0115799
11
9.2415624
21
1.0114119
0
ARC
8
DEFAULT_255_2_778
10
7.692537
20
9.1770813
40
8.3112958
50
280.7305124
51
280.7413623
0
ARC
8
DEFAULT_255_2_778
10
7.2408353
20
11.5470196
40
10.7238953
50
280.7345546
51
280.7441079
0
ARC
8
DEFAULT_255_2_778
10
8.2527174
20
6.1991649
40
5.2811527
50
280.7456703
51
280.7553011
0
ARC
8
DEFAULT_255_2_778
10
7.2789126
20
11.3252552
40
10.49892
50
280.7413067
51
280.7509648
0
LINE
8
DEFAULT_255_2_778
10
9.2356485
20
1.0102901
11
9.2347853
21
1.0101263
0
ARC
8
DEFAULT_255_2_778
10
7.3164403
20
11.1066811
40
10.2771818
50
280.7481998
51
280.7579649
0
ARC
8
DEFAULT_255_2_778
10
8.2875352
20
5.9808156
40
5.0601409
50
280.7596475
51
280.7694935
0
ARC
8
DEFAULT_255_2_778
10
7.3529971
20
10.8958335
40
10.063216
50
280.7527723
51
280.7626423
0
ARC
8
DEFAULT_255_2_778
10
8.3043456
20
5.8762704
40
4.9542953
50
280.7643723
51
280.774325
0
ARC
8
DEFAULT_255_2_778
10
3.8496805
20
29.3048727
40
28.8026377
50
280.7585537
51
280.7653825
0
ARC
8
DEFAULT_255_2_778
10
7.4364996
20
10.4173698
40
9.5775752
50
280.7602262
51
280.7703477
0
ARC
8
DEFAULT_255_2_778
10
5.6949834
20
19.5579358
40
18.882564
50
280.7683493
51
280.7734475
0
ARC
8
DEFAULT_255_2_778
10
7.5891872
20
9.5944742
40
8.7406424
50
280.7624197
51
280.7730151
0
ARC
8
DEFAULT_255_2_778
10
6.2034249
20
16.8643613
40
16.1414254
50
280.7704992
51
280.7760142
0
ARC
8
DEFAULT_255_2_778
10
7.3135047
20
11.0231015
40
10.1956209
50
280.7695413
51
280.7764801
0
ARC
8
DEFAULT_255_2_778
10
1.5373559
20
41.339499
40
41.0573746
50
280.7782493
51
280.7828226
0
ARC
8
DEFAULT_255_2_778
10
1.7553506
20
40.1638441
40
39.8616937
50
280.7818097
51
280.7864543
0
ARC
8
DEFAULT_255_2_778
10
7.4274605
20
10.365643
40
9.5284514
50
280.7816025
51
280.7959684
0
ARC
8
DEFAULT_255_2_778
10
6.8335985
20
13.4745768
40
12.6935958
50
280.7835195
51
280.7897422
0
ARC
8
DEFAULT_255_2_778
10
6.9075593
20
13.0675838
40
12.2799525
50
280.7888559
51
280.7998178
0
ARC
8
DEFAULT_255_2_778
10
-254.4901397
20
1381.2666676
40
1405.2255673
50
280.8117765
51
280.8159137
0
ARC
8
DEFAULT_255_2_778
10
4.2063653
20
26.6497905
40
26.1277589
50
280.5780933
51
280.8097406
0
ARC
8
DEFAULT_255_2_778
10
6.81833
20
12.6171651
40
11.8541199
50
279.5991143
51
280.6190349
0
ARC
8
DEFAULT_255_2_778
10
7.7493954
20
7.0372088
40
6.1970448
50
276.3385784
51
279.7142044
0
ARC
8
DEFAULT_255_2_778
10
8.0256711
20
4.5743494
40
3.7187404
50
272.0156339
51
276.2973129
0
ARC
8
DEFAULT_255_2_778
10
8.064678
20
3.6584436
40
2.8020374
50
270.0227419
51
271.8772339
0
ARC
8
DEFAULT_255_2_778
10
8.0506982
20
2.8069309
40
1.9505828
50
260.605168
51
270.4433116
0
ARC
8
DEFAULT_255_2_778
10
7.9086479
20
1.9694673
40
1.1011698
50
245.1245277
51
260.7841545
0
ARC
8
DEFAULT_255_2_778
10
7.7253295
20
1.5853747
40
0.6756159
50
205.5136659
51
245.5267868
0
ARC
8
DEFAULT_255_2_778
10
7.8198494
20
1.6282238
40
0.7793775
50
195.9920961
51
205.3635775
0
ARC
8
DEFAULT_255_2_778
10
7.061642
20
1.4596206
40
0.0469875
50
281.0327067
51
323.554816
0
ARC
8
DEFAULT_255_2_778
10
32.8316433
20
-21.9082728
40
34.7404802
50
137.7871145
51
137.7909061
0
ARC
8
DEFAULT_255_2_778
10
7.1370055
20
1.4065302
40
0.0449447
50
107.0412959
51
143.2684193
0
ARC
8
DEFAULT_255_2_778
10
7.9415554
20
2.9772424
40
1.7328186
50
241.8421389
51
262.0922571
0
ARC
8
DEFAULT_255_2_778
10
8.2034313
20
4.6788785
40
3.4543946
50
261.6729941
51
270.4421804
0
ARC
8
DEFAULT_255_2_778
10
8.2388229
20
6.6704005
40
5.4458206
50
269.9081241
51
269.9986837
0
ARC
8
DEFAULT_255_2_778
10
8.1893034
20
10.0820865
40
8.8576442
50
270.31951
51
273.3827828
0
ARC
8
DEFAULT_255_2_778
10
6.4474067
20
42.8674032
40
41.6890782
50
273.1138445
51
273.3447662
0
ARC
8
DEFAULT_255_2_778
10
10.2057441
20
-20.6661485
40
21.9555691
50
92.5778997
51
93.4625429
0
ARC
8
DEFAULT_255_2_778
10
9.1926046
20
1.3289415
40
0.0668482
50
292.544229
51
353.1384463
0
ARC
8
DEFAULT_255_2_778
10
13.6169877
20
-0.1028057
40
4.5846896
50
161.8944722
51
161.9078124
0
ARC
8
DEFAULT_255_2_778
10
9.3179697
20
1.318143
40
0.0587887
50
99.0386818
51
176.2678516
0
ARC
8
DEFAULT_255_2_778
10
9.174212
20
2.4524456
40
1.0846186
50
277.1245703
51
286.4087318
0
ARC
8
DEFAULT_255_2_778
10
8.351469
20
5.3859632
40
4.1312598
50
285.8616105
51
286.7669987
0
ARC
8
DEFAULT_255_2_778
10
18.3639352
20
-28.1072021
40
30.8264627
50
106.6179588
51
106.6269939
0
ARC
8
DEFAULT_255_2_778
10
9.9549606
20
0.1902504
40
1.3065072
50
97.8560482
51
108.15285
0
ARC
8
DEFAULT_255_2_778
10
9.8720499
20
0.6693208
40
0.8207696
50
89.981227
51
96.6936061
0
ARC
8
DEFAULT_255_2_778
10
9.8718139
20
0.613376
40
0.8767145
50
85.5005637
51
89.9670061
0
ARC
8
DEFAULT_255_2_778
10
9.8668638
20
0.5435433
40
0.9467204
50
84.0723554
51
85.5334558
0
ARC
8
DEFAULT_255_2_778
10
10.5776436
20
0.5223755
40
1.1414092
50
103.8924405
51
122.4839882
0
ARC
8
DEFAULT_255_2_778
10
11.0193898
20
-0.9938696
40
2.7201361
50
101.9312654
51
105.2569387
0
ARC
8
DEFAULT_255_2_778
10
11.0477492
20
1.7058557
40
0.591959
50
180.3400458
51
183.7149008
0
ARC
8
DEFAULT_255_2_778
10
10.5599499
20
1.7143339
40
0.1048375
50
143.6304034
51
186.5679262
0
ARC
8
DEFAULT_255_2_778
10
10.3718915
20
4.0254366
40
2.2513219
50
270.1576362
51
272.6386164
0
ARC
8
DEFAULT_255_2_778
10
10.3583333
20
2.5700862
40
0.796208
50
256.7267238
51
271.4215278
0
ARC
8
DEFAULT_255_2_778
10
10.2528502
20
2.0982785
40
0.312837
50
239.1508805
51
255.6900844
0
ARC
8
DEFAULT_255_2_778
10
10.2000726
20
1.8545686
40
0.1104738
50
193.0084348
51
268.3606915
0
ARC
8
DEFAULT_255_2_778
10
10.3707401
20
2.5519608
40
0.8263114
50
257.8561995
51
260.1505864
0
ARC
8
DEFAULT_255_2_778
10
11.3821873
20
8.2096672
40
6.5737077
50
259.9001255
51
259.9780881
0
ARC
8
DEFAULT_255_2_778
10
10.2023138
20
1.4328983
40
0.3054826
50
65.6145954
51
83.2538254
0
ARC
8
DEFAULT_255_2_778
10
10.288651
20
1.6369814
40
0.0841481
50
45.1142189
51
61.7815302
0
ARC
8
DEFAULT_255_2_778
10
9.7535804
20
3.4061894
40
1.8099905
50
283.632024
51
289.1734567
0
ARC
8
DEFAULT_255_2_778
10
9.8573748
20
2.9634849
40
1.3552989
50
275.6561601
51
283.7786577
0
ARC
8
DEFAULT_255_2_778
10
9.8987692
20
2.5796317
40
0.9692408
50
270.1139761
51
275.45748
0
ARC
8
DEFAULT_255_2_778
10
9.8878195
20
2.2037196
40
0.5934664
50
248.8816956
51
271.2433713
0
ARC
8
DEFAULT_255_2_778
10
9.8247303
20
2.015524
40
0.3952811
50
238.608318
51
247.5837312
0
ARC
8
DEFAULT_255_2_778
10
9.6450541
20
1.6463968
40
0.0411423
50
129.5910309
51
159.6739582
0
ARC
8
DEFAULT_255_2_778
10
9.6339954
20
1.6514546
40
0.0290293
50
161.4534409
51
172.8205428
0
ARC
8
DEFAULT_255_2_778
10
9.6341314
20
1.6514621
40
0.0291634
50
172.868562
51
180.0266673
0
ARC
8
DEFAULT_255_2_778
10
9.6752127
20
1.662429
40
0.0710979
50
188.8844151
51
231.5946391
0
ARC
8
DEFAULT_255_2_778
10
9.8746653
20
1.8538984
40
0.3470603
50
225.4160623
51
227.9579802
0
ARC
8
DEFAULT_255_2_778
10
9.4489341
20
1.3621159
40
0.3035513
50
41.9665184
51
50.4434282
0
ARC
8
DEFAULT_255_2_778
10
9.6602107
20
1.5520844
40
0.0194284
50
6.1446448
51
42.0593917
0
ARC
8
DEFAULT_255_2_778
10
9.6693865
20
1.554921
40
0.0101691
50
288.285114
51
355.7307365
0
ARC
8
DEFAULT_255_2_778
10
9.6607346
20
1.5689688
40
0.0264971
50
295.2415364
51
296.5468868
0
ARC
8
DEFAULT_255_2_778
10
9.3127686
20
2.2929452
40
0.8297537
50
284.9536089
51
295.6567226
0
ARC
8
DEFAULT_255_2_778
10
9.2613459
20
2.460085
40
1.0045237
50
273.2755566
51
285.3273842
0
ARC
8
DEFAULT_255_2_778
10
9.2716283
20
2.32157
40
0.8656508
50
270.0240641
51
273.1199356
0
ARC
8
DEFAULT_255_2_778
10
9.2612587
20
2.0666124
40
0.6107875
50
250.3374821
51
271.0068914
0
ARC
8
DEFAULT_255_2_778
10
9.2001955
20
1.8706653
40
0.405807
50
243.0270883
51
249.1472437
0
ARC
8
DEFAULT_255_2_778
10
9.0488987
20
1.4624797
40
0.0569018
50
125.1564713
51
187.0090916
0
ARC
8
DEFAULT_255_2_778
10
11.6048224
20
1.1933379
40
2.6255253
50
174.2686238
51
174.2985513
0
ARC
8
DEFAULT_255_2_778
10
8.937339
20
1.4467778
40
0.0554415
50
305.5238479
51
7.6628402
0
ARC
8
DEFAULT_255_2_778
10
8.9587107
20
1.4309766
40
0.0312615
50
277.7640918
51
290.2928937
0
ARC
8
DEFAULT_255_2_778
10
7.8981068
20
13.323882
40
11.9713316
50
273.5476613
51
275.103095
0
ARC
8
DEFAULT_255_2_778
10
8.1535586
20
9.381932
40
8.0211362
50
272.6203969
51
273.468808
0
ARC
8
DEFAULT_255_2_778
10
8.2384784
20
7.374046
40
6.0114713
50
270.0848601
51
272.686797
0
ARC
8
DEFAULT_255_2_778
10
8.2198952
20
4.866195
40
3.5037216
50
262.0829552
51
270.4494911
0
ARC
8
DEFAULT_255_2_778
10
7.9874595
20
3.2096686
40
1.8309701
50
249.6386406
51
262.1471545
0
ARC
8
DEFAULT_255_2_778
10
7.6374052
20
2.3472904
40
0.9011171
50
206.7348078
51
251.4272753
0
ARC
8
DEFAULT_255_2_778
10
7.7102649
20
2.3555737
40
0.9702461
50
189.0320778
51
205.2359361
0
ARC
8
DEFAULT_255_2_778
10
7.965556
20
2.4048394
40
1.2301358
50
185.2770553
51
189.4315864
0
ARC
8
DEFAULT_255_2_778
10
6.7231261
20
2.2303786
40
0.0637733
50
74.0658345
51
85.6951201
0
ARC
8
DEFAULT_255_2_778
10
6.7253778
20
2.2535414
40
0.04051
50
86.4117693
51
89.9462939
0
ARC
8
DEFAULT_255_2_778
10
6.7265099
20
2.2684546
40
0.0256201
50
92.4474836
51
196.4899097
0
ARC
8
DEFAULT_255_2_778
10
6.9840265
20
2.2683217
40
0.2821734
50
181.4498017
51
188.0233628
0
LINE
8
DEFAULT_255_2_778
10
6.7046154
20
2.2289368
11
6.7047041
21
2.2282023
0
ARC
8
DEFAULT_255_2_778
10
6.419346
20
2.1876688
40
0.2882225
50
1.5377726
51
8.0844713
0
ARC
8
DEFAULT_255_2_778
10
6.6764522
20
2.190445
40
0.0314065
50
310.7305479
51
9.0840397
0
ARC
8
DEFAULT_255_2_778
10
6.6865499
20
2.1847868
40
0.0209084
50
272.6975532
51
299.8129149
0
ARC
8
DEFAULT_255_2_778
10
7.8755743
20
5.5020001
40
3.5432106
50
234.5794666
51
250.4091872
0
ARC
8
DEFAULT_255_2_778
10
7.4069618
20
4.8526128
40
2.742422
50
207.5330189
51
234.6946722
0
ARC
8
DEFAULT_255_2_778
10
5.7540742
20
3.9655446
40
0.86697
50
192.6393102
51
206.0432708
0
ARC
8
DEFAULT_255_2_778
10
7.8713976
20
4.5131566
40
3.0536352
50
192.0128251
51
193.9724436
0
ARC
8
DEFAULT_255_2_778
10
5.9256386
20
4.1042525
40
1.0653925
50
187.296992
51
192.2829327
0
ARC
8
DEFAULT_255_2_778
10
-38.5068561
20
-2.2672404
40
43.8217284
50
8.181412
51
8.1901283
0
ARC
8
DEFAULT_255_2_778
10
4.2606461
20
3.9132845
40
0.6104613
50
5.8525941
51
18.2760182
0
ARC
8
DEFAULT_255_2_778
10
4.780668
20
4.0906056
40
0.0612936
50
13.3152677
51
77.3087406
0
ARC
8
DEFAULT_255_2_778
10
6.2551859
20
3.954634
40
1.4741091
50
172.3683466
51
179.9588736
0
ARC
8
DEFAULT_255_2_778
10
6.0977523
20
3.9482859
40
1.3166959
50
179.677719
51
204.9671043
0
ARC
8
DEFAULT_255_2_778
10
6.0030007
20
3.9094039
40
1.214396
50
205.1910169
51
221.017937
0
ARC
8
DEFAULT_255_2_778
10
7.108517
20
4.6338863
40
2.5187529
50
224.2729643
51
236.4857641
0
ARC
8
DEFAULT_255_2_778
10
8.558709
20
6.7627182
40
5.0944899
50
236.1070481
51
240.9194357
0
ARC
8
DEFAULT_255_2_778
10
12.6901593
20
14.1476757
40
13.5565411
50
240.8296202
51
242.3392387
0
ARC
8
DEFAULT_255_2_778
10
-6.3416009
20
-22.0960592
40
27.3801991
50
61.7474017
51
62.2743209
0
ARC
8
DEFAULT_255_2_778
10
2.7410121
20
-5.1578351
40
8.1605138
50
61.0680015
51
61.6261013
0
ARC
8
DEFAULT_255_2_778
10
7.0777587
20
1.8925015
40
0.399589
50
166.7331863
51
175.6383616
0
ARC
8
DEFAULT_255_2_778
10
7.0408169
20
1.8959677
40
0.3624912
50
175.7405789
51
179.9866633
0
ARC
8
DEFAULT_255_2_778
10
7.0518245
20
1.8978694
40
0.3735032
50
180.278781
51
199.5306022
0
ARC
8
DEFAULT_255_2_778
10
7.3668527
20
2.0087353
40
0.7074698
50
199.4633689
51
205.6278093
0
ARC
8
DEFAULT_255_2_778
10
6.00214
20
1.3308005
40
0.8164783
50
19.6704059
51
27.0996115
0
ARC
8
DEFAULT_255_2_778
10
6.5844622
20
1.5462809
40
0.1957264
50
7.6714147
51
17.6527353
0
ARC
8
DEFAULT_255_2_778
10
6.6345668
20
1.5537775
40
0.1450717
50
0.0893624
51
7.3787737
0
ARC
8
DEFAULT_255_2_778
10
6.6474168
20
1.5539656
40
0.1322215
50
356.1126157
51
0.0165193
0
ARC
8
DEFAULT_255_2_778
10
7.3003769
20
6.1325118
40
4.6170051
50
259.935291
51
263.5201942
0
ARC
8
DEFAULT_255_2_778
10
7.367949
20
6.5217552
40
5.0120676
50
256.061319
51
259.9523484
0
ARC
8
DEFAULT_255_2_778
10
7.2229763
20
6.0282119
40
4.4981886
50
244.6335437
51
256.3392207
0
ARC
8
DEFAULT_255_2_778
10
6.5480349
20
4.5861218
40
2.9059975
50
235.3921197
51
244.4771424
0
ARC
8
DEFAULT_255_2_778
10
6.0260174
20
3.8211411
40
1.9798961
50
227.3591286
51
235.252479
0
ARC
8
DEFAULT_255_2_778
10
5.3132766
20
3.0053214
40
0.897404
50
190.0329728
51
225.549764
0
ARC
8
DEFAULT_255_2_778
10
6.4201331
20
3.2779426
40
2.0362334
50
185.1856447
51
192.1613016
0
ARC
8
DEFAULT_255_2_778
10
4.362524
20
3.086842
40
0.0305372
50
278.3396644
51
13.3665306
0
ARC
8
DEFAULT_255_2_778
10
4.3676208
20
3.1079854
40
0.051362
50
257.1911701
51
269.2551216
0
ARC
8
DEFAULT_255_2_778
10
5.7354083
20
5.2319247
40
2.5899897
50
227.1817744
51
231.0500528
0
ARC
8
DEFAULT_255_2_778
10
6.2025236
20
5.7379942
40
3.2786851
50
223.9211676
51
227.2049673
0
ARC
8
DEFAULT_255_2_778
10
6.8497616
20
6.3526899
40
4.1712869
50
217.8469288
51
223.8359221
0
ARC
8
DEFAULT_255_2_778
10
7.2382252
20
6.6644351
40
4.6693173
50
210.5224453
51
217.9429716
0
ARC
8
DEFAULT_255_2_778
10
7.5628171
20
6.9011545
40
5.0693051
50
210.1432074
51
210.9639798
0
ARC
8
DEFAULT_255_2_778
10
7.5909751
20
6.9176803
40
5.1019541
50
208.9942935
51
210.1449047
0
ARC
8
DEFAULT_255_2_778
10
7.4778658
20
6.8553398
40
4.9728032
50
207.5755241
51
208.9977433
0
ARC
8
DEFAULT_255_2_778
10
7.3613643
20
6.7939137
40
4.8411011
50
207.353554
51
207.5693981
0
ARC
8
DEFAULT_255_2_778
10
7.0506639
20
6.6360518
40
4.492607
50
204.4926972
51
207.3860686
0
ARC
8
DEFAULT_255_2_778
10
5.8702063
20
6.1195258
40
3.2042923
50
195.4630016
51
204.8386051
0
ARC
8
DEFAULT_255_2_778
10
4.704034
20
5.7854197
40
1.991285
50
188.3318701
51
195.1438423
0
ARC
8
DEFAULT_255_2_778
10
4.1364544
20
5.7021374
40
1.4176278
50
180.5101859
51
188.3255145
0
ARC
8
DEFAULT_255_2_778
10
3.9036793
20
5.6955554
40
1.1848117
50
179.9982314
51
180.292134
0
ARC
8
DEFAULT_255_2_778
10
3.6588896
20
5.7056701
40
0.9400761
50
163.9759926
51
180.6142577
0
ARC
8
DEFAULT_255_2_778
10
3.3890484
20
5.7826109
40
0.6594806
50
132.5204317
51
163.9294566
0
ARC
8
DEFAULT_255_2_778
10
3.4431569
20
5.7182733
40
0.743478
50
118.9892227
51
132.2427795
0
ARC
8
DEFAULT_255_2_778
10
6.6779211
20
6.4755386
40
3.5966772
50
181.7037795
51
193.503467
0
ARC
8
DEFAULT_255_2_778
10
7.3623704
20
6.6504334
40
4.3030564
50
193.6397888
51
204.5471866
0
ARC
8
DEFAULT_255_2_778
10
8.9602988
20
7.3767371
40
6.0583013
50
204.5170425
51
211.0851484
0
ARC
8
DEFAULT_255_2_778
10
11.1446642
20
8.6580382
40
8.5905985
50
210.8816906
51
212.343773
0
ARC
8
DEFAULT_255_2_778
10
12.2171092
20
9.3316362
40
9.857032
50
212.3166604
51
212.4865967
0
ARC
8
DEFAULT_255_2_778
10
21.6145691
20
14.6478981
40
20.6470053
50
210.9239596
51
211.0005634
0
ARC
8
DEFAULT_255_2_778
10
5.7350187
20
5.0043976
40
2.0706459
50
208.5831738
51
224.4379859
0
ARC
8
DEFAULT_255_2_778
10
4.7683702
20
4.0921287
40
0.7421728
50
226.4006673
51
249.1185965
0
ARC
8
DEFAULT_255_2_778
10
4.6593266
20
3.3886544
40
0.1558169
50
151.8760982
51
176.3029526
0
ARC
8
DEFAULT_255_2_778
10
2.9865256
20
4.1944096
40
1.7010786
50
334.5010062
51
334.8581469
0
ARC
8
DEFAULT_255_2_778
10
4.4222523
20
3.5269099
40
0.117919
50
332.0757622
51
358.5526719
0
ARC
8
DEFAULT_255_2_778
10
4.4352434
20
3.5238739
40
0.1048904
50
0.0314521
51
4.334572
0
ARC
8
DEFAULT_255_2_778
10
6.2794999
20
5.3755768
40
2.5349447
50
224.9163724
51
226.6641392
0
ARC
8
DEFAULT_255_2_778
10
6.4730927
20
5.5686433
40
2.8083543
50
223.2176186
51
224.9169209
0
ARC
8
DEFAULT_255_2_778
10
6.6376033
20
5.7238796
40
3.034544
50
222.2585133
51
223.2266371
0
ARC
8
DEFAULT_255_2_778
10
7.0437137
20
6.0838579
40
3.5771971
50
217.2614467
51
222.1516269
0
ARC
8
DEFAULT_255_2_778
10
7.732354
20
6.6098658
40
4.4437463
50
212.6081195
51
217.2833705
0
ARC
8
DEFAULT_255_2_778
10
8.2906096
20
6.9687193
40
5.1073904
50
207.4840903
51
212.6243986
0
ARC
8
DEFAULT_255_2_778
10
8.4685759
20
7.0657346
40
5.3100454
50
199.9590029
51
207.5265411
0
ARC
8
DEFAULT_255_2_778
10
7.711391
20
6.812504
40
4.5119458
50
186.9180048
51
200.2185956
0
ARC
8
DEFAULT_255_2_778
10
6.7662448
20
6.6775634
40
3.5574841
50
181.1472894
51
186.5940136
0
ARC
8
DEFAULT_255_2_778
10
6.4907788
20
6.6686242
40
3.2818964
50
180.0021098
51
181.0875505
0
ARC
8
DEFAULT_255_2_778
10
6.0312303
20
6.6833978
40
2.8223871
50
166.5590413
51
180.3023662
0
ARC
8
DEFAULT_255_2_778
10
5.4858425
20
6.8119518
40
2.2620565
50
148.1263683
51
166.514998
0
ARC
8
DEFAULT_255_2_778
10
5.3919039
20
6.8622102
40
2.1557548
50
146.5875827
51
147.9423443
0
ARC
8
DEFAULT_255_2_778
10
5.151266
20
7.0567327
40
1.8480125
50
106.8576405
51
147.5135105
0
ARC
8
DEFAULT_255_2_778
10
5.1547929
20
6.9804125
40
1.9221673
50
91.7881331
51
106.2985206
0
ARC
8
DEFAULT_255_2_778
10
5.168173
20
6.7765472
40
2.1263623
50
89.9948363
51
91.9770802
0
ARC
8
DEFAULT_255_2_778
10
5.167134
20
6.6547739
40
2.2481361
50
85.364226
51
89.9686374
0
ARC
8
DEFAULT_255_2_778
10
5.1508187
20
6.4531201
40
2.4504489
50
81.1482936
51
85.3650673
0
ARC
8
DEFAULT_255_2_778
10
5.1314037
20
6.3193346
40
2.5856289
50
80.419592
51
81.1793796
0
ARC
8
DEFAULT_255_2_778
10
5.5113914
20
8.3293154
40
0.5419296
50
78.8712062
51
84.6698188
0
ARC
8
DEFAULT_255_2_778
10
5.5961069
20
8.7416696
40
0.1210295
50
62.2713059
51
80.5434839
0
ARC
8
DEFAULT_255_2_778
10
5.6435668
20
8.8293028
40
0.0214132
50
2.327261
51
65.5779823
0
ARC
8
DEFAULT_255_2_778
10
5.6124154
20
8.835962
40
0.052865
50
323.393542
51
353.7125643
0
ARC
8
DEFAULT_255_2_778
10
4.097747
20
9.8377193
40
1.8687561
50
325.2181131
51
326.432102
0
ARC
8
DEFAULT_255_2_778
10
5.846421
20
8.6269175
40
0.2582065
50
145.8995099
51
153.7543888
0
ARC
8
DEFAULT_255_2_778
10
-11.6717012
20
17.4697019
40
19.3652463
50
332.5868125
51
333.2091293
0
ARC
8
DEFAULT_255_2_778
10
8.5145775
20
6.9417425
40
3.401816
50
151.7122528
51
160.4982794
0
ARC
8
DEFAULT_255_2_778
10
7.1179447
20
7.4680075
40
1.9098531
50
161.3931821
51
167.9413131
0
ARC
8
DEFAULT_255_2_778
10
4.6628922
20
8.5988322
40
0.9383744
50
300.2680067
51
308.7493137
0
LINE
8
DEFAULT_255_2_778
10
5.1358756
20
7.7883797
11
5.1346273
21
7.7876091
0
ARC
8
DEFAULT_255_2_778
10
5.3462358
20
7.358829
40
0.4781532
50
116.2669365
51
148.1143743
0
ARC
8
DEFAULT_255_2_778
10
4.8291125
20
7.9549975
40
0.3611179
50
287.9215974
51
307.7044872
0
ARC
8
DEFAULT_255_2_778
10
13.3176206
20
-4.477212
40
14.6932496
50
124.2294432
51
124.2415993
0
ARC
8
DEFAULT_255_2_778
10
5.2223201
20
7.4702434
40
0.2629528
50
96.0064698
51
130.2141897
0
ARC
8
DEFAULT_255_2_778
10
5.1941773
20
7.5884971
40
0.1432568
50
69.3123609
51
89.7491475
0
ARC
8
DEFAULT_255_2_778
10
5.185767
20
7.562437
40
0.1706131
50
67.7991256
51
69.7618109
0
ARC
8
DEFAULT_255_2_778
10
11.4567659
20
6.7488557
40
6.2821127
50
171.1033436
51
179.3929718
0
ARC
8
DEFAULT_255_2_778
10
11.4570368
20
6.7488325
40
6.2823838
50
179.3927862
51
179.9999865
0
ARC
8
DEFAULT_255_2_778
10
11.4586831
20
6.7488735
40
6.28403
50
180.0003607
51
192.4968142
0
ARC
8
DEFAULT_255_2_778
10
3.8168717
20
5.0616722
40
1.5418304
50
7.5896062
51
12.260927
0
ARC
8
DEFAULT_255_2_778
10
18.5565065
20
7.2055494
40
13.353025
50
188.3548384
51
188.4502233
0
ARC
8
DEFAULT_255_2_778
10
6.0012333
20
5.3007574
40
0.6553119
50
185.0283071
51
206.1282054
0
ARC
8
DEFAULT_255_2_778
10
5.6057229
20
5.1215287
40
0.2216864
50
209.5578389
51
237.7213238
0
ARC
8
DEFAULT_255_2_778
10
5.5405246
20
4.8693087
40
0.0838293
50
96.1676741
51
129.3836898
0
ARC
8
DEFAULT_255_2_778
10
5.5310185
20
4.9865974
40
0.0339484
50
270.8431392
51
330.7347724
0
ARC
8
DEFAULT_255_2_778
10
22.7533807
20
9.9541265
40
17.9006156
50
195.8409788
51
196.1667127
0
ARC
8
DEFAULT_255_2_778
10
20.2971374
20
9.2555142
40
15.3469541
50
195.7799437
51
195.8349892
0
ARC
8
DEFAULT_255_2_778
10
16.348141
20
8.1583809
40
11.2484388
50
193.7396751
51
195.8722289
0
ARC
8
DEFAULT_255_2_778
10
12.5449865
20
7.2355689
40
7.3349376
50
189.2243172
51
193.793455
0
ARC
8
DEFAULT_255_2_778
10
10.3723413
20
6.8920883
40
5.1353367
50
180.5922443
51
189.3273707
0
ARC
8
DEFAULT_255_2_778
10
9.6043556
20
6.8648732
40
4.367153
50
180.0003342
51
180.3393545
0
ARC
8
DEFAULT_255_2_778
10
9.2376521
20
6.8710124
40
4.0004544
50
173.2423486
51
180.0882933
0
ARC
8
DEFAULT_255_2_778
10
8.8855722
20
6.9077686
40
3.6464987
50
170.6196669
51
173.1649105
0
ARC
8
DEFAULT_255_2_778
10
7.7156717
20
7.0936248
40
2.4619604
50
127.5627235
51
170.4495919
0
ARC
8
DEFAULT_255_2_778
10
7.5072545
20
7.3720248
40
2.114224
50
96.7942142
51
127.6849836
0
ARC
8
DEFAULT_255_2_778
10
7.4256152
20
7.9382441
40
1.542387
50
90.6703268
51
96.2711658
0
ARC
8
DEFAULT_255_2_778
10
7.4264963
20
7.906851
40
1.5737884
50
89.999426
51
90.6890319
0
ARC
8
DEFAULT_255_2_778
10
7.4340886
20
7.972242
40
1.5084165
50
66.4598436
51
90.2877861
0
ARC
8
DEFAULT_255_2_778
10
7.6306018
20
8.4194956
40
1.0198986
50
45.2730555
51
66.5458045
0
ARC
8
DEFAULT_255_2_778
10
8.5481879
20
8.355355
40
0.8136724
50
104.2184569
51
124.219291
0
ARC
8
DEFAULT_255_2_778
10
9.5532892
20
6.7777329
40
2.684011
50
123.0219545
51
126.8913044
0
ARC
8
DEFAULT_255_2_778
10
19.4029843
20
-6.5687825
40
19.2714597
50
126.4918655
51
126.663942
0
ARC
8
DEFAULT_255_2_778
10
6.7004388
20
10.394279
40
1.9213856
50
297.4075273
51
308.4646583
0
ARC
8
DEFAULT_255_2_778
10
7.2593815
20
9.3693717
40
0.7546238
50
288.0048606
51
295.5528943
0
ARC
8
DEFAULT_255_2_778
10
7.1989519
20
9.5854344
40
0.978829
50
282.5852717
51
287.4596515
0
ARC
8
DEFAULT_255_2_778
10
6.8723233
20
11.1317923
40
2.5592666
50
278.9374146
51
282.1787343
0
ARC
8
DEFAULT_255_2_778
10
7.369592
20
7.7235662
40
0.885659
50
96.4617928
51
114.4579524
0
ARC
8
DEFAULT_255_2_778
10
7.1926257
20
8.1683087
40
0.408208
50
117.6947157
51
120.89346
0
ARC
8
DEFAULT_255_2_778
10
7.3934303
20
7.967082
40
0.6874584
50
126.6536396
51
153.1560262
0
ARC
8
DEFAULT_255_2_778
10
26.8190433
20
-3.1317172
40
23.0593076
50
150.3449118
51
150.6974404
0
ARC
8
DEFAULT_255_2_778
10
1.9203401
20
13.3588852
40
7.0734642
50
312.6224073
51
313.8679143
0
ARC
8
DEFAULT_255_2_778
10
11.5288138
20
3.2976252
40
6.8388989
50
133.299166
51
133.488318
0
ARC
8
DEFAULT_255_2_778
10
7.6072961
20
7.559714
40
1.0498842
50
109.8717223
51
137.0652939
0
ARC
8
DEFAULT_255_2_778
10
7.4035946
20
8.0151296
40
0.5535671
50
89.9830951
51
106.0631741
0
ARC
8
DEFAULT_255_2_778
10
7.402742
20
7.9725849
40
0.5961125
50
80.0673137
51
89.9023512
0
ARC
8
DEFAULT_255_2_778
10
7.3848143
20
7.8697138
40
0.700534
50
72.4861121
51
80.074294
0
ARC
8
DEFAULT_255_2_778
10
7.3609957
20
7.7890296
40
0.7846474
50
72.1251867
51
72.600491
0
ARC
8
DEFAULT_255_2_778
10
11.2923437
20
4.4190186
40
5.5288122
50
122.2555788
51
131.8747894
0
ARC
8
DEFAULT_255_2_778
10
8.5275218
20
8.7532229
40
0.3884978
50
110.0567511
51
117.2508057
0
ARC
8
DEFAULT_255_2_778
10
9.7737334
20
5.5099653
40
3.8628928
50
110.7770084
51
110.9223324
0
ARC
8
DEFAULT_255_2_778
10
8.3672847
20
9.2810983
40
0.1634998
50
282.7765028
51
333.2869864
0
ARC
8
DEFAULT_255_2_778
10
7.3414698
20
7.5485344
40
2.0311991
50
54.764941
51
79.8848424
0
ARC
8
DEFAULT_255_2_778
10
7.4014186
20
7.7505684
40
1.8219287
50
80.6249673
51
90.0492401
0
ARC
8
DEFAULT_255_2_778
10
7.3998892
20
7.6753036
40
1.8971928
50
90.0010991
51
91.0104103
0
ARC
8
DEFAULT_255_2_778
10
7.3949906
20
7.2310319
40
2.3413438
50
90.698836
51
129.973486
0
ARC
8
DEFAULT_255_2_778
10
7.4612608
20
15.6328855
40
6.7916424
50
255.5563154
51
256.6305423
0
ARC
8
DEFAULT_255_2_778
10
4.4280253
20
4.0307358
40
5.2005576
50
75.0774972
51
77.941288
0
ARC
8
DEFAULT_255_2_778
10
5.2205146
20
7.7510419
40
1.3967832
50
77.8501635
51
89.3672295
0
ARC
8
DEFAULT_255_2_778
10
5.2343846
20
8.1495196
40
0.9982217
50
89.9107098
51
99.4125177
0
ARC
8
DEFAULT_255_2_778
10
5.4997011
20
6.8556205
40
2.3186326
50
100.6515808
51
139.0919438
0
ARC
8
DEFAULT_255_2_778
10
5.8618248
20
6.441191
40
2.8647099
50
137.5702384
51
151.1188667
0
ARC
8
DEFAULT_255_2_778
10
5.6250714
20
6.5785681
40
2.5910575
50
151.2502212
51
153.5778487
0
ARC
8
DEFAULT_255_2_778
10
5.4828832
20
6.648698
40
2.4325158
50
153.5668496
51
156.747751
0
ARC
8
DEFAULT_255_2_778
10
5.3600233
20
6.7023488
40
2.2984549
50
156.7674534
51
157.8672198
0
ARC
8
DEFAULT_255_2_778
10
3.4588418
20
5.6410539
40
1.9406766
50
96.7442239
51
115.684582
0
ARC
8
DEFAULT_255_2_778
10
3.5391443
20
5.5347595
40
2.07144
50
116.4120108
51
156.164917
0
ARC
8
DEFAULT_255_2_778
10
3.8935793
20
5.3496069
40
2.4706055
50
155.5588728
51
174.6630601
0
ARC
8
DEFAULT_255_2_778
10
4.0337433
20
5.3301583
40
2.6119784
50
174.5242667
51
180.0096241
0
ARC
8
DEFAULT_255_2_778
10
4.0951416
20
5.3304163
40
2.6733768
50
180.0149322
51
187.0267742
0
ARC
8
DEFAULT_255_2_778
10
4.1627881
20
5.3386964
40
2.7415282
50
187.0255728
51
193.5639082
0
ARC
8
DEFAULT_255_2_778
10
4.202671
20
5.3476076
40
2.7823888
50
193.5496769
51
194.4847406
0
ARC
8
DEFAULT_255_2_778
10
4.2247244
20
5.3534185
40
2.8051945
50
194.4869909
51
197.072406
0
ARC
8
DEFAULT_255_2_778
10
4.2469936
20
5.3601405
40
2.8284559
50
197.0701365
51
197.9318123
0
ARC
8
DEFAULT_255_2_778
10
-3.0760928
20
9.7210979
40
6.987658
50
310.6611831
51
311.5204155
0
ARC
8
DEFAULT_255_2_778
10
-45.1508863
20
58.8660466
40
71.6832001
50
310.4419061
51
310.577124
0
ARC
8
DEFAULT_255_2_778
10
2.6152073
20
2.6617134
40
2.0793234
50
127.5367857
51
148.6534256
0
ARC
8
DEFAULT_255_2_778
10
1.9213085
20
3.152955
40
1.2325502
50
151.3767663
51
167.0918477
0
ARC
8
DEFAULT_255_2_778
10
2.0242354
20
3.1253814
40
1.3390415
50
166.9256515
51
167.4606165
0
ARC
8
DEFAULT_255_2_778
10
2.6364435
20
2.9969872
40
1.9645957
50
172.6857757
51
177.283684
0
ARC
8
DEFAULT_255_2_778
10
2.632621
20
2.9972927
40
1.960763
50
177.2873072
51
180.0009682
0
ARC
8
DEFAULT_255_2_778
10
2.847133
20
3.0146164
40
2.1753443
50
180.457161
51
202.0488451
0
ARC
8
DEFAULT_255_2_778
10
4.1476803
20
3.5656102
40
3.5876868
50
202.4077757
51
218.2469045
0
ARC
8
DEFAULT_255_2_778
10
6.1534842
20
5.0418966
40
6.0774
50
217.4710408
51
220.5184063
0
ARC
8
DEFAULT_255_2_778
10
7.98399
20
6.600712
40
8.481697
50
220.4896406
51
222.1606901
0
ARC
8
DEFAULT_255_2_778
10
11.4547675
20
9.739587
40
13.1613152
50
222.148113
51
222.9993827
0
ARC
8
DEFAULT_255_2_778
10
26.8128196
20
24.0640841
40
34.1627669
50
223.0032969
51
223.3018465
0
ARC
8
DEFAULT_255_2_778
10
167.2724361
20
156.1766158
40
226.9907203
50
223.2543684
51
223.2557646
0
ARC
8
DEFAULT_255_2_778
10
1.5468228
20
1.1077776
40
0.6283081
50
310.4709493
51
316.2307842
0
LINE
8
DEFAULT_255_2_778
10
2.0005442
20
0.6731422
11
2.0008024
21
0.673403
0
ARC
8
DEFAULT_255_2_778
10
2.2264419
20
0.4824378
40
0.2956025
50
111.4311231
51
139.7578163
0
ARC
8
DEFAULT_255_2_778
10
-0.5764122
20
-2.3285868
40
4.0971642
50
45.4808357
51
48.87268
0
LINE
8
DEFAULT_255_2_778
10
2.2963055
20
0.5927568
11
2.2989126
21
0.5902424
0
ARC
8
DEFAULT_255_2_778
10
3.7433385
20
1.9665809
40
1.9951626
50
223.6172693
51
238.512294
0
ARC
8
DEFAULT_255_2_778
10
3.0591065
20
0.3532041
40
0.3685338
50
193.8151934
51
225.1565497
0
ARC
8
DEFAULT_255_2_778
10
2.9072638
20
0.2139012
40
0.1629609
50
228.4737142
51
233.5013565
0
ARC
8
DEFAULT_255_2_778
10
3.5820619
20
1.1403926
40
1.3091414
50
233.8790556
51
245.0004648
0
ARC
8
DEFAULT_255_2_778
10
3.9503223
20
1.914482
40
2.1663482
50
244.8253827
51
252.1050846
0
ARC
8
DEFAULT_255_2_778
10
4.3327638
20
3.0931
40
3.4054608
50
252.0750844
51
258.0017715
0
ARC
8
DEFAULT_255_2_778
10
4.7058512
20
4.8414139
40
5.1931393
50
257.9852776
51
263.1179644
0
ARC
8
DEFAULT_255_2_778
10
4.9762469
20
7.0634445
40
7.4315608
50
263.1010689
51
267.9781421
0
ARC
8
DEFAULT_255_2_778
10
5.0362599
20
8.3529955
40
8.7224382
50
267.8830309
51
270.0082361
0
ARC
8
DEFAULT_255_2_778
10
5.0378421
20
8.5151543
40
8.8845969
50
269.9978825
51
272.2115471
0
ARC
8
DEFAULT_255_2_778
10
5.0584088
20
8.0045228
40
8.373552
50
272.2057545
51
274.0193934
0
ARC
8
DEFAULT_255_2_778
10
5.1100225
20
7.2572127
40
7.6244624
50
274.0261216
51
275.172736
0
ARC
8
DEFAULT_255_2_778
10
6.186637
20
-0.1532003
40
0.4300783
50
205.1822867
51
241.0877616
0
ARC
8
DEFAULT_255_2_778
10
6.6039421
20
0.489425
40
1.1956094
50
238.4701752
51
246.2929756
0
ARC
8
DEFAULT_255_2_778
10
7.5102739
20
2.5318553
40
3.4300966
50
246.148155
51
248.5908222
0
ARC
8
DEFAULT_255_2_778
10
-7.8510403
20
-36.0129895
40
38.0630337
50
68.2129891
51
68.242383
0
ARC
8
DEFAULT_255_2_778
10
6.7252627
20
-0.8478523
40
0.1975121
50
65.0323071
51
65.323233
0
ARC
8
DEFAULT_255_2_778
10
5.9319828
20
-2.6211695
40
2.140168
50
65.845874
51
66.3229153
0
ARC
8
DEFAULT_255_2_778
10
6.8220294
20
-0.5779586
40
0.0886424
50
223.8776192
51
249.8092609
0
ARC
8
DEFAULT_255_2_778
10
6.6062036
20
-0.7005227
40
0.1637651
50
21.9157836
51
43.697256
0
ARC
8
DEFAULT_255_2_778
10
6.5784396
20
-0.7290522
40
0.2035532
50
44.1043195
51
52.8973203
0
ARC
8
DEFAULT_255_2_778
10
6.148529
20
-1.3077194
40
0.9244349
50
53.2816341
51
55.3527965
0
ARC
8
DEFAULT_255_2_778
10
6.7198069
20
-0.4634313
40
0.0954457
50
183.8382873
51
241.3812305
0
ARC
8
DEFAULT_255_2_778
10
6.7636002
20
-0.4603194
40
0.1393491
50
179.9388486
51
183.9095847
0
ARC
8
DEFAULT_255_2_778
10
6.8026646
20
-0.4605986
40
0.1784139
50
174.6290455
51
179.8625678
0
ARC
8
DEFAULT_255_2_778
10
8.475988
20
0.088368
40
0.2418192
50
223.8962529
51
267.1431899
0
ARC
8
DEFAULT_255_2_778
10
8.5380881
20
0.5195565
40
0.6767817
50
263.7096931
51
270.3833747
0
ARC
8
DEFAULT_255_2_778
10
8.5373763
20
1.3436539
40
1.5008731
50
270.2000448
51
272.7176041
0
ARC
8
DEFAULT_255_2_778
10
8.3720637
20
5.0595798
40
5.2204696
50
272.5962425
51
273.0481232
0
ARC
8
DEFAULT_255_2_778
10
8.7743106
20
-2.1895642
40
2.0398723
50
90.5837012
51
93.5033455
0
ARC
8
DEFAULT_255_2_778
10
8.762084
20
-0.6180769
40
0.4683572
50
79.1895405
51
91.046527
0
ARC
8
DEFAULT_255_2_778
10
8.8185354
20
-0.3287513
40
0.1735821
50
54.0123893
51
79.5801676
0
ARC
8
DEFAULT_255_2_778
10
8.8034479
20
-0.2135844
40
0.1197853
50
0.7429523
51
12.1864681
0
ARC
8
DEFAULT_255_2_778
10
8.8315918
20
-0.2127219
40
0.091634
50
359.9844472
51
0.4318841
0
ARC
8
DEFAULT_255_2_778
10
8.81285
20
-0.2024659
40
0.1108536
50
282.8171655
51
354.6786082
0
ARC
8
DEFAULT_255_2_778
10
8.5275192
20
0.4740451
40
0.8435953
50
285.9950742
51
291.554312
0
LINE
8
DEFAULT_255_2_778
10
8.7599759
20
-0.3368909
11
8.7570899
21
-0.3377693
0
ARC
8
DEFAULT_255_2_778
10
8.9368974
20
-0.9882736
40
0.6748975
50
105.4514663
51
113.7639737
0
ARC
8
DEFAULT_255_2_778
10
8.3563202
20
0.0292414
40
0.6126052
50
292.751277
51
297.922224
0
ARC
8
DEFAULT_255_2_778
10
7.6639717
20
1.3324768
40
2.0883316
50
297.9627954
51
299.7566356
0
ARC
8
DEFAULT_255_2_778
10
8.9583481
20
-0.8563701
40
0.4558497
50
95.3957812
51
124.455123
0
ARC
8
DEFAULT_255_2_778
10
8.915478
20
-0.6214242
40
0.218884
50
88.6764164
51
89.998886
0
ARC
8
DEFAULT_255_2_778
10
8.9485631
20
-0.7592469
40
0.3577482
50
89.9233872
51
94.4936607
0
ARC
8
DEFAULT_255_2_778
10
8.9118477
20
-1.3317579
40
0.9310021
50
76.6719599
51
87.7104084
0
ARC
8
DEFAULT_255_2_778
10
9.4792302
20
1.2566774
40
1.7190919
50
258.1586327
51
261.569915
0
ARC
8
DEFAULT_255_2_778
10
9.3146549
20
0.1561686
40
0.6063482
50
261.7078632
51
269.583543
0
ARC
8
DEFAULT_255_2_778
10
9.3164281
20
-0.1157336
40
0.334487
50
268.9412564
51
294.0858602
0
ARC
8
DEFAULT_255_2_778
10
9.8121388
20
-0.3525073
40
0.365695
50
190.8106345
51
207.4717531
0
LINE
8
DEFAULT_255_2_778
10
9.4876803
20
-0.5212065
11
9.4887795
21
-0.523561
0
ARC
8
DEFAULT_255_2_778
10
9.1791027
20
-0.6876651
40
0.3504709
50
7.9159112
51
27.9200444
0
ARC
8
DEFAULT_255_2_778
10
10.1294511
20
-0.4459588
40
0.2745461
50
202.0209011
51
239.2879683
0
ARC
8
DEFAULT_255_2_778
10
9.4654888
20
1.6634552
40
2.2499231
50
280.4852183
51
292.1704592
0
ARC
8
DEFAULT_255_2_778
10
9.7126623
20
1.0400049
40
1.579306
50
292.4015043
51
303.5563277
0
ARC
8
DEFAULT_255_2_778
10
10.8185219
20
0.1959742
40
0.5263927
50
243.7414606
51
252.811202
0
ARC
8
DEFAULT_255_2_778
10
10.7864556
20
0.0917276
40
0.4173261
50
252.7874568
51
265.2123194
0
ARC
8
DEFAULT_255_2_778
10
10.7822506
20
0.054683
40
0.3800613
50
265.3779112
51
269.9908004
0
ARC
8
DEFAULT_255_2_778
10
10.751036
20
0.199003
40
0.5253057
50
273.3999583
51
313.0573821
0
ARC
8
DEFAULT_255_2_778
10
9.7622387
20
1.4594278
40
2.1258296
50
309.3341281
51
312.6844999
0
ARC
8
DEFAULT_255_2_778
10
13.9844447
20
-3.0847089
40
4.0771117
50
130.7446185
51
133.0075607
0
ARC
8
DEFAULT_255_2_778
10
11.9834543
20
-0.7793215
40
1.0245282
50
127.2957355
51
130.1125047
0
ARC
8
DEFAULT_255_2_778
10
11.8056494
20
-0.5474666
40
0.7323468
50
125.1681324
51
127.2206741
0
ARC
8
DEFAULT_255_2_778
10
11.6446466
20
-0.6483901
40
0.7466269
50
110.4458066
51
120.9548708
0
ARC
8
DEFAULT_255_2_778
10
13.3205499
20
-3.5456647
40
4.0936166
50
120.2124649
51
121.4833787
0
ARC
8
DEFAULT_255_2_778
10
10.6622184
20
0.7246255
40
0.9370926
50
288.0839648
51
303.7363656
0
ARC
8
DEFAULT_255_2_778
10
10.8606567
20
0.1648553
40
0.3436985
50
270.4172433
51
285.6030666
0
ARC
8
DEFAULT_255_2_778
10
10.8629971
20
0.1082422
40
0.2870763
50
245.8803554
51
270.0324175
0
ARC
8
DEFAULT_255_2_778
10
10.8972526
20
0.1833727
40
0.3696462
50
231.9055032
51
245.7930708
0
ARC
8
DEFAULT_255_2_778
10
10.9677235
20
0.2780697
40
0.487659
50
227.574532
51
232.2537495
0
ARC
8
DEFAULT_255_2_778
10
7.5841053
20
1.2973476
40
0.6985562
50
253.5452782
51
265.511369
0
ARC
8
DEFAULT_255_2_778
10
7.518991
20
0.2737158
40
0.3273848
50
62.7077828
51
88.1718064
0
ARC
8
DEFAULT_255_2_778
10
7.5953993
20
0.4493959
40
0.1368121
50
30.2903896
51
57.4017257
0
ARC
8
DEFAULT_255_2_778
10
7.5150767
20
0.6439059
40
0.2348118
50
268.2325213
51
327.6907548
0
ARC
8
DEFAULT_255_2_778
10
7.3521413
20
1.9217618
40
1.520548
50
274.0829461
51
275.8769722
0
ARC
8
DEFAULT_255_2_778
10
6.7999105
20
9.2690547
40
8.8885561
50
274.1713065
51
274.2614872
0
ARC
8
DEFAULT_255_2_778
10
7.4895022
20
-0.4595629
40
0.8646793
50
92.853732
51
100.5129982
0
LINE
8
DEFAULT_255_2_778
10
7.331734
20
0.3906016
11
7.3313591
21
0.3905267
0
ARC
8
DEFAULT_255_2_778
10
5.0910034
20
11.5046265
40
11.3376545
50
279.8774858
51
281.3968295
0
ARC
8
DEFAULT_255_2_778
10
5.9876579
20
6.3061213
40
6.0623996
50
276.1586795
51
279.9568628
0
ARC
8
DEFAULT_255_2_778
10
6.238318
20
3.9935587
40
3.7362924
50
271.0917633
51
276.1415621
0
ARC
8
DEFAULT_255_2_778
10
6.2630506
20
3.1917619
40
2.9341853
50
270.0045565
51
270.907214
0
ARC
8
DEFAULT_255_2_778
10
6.2474684
20
2.4335611
40
2.176042
50
260.4337092
51
270.416433
0
ARC
8
DEFAULT_255_2_778
10
6.0972514
20
1.563646
40
1.2932644
50
244.8470192
51
260.5913421
0
ARC
8
DEFAULT_255_2_778
10
5.9429851
20
1.220783
40
0.9173644
50
229.453106
51
244.4665793
0
ARC
8
DEFAULT_255_2_778
10
5.9367618
20
1.1145622
40
0.8350851
50
196.3207932
51
225.0355541
0
ARC
8
DEFAULT_255_2_778
10
6.7185016
20
1.413468
40
1.6706716
50
195.6459278
51
198.6253648
0
ARC
8
DEFAULT_255_2_778
10
5.0402535
20
1.017045
40
0.0880855
50
322.0721346
51
359.3863464
0
ARC
8
DEFAULT_255_2_778
10
6.5642225
20
4.610996
40
3.8710517
50
248.2270268
51
267.6135445
0
ARC
8
DEFAULT_255_2_778
10
6.4584657
20
1.9606767
40
1.2186364
50
267.3929047
51
270.0717673
0
ARC
8
DEFAULT_255_2_778
10
6.4220365
20
3.8508336
40
3.1090242
50
270.6994965
51
274.5984248
0
ARC
8
DEFAULT_255_2_778
10
-5.9553986
20
182.8100509
40
182.4955721
50
273.9674087
51
273.9719883
0
ARC
8
DEFAULT_255_2_778
10
7.0283757
20
-3.7911097
40
4.5568288
50
92.1170734
51
94.3109342
0
ARC
8
DEFAULT_255_2_778
10
6.9233352
20
-1.2304287
40
1.9940423
50
90.0454602
51
91.8190073
0
ARC
8
DEFAULT_255_2_778
10
6.9354476
20
-0.3554868
40
1.1191834
50
79.0450505
51
90.7011022
0
ARC
8
DEFAULT_255_2_778
10
7.092119
20
0.5015906
40
0.2481167
50
52.2559244
51
76.952383
0
ARC
8
DEFAULT_255_2_778
10
3.7033754
20
-4.2791192
40
6.1078346
50
54.1635192
51
54.5715578
0
ARC
8
DEFAULT_255_2_778
10
7.52019
20
0.991869
40
0.4000394
50
232.9844535
51
249.4807341
0
ARC
8
DEFAULT_255_2_778
10
7.4833858
20
0.9097687
40
0.3102996
50
250.5316425
51
251.501498
0
ARC
8
DEFAULT_255_2_778
10
4.6481321
20
2.0501751
40
0.1463894
50
84.9924376
51
85.9645802
0
ARC
8
DEFAULT_255_2_778
10
4.659724
20
2.1247109
40
0.0713047
50
43.3978789
51
89.0469099
0
ARC
8
DEFAULT_255_2_778
10
6.1117756
20
3.6290718
40
2.0195987
50
226.1059785
51
243.5873271
0
ARC
8
DEFAULT_255_2_778
10
6.7872433
20
4.9619915
40
3.5138704
50
243.3911561
51
254.3758639
0
ARC
8
DEFAULT_255_2_778
10
7.2784243
20
6.5819368
40
5.2063748
50
253.9715516
51
257.4985951
0
ARC
8
DEFAULT_255_2_778
10
6.5404662
20
3.3747741
40
1.9156901
50
258.2830583
51
263.7484086
0
ARC
8
DEFAULT_255_2_778
10
7.5553133
20
11.6992905
40
10.3017225
50
263.1793297
51
263.5347826
0
ARC
8
DEFAULT_255_2_778
10
1.4910522
20
-41.49305
40
43.2351869
50
83.4563084
51
83.4867624
0
ARC
8
DEFAULT_255_2_778
10
6.2292539
20
-0.5651394
40
2.0344001
50
77.004811
51
84.6717743
0
ARC
8
DEFAULT_255_2_778
10
6.5259666
20
0.7799372
40
0.6571865
50
68.1709369
51
75.8405904
0
ARC
8
DEFAULT_255_2_778
10
6.575292
20
0.9831688
40
0.4511699
50
46.9419367
51
64.3862201
0
ARC
8
DEFAULT_255_2_778
10
-0.7670864
20
-7.5618324
40
11.717007
50
49.0848993
51
49.2369653
0
ARC
8
DEFAULT_255_2_778
10
7.2927414
20
1.7084681
40
0.5674093
50
227.1490805
51
241.9513988
0
ARC
8
DEFAULT_255_2_778
10
7.2615799
20
1.189404
40
0.2363553
50
175.5599714
51
179.9428278
0
ARC
8
DEFAULT_255_2_778
10
7.1977397
20
1.1870342
40
0.1725346
50
179.1346645
51
207.65749
0
ARC
8
DEFAULT_255_2_778
10
7.3501462
20
1.2766527
40
0.3492332
50
209.0741112
51
219.4059121
0
ARC
8
DEFAULT_255_2_778
10
8.1682691
20
1.8966455
40
1.3755389
50
217.7268646
51
217.7610512
0
ARC
8
DEFAULT_255_2_778
10
6.9211213
20
0.9086419
40
0.2161433
50
10.9092739
51
42.3709766
0
ARC
8
DEFAULT_255_2_778
10
6.9530885
20
0.9227498
40
0.182251
50
3.8231039
51
8.4554408
0
ARC
8
DEFAULT_255_2_778
10
6.6152731
20
7.9347562
40
7.0191176
50
273.3185254
51
274.2457818
0
ARC
8
DEFAULT_255_2_778
10
6.6361604
20
7.563966
40
6.6477402
50
271.8798372
51
273.3237963
0
ARC
8
DEFAULT_255_2_778
10
6.6539523
20
7.0005918
40
6.0840856
50
270.017169
51
271.8864138
0
ARC
8
DEFAULT_255_2_778
10
6.652731
20
6.2574976
40
5.3409919
50
267.404808
51
270.0326587
0
ARC
8
DEFAULT_255_2_778
10
6.6218806
20
5.5504246
40
4.6332473
50
265.2835902
51
267.3900075
0
ARC
8
DEFAULT_255_2_778
10
6.4638602
20
4.0642721
40
3.1393323
50
252.788719
51
265.9276434
0
ARC
8
DEFAULT_255_2_778
10
6.0325893
20
2.6591868
40
1.6695594
50
236.1677441
51
252.6582885
0
ARC
8
DEFAULT_255_2_778
10
5.6670065
20
2.1254043
40
1.0226392
50
198.1292203
51
236.5312819
0
ARC
8
DEFAULT_255_2_778
10
5.8107934
20
2.1613098
40
1.1705088
50
183.3589976
51
197.6094783
0
ARC
8
DEFAULT_255_2_778
10
6.0284259
20
2.1818882
40
1.3889951
50
181.8229961
51
183.6803954
0
ARC
8
DEFAULT_255_2_778
10
4.8762644
20
2.1353999
40
0.2361416
50
168.6090619
51
179.441528
0
ARC
8
DEFAULT_255_2_778
10
4.6589777
20
2.1825426
40
0.0142124
50
105.355483
51
182.0331872
0
ARC
8
DEFAULT_255_2_778
10
4.6603485
20
2.1631888
40
0.0334552
50
95.7908359
51
98.8279544
0
ARC
8
DEFAULT_255_2_778
10
4.6563365
20
2.2089356
40
0.0124785
50
272.9236933
51
293.6090079
0
ARC
8
DEFAULT_255_2_778
10
0.6806653
20
7.650101
40
2.4726307
50
352.8659684
51
355.0931414
0
ARC
8
DEFAULT_255_2_778
10
-4.5158924
20
8.287756
40
7.7081599
50
352.2886533
51
352.9599713
0
ARC
8
DEFAULT_255_2_778
10
68.2595008
20
-1.5477202
40
65.7288504
50
172.3049095
51
172.3899995
0
ARC
8
DEFAULT_255_2_778
10
8.6221451
20
6.4020324
40
5.5640023
50
172.2045985
51
174.6692249
0
ARC
8
DEFAULT_255_2_778
10
6.1115808
20
6.6468642
40
3.0415683
50
174.8675451
51
176.6869595
0
ARC
8
DEFAULT_255_2_778
10
5.2995987
20
6.6920797
40
2.2283308
50
176.6410494
51
179.9038734
0
ARC
8
DEFAULT_255_2_778
10
4.4826524
20
6.6866179
40
1.4114114
50
179.626513
51
188.0082862
0
ARC
8
DEFAULT_255_2_778
10
4.0823454
20
6.6375585
40
1.008199
50
188.4168003
51
190.5015771
0
ARC
8
DEFAULT_255_2_778
10
3.6238887
20
5.5514258
40
1.0479581
50
120.5619341
51
131.882171
0
ARC
8
DEFAULT_255_2_778
10
3.5325388
20
5.6540279
40
0.9105836
50
131.9127207
51
149.1620345
0
ARC
8
DEFAULT_255_2_778
10
3.665008
20
5.5934652
40
1.0554893
50
150.0254438
51
176.4141534
0
ARC
8
DEFAULT_255_2_778
10
4.0647397
20
5.5445373
40
1.4576935
50
175.4774063
51
180.051878
0
ARC
8
DEFAULT_255_2_778
10
4.3780712
20
5.5478747
40
1.7710303
50
180.15067
51
187.1387276
0
ARC
8
DEFAULT_255_2_778
10
4.8654872
20
5.6078508
40
2.2621215
50
187.1118521
51
192.7509988
0
ARC
8
DEFAULT_255_2_778
10
6.0126232
20
5.9020371
40
3.4460639
50
193.3120133
51
205.8554703
0
ARC
8
DEFAULT_255_2_778
10
6.8899412
20
6.2891615
40
4.4045186
50
205.4102065
51
208.9518781
0
ARC
8
DEFAULT_255_2_778
10
6.891152
20
6.2891975
40
4.4055956
50
208.9446646
51
209.7224102
0
ARC
8
DEFAULT_255_2_778
10
6.7931919
20
6.2328304
40
4.2925765
50
209.7173002
51
211.2775997
0
ARC
8
DEFAULT_255_2_778
10
6.567954
20
6.0959089
40
4.0289866
50
211.2764412
51
212.631749
0
ARC
8
DEFAULT_255_2_778
10
6.2587345
20
5.8976482
40
3.6616666
50
212.6282566
51
214.0296121
0
ARC
8
DEFAULT_255_2_778
10
6.0072007
20
5.8920834
40
3.4527796
50
216.2895163
51
226.1885738
0
ARC
8
DEFAULT_255_2_778
10
11.9360518
20
11.7477208
40
11.7849452
50
225.0965123
51
225.5222132
0
ARC
8
DEFAULT_255_2_778
10
11.2198894
20
11.0095499
40
10.7564789
50
225.4892473
51
225.9603063
0
ARC
8
DEFAULT_255_2_778
10
5.0734247
20
4.5540645
40
1.8444402
50
223.8121784
51
240.8685658
0
ARC
8
DEFAULT_255_2_778
10
4.5911337
20
3.755088
40
0.9123169
50
242.8994122
51
257.2400998
0
ARC
8
DEFAULT_255_2_778
10
4.051209
20
2.9159379
40
0.3421922
50
330.1789346
51
351.4903318
0
ARC
8
DEFAULT_255_2_778
10
3.3206726
20
3.3007438
40
1.1677254
50
330.3087501
51
331.6235788
0
ARC
8
DEFAULT_255_2_778
10
9.3375692
20
-0.127428
40
5.757259
50
150.3311208
51
150.5645349
0
ARC
8
DEFAULT_255_2_778
10
4.5981188
20
2.5309238
40
0.3234996
50
148.0868938
51
169.0268487
0
ARC
8
DEFAULT_255_2_778
10
4.9479306
20
2.478444
40
0.6770727
50
170.3018832
51
176.9500729
0
ARC
8
DEFAULT_255_2_778
10
4.9194833
20
2.480362
40
0.6485637
50
176.9855665
51
179.996216
0
ARC
8
DEFAULT_255_2_778
10
4.9545763
20
2.4840628
40
0.6836665
50
180.3065611
51
200.1243101
0
ARC
8
DEFAULT_255_2_778
10
5.5662236
20
2.7198721
40
1.3391488
50
200.593694
51
210.4957164
0
ARC
8
DEFAULT_255_2_778
10
1.3648462
20
0.2543116
40
3.5322559
50
27.4884759
51
30.3724844
0
ARC
8
DEFAULT_255_2_778
10
3.911908
20
1.5863016
40
0.6579681
50
18.4287231
51
26.9690026
0
ARC
8
DEFAULT_255_2_778
10
5.4937407
20
5.053092
40
3.3965756
50
236.6336535
51
253.624394
0
ARC
8
DEFAULT_255_2_778
10
6.4839668
20
6.3927287
40
5.0608204
50
214.8493796
51
235.6121679
0
ARC
8
DEFAULT_255_2_778
10
8.5223944
20
8.0052895
40
7.6567635
50
215.8212728
51
216.0359656
0
ARC
8
DEFAULT_255_2_778
10
-78.9653568
20
-54.9365932
40
100.1198079
50
35.7258389
51
35.7274565
0
ARC
8
DEFAULT_255_2_778
10
-78.6956041
20
-54.7620226
40
99.7988858
50
35.7365273
51
35.73814
0
ARC
8
DEFAULT_255_2_778
10
-78.1091538
20
-54.3494239
40
99.0818761
50
35.7425526
51
35.7441668
0
ARC
8
DEFAULT_255_2_778
10
-6.2788011
20
-2.6503302
40
10.581052
50
35.7453041
51
35.7603247
0
ARC
8
DEFAULT_255_2_778
10
-6.1773371
20
-2.5752659
40
10.45485
50
35.7514622
51
35.7665682
0
ARC
8
DEFAULT_255_2_778
10
42.90721
20
32.8866371
40
50.0995951
50
215.6544039
51
215.8635683
0
ARC
8
DEFAULT_255_2_778
10
9.2427026
20
8.7341442
40
8.6672171
50
214.3455069
51
215.6399523
0
ARC
8
DEFAULT_255_2_778
10
5.1980788
20
6.0121591
40
3.7922334
50
205.9962149
51
214.866699
0
ARC
8
DEFAULT_255_2_778
10
3.5916168
20
5.2281757
40
2.0046794
50
190.7370023
51
205.9810353
0
ARC
8
DEFAULT_255_2_778
10
4.8632615
20
5.4325887
40
3.292341
50
185.8689285
51
190.1091925
0
ARC
8
DEFAULT_255_2_778
10
4.6213695
20
5.4077541
40
3.0491775
50
181.523432
51
185.8694895
0
ARC
8
DEFAULT_255_2_778
10
4.4663353
20
5.402366
40
2.894055
50
180.003179
51
181.4983973
0
ARC
8
DEFAULT_255_2_778
10
4.1406119
20
5.4122932
40
2.5683514
50
167.3503976
51
180.2250416
0
ARC
8
DEFAULT_255_2_778
10
3.6314617
20
5.5314471
40
2.0454719
50
148.6298814
51
167.483841
0
ARC
8
DEFAULT_255_2_778
10
3.3708743
20
5.6852758
40
1.742904
50
115.3751448
51
148.48819
0
ARC
8
DEFAULT_255_2_778
10
3.4815828
20
5.4500204
40
2.0029058
50
101.2621372
51
115.3525558
0
ARC
8
DEFAULT_255_2_778
10
3.5372291
20
5.2162382
40
2.2430714
50
100.3656627
51
101.4899227
0
ARC
8
DEFAULT_255_2_778
10
3.7963325
20
3.7178463
40
3.1506398
50
217.5976373
51
246.4507355
0
ARC
8
DEFAULT_255_2_778
10
7.2549792
20
6.1058233
40
7.3511485
50
214.9669104
51
215.8972235
0
ARC
8
DEFAULT_255_2_778
10
5.4490183
20
4.8378167
40
5.144497
50
214.4656043
51
214.9211595
0
ARC
8
DEFAULT_255_2_778
10
3.696356
20
3.665145
40
3.0359613
50
206.7956068
51
214.9378617
0
ARC
8
DEFAULT_255_2_778
10
2.6841901
20
3.1511782
40
1.900782
50
192.4951947
51
206.7207431
0
ARC
8
DEFAULT_255_2_778
10
2.4414414
20
3.0888257
40
1.6503136
50
179.9919954
51
192.2051201
0
ARC
8
DEFAULT_255_2_778
10
2.4896314
20
3.0886155
40
1.6985036
50
175.1789361
51
179.9851326
0
ARC
8
DEFAULT_255_2_778
10
2.5614459
20
3.0827999
40
1.7705527
50
172.114739
51
175.1867208
0
ARC
8
DEFAULT_255_2_778
10
2.1680099
20
3.1421016
40
1.3727096
50
166.4799539
51
172.313651
0
ARC
8
DEFAULT_255_2_778
10
2.196058
20
3.1361042
40
1.4013828
50
163.7888707
51
166.5096381
0
ARC
8
DEFAULT_255_2_778
10
1.8277081
20
3.2781012
40
1.0085933
50
131.9011803
51
165.6931923
0
ARC
8
DEFAULT_255_2_778
10
1.5068702
20
3.6046782
40
0.5516403
50
90.6158016
51
129.7511812
0
ARC
8
DEFAULT_255_2_778
10
1.5091316
20
3.5552618
40
0.6010806
50
90.0001924
51
90.780722
0
ARC
8
DEFAULT_255_2_778
10
1.5084828
20
3.522045
40
0.6342978
50
83.3996102
51
89.9415749
0
ARC
8
DEFAULT_255_2_778
10
1.5013347
20
3.4564054
40
0.700324
50
79.6351478
51
83.4359455
0
ARC
8
DEFAULT_255_2_778
10
-2.2428738
20
2.6437984
40
4.1512673
50
16.9115821
51
21.2044853
0
LINE
8
DEFAULT_255_2_778
10
1.728871
20
3.8513837
11
1.7297171
21
3.8487233
0
ARC
8
DEFAULT_255_2_778
10
4.458933
20
4.6381157
40
2.8410842
50
196.1318667
51
204.86286
0
ARC
8
DEFAULT_255_2_778
10
2.821326
20
3.910205
40
1.0495833
50
206.3960511
51
212.6336128
0
ARC
8
DEFAULT_255_2_778
10
2.1489157
20
3.3095587
40
0.2143003
50
148.4882316
51
170.6969818
0
ARC
8
DEFAULT_255_2_778
10
2.2346486
20
3.2533685
40
0.3167748
50
140.0143609
51
147.9286679
0
ARC
8
DEFAULT_255_2_778
10
24.3179886
20
-15.0701719
40
29.0121715
50
140.2596142
51
140.3126864
0
ARC
8
DEFAULT_255_2_778
10
1.8842959
20
3.5916714
40
0.1690852
50
317.5734315
51
343.5187413
0
ARC
8
DEFAULT_255_2_778
10
6.5882192
20
6.6602765
40
5.5082531
50
214.4579297
51
235.2579661
0
ARC
8
DEFAULT_255_2_778
10
5.6843311
20
5.5088699
40
4.0479282
50
236.4835721
51
248.1385545
0
ARC
8
DEFAULT_255_2_778
10
5.7416493
20
5.6530912
40
4.2031213
50
248.1454591
51
253.1604158
0
ARC
8
DEFAULT_255_2_778
10
4.9409833
20
1.5823838
40
0.4196824
50
173.4576269
51
179.9783451
0
ARC
8
DEFAULT_255_2_778
10
5.1389221
20
1.5934596
40
0.6177176
50
181.012662
51
190.8229366
0
LINE
8
DEFAULT_255_2_778
10
4.5321922
20
1.4774679
11
4.532477
21
1.4757464
0
ARC
8
DEFAULT_255_2_778
10
3.9141376
20
1.3571177
40
0.6296161
50
1.0234759
51
10.8602601
0
ARC
8
DEFAULT_255_2_778
10
4.1195609
20
1.368389
40
0.4240921
50
355.8368896
51
359.9966194
0
ARC
8
DEFAULT_255_2_778
10
4.5274428
20
1.4137259
40
0.0776057
50
271.9650256
51
281.2131184
0
ARC
8
DEFAULT_255_2_778
10
4.5245056
20
1.466201
40
0.1301557
50
269.9468205
51
272.4652025
0
ARC
8
DEFAULT_255_2_778
10
4.5330045
20
1.6724474
40
0.3365123
50
258.9432596
51
268.5322145
0
ARC
8
DEFAULT_255_2_778
10
4.677896
20
2.4707934
40
1.1478783
50
255.1208241
51
259.4876132
0
ARC
8
DEFAULT_255_2_778
10
5.2077517
20
4.4650458
40
3.2113195
50
251.9353988
51
255.1207862
0
ARC
8
DEFAULT_255_2_778
10
5.9494005
20
6.8040348
40
5.6650271
50
251.3804955
51
252.1397412
0
ARC
8
DEFAULT_255_2_778
10
6.4523105
20
8.2933676
40
7.2369779
50
250.356813
51
251.37202
0
ARC
8
DEFAULT_255_2_778
10
6.587878
20
8.6795343
40
7.6462443
50
249.8520383
51
250.3728216
0
ARC
8
DEFAULT_255_2_778
10
6.0235478
20
7.1449363
40
6.0111732
50
249.3518005
51
249.8635816
0
ARC
8
DEFAULT_255_2_778
10
5.2678315
20
5.368079
40
4.0827636
50
227.4682626
51
250.4829816
0
ARC
8
DEFAULT_255_2_778
10
4.3406133
20
4.2578987
40
2.6387265
50
219.5861803
51
226.0087389
0
ARC
8
DEFAULT_255_2_778
10
3.5150926
20
3.4630806
40
1.4985343
50
200.3695814
51
216.2775582
0
ARC
8
DEFAULT_255_2_778
10
-1.675145
20
1.425973
40
4.0775112
50
21.818913
51
26.0478448
0
ARC
8
DEFAULT_255_2_778
10
0.3526931
20
2.3874744
40
1.8336227
50
26.8799255
51
27.8953632
0
ARC
8
DEFAULT_255_2_778
10
0.4632648
20
2.4459228
40
1.7085535
50
27.8978785
51
28.7685038
0
ARC
8
DEFAULT_255_2_778
10
2.2851347
20
3.0352248
40
0.3992296
50
144.2982619
51
179.0292189
0
ARC
8
DEFAULT_255_2_778
10
2.4713161
20
3.0146768
40
0.5859904
50
177.3285733
51
180.0190173
0
ARC
8
DEFAULT_255_2_778
10
2.6424719
20
3.0202048
40
0.7571677
50
180.4330327
51
192.0225777
0
ARC
8
DEFAULT_255_2_778
10
2.833585
20
3.0545935
40
0.9512721
50
191.6507158
51
193.0092487
0
ARC
8
DEFAULT_255_2_778
10
3.1589764
20
3.1467667
40
1.2891672
50
193.7452266
51
210.7591734
0
ARC
8
DEFAULT_255_2_778
10
3.0955373
20
3.1013014
40
1.2114182
50
210.4458452
51
215.1922777
0
ARC
8
DEFAULT_255_2_778
10
2.9275588
20
2.9844816
40
1.0068174
50
215.2686428
51
217.1185342
0
ARC
8
DEFAULT_255_2_778
10
3.6359826
20
3.532629
40
1.9025189
50
217.4069516
51
229.0578127
0
ARC
8
DEFAULT_255_2_778
10
4.3071704
20
4.3014248
40
2.9230744
50
228.9949667
51
238.241043
0
ARC
8
DEFAULT_255_2_778
10
5.0863408
20
5.5722066
40
4.4137004
50
238.3236932
51
248.7025203
0
ARC
8
DEFAULT_255_2_778
10
5.3922151
20
6.2934213
40
5.1968092
50
248.4485801
51
251.9360767
0
ARC
8
DEFAULT_255_2_778
10
5.3708185
20
6.2208365
40
5.1211679
50
251.9118554
51
256.1674689
0
ARC
8
DEFAULT_255_2_778
10
5.247055
20
5.715571
40
4.6009658
50
256.1596585
51
259.6632326
0
ARC
8
DEFAULT_255_2_778
10
5.1591645
20
5.2486203
40
4.125824
50
259.7004154
51
260.9548724
0
ARC
8
DEFAULT_255_2_778
10
5.2107089
20
1.3403056
40
0.719631
50
193.3534358
51
219.5210428
0
ARC
8
DEFAULT_255_2_778
10
5.3064753
20
1.4507897
40
0.8641533
50
221.1313785
51
249.4356819
0
ARC
8
DEFAULT_255_2_778
10
5.5125599
20
0.6744254
40
0.5106754
50
183.674004
51
201.9379015
0
ARC
8
DEFAULT_255_2_778
10
6.0129686
20
0.893885
40
1.0569704
50
202.8385943
51
210.910916
0
LINE
8
DEFAULT_255_2_778
10
5.1061229
20
0.3509144
11
5.1067124
21
0.3498776
0
ARC
8
DEFAULT_255_2_778
10
4.3355688
20
-0.1214947
40
0.9037998
50
19.9311022
51
31.4359423
0
ARC
8
DEFAULT_255_2_778
10
6.0976302
20
8.9320876
40
8.7929513
50
250.8780345
51
264.0440113
0
ARC
8
DEFAULT_255_2_778
10
5.1935475
20
3.5923678
40
3.8782332
50
269.9982271
51
272.7502377
0
ARC
8
DEFAULT_255_2_778
10
5.2029959
20
3.9318183
40
4.2176947
50
261.8510845
51
269.8700173
0
ARC
8
DEFAULT_255_2_778
10
5.4167538
20
5.4835006
40
5.7840151
50
258.4948756
51
261.9337565
0
ARC
8
DEFAULT_255_2_778
10
6.502926
20
10.6690555
40
11.0820599
50
255.5785086
51
258.3394624
0
ARC
8
DEFAULT_255_2_778
10
11.0357693
20
28.8247468
40
29.7948721
50
255.6816797
51
255.8318083
0
ARC
8
DEFAULT_255_2_778
10
4.4854328
20
3.1386182
40
3.2866879
50
252.5519737
51
255.5850109
0
ARC
8
DEFAULT_255_2_778
10
4.4181427
20
2.9227996
40
3.060623
50
251.0080439
51
252.5422923
0
ARC
8
DEFAULT_255_2_778
10
4.0612651
20
1.973408
40
2.0469698
50
238.292851
51
251.8053838
0
ARC
8
DEFAULT_255_2_778
10
3.4299147
20
0.947005
40
0.8419416
50
220.9699489
51
238.1338726
0
ARC
8
DEFAULT_255_2_778
10
3.1250298
20
0.6770218
40
0.434737
50
201.2436413
51
220.4493622
0
ARC
8
DEFAULT_255_2_778
10
2.7069289
20
0.5552145
40
0.0379731
50
289.8676841
51
313.3813263
0
ARC
8
DEFAULT_255_2_778
10
1.8674167
20
1.5667129
40
1.3523965
50
309.7951473
51
309.8368581
0
ARC
8
DEFAULT_255_2_778
10
2.7568868
20
0.505796
40
0.0322262
50
92.0501572
51
135.8421088
0
ARC
8
DEFAULT_255_2_778
10
5.7131664
20
8.6426103
40
8.6273454
50
249.952595
51
261.9440774
0
ARC
8
DEFAULT_255_2_778
10
7.7402201
20
24.6631968
40
24.7750512
50
262.4946513
51
262.9678719
0
ARC
8
DEFAULT_255_2_778
10
-7.8563503
20
-100.8756686
40
101.7289515
50
82.8684344
51
82.9058946
0
ARC
8
DEFAULT_255_2_778
10
3.9706484
20
-6.9134866
40
7.0257411
50
79.4914546
51
83.441503
0
ARC
8
DEFAULT_255_2_778
10
4.8972998
20
-2.0242824
40
2.0496272
50
63.362636
51
80.033933
0
ARC
8
DEFAULT_255_2_778
10
5.6157725
20
0.0259582
40
0.296272
50
274.9746188
51
312.5795298
0
ARC
8
DEFAULT_255_2_778
10
5.4780279
20
0.8815608
40
1.1623067
50
271.5725884
51
278.0833284
0
ARC
8
DEFAULT_255_2_778
10
5.2774631
20
5.8208554
40
6.1055904
50
271.7194531
51
272.1819903
0
ARC
8
DEFAULT_255_2_778
10
5.5391499
20
-3.2225158
40
2.9415771
50
91.5289026
51
93.1553798
0
ARC
8
DEFAULT_255_2_778
10
6.7209165
20
1.0110209
40
1.313347
50
270.0175303
51
273.4842481
0
ARC
8
DEFAULT_255_2_778
10
6.7173203
20
0.87534
40
1.1776728
50
248.6529322
51
270.1945099
0
ARC
8
DEFAULT_255_2_778
10
6.8932259
20
1.2633047
40
1.6032121
50
230.4340382
51
247.8448107
0
ARC
8
DEFAULT_255_2_778
10
6.0365986
20
-0.011805
40
0.1691706
50
136.6563648
51
166.5994371
0
ARC
8
DEFAULT_255_2_778
10
6.0373727
20
-0.0373125
40
0.1881062
50
85.1591237
51
131.1594427
0
ARC
8
DEFAULT_255_2_778
10
6.0498786
20
-0.4730879
40
0.6232198
50
85.0025737
51
89.6903465
0
ARC
8
DEFAULT_255_2_778
10
5.9488711
20
-1.655549
40
1.8099863
50
83.5941054
51
85.0779722
0
ARC
8
DEFAULT_255_2_778
10
6.2802821
20
1.1899611
40
1.0548002
50
262.9495967
51
267.327986
0
ARC
8
DEFAULT_255_2_778
10
6.2417948
20
0.500239
40
0.3640882
50
268.3181376
51
269.9696446
0
ARC
8
DEFAULT_255_2_778
10
6.2418611
20
0.4219275
40
0.2857769
50
269.9480483
51
272.4011702
0
ARC
8
DEFAULT_255_2_778
10
5.8795477
20
6.8962265
40
6.770179
50
273.1691871
51
285.5292883
0
ARC
8
DEFAULT_255_2_778
10
8.9711151
20
2.2866706
40
2.3015552
50
236.2408499
51
239.0879824
0
ARC
8
DEFAULT_255_2_778
10
8.77906
20
1.9710911
40
1.9321406
50
239.1667202
51
239.8543326
0
ARC
8
DEFAULT_255_2_778
10
8.5402109
20
1.5397035
40
1.439183
50
239.4523201
51
249.5864909
0
ARC
8
DEFAULT_255_2_778
10
8.0800853
20
0.3641975
40
0.1782779
50
256.4229283
51
271.182615
0
ARC
8
DEFAULT_255_2_778
10
8.0768162
20
0.8738219
40
0.6878995
50
270.5787598
51
273.813712
0
LINE
8
DEFAULT_255_2_778
10
8.1225703
20
0.1874458
11
8.1235481
21
0.1875016
0
ARC
8
DEFAULT_255_2_778
10
8.1678523
20
-0.4824296
40
0.6713945
50
90.54862
51
93.7836032
0
ARC
8
DEFAULT_255_2_778
10
8.1756155
20
0.0856242
40
0.1042801
50
24.7156343
51
97.8218864
0
ARC
8
DEFAULT_255_2_778
10
8.1317332
20
0.0656324
40
0.1525015
50
20.004217
51
24.6452028
0
ARC
8
DEFAULT_255_2_778
10
6.4521227
20
3.7297579
40
4.0458909
50
274.9245002
51
296.7795336
0
ARC
8
DEFAULT_255_2_778
10
13.0167224
20
0.2964196
40
1.13156
50
307.9402628
51
309.8190488
0
ARC
8
DEFAULT_255_2_778
10
12.8522123
20
0.5076459
40
1.3992915
50
305.1488863
51
307.9349808
0
ARC
8
DEFAULT_255_2_778
10
12.9028739
20
0.4333541
40
1.3093808
50
302.5950072
51
305.2077891
0
ARC
8
DEFAULT_255_2_778
10
13.416506
20
-0.3937007
40
0.4263135
50
319.6360779
51
353.1024618
0
ARC
8
DEFAULT_255_2_778
10
13.8296119
20
-0.5262252
40
0.0819543
50
82.905342
51
89.8028188
0
ARC
8
DEFAULT_255_2_778
10
13.8334821
20
-0.4964374
40
0.0522893
50
93.9347698
51
188.0699446
0
ARC
8
DEFAULT_255_2_778
10
14.5586554
20
-0.6093396
40
0.7840834
50
172.2627323
51
173.2724628
0
LINE
8
DEFAULT_255_2_778
10
13.7799709
20
-0.5174857
11
13.7798377
21
-0.5185873
0
ARC
8
DEFAULT_255_2_778
10
13.6363489
20
-0.51176
40
0.1436511
50
334.8992298
51
357.2758678
0
ARC
8
DEFAULT_255_2_778
10
1.873093
20
7.5420948
40
5.0167883
50
350.2634157
51
351.7555263
0
ARC
8
DEFAULT_255_2_778
10
-37.7861087
20
14.3260015
40
45.2520171
50
350.1133525
51
350.2899096
0
ARC
8
DEFAULT_255_2_778
10
11.9847412
20
5.6200829
40
5.2745975
50
169.7766188
51
173.3238452
0
ARC
8
DEFAULT_255_2_778
10
8.897181
20
5.9872712
40
2.165293
50
173.4759123
51
179.6758067
0
ARC
8
DEFAULT_255_2_778
10
7.9587743
20
5.9893988
40
1.2268934
50
179.5271974
51
190.4178632
0
ARC
8
DEFAULT_255_2_778
10
7.6247358
20
5.9355259
40
0.8886508
50
190.8961446
51
194.5881848
0
ARC
8
DEFAULT_255_2_778
10
6.6029421
20
5.9020519
40
0.2498196
50
310.3635097
51
354.3451446
0
ARC
8
DEFAULT_255_2_778
10
6.0441524
20
6.002865
40
0.8170782
50
351.1696358
51
0.7664114
0
ARC
8
DEFAULT_255_2_778
10
5.1188286
20
6.0127407
40
1.7423292
50
0.0346461
51
1.1713916
0
ARC
8
DEFAULT_255_2_778
10
2.8141818
20
5.9559205
40
4.0476676
50
1.3086118
51
2.4394253
0
ARC
8
DEFAULT_255_2_778
10
9.8878906
20
6.2673426
40
3.0329026
50
180.7119829
51
182.6294841
0
ARC
8
DEFAULT_255_2_778
10
8.0678682
20
6.2361147
40
1.2126631
50
180.0043398
51
180.3051948
0
ARC
8
DEFAULT_255_2_778
10
7.938486
20
6.2361293
40
1.0832808
50
179.583623
51
180.0056278
0
ARC
8
DEFAULT_255_2_778
10
11.4899796
20
6.2372865
40
4.6442945
50
162.5782587
51
174.3267189
0
ARC
8
DEFAULT_255_2_778
10
9.4757695
20
6.7111831
40
2.5850049
50
147.4215459
51
159.2316444
0
ARC
8
DEFAULT_255_2_778
10
-0.3875456
20
12.8456833
40
9.0306236
50
328.3204496
51
330.2679019
0
ARC
8
DEFAULT_255_2_778
10
5.8424268
20
9.2746429
40
1.8497968
50
330.6148611
51
335.8961669
0
ARC
8
DEFAULT_255_2_778
10
9.3290767
20
6.9582048
40
2.3811821
50
139.0382242
51
155.8637933
0
ARC
8
DEFAULT_255_2_778
10
10.3929729
20
6.449786
40
3.560082
50
155.3980944
51
163.7621409
0
ARC
8
DEFAULT_255_2_778
10
11.0592526
20
6.2459105
40
4.2568024
50
163.6351624
51
168.7056223
0
ARC
8
DEFAULT_255_2_778
10
11.1802606
20
6.2189525
40
4.3807474
50
168.6698312
51
172.2882607
0
ARC
8
DEFAULT_255_2_778
10
8.6204805
20
4.9982749
40
0.8657351
50
82.5499023
51
86.2216034
0
ARC
8
DEFAULT_255_2_778
10
8.6204936
20
4.9984974
40
0.8655122
50
86.2214972
51
89.9999636
0
ARC
8
DEFAULT_255_2_778
10
8.6204717
20
4.9985956
40
0.865414
50
89.9985149
51
120.0482299
0
ARC
8
DEFAULT_255_2_778
10
8.9772172
20
5.1027236
40
1.0199157
50
140.7737995
51
153.569203
0
ARC
8
DEFAULT_255_2_778
10
9.5271568
20
4.8246833
40
1.6361373
50
153.4224651
51
163.3325538
0
ARC
8
DEFAULT_255_2_778
10
10.1590156
20
4.6332256
40
2.2963632
50
163.2780032
51
173.7185465
0
ARC
8
DEFAULT_255_2_778
10
10.3618476
20
4.603602
40
2.5012291
50
173.5523926
51
178.7597394
0
ARC
8
DEFAULT_255_2_778
10
10.3067042
20
4.6051604
40
2.446065
50
178.7682758
51
179.9984066
0
ARC
8
DEFAULT_255_2_778
10
10.0260819
20
4.5966182
40
2.1654598
50
179.7721824
51
190.9646302
0
ARC
8
DEFAULT_255_2_778
10
9.4280935
20
4.481454
40
1.5564832
50
190.9895636
51
201.5033931
0
ARC
8
DEFAULT_255_2_778
10
9.1362738
20
4.3734913
40
1.245418
50
201.8033627
51
204.7035757
0
ARC
8
DEFAULT_255_2_778
10
7.2329994
20
3.9330064
40
0.7759699
50
354.0821179
51
0.1740138
0
ARC
8
DEFAULT_255_2_778
10
6.419972
20
3.9115223
40
1.5891725
50
0.8595853
51
8.7140121
0
ARC
8
DEFAULT_255_2_778
10
-0.5534193
20
2.926815
40
8.631655
50
8.1620918
51
9.0912211
0
ARC
8
DEFAULT_255_2_778
10
10.4495688
20
4.7368544
40
2.5195841
50
181.3112635
51
190.1999887
0
ARC
8
DEFAULT_255_2_778
10
9.2036704
20
4.6796216
40
1.273026
50
177.8580436
51
180.0191326
0
ARC
8
DEFAULT_255_2_778
10
9.4383158
20
4.6881197
40
1.5072885
50
159.1061089
51
178.5142332
0
ARC
8
DEFAULT_255_2_778
10
8.6925859
20
5.001876
40
0.6992265
50
105.3070791
51
161.3329081
0
ARC
8
DEFAULT_255_2_778
10
8.6889081
20
4.9309796
40
0.7669601
50
89.6740991
51
103.6436541
0
ARC
8
DEFAULT_255_2_778
10
8.6927952
20
4.7650357
40
0.9328917
50
86.4065866
51
89.9708043
0
ARC
8
DEFAULT_255_2_778
10
8.68819
20
4.6864078
40
1.0116538
50
84.3815673
51
86.4253843
0
ARC
8
DEFAULT_255_2_778
10
8.7455191
20
5.2946131
40
0.4007654
50
55.7244846
51
84.0253677
0
ARC
8
DEFAULT_255_2_778
10
8.3671126
20
4.6791219
40
1.1229909
50
55.1750549
51
57.4561855
0
ARC
8
DEFAULT_255_2_778
10
-2.1562702
20
-10.4118238
40
19.520768
50
54.9560785
51
55.1144444
0
ARC
8
DEFAULT_255_2_778
10
9.7093742
20
6.5022901
40
1.1403275
50
234.8359213
51
238.5576908
0
ARC
8
DEFAULT_255_2_778
10
8.9658818
20
5.6051956
40
0.1668598
50
332.9841117
51
348.9817138
0
ARC
8
DEFAULT_255_2_778
10
8.9954697
20
5.5986299
40
0.1365649
50
349.3130599
51
359.9318991
0
ARC
8
DEFAULT_255_2_778
10
8.9529543
20
5.586065
40
0.1795092
50
3.9618221
51
55.7232262
0
ARC
8
DEFAULT_255_2_778
10
8.688029
20
5.240367
40
0.6148494
50
53.4655853
51
76.2870826
0
ARC
8
DEFAULT_255_2_778
10
8.6268591
20
5.0697488
40
0.7953315
50
74.9196262
51
82.3500499
0
ARC
8
DEFAULT_255_2_778
10
8.789348
20
3.909733
40
0.0882535
50
85.3947227
51
89.8445429
0
ARC
8
DEFAULT_255_2_778
10
8.7852508
20
3.9801794
40
0.0183271
50
76.3125019
51
144.6173231
0
ARC
8
DEFAULT_255_2_778
10
8.7762287
20
3.9889817
40
0.0061905
50
163.0013889
51
180.1990346
0
ARC
8
DEFAULT_255_2_778
10
8.7820489
20
3.9899454
40
0.0120509
50
184.6892737
51
225.0732646
0
ARC
8
DEFAULT_255_2_778
10
8.8007884
20
4.006571
40
0.0370872
50
222.7140262
51
241.7492926
0
ARC
8
DEFAULT_255_2_778
10
8.6196972
20
3.3770425
40
0.6188579
50
48.6186187
51
74.6772683
0
ARC
8
DEFAULT_255_2_778
10
8.4177849
20
3.1541735
40
0.9195696
50
29.6953051
51
48.3588895
0
ARC
8
DEFAULT_255_2_778
10
8.0731586
20
2.9429806
40
1.3236203
50
22.6005495
51
30.2465243
0
ARC
8
DEFAULT_255_2_778
10
7.9160171
20
2.874713
40
1.4949321
50
18.2402346
51
22.7015401
0
ARC
8
DEFAULT_255_2_778
10
8.001769
20
2.9020878
40
1.404921
50
15.3626376
51
18.274542
0
ARC
8
DEFAULT_255_2_778
10
8.3307965
20
2.992116
40
1.0637993
50
13.3616786
51
15.3818651
0
ARC
8
DEFAULT_255_2_778
10
8.8894394
20
3.1240304
40
0.4897942
50
11.884892
51
13.4502673
0
ARC
8
DEFAULT_255_2_778
10
9.424478
20
3.2533592
40
0.0625878
50
207.0444952
51
214.3149611
0
ARC
8
DEFAULT_255_2_778
10
9.3930325
20
3.2311144
40
0.0240837
50
212.7782482
51
230.9670154
0
ARC
8
DEFAULT_255_2_778
10
9.381151
20
3.2164436
40
0.0052052
50
230.858401
51
266.197651
0
ARC
8
DEFAULT_255_2_778
10
9.3782064
20
3.2185963
40
0.0077927
50
289.4853828
51
7.4117349
0
ARC
8
DEFAULT_255_2_778
10
9.3456207
20
3.2283335
40
0.0412481
50
347.7784088
51
2.2937205
0
ARC
8
DEFAULT_255_2_778
10
9.0214871
20
3.2228041
40
0.3654194
50
1.1259027
51
6.237927
0
ARC
8
DEFAULT_255_2_778
10
8.4233036
20
3.166902
40
0.9661814
50
5.6789452
51
6.5984117
0
ARC
8
DEFAULT_255_2_778
10
8.0856772
20
3.127975
40
1.3060445
50
6.5928257
51
7.514132
0
ARC
8
DEFAULT_255_2_778
10
8.43298
20
3.1745286
40
0.9556365
50
7.4699568
51
7.9923778
0
ARC
8
DEFAULT_255_2_778
10
8.8181383
20
3.2231125
40
0.5674903
50
8.5417223
51
9.7821455
0
ARC
8
DEFAULT_255_2_778
10
8.1756453
20
3.1138216
40
1.2192117
50
9.7135711
51
11.3513399
0
ARC
8
DEFAULT_255_2_778
10
7.8215894
20
3.0432506
40
1.5802321
50
11.3333427
51
13.7726816
0
ARC
8
DEFAULT_255_2_778
10
7.7840685
20
3.0351524
40
1.6186026
50
13.7349011
51
17.5321552
0
ARC
8
DEFAULT_255_2_778
10
8.0355535
20
3.1168264
40
1.3541978
50
17.4423534
51
23.4994313
0
ARC
8
DEFAULT_255_2_778
10
8.6404484
20
3.4080953
40
0.6838212
50
21.3274341
51
50.9559733
0
ARC
8
DEFAULT_255_2_778
10
8.8688586
20
3.6671768
40
0.3390203
50
53.3561247
51
90.0536984
0
ARC
8
DEFAULT_255_2_778
10
8.8689267
20
3.6279809
40
0.3782161
50
90.0584542
51
96.7954383
0
ARC
8
DEFAULT_255_2_778
10
8.873264
20
3.5893507
40
0.4170881
50
96.7591522
51
100.6148236
0
ARC
8
DEFAULT_255_2_778
10
10.7269537
20
-0.5256035
40
0.1738215
50
0.287956
51
8.5708618
0
ARC
8
DEFAULT_255_2_778
10
10.8180642
20
-0.5305063
40
0.0829103
50
289.4221597
51
3.9950709
0
ARC
8
DEFAULT_255_2_778
10
10.204418
20
0.9619089
40
1.6964567
50
285.8808975
51
292.2082234
0
ARC
8
DEFAULT_255_2_778
10
11.0476039
20
-0.5408539
40
0.1826279
50
315.0855325
51
349.9581069
0
ARC
8
DEFAULT_255_2_778
10
11.1928765
20
-0.2267332
40
0.3476869
50
270.0274932
51
275.7041961
0
ARC
8
DEFAULT_255_2_778
10
11.2089131
20
-0.1047258
40
0.4699623
50
246.8654762
51
268.0648544
0
ARC
8
DEFAULT_255_2_778
10
15.9253522
20
12.7964442
40
14.2055826
50
249.7848355
51
249.8175288
0
ARC
8
DEFAULT_255_2_778
10
10.7690774
20
-1.1525363
40
0.6661568
50
68.1819221
51
78.653886
0
ARC
8
DEFAULT_255_2_778
10
8.4644818
20
3.8249462
40
0.0822805
50
53.7509382
51
75.2097118
0
ARC
8
DEFAULT_255_2_778
10
8.4704691
20
3.844354
40
0.0619929
50
75.9809091
51
89.9338579
0
ARC
8
DEFAULT_255_2_778
10
8.4805108
20
3.8053453
40
0.1014924
50
95.6375554
51
142.4149447
0
ARC
8
DEFAULT_255_2_778
10
8.8926968
20
3.4463203
40
0.647958
50
139.486732
51
150.9049691
0
ARC
8
DEFAULT_255_2_778
10
7.1216753
20
4.4516556
40
1.3885478
50
325.7556217
51
330.1910892
0
ARC
8
DEFAULT_255_2_778
10
8.0765274
20
3.8039817
40
0.2347704
50
314.2452423
51
325.2866462
0
ARC
8
DEFAULT_255_2_778
10
10.8013319
20
4.9833823
40
2.8939047
50
207.5413333
51
207.7530578
0
LINE
8
DEFAULT_255_2_778
10
8.2353719
20
3.6452745
11
8.2349124
21
3.6461545
0
ARC
8
DEFAULT_255_2_778
10
8.0639018
20
3.5902979
40
0.1799016
50
18.0884159
51
74.3163031
0
ARC
8
DEFAULT_255_2_778
10
8.3876628
20
3.8443256
40
0.286755
50
196.3710988
51
222.9541586
0
LINE
8
DEFAULT_255_2_778
10
8.1777872
20
3.6489271
11
8.1788269
21
3.6476403
0
ARC
8
DEFAULT_255_2_778
10
7.9575943
20
3.4450239
40
0.2999954
50
19.5277812
51
42.4850828
0
ARC
8
DEFAULT_255_2_778
10
9.934817
20
3.7795015
40
1.7105912
50
187.8691771
51
197.9013092
0
ARC
8
DEFAULT_255_2_778
10
9.1478603
20
3.5208031
40
0.8822252
50
197.6233039
51
222.357364
0
ARC
8
DEFAULT_255_2_778
10
9.9396561
20
4.2220572
40
1.9398601
50
221.9061085
51
223.849914
0
ARC
8
DEFAULT_255_2_778
10
8.9859585
20
3.2725479
40
0.5947875
50
221.5324924
51
243.0782245
0
ARC
8
DEFAULT_255_2_778
10
8.8117679
20
2.9641885
40
0.2414881
50
246.8048576
51
250.384067
0
ARC
8
DEFAULT_255_2_778
10
8.7912941
20
2.9001105
40
0.1742699
50
249.6520997
51
269.2561423
0
ARC
8
DEFAULT_255_2_778
10
8.7891341
20
2.8628421
40
0.1369869
50
269.9571247
51
277.0865286
0
ARC
8
DEFAULT_255_2_778
10
5.7974232
20
0.5250481
40
3.7282566
50
36.1985517
51
40.1869166
0
LINE
8
DEFAULT_255_2_778
10
8.6456002
20
2.9308297
11
8.6417657
21
2.9354736
0
ARC
8
DEFAULT_255_2_778
10
10.2240239
20
4.3417082
40
2.1168459
50
208.4018146
51
221.6291463
0
ARC
8
DEFAULT_255_2_778
10
9.4341065
20
3.8739091
40
1.2000317
50
198.5519637
51
206.6939119
0
ARC
8
DEFAULT_255_2_778
10
9.0977954
20
3.347245
40
0.8143486
50
148.0414029
51
169.7536811
0
ARC
8
DEFAULT_255_2_778
10
8.7721847
20
3.5376301
40
0.4374522
50
126.0522695
51
146.6241937
0
ARC
8
DEFAULT_255_2_778
10
9.1892227
20
2.88128
40
0.3271231
50
162.2144317
51
172.5048132
0
ARC
8
DEFAULT_255_2_778
10
9.131675
20
2.8895689
40
0.2689868
50
172.6563351
51
179.9270868
0
ARC
8
DEFAULT_255_2_778
10
9.164232
20
2.9118337
40
0.3023395
50
184.1581398
51
245.5414557
0
ARC
8
DEFAULT_255_2_778
10
9.4234299
20
3.2909126
40
0.7588391
50
239.5668432
51
243.5817474
0
ARC
8
DEFAULT_255_2_778
10
9.5553366
20
3.5585087
40
1.0571786
50
243.6320002
51
247.4860429
0
ARC
8
DEFAULT_255_2_778
10
5.7130575
20
-1.2052341
40
5.1145519
50
47.7708585
51
48.1797649
0
ARC
8
DEFAULT_255_2_778
10
273.4626732
20
297.5269874
40
396.0472589
50
228.1284941
51
228.1299251
0
ARC
8
DEFAULT_255_2_778
10
9.5094137
20
3.139375
40
0.6571659
50
200.2806397
51
233.2323713
0
ARC
8
DEFAULT_255_2_778
10
9.352171
20
3.0486843
40
0.4792121
50
188.095306
51
196.623713
0
ARC
8
DEFAULT_255_2_778
10
8.7449068
20
2.1498289
40
0.0431214
50
276.694841
51
352.666472
0
LINE
8
DEFAULT_255_2_778
10
8.7876756
20
2.1443247
11
8.7878407
21
2.1447716
0
ARC
8
DEFAULT_255_2_778
10
8.8292957
20
2.140045
40
0.0417236
50
93.0522493
51
173.4953949
0
ARC
8
DEFAULT_255_2_778
10
8.8264137
20
2.1113573
40
0.0703552
50
78.5052768
51
89.4622188
0
ARC
8
DEFAULT_255_2_778
10
8.9547933
20
0.5852582
40
1.5991377
50
91.4667061
51
94.1008989
0
ARC
8
DEFAULT_255_2_778
10
8.9555613
20
0.5541744
40
1.6302311
50
89.9954532
51
91.4657288
0
ARC
8
DEFAULT_255_2_778
10
8.952678
20
0.3120542
40
1.8723536
50
86.0765967
51
89.9078097
0
ARC
8
DEFAULT_255_2_778
10
8.8147718
20
-1.6282108
40
3.8175103
50
84.2919946
51
86.0041853
0
ARC
8
DEFAULT_255_2_778
10
9.4902043
20
4.8736527
40
2.7194115
50
263.7564915
51
267.4770811
0
ARC
8
DEFAULT_255_2_778
10
9.4051229
20
3.2647736
40
1.1084372
50
268.209954
51
269.9739921
0
ARC
8
DEFAULT_255_2_778
10
9.4099371
20
2.9625869
40
0.8062678
50
269.6221247
51
282.6348754
0
ARC
8
DEFAULT_255_2_778
10
9.3971659
20
2.9992356
40
0.8448344
50
282.9363698
51
291.763644
0
ARC
8
DEFAULT_255_2_778
10
9.3457538
20
3.1362229
40
0.9911246
50
291.5876446
51
291.8503398
0
ARC
8
DEFAULT_255_2_778
10
9.5896176
20
2.6832618
40
0.4834056
50
275.682559
51
284.9879559
0
ARC
8
DEFAULT_255_2_778
10
9.593273
20
2.652246
40
0.4521807
50
270.0088227
51
275.6107981
0
ARC
8
DEFAULT_255_2_778
10
9.6098763
20
2.7630344
40
0.563212
50
238.0587515
51
268.3177747
0
ARC
8
DEFAULT_255_2_778
10
10.0933511
20
3.6372898
40
1.5617537
50
236.2162805
51
239.9760678
0
ARC
8
DEFAULT_255_2_778
10
6.8653529
20
-1.1236588
40
4.1903828
50
55.7301136
51
57.6655745
0
ARC
8
DEFAULT_255_2_778
10
8.7745344
20
1.8837113
40
0.6282055
50
58.0871945
51
65.0092199
0
ARC
8
DEFAULT_255_2_778
10
9.319314
20
2.5218141
40
0.2877058
50
193.817441
51
239.0333189
0
ARC
8
DEFAULT_255_2_778
10
14.1963978
20
8.8212015
40
8.252458
50
232.4882581
51
232.537499
0
LINE
8
DEFAULT_255_2_778
10
9.1769058
20
2.2707999
11
9.1776276
21
2.2702467
0
ARC
8
DEFAULT_255_2_778
10
8.5195247
20
1.3962598
40
1.0940532
50
50.0365428
51
53.0206414
0
ARC
8
DEFAULT_255_2_778
10
9.0878866
20
2.9019905
40
0.6805808
50
277.4456395
51
281.3850204
0
ARC
8
DEFAULT_255_2_778
10
9.0882955
20
2.898753
40
0.6773176
50
270.0015865
51
277.4468292
0
ARC
8
DEFAULT_255_2_778
10
9.0885716
20
2.9000793
40
0.6786439
50
217.1332743
51
269.9782773
0
ARC
8
DEFAULT_255_2_778
10
8.6187012
20
2.4357851
40
0.0897092
50
142.4959542
51
168.1739608
0
ARC
8
DEFAULT_255_2_778
10
8.6062324
20
2.4395211
40
0.0767473
50
168.9962325
51
180.0454348
0
ARC
8
DEFAULT_255_2_778
10
8.6840592
20
2.4537765
40
0.1552355
50
185.2914739
51
217.0085146
0
ARC
8
DEFAULT_255_2_778
10
8.374653
20
2.2265831
40
0.2286458
50
20.5075819
51
35.8011781
0
ARC
8
DEFAULT_255_2_778
10
8.5416521
20
2.2931564
40
0.0490586
50
0.6136141
51
16.0074645
0
ARC
8
DEFAULT_255_2_778
10
8.5551824
20
2.2935093
40
0.035526
50
322.9443624
51
0.278179
0
ARC
8
DEFAULT_255_2_778
10
9.8990949
20
5.4300507
40
3.4210149
50
244.9886002
51
247.3840186
0
ARC
8
DEFAULT_255_2_778
10
9.7686016
20
5.1499194
40
3.1119808
50
242.8590766
51
244.9852317
0
ARC
8
DEFAULT_255_2_778
10
9.1729887
20
4.0968704
40
1.9038266
50
222.000943
51
244.3533976
0
ARC
8
DEFAULT_255_2_778
10
8.372018
20
3.3713372
40
0.8231192
50
181.0372176
51
221.7778821
0
ARC
8
DEFAULT_255_2_778
10
8.3422815
20
3.3555446
40
0.7932483
50
171.2558434
51
179.9355325
0
ARC
8
DEFAULT_255_2_778
10
8.4399106
20
3.340517
40
0.8920273
50
164.1412411
51
171.2551246
0
ARC
8
DEFAULT_255_2_778
10
8.5390357
20
3.3134432
40
0.9947785
50
160.9152948
51
164.2013903
0
ARC
8
DEFAULT_255_2_778
10
8.4284321
20
3.1504823
40
0.9625098
50
149.5201289
51
156.418804
0
ARC
8
DEFAULT_255_2_778
10
8.292623
20
3.2095856
40
0.8143975
50
156.4073813
51
164.8813882
0
ARC
8
DEFAULT_255_2_778
10
8.1943416
20
3.2360678
40
0.7126108
50
164.8759264
51
176.1281842
0
ARC
8
DEFAULT_255_2_778
10
8.1608851
20
3.2393037
40
0.6790129
50
176.2099819
51
179.9970011
0
ARC
8
DEFAULT_255_2_778
10
8.2830876
20
3.2608359
40
0.8015038
50
181.5368778
51
220.2738799
0
ARC
8
DEFAULT_255_2_778
10
8.8643173
20
3.7131612
40
1.5376677
50
219.1327188
51
236.14569
0
ARC
8
DEFAULT_255_2_778
10
9.26638
20
4.2783883
40
2.2311276
50
235.6573163
51
246.2602078
0
ARC
8
DEFAULT_255_2_778
10
9.295069
20
4.3305238
40
2.2904073
50
246.1283124
51
250.6815879
0
ARC
8
DEFAULT_255_2_778
10
9.2204814
20
4.1166167
40
2.0638695
50
250.671142
51
254.5176952
0
ARC
8
DEFAULT_255_2_778
10
9.14995
20
3.8646885
40
1.8022554
50
254.5406494
51
257.0457773
0
ARC
8
DEFAULT_255_2_778
10
2.2365831
20
0.3792497
40
0.2156479
50
176.6763262
51
195.9468017
0
LINE
8
DEFAULT_255_2_778
10
2.0212979
20
0.3917522
11
2.0212965
21
0.3926931
0
ARC
8
DEFAULT_255_2_778
10
1.9090894
20
0.4156647
40
0.1145345
50
348.4300128
51
59.4256679
0
ARC
8
DEFAULT_255_2_778
10
1.9020079
20
0.3866501
40
0.1433791
50
62.8890161
51
67.9071596
0
ARC
8
DEFAULT_255_2_778
10
2.7245457
20
0.3509804
40
0.7868694
50
167.6333611
51
178.5648775
0
ARC
8
DEFAULT_255_2_778
10
2.7241388
20
0.3510103
40
0.7864618
50
178.5663084
51
179.9992461
0
ARC
8
DEFAULT_255_2_778
10
2.7208695
20
0.3508335
40
0.7831924
50
179.9863113
51
201.452122
0
ARC
8
DEFAULT_255_2_778
10
4.3847068
20
1.0875898
40
2.6023596
50
203.152333
51
222.5256735
0
ARC
8
DEFAULT_255_2_778
10
4.1839142
20
2.3254226
40
3.107003
50
246.222891
51
254.6956816
0
ARC
8
DEFAULT_255_2_778
10
3.5586727
20
0.9155387
40
1.5647086
50
233.9521811
51
246.3596548
0
ARC
8
DEFAULT_255_2_778
10
3.1813675
20
0.3840423
40
0.9129833
50
223.6112261
51
233.4687391
0
ARC
8
DEFAULT_255_2_778
10
-175.8660939
20
-217.4848326
40
281.0952847
50
50.6087902
51
50.637314
0
ARC
8
DEFAULT_255_2_778
10
3.111202
20
0.8081613
40
1.1916521
50
206.2699336
51
234.0829575
0
ARC
8
DEFAULT_255_2_778
10
2.709312
20
0.5624608
40
0.7237686
50
199.7067512
51
202.9077347
0
ARC
8
DEFAULT_255_2_778
10
10.2287009
20
9.3223288
40
1.243847
50
242.9615065
51
245.6643141
0
ARC
8
DEFAULT_255_2_778
10
8.1435848
20
5.1699577
40
3.4026821
50
63.473513
51
63.8393539
0
ARC
8
DEFAULT_255_2_778
10
9.2118523
20
7.3539531
40
0.9714326
50
63.5996067
51
66.8821874
0
ARC
8
DEFAULT_255_2_778
10
9.4729331
20
7.9859607
40
0.2877811
50
65.2842637
51
83.6751718
0
ARC
8
DEFAULT_255_2_778
10
9.4961617
20
8.1416614
40
0.130604
50
86.2795054
51
89.9511973
0
ARC
8
DEFAULT_255_2_778
10
9.4941905
20
8.18678
40
0.0855106
50
88.6045463
51
116.0531064
0
ARC
8
DEFAULT_255_2_778
10
9.6302105
20
8.6058209
40
0.3837224
50
243.1054897
51
255.0330086
0
LINE
8
DEFAULT_255_2_778
10
9.5311094
20
8.2351164
11
9.5335622
21
8.2343676
0
ARC
8
DEFAULT_255_2_778
10
9.5087484
20
8.059409
40
0.1767094
50
35.1518328
51
81.9277551
0
ARC
8
DEFAULT_255_2_778
10
9.569195
20
8.1199729
40
0.0935816
50
21.7179045
51
26.1037616
0
ARC
8
DEFAULT_255_2_778
10
7.5844549
20
11.6099144
40
4.0287766
50
299.4337535
51
300.9453589
0
ARC
8
DEFAULT_255_2_778
10
6.8584439
20
12.8801148
40
5.4918053
50
299.4917093
51
299.5182902
0
ARC
8
DEFAULT_255_2_778
10
5.5609088
20
15.1764625
40
8.1293815
50
299.4662879
51
299.4841181
0
ARC
8
DEFAULT_255_2_778
10
6.929498
20
12.7541468
40
5.3471792
50
299.4394671
51
299.4663832
0
ARC
8
DEFAULT_255_2_778
10
5.668294
20
14.9888532
40
7.9132166
50
299.4212993
51
299.4393587
0
ARC
8
DEFAULT_255_2_778
10
6.9989212
20
12.6294694
40
5.2044787
50
299.393777
51
299.4210412
0
ARC
8
DEFAULT_255_2_778
10
7.0329265
20
12.5687734
40
5.1349061
50
299.3681519
51
299.3955895
0
ARC
8
DEFAULT_255_2_778
10
7.066386
20
12.5075481
40
5.0651401
50
299.3503365
51
299.3779547
0
ARC
8
DEFAULT_255_2_778
10
5.8749926
20
14.6254812
40
7.4951726
50
299.3345832
51
299.3531146
0
ARC
8
DEFAULT_255_2_778
10
7.1319343
20
12.3883332
40
4.929099
50
299.3092733
51
299.3372514
0
ARC
8
DEFAULT_255_2_778
10
5.9744079
20
14.4495911
40
7.2931318
50
299.2929908
51
299.3117652
0
ARC
8
DEFAULT_255_2_778
10
6.0230974
20
14.3640125
40
7.1946736
50
299.2693808
51
299.2882764
0
ARC
8
DEFAULT_255_2_778
10
6.0710008
20
14.277642
40
7.0959094
50
299.2539147
51
299.2729364
0
ARC
8
DEFAULT_255_2_778
10
6.1184138
20
14.1921286
40
6.9981323
50
299.2382256
51
299.2573751
0
ARC
8
DEFAULT_255_2_778
10
6.1653397
20
14.1074668
40
6.9013361
50
299.2223087
51
299.2415878
0
ARC
8
DEFAULT_255_2_778
10
6.2112788
20
14.0257316
40
6.8075756
50
299.2013101
51
299.2207146
0
ARC
8
DEFAULT_255_2_778
10
6.2567445
20
13.9448098
40
6.7147563
50
299.1800086
51
299.1995401
0
ARC
8
DEFAULT_255_2_778
10
6.3019592
20
13.8610509
40
6.6195827
50
299.1721146
51
299.1917846
0
ARC
8
DEFAULT_255_2_778
10
17.5609495
20
-6.3157816
40
16.4860324
50
119.1582265
51
119.1660677
0
ARC
8
DEFAULT_255_2_778
10
-20.8054567
20
62.4696743
40
62.2757616
50
299.1454949
51
299.1475557
0
ARC
8
DEFAULT_255_2_778
10
20.790114
20
-12.48263
40
23.4454185
50
118.7179041
51
119.4350362
0
ARC
8
DEFAULT_255_2_778
10
10.1753733
20
6.1997556
40
1.9592308
50
117.583096
51
138.4718631
0
ARC
8
DEFAULT_255_2_778
10
11.8850183
20
4.9156916
40
4.0940638
50
140.8822709
51
141.6387236
0
ARC
8
DEFAULT_255_2_778
10
11.6848557
20
5.0655784
40
3.8440969
50
141.5389161
51
149.426605
0
ARC
8
DEFAULT_255_2_778
10
10.4353577
20
5.7611102
40
2.4148089
50
148.5555823
51
168.0007974
0
ARC
8
DEFAULT_255_2_778
10
9.5762769
20
5.978972
40
1.5295947
50
169.2932284
51
174.9016048
0
ARC
8
DEFAULT_255_2_778
10
6.5138853
20
6.2503653
40
1.5447996
50
353.7974311
51
354.9692644
0
ARC
8
DEFAULT_255_2_778
10
12.5853358
20
5.6083729
40
4.5605074
50
174.0204231
51
174.1705181
0
ARC
8
DEFAULT_255_2_778
10
8.9766678
20
5.969265
40
0.9338764
50
173.7103578
51
178.3208695
0
ARC
8
DEFAULT_255_2_778
10
8.5639634
20
5.9858956
40
0.5208816
50
178.819197
51
179.987456
0
ARC
8
DEFAULT_255_2_778
10
8.2442851
20
5.9721103
40
0.2016829
50
176.0482283
51
208.8286953
0
ARC
8
DEFAULT_255_2_778
10
8.1294591
20
5.9167114
40
0.0746882
50
214.0795576
51
267.3715802
0
ARC
8
DEFAULT_255_2_778
10
10.6777586
20
5.7252671
40
2.554398
50
148.8946884
51
177.3784588
0
ARC
8
DEFAULT_255_2_778
10
10.5025937
20
5.9583629
40
2.2866019
50
118.8446294
51
151.6291809
0
ARC
8
DEFAULT_255_2_778
10
10.5034508
20
5.9591817
40
2.2862985
50
89.9991531
51
118.8733419
0
ARC
8
DEFAULT_255_2_778
10
10.5034446
20
5.9483101
40
2.2971701
50
87.0333486
51
89.9990027
0
ARC
8
DEFAULT_255_2_778
10
10.6086249
20
7.8714137
40
0.3712411
50
81.3745391
51
87.8837119
0
ARC
8
DEFAULT_255_2_778
10
10.2275625
20
5.1067564
40
3.1620061
50
81.5215621
51
82.0608747
0
ARC
8
DEFAULT_255_2_778
10
10.9609293
20
10.0416374
40
1.8270704
50
261.5915853
51
262.3356338
0
ARC
8
DEFAULT_255_2_778
10
10.7852253
20
8.6932443
40
0.4673247
50
261.6366931
51
268.9839282
0
ARC
8
DEFAULT_255_2_778
10
10.783003
20
8.3278217
40
0.1020091
50
266.5916148
51
295.1539701
0
ARC
8
DEFAULT_255_2_778
10
10.8096757
20
8.2658309
40
0.0346301
50
298.8063239
51
3.4064227
0
ARC
8
DEFAULT_255_2_778
10
10.7587351
20
8.2657933
40
0.0855352
50
1.4037017
51
19.0689625
0
ARC
8
DEFAULT_255_2_778
10
10.6533949
20
8.2317527
40
0.196229
50
18.4141305
51
27.3995104
0
ARC
8
DEFAULT_255_2_778
10
10.5459809
20
8.1790125
40
0.3158745
50
26.9265671
51
29.1556641
0
ARC
8
DEFAULT_255_2_778
10
9.3361896
20
7.6396314
40
1.5689396
50
41.4736443
51
60.3655807
0
ARC
8
DEFAULT_255_2_778
10
9.2323618
20
7.4554943
40
1.7803306
50
60.3913988
51
75.0827768
0
ARC
8
DEFAULT_255_2_778
10
9.1388398
20
7.110127
40
2.1381337
50
75.0435309
51
85.9047538
0
ARC
8
DEFAULT_255_2_778
10
8.1721297
20
-7.2030775
40
16.4839317
50
86.1061147
51
86.1107651
0
ARC
8
DEFAULT_255_2_778
10
9.0553391
20
6.1373007
40
3.1144596
50
85.6752439
51
88.8729061
0
ARC
8
DEFAULT_255_2_778
10
9.0973294
20
7.6421709
40
1.6091023
50
89.3137674
51
89.9932703
0
ARC
8
DEFAULT_255_2_778
10
9.0705208
20
8.5094533
40
0.7423109
50
87.9157156
51
109.6501266
0
ARC
8
DEFAULT_255_2_778
10
8.9457353
20
8.8952525
40
0.3372383
50
111.7261007
51
130.3398866
0
ARC
8
DEFAULT_255_2_778
10
9.0224186
20
6.2935805
40
2.8739001
50
93.0477323
51
95.8913634
0
ARC
8
DEFAULT_255_2_778
10
9.0082789
20
6.5603678
40
2.6067384
50
90.0250661
51
93.0491589
0
ARC
8
DEFAULT_255_2_778
10
9.0177627
20
7.0513604
40
2.1157722
50
79.1876163
51
90.2877082
0
ARC
8
DEFAULT_255_2_778
10
9.1325028
20
7.6327499
40
1.5231839
50
63.2150794
51
79.3244654
0
ARC
8
DEFAULT_255_2_778
10
9.3045733
20
7.9658602
40
1.1482778
50
19.7457109
51
63.3894417
0
ARC
8
DEFAULT_255_2_778
10
11.6200449
20
3.9469716
40
2.1801834
50
212.2590574
51
220.1227621
0
LINE
8
DEFAULT_255_2_778
10
9.776387
20
2.7833026
11
9.7752967
21
2.784945
0
ARC
8
DEFAULT_255_2_778
10
6.4779844
20
0.6295365
40
3.9392962
50
33.1721029
51
35.6198635
0
ARC
8
DEFAULT_255_2_778
10
9.8019851
20
2.8135078
40
0.1642805
50
137.8267174
51
155.4213219
0
ARC
8
DEFAULT_255_2_778
10
9.7412333
20
2.8417053
40
0.0973055
50
155.6411635
51
179.47328
0
ARC
8
DEFAULT_255_2_778
10
9.7927869
20
2.8616604
40
0.1500703
50
187.2968864
51
238.4027662
0
ARC
8
DEFAULT_255_2_778
10
10.2296732
20
3.4069886
40
0.8478726
50
232.5542521
51
235.8274317
0
ARC
8
DEFAULT_255_2_778
10
9.5985968
20
2.4961048
40
0.2604257
50
34.6705142
51
53.5191485
0
ARC
8
DEFAULT_255_2_778
10
9.5109623
20
2.4293556
40
0.3705047
50
34.6309997
51
35.4507953
0
ARC
8
DEFAULT_255_2_778
10
9.0568596
20
2.136919
40
0.9105089
50
29.1516638
51
33.5337213
0
ARC
8
DEFAULT_255_2_778
10
10.2232705
20
2.7967011
40
0.4296268
50
210.2218314
51
212.8719678
0
ARC
8
DEFAULT_255_2_778
10
9.9397358
20
2.6065595
40
0.0884789
50
209.1102164
51
238.9838728
0
ARC
8
DEFAULT_255_2_778
10
9.9116538
20
2.5659467
40
0.0393283
50
243.5632557
51
270.2259646
0
ARC
8
DEFAULT_255_2_778
10
9.9100336
20
2.5876788
40
0.061086
50
271.6653928
51
296.3100657
0
ARC
8
DEFAULT_255_2_778
10
9.8831529
20
2.6488124
40
0.1278362
50
294.965311
51
303.0836297
0
ARC
8
DEFAULT_255_2_778
10
9.7999357
20
2.5883084
40
0.213593
50
296.8114017
51
332.2333776
0
ARC
8
DEFAULT_255_2_778
10
9.7936231
20
2.610291
40
0.2360985
50
269.2688476
51
295.7723523
0
ARC
8
DEFAULT_255_2_778
10
9.7910967
20
2.6759617
40
0.3017502
50
261.8133797
51
269.9076331
0
ARC
8
DEFAULT_255_2_778
10
9.8052036
20
2.7486236
40
0.375698
50
223.7546467
51
261.2618894
0
ARC
8
DEFAULT_255_2_778
10
9.7597875
20
2.5204381
40
0.2281576
50
187.9703581
51
266.4989377
0
ARC
8
DEFAULT_255_2_778
10
9.7780322
20
2.5764958
40
0.2856079
50
263.5311312
51
270.0000969
0
ARC
8
DEFAULT_255_2_778
10
9.7780469
20
2.5735702
40
0.2826823
50
269.9971051
51
270.7860124
0
ARC
8
DEFAULT_255_2_778
10
9.7846189
20
2.5389393
40
0.2480395
50
269.377659
51
325.4589007
0
ARC
8
DEFAULT_255_2_778
10
9.8803258
20
2.2110486
40
0.2164704
50
39.7538708
51
59.8859345
0
ARC
8
DEFAULT_255_2_778
10
17.4315381
20
9.047574
40
9.9699346
50
222.208411
51
222.3139506
0
ARC
8
DEFAULT_255_2_778
10
10.1738716
20
2.4251353
40
0.1453889
50
217.8685415
51
249.1118636
0
ARC
8
DEFAULT_255_2_778
10
9.9709238
20
2.270771
40
0.1522421
50
6.991236
51
45.9299231
0
ARC
8
DEFAULT_255_2_778
10
9.8337278
20
2.1430285
40
0.3395879
50
44.2890224
51
49.0995242
0
ARC
8
DEFAULT_255_2_778
10
12.1144521
20
4.8215565
40
3.1784104
50
228.8978903
51
229.6381182
0
ARC
8
DEFAULT_255_2_778
10
10.0739573
20
2.4963957
40
0.0853617
50
185.104009
51
234.9670434
0
LINE
8
DEFAULT_255_2_778
10
11.736034
20
1.0823016
11
11.738634
21
1.0836016
0
LINE
8
DEFAULT_255_2_778
10
10.716834
20
1.4400016
11
10.718134
21
1.4294016
0
LINE
8
DEFAULT_255_2_778
10
7.785534
20
6.3223016
11
7.886634
21
6.8041016
0
LINE
8
DEFAULT_255_2_778
10
7.886634
20
6.8041016
11
7.886634
21
6.7999016
0
LINE
8
DEFAULT_255_2_778
10
10.481334
20
2.0189016
11
10.481334
21
2.0189016
0
LINE
8
DEFAULT_255_2_778
10
10.808634
20
1.4175016
11
10.808634
21
1.4175016
0
LINE
8
DEFAULT_255_2_778
10
6.764734
20
5.0801016
11
6.763734
21
5.0793016
0
LINE
8
DEFAULT_255_2_778
10
10.243234
20
2.2184016
11
10.243234
21
2.2184016
0
LINE
8
DEFAULT_255_2_778
10
6.662334
20
8.1371016
11
6.662334
21
8.1519016
0
LINE
8
DEFAULT_255_2_778
10
11.883634
20
-0.1191984
11
11.883634
21
-0.1191984
0
LINE
8
DEFAULT_255_2_778
10
6.848634
20
2.5274016
11
6.893834
21
2.5420016
0
LINE
8
DEFAULT_255_2_778
10
9.971534
20
1.9247016
11
9.972834
21
1.9231016
0
LINE
8
DEFAULT_255_2_778
10
11.266134
20
1.0849016
11
11.266134
21
1.0849016
0
LINE
8
DEFAULT_255_2_778
10
11.266134
20
1.0849016
11
11.266134
21
1.0849016
0
LINE
8
DEFAULT_255_2_778
10
13.583034
20
2.1028016
11
13.581434
21
2.1028016
0
LINE
8
DEFAULT_255_2_778
10
15.803734
20
-0.1591984
11
15.803734
21
-0.1591984
0
LINE
8
DEFAULT_255_2_778
10
16.246634
20
1.9898016
11
16.258834
21
1.9898016
0
LINE
8
DEFAULT_255_2_778
10
12.122034
20
0.8587016
11
12.123334
21
0.8587016
0
LINE
8
DEFAULT_255_2_778
10
11.096534
20
8.0329016
11
11.123234
21
8.0170016
0
LINE
8
DEFAULT_255_2_778
10
15.045934
20
2.3642016
11
15.064434
21
2.3642016
0
LINE
8
DEFAULT_255_2_778
10
16.100834
20
2.1647016
11
16.228634
21
2.1647016
0
LINE
8
DEFAULT_255_2_778
10
16.337634
20
2.1647016
11
16.357534
21
2.1647016
0
LINE
8
DEFAULT_255_2_778
10
16.246834
20
2.2192016
11
16.274934
21
2.2239016
0
LINE
8
DEFAULT_255_2_778
10
15.547034
20
2.0043016
11
15.547034
21
2.0043016
0
LINE
8
DEFAULT_255_2_778
10
12.522634
20
1.5678016
11
12.595934
21
1.7315016
0
LINE
8
DEFAULT_255_2_778
10
12.522934
20
1.5450016
11
12.522934
21
1.5717016
0
LINE
8
DEFAULT_255_2_778
10
12.522934
20
1.5717016
11
12.522634
21
1.5678016
0
LINE
8
DEFAULT_255_2_778
10
17.149134
20
0.8756016
11
17.149134
21
0.8941016
0
LINE
8
DEFAULT_255_2_778
10
16.492934
20
1.2056016
11
17.094334
21
1.1151016
0
LINE
8
DEFAULT_255_2_778
10
17.425634
20
1.8615016
11
17.421934
21
1.8604016
0
LINE
8
DEFAULT_255_2_778
10
13.760034
20
0.2144016
11
13.760034
21
0.2263016
0
LINE
8
DEFAULT_255_2_778
10
14.780534
20
-0.0289984
11
14.780534
21
-0.0289984
0
LINE
8
DEFAULT_255_2_778
10
14.707234
20
0.1345016
11
14.707234
21
0.1345016
0
LINE
8
DEFAULT_255_2_778
10
14.361234
20
0.4806016
11
14.361234
21
0.4806016
0
LINE
8
DEFAULT_255_2_778
10
4.961834
20
4.6311016
11
4.961834
21
4.6311016
0
LINE
8
DEFAULT_255_2_778
10
15.599934
20
-0.6515984
11
15.599934
21
-0.6515984
0
LINE
8
DEFAULT_255_2_778
10
15.403134
20
-0.1178984
11
15.400534
21
-0.1191984
0
LINE
8
DEFAULT_255_2_778
10
14.556734
20
-0.1366984
11
14.544834
21
-0.1376984
0
LINE
8
DEFAULT_255_2_778
10
15.649234
20
-0.6911984
11
15.709034
21
-0.6911984
0
LINE
8
DEFAULT_255_2_778
10
15.709034
20
-0.6911984
11
15.618534
21
-0.5940984
0
LINE
8
DEFAULT_255_2_778
10
15.649234
20
-0.6911984
11
15.649234
21
-0.6911984
0
LINE
8
DEFAULT_255_2_778
10
11.699734
20
-0.6922984
11
12.800134
21
-0.6922984
0
LINE
8
DEFAULT_255_2_778
10
12.593734
20
-0.5951984
11
12.595334
21
-0.5940984
0
LINE
8
DEFAULT_255_2_778
10
5.086734
20
3.1124016
11
5.305034
21
2.8756016
0
LINE
8
DEFAULT_255_2_778
10
4.356234
20
3.0579016
11
4.107234
21
3.2177016
0
LINE
8
DEFAULT_255_2_778
10
8.341634
20
9.0946016
11
8.349634
21
9.0986016
0
LINE
8
DEFAULT_255_2_778
10
0.717134
20
3.4161016
11
0.687834
21
3.2471016
0
LINE
8
DEFAULT_255_2_778
10
6.276334
20
-0.6687984
11
6.808634
21
-0.6687984
0
LINE
8
DEFAULT_255_2_778
10
6.625034
20
-0.4438984
11
8.301734
21
-0.0792984
0
LINE
8
DEFAULT_255_2_778
10
8.664934
20
-0.3705984
11
7.847934
21
-0.6687984
0
LINE
8
DEFAULT_255_2_778
10
7.847934
20
-0.6687984
11
8.194034
21
-0.6687984
0
LINE
8
DEFAULT_255_2_778
10
8.194034
20
-0.6687984
11
8.593234
21
-0.5356984
0
LINE
8
DEFAULT_255_2_778
10
9.526234
20
-0.6393984
11
9.446334
21
-0.6819984
0
LINE
8
DEFAULT_255_2_778
10
9.446334
20
-0.6819984
11
9.989234
21
-0.6819984
0
LINE
8
DEFAULT_255_2_778
10
10.638734
20
-0.0818984
11
10.610234
21
-0.1017984
0
LINE
8
DEFAULT_255_2_778
10
7.384934
20
0.6155016
11
7.386234
21
0.6274016
0
LINE
8
DEFAULT_255_2_778
10
4.661334
20
2.1975016
11
4.658434
21
2.1962016
0
LINE
8
DEFAULT_255_2_778
10
3.133634
20
7.4227016
11
3.144234
21
7.4386016
0
LINE
8
DEFAULT_255_2_778
10
3.217234
20
0.6243016
11
2.525334
21
0.8425016
0
LINE
8
DEFAULT_255_2_778
10
2.525334
20
0.8425016
11
2.537534
21
0.8296016
0
LINE
8
DEFAULT_255_2_778
10
5.377234
20
-0.2853984
11
5.379634
21
-0.2813984
0
LINE
8
DEFAULT_255_2_778
10
6.799434
20
-0.3011984
11
6.800734
21
-0.2998984
0
LINE
8
DEFAULT_255_2_778
10
13.608234
20
-0.6697984
11
13.741334
21
-0.6697984
0
LINE
8
DEFAULT_255_2_778
10
13.766434
20
-0.5726984
11
13.741334
21
-0.5726984
0
LINE
8
DEFAULT_255_2_778
10
6.855234
20
6.2440016
11
6.868434
21
6.6964016
0
LINE
8
DEFAULT_255_2_778
10
6.839134
20
6.8068016
11
6.838034
21
6.8227016
0
LINE
8
DEFAULT_255_2_778
10
8.732734
20
5.8580016
11
8.732734
21
5.8567016
0
LINE
8
DEFAULT_255_2_778
10
8.796434
20
3.9993016
11
8.796434
21
3.9977016
0
LINE
8
DEFAULT_255_2_778
10
10.668634
20
-0.6697984
11
11.176934
21
-0.6697984
0
LINE
8
DEFAULT_255_2_778
10
10.900134
20
-0.4993984
11
10.898834
21
-0.4996984
0
LINE
8
DEFAULT_255_2_778
10
8.514734
20
3.8913016
11
8.513134
21
3.8913016
0
LINE
8
DEFAULT_255_2_778
10
8.877734
20
2.9812016
11
8.877734
21
2.9812016
0
LINE
8
DEFAULT_255_2_778
10
8.745934
20
2.1083016
11
8.749934
21
2.1070016
0
LINE
8
DEFAULT_255_2_778
10
2.466834
20
-0.6713984
11
3.363834
21
-0.6713984
0
LINE
8
DEFAULT_255_2_778
10
2.027934
20
0.3184016
11
2.029234
21
0.3200016
0
LINE
8
DEFAULT_255_2_778
10
10.372034
20
8.3527016
11
9.716134
21
8.1890016
0
LINE
8
DEFAULT_255_2_778
10
10.821834
20
8.3329016
11
10.511734
21
8.6787016
0
LINE
8
DEFAULT_255_2_778
10
10.385334
20
8.3538016
11
10.372034
21
8.3527016
0
LINE
8
DEFAULT_255_2_778
10
9.952934
20
2.5417016
11
9.952934
21
2.5420016
0
LINE
8
DEFAULT_255_2_778
10
9.988934
20
2.4888016
11
9.988934
21
2.4888016
0
ENDSEC
0
EOF