0
SECTION
2
HEADER
9
$MEASUREMENT
70
1
0
ENDSEC
0
SECTION
2
TABLES
0
TABLE
2
LTYPE
0
LTYPE
72
65
70
64
2
CONTINUOUS
3
______
73
0
40
0
0
ENDTAB
0
TABLE
2
LAYER
0
LAYER
2
DEFAULT_255_2_778
70
0
62
255
6
CONTINUOUS
0
ENDTAB
0
ENDSEC
0
SECTION
2
ENTITIES
0
ARC
8
DEFAULT_255_2_778
10
13.2824997
20
11.9346425
40
1.7989322
50
129.8229952
51
175.0551971
0
ARC
8
DEFAULT_255_2_778
10
13.4848324
20
11.7933215
40
2.0380814
50
107.7086324
51
131.6475993
0
ARC
8
DEFAULT_255_2_778
10
13.3691235
20
12.1007332
40
1.7101221
50
104.8283255
51
107.1484827
0
ARC
8
DEFAULT_255_2_778
10
16.5339151
20
1.1828638
40
13.0770293
50
104.8266333
51
105.990586
0
ARC
8
DEFAULT_255_2_778
10
16.0777342
20
2.9069726
40
11.2935909
50
103.4321572
51
104.8276426
0
ARC
8
DEFAULT_255_2_778
10
15.780497
20
4.1516515
40
10.0139129
50
101.73116
51
103.4322994
0
ARC
8
DEFAULT_255_2_778
10
15.6136088
20
4.9573686
40
9.1910937
50
98.7509749
51
101.7337528
0
ARC
8
DEFAULT_255_2_778
10
15.7055773
20
4.2837169
40
9.8709022
50
94.7629724
51
98.6836908
0
ARC
8
DEFAULT_255_2_778
10
16.0052335
20
0.7731083
40
13.3942712
50
92.7984231
51
94.7934381
0
ARC
8
DEFAULT_255_2_778
10
16.3127199
20
-5.4070092
40
19.5820317
50
91.5913627
51
92.8142005
0
ARC
8
DEFAULT_255_2_778
10
16.6093508
20
-15.7908039
40
29.9700605
50
90.9060824
51
91.6069412
0
ARC
8
DEFAULT_255_2_778
10
16.8714836
20
-31.7430877
40
45.9244959
50
90.5527989
51
90.9183578
0
ARC
8
DEFAULT_255_2_778
10
17.1537235
20
-61.1900065
40
75.3727674
50
90.2846239
51
90.5513717
0
ARC
8
DEFAULT_255_2_778
10
17.5261829
20
-133.4475359
40
147.6312561
50
90.1689314
51
90.2898664
0
ARC
8
DEFAULT_255_2_778
10
18.4085164
20
-429.9489522
40
444.1339852
50
90.1273037
51
90.1699794
0
ARC
8
DEFAULT_255_2_778
10
10.3898795
20
3061.7484359
40
3047.5726117
50
270.1322018
51
270.1350969
0
ARC
8
DEFAULT_255_2_778
10
16.2880055
20
563.1807334
40
548.9979478
50
270.1343894
51
270.1561632
0
ARC
8
DEFAULT_255_2_778
10
16.9421421
20
322.7212509
40
308.5375755
50
270.1563958
51
270.1972096
0
ARC
8
DEFAULT_255_2_778
10
17.2085657
20
244.6218744
40
230.4377447
50
270.1978044
51
270.2439579
0
ARC
8
DEFAULT_255_2_778
10
17.3695782
20
206.9258139
40
192.7413402
50
270.2438072
51
270.3079197
0
ARC
8
DEFAULT_255_2_778
10
17.4877923
20
184.8586962
40
170.6739059
50
270.3080474
51
270.3703032
0
ARC
8
DEFAULT_255_2_778
10
17.5692617
20
172.2541819
40
158.0691282
50
270.3703014
51
270.4394669
0
ARC
8
DEFAULT_255_2_778
10
25.4569276
20
6.6819154
40
10.0461952
50
131.6406824
51
139.1454417
0
ARC
8
DEFAULT_255_2_778
10
24.9252097
20
7.0493791
40
9.4039051
50
138.7196805
51
160.9737801
0
ARC
8
DEFAULT_255_2_778
10
22.4678234
20
7.9282084
40
6.7943329
50
161.2243087
51
179.5839707
0
ARC
8
DEFAULT_255_2_778
10
21.5921179
20
7.9770152
40
5.9184483
50
179.9948988
51
182.5075719
0
ARC
8
DEFAULT_255_2_778
10
21.4122379
20
7.9681369
40
5.7383522
50
182.4975893
51
187.3442156
0
ARC
8
DEFAULT_255_2_778
10
19.6770022
20
11.8381447
40
6.0698305
50
217.1155669
51
229.3259836
0
ARC
8
DEFAULT_255_2_778
10
36.4045892
20
25.277756
40
27.5255915
50
217.9153052
51
218.4128481
0
ARC
8
DEFAULT_255_2_778
10
764.9687351
20
593.1591581
40
951.2652726
50
217.9232342
51
217.9341726
0
ARC
8
DEFAULT_255_2_778
10
5.0278025
20
1.196728
40
12.0262607
50
37.4326927
51
41.1248919
0
ARC
8
DEFAULT_255_2_778
10
9.7091847
20
5.2144648
40
5.8576391
50
41.638279
51
43.021912
0
ARC
8
DEFAULT_255_2_778
10
0.4700973
20
16.3661597
40
15.2980063
50
332.113716
51
333.271375
0
ARC
8
DEFAULT_255_2_778
10
9.2251869
20
12.0527865
40
5.5390769
50
332.3894202
51
344.1763264
0
ARC
8
DEFAULT_255_2_778
10
16.0949316
20
10.1508571
40
1.5895474
50
154.1345347
51
165.7398194
0
ARC
8
DEFAULT_255_2_778
10
15.6866635
20
10.3511749
40
1.1347906
50
135.469833
51
154.2425464
0
ARC
8
DEFAULT_255_2_778
10
15.7104412
20
10.2783437
40
1.203333
50
98.3124861
51
133.7914251
0
ARC
8
DEFAULT_255_2_778
10
15.948028
20
9.0812176
40
2.4230245
50
89.5116066
51
99.7791954
0
ARC
8
DEFAULT_255_2_778
10
15.9678142
20
7.9896434
40
3.5145108
50
88.5986729
51
89.9858562
0
ARC
8
DEFAULT_255_2_778
10
16.0517928
20
11.5168958
40
0.0139326
50
278.1281917
51
348.2685989
0
ARC
8
DEFAULT_255_2_778
10
15.9834066
20
11.5437005
40
0.0872179
50
340.1346951
51
355.0888299
0
ARC
8
DEFAULT_255_2_778
10
15.815976
20
11.5625531
40
0.2556864
50
354.0917098
51
0.379985
0
ARC
8
DEFAULT_255_2_778
10
15.4809237
20
11.5594462
40
0.5907525
50
0.4658004
51
6.338189
0
ARC
8
DEFAULT_255_2_778
10
14.9697477
20
11.5052744
40
1.1047874
50
6.2037865
51
11.0554618
0
ARC
8
DEFAULT_255_2_778
10
14.7093689
20
11.4574028
40
1.3695171
50
10.9321784
51
15.6464797
0
ARC
8
DEFAULT_255_2_778
10
15.1021204
20
11.5796896
40
0.9584115
50
14.9392518
51
27.7063715
0
ARC
8
DEFAULT_255_2_778
10
15.6376777
20
11.8619173
40
0.3530423
50
27.5658685
51
45.3071623
0
ARC
8
DEFAULT_255_2_778
10
15.7905497
20
12.0173281
40
0.1350483
50
45.0413533
51
75.7191833
0
ARC
8
DEFAULT_255_2_778
10
15.3422348
20
10.3623239
40
1.8496838
50
74.9071575
51
82.8679871
0
ARC
8
DEFAULT_255_2_778
10
15.1978989
20
9.1262724
40
3.0941088
50
83.0576806
51
88.2153807
0
ARC
8
DEFAULT_255_2_778
10
14.8680644
20
0.4512171
40
11.7753785
50
87.9258101
51
88.6134545
0
ARC
8
DEFAULT_255_2_778
10
15.2016843
20
16.6888932
40
4.4660109
50
263.9321287
51
269.3753786
0
ARC
8
DEFAULT_255_2_778
10
14.9767016
20
14.3595589
40
2.1260638
50
255.0607128
51
263.3256645
0
ARC
8
DEFAULT_255_2_778
10
14.9534479
20
14.2537821
40
2.0178734
50
248.1017413
51
254.9243919
0
ARC
8
DEFAULT_255_2_778
10
14.0799237
20
12.0024864
40
0.3978441
50
72.3028398
51
90.4897642
0
ARC
8
DEFAULT_255_2_778
10
14.0806208
20
11.8195378
40
0.5807927
50
90.4042508
51
101.7355602
0
ARC
8
DEFAULT_255_2_778
10
14.2582457
20
11.1097475
40
1.3122067
50
103.0256802
51
116.3144832
0
ARC
8
DEFAULT_255_2_778
10
15.9623652
20
7.381432
40
5.4110547
50
114.988401
51
115.680605
0
ARC
8
DEFAULT_255_2_778
10
14.6567979
20
10.2646411
40
2.2480458
50
117.5374499
51
133.7083172
0
ARC
8
DEFAULT_255_2_778
10
22.4500789
20
1.4483287
40
14.0136256
50
131.8335507
51
132.3183781
0
ARC
8
DEFAULT_255_2_778
10
228.5326524
20
-225.3968574
40
320.4916191
50
132.2570808
51
132.2617196
0
ARC
8
DEFAULT_255_2_778
10
10.9886562
20
13.8291717
40
2.8595801
50
300.2684932
51
314.5911654
0
ARC
8
DEFAULT_255_2_778
10
11.7995677
20
12.5380423
40
1.3366437
50
287.4487006
51
298.1433826
0
ARC
8
DEFAULT_255_2_778
10
7.0805812
20
5.2801569
40
8.990736
50
101.6239416
51
125.3730662
0
ARC
8
DEFAULT_255_2_778
10
7.2241072
20
3.547613
40
10.7186942
50
95.0552947
51
100.5093379
0
ARC
8
DEFAULT_255_2_778
10
6.9427635
20
6.5644389
40
7.6888259
50
90.2697574
51
94.9478739
0
ARC
8
DEFAULT_255_2_778
10
6.9266216
20
7.5028042
40
6.750405
50
89.9994496
51
90.1702488
0
ARC
8
DEFAULT_255_2_778
10
6.9625294
20
8.7965557
40
5.4567713
50
78.9643182
51
90.3763513
0
ARC
8
DEFAULT_255_2_778
10
7.3415365
20
10.6069751
40
3.6073701
50
53.8428976
51
79.3685051
0
ARC
8
DEFAULT_255_2_778
10
7.5025233
20
10.8839078
40
3.2889612
50
45.473716
51
53.2608726
0
ARC
8
DEFAULT_255_2_778
10
-19.3512148
20
-16.9582561
40
41.9709737
50
43.6904304
51
45.99129
0
ARC
8
DEFAULT_255_2_778
10
-33.7727394
20
-30.3890095
40
61.6768835
50
39.4228274
51
43.4579158
0
ARC
8
DEFAULT_255_2_778
10
-79.7612036
20
-68.9565893
40
121.6953945
50
39.4060304
51
39.699794
0
ARC
8
DEFAULT_255_2_778
10
-130.7423415
20
-110.7840479
40
187.6393967
50
39.0478785
51
39.3923682
0
ARC
8
DEFAULT_255_2_778
10
-313.0102023
20
-258.7455487
40
422.4034815
50
38.9601682
51
39.0596283
0
ARC
8
DEFAULT_255_2_778
10
-5141.7378015
20
-4163.4521815
40
6632.342621
50
38.9540035
51
38.9604047
0
ARC
8
DEFAULT_255_2_778
10
15.6661032
20
6.14134
40
0.2787547
50
12.8301757
51
29.1458603
0
ARC
8
DEFAULT_255_2_778
10
15.3220703
20
6.0551974
40
0.6333725
50
3.0526039
51
13.5172652
0
ARC
8
DEFAULT_255_2_778
10
15.2168444
20
6.0452194
40
0.7389934
50
0.015217
51
3.3906638
0
ARC
8
DEFAULT_255_2_778
10
15.4276192
20
6.0392358
40
0.5282547
50
348.5322063
51
0.6703037
0
ARC
8
DEFAULT_255_2_778
10
15.7930369
20
5.9616419
40
0.1547422
50
327.4436778
51
349.7888169
0
ARC
8
DEFAULT_255_2_778
10
15.887089
20
5.9034281
40
0.0441697
50
300.5842415
51
325.4381176
0
ARC
8
DEFAULT_255_2_778
10
1.5288104
20
30.9239593
40
28.8918201
50
290.4001511
51
299.8509069
0
ARC
8
DEFAULT_255_2_778
10
11.4114587
20
4.4295242
40
0.6148651
50
269.9674319
51
287.8335409
0
ARC
8
DEFAULT_255_2_778
10
11.4069772
20
4.5143315
40
0.6996844
50
269.9972506
51
270.3383592
0
ARC
8
DEFAULT_255_2_778
10
11.4228475
20
4.7062665
40
0.8917614
50
242.0776129
51
268.9781197
0
ARC
8
DEFAULT_255_2_778
10
11.3816777
20
4.6457859
40
0.8190826
50
233.3775653
51
242.6411075
0
ARC
8
DEFAULT_255_2_778
10
24.3602675
20
18.7525739
40
19.9836518
50
223.5402722
51
227.6303521
0
ARC
8
DEFAULT_255_2_778
10
33.911741
20
27.7099336
40
33.0779413
50
219.7892724
51
223.3903289
0
ARC
8
DEFAULT_255_2_778
10
92.7131391
20
77.0845594
40
109.8596409
50
219.3028534
51
219.9502928
0
ARC
8
DEFAULT_255_2_778
10
-1296.6367744
20
-1063.7129076
40
1687.8368083
50
39.3951114
51
39.4034419
0
ARC
8
DEFAULT_255_2_778
10
-44.44402
20
-34.6674653
40
67.059432
50
39.1679259
51
40.8610301
0
ARC
8
DEFAULT_255_2_778
10
-14.7278791
20
-9.0341142
40
27.81519
50
40.9735421
51
44.0717117
0
ARC
8
DEFAULT_255_2_778
10
-10.1331031
20
-4.6416388
40
21.4587975
50
44.1787082
51
45.5333231
0
ARC
8
DEFAULT_255_2_778
10
-0.1106101
20
5.5766855
40
7.1457114
50
45.4912588
51
73.3445512
0
ARC
8
DEFAULT_255_2_778
10
1.987076
20
12.5621959
40
0.1481472
50
217.6578946
51
250.4340276
0
ARC
8
DEFAULT_255_2_778
10
1.9609608
20
12.5392421
40
0.1134707
50
190.4454811
51
216.5384328
0
ARC
8
DEFAULT_255_2_778
10
1.95973
20
12.5388518
40
0.1121896
50
179.9989099
51
190.3633877
0
ARC
8
DEFAULT_255_2_778
10
1.9501477
20
12.5404051
40
0.102619
50
136.3767514
51
180.8661201
0
ARC
8
DEFAULT_255_2_778
10
18.3510348
20
-9.5504775
40
14.8319464
50
125.2787918
51
146.9102276
0
ARC
8
DEFAULT_255_2_778
10
17.2965201
20
-8.7588368
40
13.5165423
50
147.2812836
51
148.8777432
0
ARC
8
DEFAULT_255_2_778
10
15.9748424
20
0.6599859
40
10.5340991
50
181.9997303
51
193.3515131
0
ARC
8
DEFAULT_255_2_778
10
14.8945783
20
0.5937847
40
9.4522256
50
180.0046181
51
181.8271844
0
ARC
8
DEFAULT_255_2_778
10
13.5352918
20
0.6546478
40
8.0931735
50
160.6996619
51
180.4362797
0
ARC
8
DEFAULT_255_2_778
10
-4.5299167
20
6.9911086
40
11.051083
50
340.6507537
51
343.8430729
0
ARC
8
DEFAULT_255_2_778
10
-5.0349221
20
7.1341859
40
11.5759567
50
343.8584224
51
347.5787031
0
ARC
8
DEFAULT_255_2_778
10
-5.7842235
20
7.3041329
40
12.3442748
50
347.5564452
51
348.7054754
0
ARC
8
DEFAULT_255_2_778
10
-10.3810396
20
8.0774936
40
17.004123
50
349.1836644
51
357.0593483
0
ARC
8
DEFAULT_255_2_778
10
-33.0247038
20
9.5496579
40
39.6946938
50
356.6139485
51
357.9652936
0
LINE
8
DEFAULT_255_2_778
10
12.2003627
20
11.2629032
11
11.4902627
21
12.0897032
0
LINE
8
DEFAULT_255_2_778
10
1.8758627
20
12.6112032
11
1.8758627
21
12.6112032
0
LINE
8
DEFAULT_255_2_778
10
6.6449627
20
8.1403032
11
9.8294627
21
4.4345032
0
LINE
8
DEFAULT_255_2_778
10
9.8294627
20
4.4345032
11
9.7847627
21
2.5576032
0
ENDSEC
0
EOF