0
SECTION
2
HEADER
9
$MEASUREMENT
70
1
0
ENDSEC
0
SECTION
2
TABLES
0
TABLE
2
LTYPE
0
LTYPE
72
65
70
64
2
CONTINUOUS
3
______
73
0
40
0
0
ENDTAB
0
TABLE
2
LAYER
0
LAYER
2
DEFAULT_255_2_778
70
0
62
255
6
CONTINUOUS
0
ENDTAB
0
ENDSEC
0
SECTION
2
ENTITIES
0
LINE
8
DEFAULT_255_2_778
10
0.1782135
20
1.3321031
11
2.9889135
21
1.3321031
0
LINE
8
DEFAULT_255_2_778
10
2.9889135
20
1.3321031
11
4.6007135
21
-0.1600969
0
LINE
8
DEFAULT_255_2_778
10
4.6007135
20
-0.1600969
11
4.6007135
21
1.3321031
0
LINE
8
DEFAULT_255_2_778
10
4.6007135
20
1.3321031
11
6.7518135
21
1.3321031
0
LINE
8
DEFAULT_255_2_778
10
6.7518135
20
1.3321031
11
6.7518135
21
6.6635031
0
LINE
8
DEFAULT_255_2_778
10
6.7518135
20
6.6635031
11
0.1782135
21
6.6635031
0
LINE
8
DEFAULT_255_2_778
10
0.1782135
20
6.6635031
11
0.1782135
21
1.3321031
0
LINE
8
DEFAULT_255_2_778
10
1.2373135
20
5.4147031
11
2.4695135
21
5.4147031
0
LINE
8
DEFAULT_255_2_778
10
2.4695135
20
5.4147031
11
4.8407135
21
3.2033031
0
LINE
8
DEFAULT_255_2_778
10
4.8407135
20
3.2033031
11
4.8407135
21
5.4147031
0
LINE
8
DEFAULT_255_2_778
10
4.8407135
20
5.4147031
11
5.6265135
21
5.4147031
0
LINE
8
DEFAULT_255_2_778
10
5.6265135
20
5.4147031
11
5.6265135
21
2.5572031
0
LINE
8
DEFAULT_255_2_778
10
5.6265135
20
2.5572031
11
4.4346135
21
2.5572031
0
LINE
8
DEFAULT_255_2_778
10
4.4346135
20
2.5572031
11
2.0234135
21
4.8061031
0
LINE
8
DEFAULT_255_2_778
10
2.0234135
20
4.8061031
11
2.0234135
21
2.5572031
0
LINE
8
DEFAULT_255_2_778
10
2.0234135
20
2.5572031
11
1.2376135
21
2.5572031
0
LINE
8
DEFAULT_255_2_778
10
1.2376135
20
2.5572031
11
1.2373135
21
5.4147031
0
LINE
8
DEFAULT_255_2_778
10
2.023111
20
4.8114483
11
4.434311
21
2.5624483
0
LINE
8
DEFAULT_255_2_778
10
4.434311
20
2.5624483
11
5.626511
21
2.5624483
0
LINE
8
DEFAULT_255_2_778
10
5.626511
20
2.5624483
11
5.626511
21
5.4199483
0
LINE
8
DEFAULT_255_2_778
10
5.626511
20
5.4199483
11
4.840711
21
5.4199483
0
LINE
8
DEFAULT_255_2_778
10
4.840711
20
5.4199483
11
4.840711
21
3.2085483
0
LINE
8
DEFAULT_255_2_778
10
4.840711
20
3.2085483
11
2.469511
21
5.4199483
0
LINE
8
DEFAULT_255_2_778
10
2.469511
20
5.4199483
11
1.237311
21
5.4199483
0
LINE
8
DEFAULT_255_2_778
10
1.237311
20
5.4199483
11
1.237311
21
2.5624483
0
LINE
8
DEFAULT_255_2_778
10
1.237311
20
2.5624483
11
2.023111
21
2.5624483
0
LINE
8
DEFAULT_255_2_778
10
2.023111
20
2.5624483
11
2.023111
21
4.8114483
0
LINE
8
DEFAULT_255_2_778
10
10.5353802
20
4.9225762
11
9.6828802
21
3.7036762
0
LINE
8
DEFAULT_255_2_778
10
9.6828802
20
3.7036762
11
11.3878802
21
3.7036762
0
LINE
8
DEFAULT_255_2_778
10
11.3878802
20
3.7036762
11
10.5353802
21
4.9225762
0
LINE
8
DEFAULT_255_2_778
10
7.3026802
20
1.3321762
11
13.8764802
21
1.3321762
0
LINE
8
DEFAULT_255_2_778
10
13.8764802
20
1.3321762
11
13.8764802
21
6.6635762
0
LINE
8
DEFAULT_255_2_778
10
13.8764802
20
6.6635762
11
7.3026802
21
6.6635762
0
LINE
8
DEFAULT_255_2_778
10
7.3026802
20
6.6635762
11
7.3026802
21
1.3321762
0
LINE
8
DEFAULT_255_2_778
10
10.0331802
20
5.4279762
11
11.0787802
21
5.4279762
0
LINE
8
DEFAULT_255_2_778
10
11.0787802
20
5.4279762
11
13.1301802
21
2.5505762
0
LINE
8
DEFAULT_255_2_778
10
13.1301802
20
2.5505762
11
12.1908802
21
2.5505762
0
LINE
8
DEFAULT_255_2_778
10
12.1908802
20
2.5505762
11
11.8045802
21
3.1062762
0
LINE
8
DEFAULT_255_2_778
10
11.8045802
20
3.1062762
11
9.2645802
21
3.1062762
0
LINE
8
DEFAULT_255_2_778
10
9.2645802
20
3.1062762
11
8.8782802
21
2.5505762
0
LINE
8
DEFAULT_255_2_778
10
8.8782802
20
2.5505762
11
7.9786802
21
2.5505762
0
LINE
8
DEFAULT_255_2_778
10
7.9786802
20
2.5505762
11
10.0299802
21
5.4279762
0
LINE
8
DEFAULT_255_2_778
10
10.0299802
20
5.4279762
11
10.0331802
21
5.4279762
0
LINE
8
DEFAULT_255_2_778
10
9.2697476
20
3.1101718
11
11.8097476
21
3.1101718
0
LINE
8
DEFAULT_255_2_778
10
11.8097476
20
3.1101718
11
12.1960476
21
2.5545718
0
LINE
8
DEFAULT_255_2_778
10
12.1960476
20
2.5545718
11
13.1353476
21
2.5545718
0
LINE
8
DEFAULT_255_2_778
10
13.1353476
20
2.5545718
11
11.0840476
21
5.4252718
0
LINE
8
DEFAULT_255_2_778
10
11.0840476
20
5.4252718
11
10.0357476
21
5.4252718
0
LINE
8
DEFAULT_255_2_778
10
10.0357476
20
5.4252718
11
7.9844476
21
2.5479718
0
LINE
8
DEFAULT_255_2_778
10
7.9844476
20
2.5479718
11
8.8840476
21
2.5479718
0
LINE
8
DEFAULT_255_2_778
10
8.8840476
20
2.5479718
11
9.2697476
21
3.1101718
0
LINE
8
DEFAULT_255_2_778
10
10.5352476
20
4.9217718
11
11.3877476
21
3.7030718
0
LINE
8
DEFAULT_255_2_778
10
11.3877476
20
3.7030718
11
9.6828476
21
3.7030718
0
LINE
8
DEFAULT_255_2_778
10
9.6828476
20
3.7030718
11
10.5352476
21
4.9217718
0
LINE
8
DEFAULT_255_2_778
10
14.4317933
20
1.3321762
11
21.0079933
21
1.3321762
0
LINE
8
DEFAULT_255_2_778
10
21.0079933
20
1.3321762
11
21.0079933
21
6.6635762
0
LINE
8
DEFAULT_255_2_778
10
21.0079933
20
6.6635762
11
14.4317933
21
6.6635762
0
LINE
8
DEFAULT_255_2_778
10
14.4317933
20
6.6635762
11
14.4317933
21
1.3321762
0
LINE
8
DEFAULT_255_2_778
10
15.4641933
20
5.4147762
11
19.9091933
21
5.4147762
0
LINE
8
DEFAULT_255_2_778
10
19.9091933
20
5.4147762
11
19.9091933
21
4.7686762
0
LINE
8
DEFAULT_255_2_778
10
19.9091933
20
4.7686762
11
18.0975933
21
4.7686762
0
LINE
8
DEFAULT_255_2_778
10
18.0975933
20
4.7686762
11
18.0975933
21
2.5572762
0
LINE
8
DEFAULT_255_2_778
10
18.0975933
20
2.5572762
11
17.2852933
21
2.5572762
0
LINE
8
DEFAULT_255_2_778
10
17.2852933
20
2.5572762
11
17.2852933
21
4.7691762
0
LINE
8
DEFAULT_255_2_778
10
17.2852933
20
4.7691762
11
15.4670933
21
4.7691762
0
LINE
8
DEFAULT_255_2_778
10
15.4670933
20
4.7691762
11
15.4670933
21
5.4147762
0
LINE
8
DEFAULT_255_2_778
10
15.4670933
20
5.4147762
11
15.4641933
21
5.4147762
0
LINE
8
DEFAULT_255_2_778
10
17.2826936
20
2.5576859
11
18.0949936
21
2.5576859
0
LINE
8
DEFAULT_255_2_778
10
18.0949936
20
2.5576859
11
18.0949936
21
4.7690859
0
LINE
8
DEFAULT_255_2_778
10
18.0949936
20
4.7690859
11
19.9065936
21
4.7690859
0
LINE
8
DEFAULT_255_2_778
10
19.9065936
20
4.7690859
11
19.9065936
21
5.4146859
0
LINE
8
DEFAULT_255_2_778
10
19.9065936
20
5.4146859
11
15.4615936
21
5.4146859
0
LINE
8
DEFAULT_255_2_778
10
15.4615936
20
5.4146859
11
15.4615936
21
4.7685859
0
LINE
8
DEFAULT_255_2_778
10
15.4615936
20
4.7685859
11
17.2797936
21
4.7685859
0
LINE
8
DEFAULT_255_2_778
10
17.2797936
20
4.7685859
11
17.2826936
21
2.5576859
0
ARC
8
DEFAULT_255_2_778
10
26.1118015
20
3.4388367
40
0.7735084
50
298.6235142
51
314.4708848
0
ARC
8
DEFAULT_255_2_778
10
25.8738938
20
3.8666612
40
1.2630233
50
288.7675364
51
298.7996109
0
ARC
8
DEFAULT_255_2_778
10
25.6045751
20
4.6438069
40
2.085503
50
282.1658763
51
288.9040508
0
ARC
8
DEFAULT_255_2_778
10
25.3457515
20
5.8181022
40
3.2879752
50
277.6810759
51
282.2623586
0
ARC
8
DEFAULT_255_2_778
10
25.1212994
20
7.4570357
40
4.9422045
50
274.2450247
51
277.7202634
0
ARC
8
DEFAULT_255_2_778
10
24.9536579
20
9.664302
40
7.1558253
50
271.6440648
51
274.2754149
0
ARC
8
DEFAULT_255_2_778
10
24.8747139
20
12.2010415
40
9.6937874
50
269.9637465
51
271.680305
0
ARC
8
DEFAULT_255_2_778
10
24.867445
20
10.5007435
40
7.9934875
50
264.375186
51
270.0081374
0
ARC
8
DEFAULT_255_2_778
10
24.7422088
20
9.2717425
40
6.7581305
50
260.1014921
51
264.4105735
0
ARC
8
DEFAULT_255_2_778
10
24.4202217
20
7.440249
40
4.8985508
50
255.6971935
51
260.1290244
0
ARC
8
DEFAULT_255_2_778
10
23.9677522
20
5.6835199
40
3.0844961
50
250.0468755
51
255.7798689
0
ARC
8
DEFAULT_255_2_778
10
23.6179758
20
4.6960129
40
2.0369219
50
247.0547891
51
249.8159988
0
ARC
8
DEFAULT_255_2_778
10
23.6899705
20
5.4596839
40
2.1578645
50
246.3364914
51
251.2402983
0
ARC
8
DEFAULT_255_2_778
10
24.2172353
20
6.9929109
40
3.7792133
50
251.1467765
51
254.6410315
0
ARC
8
DEFAULT_255_2_778
10
24.721812
20
8.8214717
40
5.6761129
50
254.6184908
51
257.8637296
0
ARC
8
DEFAULT_255_2_778
10
25.0544204
20
10.3532663
40
7.2435999
50
257.8389397
51
261.8321705
0
ARC
8
DEFAULT_255_2_778
10
25.0610611
20
10.3750622
40
7.2661192
50
261.8047551
51
263.1686327
0
ARC
8
DEFAULT_255_2_778
10
24.962354
20
9.4903674
40
6.3759683
50
263.1036985
51
266.8632974
0
ARC
8
DEFAULT_255_2_778
10
24.874931
20
7.9348605
40
4.8180086
50
266.8891879
51
269.9244768
0
ARC
8
DEFAULT_255_2_778
10
24.8917355
20
20.5440275
40
17.4271869
50
269.923872
51
271.0014567
0
ARC
8
DEFAULT_255_2_778
10
25.075547
20
10.4962965
40
7.3777825
50
270.9380013
51
273.2382745
0
ARC
8
DEFAULT_255_2_778
10
25.3222127
20
6.2449119
40
3.1192585
50
273.1259037
51
277.4346167
0
ARC
8
DEFAULT_255_2_778
10
25.5785239
20
4.3310617
40
1.1883504
50
277.120527
51
285.6707778
0
ARC
8
DEFAULT_255_2_778
10
25.810651
20
3.5315266
40
0.3559143
50
284.4573785
51
305.3747747
0
ARC
8
DEFAULT_255_2_778
10
25.9208879
20
3.3646242
40
0.1561518
50
307.8479752
51
316.4593716
0
ARC
8
DEFAULT_255_2_778
10
25.9063198
20
3.3764825
40
0.1748868
50
316.9310125
51
0.0272855
0
ARC
8
DEFAULT_255_2_778
10
25.9054325
20
3.3765628
40
0.1757742
50
0.0009703
51
4.4353203
0
ARC
8
DEFAULT_255_2_778
10
25.9299382
20
3.4005628
40
0.1511008
50
356.0507507
51
359.9998467
0
ARC
8
DEFAULT_255_2_778
10
25.9300736
20
3.400534
40
0.1509656
50
0.0107822
51
46.4534924
0
ARC
8
DEFAULT_255_2_778
10
25.8896844
20
3.3675806
40
0.2027829
50
44.5963339
51
71.4655518
0
ARC
8
DEFAULT_255_2_778
10
25.752597
20
2.9884363
40
0.6059124
50
70.5712834
51
79.9302915
0
ARC
8
DEFAULT_255_2_778
10
25.5331657
20
1.8315358
40
1.7834116
50
79.4878507
51
83.8352242
0
ARC
8
DEFAULT_255_2_778
10
25.2686362
20
-0.4797869
40
4.1098024
50
83.6290174
51
85.6328092
0
ARC
8
DEFAULT_255_2_778
10
25.0127026
20
-3.7219528
40
7.3620482
50
85.5681683
51
86.6179423
0
ARC
8
DEFAULT_255_2_778
10
24.7068683
20
-8.9373287
40
12.5863833
50
86.6287451
51
87.6174247
0
ARC
8
DEFAULT_255_2_778
10
24.3143735
20
-18.2348712
40
21.8922057
50
87.6026641
51
88.2772194
0
ARC
8
DEFAULT_255_2_778
10
24.0334017
20
-27.1245471
40
30.7863135
50
88.25193
51
88.4331879
0
ARC
8
DEFAULT_255_2_778
10
25.2165333
20
17.6832503
40
14.0371454
50
267.1044463
51
268.6065529
0
ARC
8
DEFAULT_255_2_778
10
24.9479069
20
12.4688535
40
8.8158374
50
264.863598
51
267.1361357
0
ARC
8
DEFAULT_255_2_778
10
24.6333244
20
9.0052567
40
5.3379864
50
261.6541315
51
264.898305
0
ARC
8
DEFAULT_255_2_778
10
24.3055905
20
6.8020877
40
3.1105822
50
256.6802693
51
261.7365949
0
ARC
8
DEFAULT_255_2_778
10
23.9799032
20
5.4464931
40
1.7164264
50
248.576285
51
256.8344129
0
ARC
8
DEFAULT_255_2_778
10
23.6829502
20
4.702781
40
0.9156481
50
234.1681269
51
248.8757059
0
ARC
8
DEFAULT_255_2_778
10
23.5217884
20
4.4679725
40
0.6309709
50
225.1482113
51
233.550729
0
ARC
8
DEFAULT_255_2_778
10
23.6025946
20
4.4828906
40
0.7001011
50
179.9954586
51
221.3181649
0
ARC
8
DEFAULT_255_2_778
10
23.6047855
20
4.4829395
40
0.7022921
50
176.9623017
51
179.9994565
0
ARC
8
DEFAULT_255_2_778
10
23.6832783
20
4.5705008
40
0.7814215
50
142.0376595
51
183.6939634
0
ARC
8
DEFAULT_255_2_778
10
23.7055752
20
4.5288211
40
0.8248619
50
134.9243622
51
140.7077006
0
ARC
8
DEFAULT_255_2_778
10
23.6853248
20
4.5376693
40
0.8043375
50
114.9341147
51
134.3480932
0
ARC
8
DEFAULT_255_2_778
10
23.9374577
20
4.0121166
40
1.3872161
50
104.7519477
51
115.226209
0
ARC
8
DEFAULT_255_2_778
10
24.2102758
20
3.007766
40
2.427943
50
98.6371772
51
104.9426876
0
ARC
8
DEFAULT_255_2_778
10
24.4681748
20
1.3492254
40
4.1064091
50
94.4753342
51
98.719495
0
ARC
8
DEFAULT_255_2_778
10
24.6674612
20
-1.0854449
40
6.5492123
50
91.9112941
51
94.5514609
0
ARC
8
DEFAULT_255_2_778
10
24.78384
20
-4.4765547
40
9.9423174
50
89.9340721
51
91.9298108
0
ARC
8
DEFAULT_255_2_778
10
24.7905669
20
-1.7765516
40
7.2423092
50
83.6883956
51
89.9627114
0
ARC
8
DEFAULT_255_2_778
10
24.9179474
20
-0.6824303
40
6.1408194
50
79.5334894
51
83.7474144
0
ARC
8
DEFAULT_255_2_778
10
25.2732844
20
1.2236482
40
4.2019062
50
75.0856306
51
79.5766455
0
ARC
8
DEFAULT_255_2_778
10
25.7435448
20
2.9723292
40
2.3911061
50
69.2090775
51
75.1898903
0
ARC
8
DEFAULT_255_2_778
10
26.0150998
20
3.7162406
40
1.5992781
50
68.0278073
51
68.8441502
0
ARC
8
DEFAULT_255_2_778
10
25.6338235
20
2.2231596
40
2.5030706
50
66.9594829
51
72.4650156
0
ARC
8
DEFAULT_255_2_778
10
25.1805325
20
0.8038021
40
3.9930488
50
72.3991171
51
76.7870956
0
ARC
8
DEFAULT_255_2_778
10
24.8179142
20
-0.7344127
40
5.5734271
50
76.7724069
51
81.5247884
0
ARC
8
DEFAULT_255_2_778
10
24.7229704
20
-1.3151526
40
6.1618238
50
81.4474555
51
84.123274
0
ARC
8
DEFAULT_255_2_778
10
24.7685161
20
-0.8208734
40
5.6654813
50
84.0696522
51
88.3002922
0
ARC
8
DEFAULT_255_2_778
10
24.8005454
20
0.0774271
40
4.7666291
50
88.3648479
51
89.9839546
0
ARC
8
DEFAULT_255_2_778
10
24.7925313
20
-9.3893174
40
14.2333765
50
89.9623661
51
90.9342374
0
ARC
8
DEFAULT_255_2_778
10
24.6851246
20
-3.2373563
40
8.0804852
50
90.8839941
51
92.6865061
0
ARC
8
DEFAULT_255_2_778
10
24.4951632
20
0.7318814
40
4.106708
50
92.6347494
51
95.4732742
0
ARC
8
DEFAULT_255_2_778
10
24.2754251
20
2.9635373
40
1.864277
50
95.2926283
51
100.6388221
0
ARC
8
DEFAULT_255_2_778
10
24.0541301
20
4.1092159
40
0.6974627
50
100.1476542
51
111.3252307
0
ARC
8
DEFAULT_255_2_778
10
23.882701
20
4.5402111
40
0.2336539
50
110.6005458
51
133.1575053
0
ARC
8
DEFAULT_255_2_778
10
23.8620687
20
4.5772968
40
0.1927644
50
136.2252514
51
180.0652574
0
ARC
8
DEFAULT_255_2_778
10
23.8706562
20
4.5770773
40
0.2013516
50
180.0000013
51
180.3230191
0
ARC
8
DEFAULT_255_2_778
10
23.8617982
20
4.5768636
40
0.1924925
50
180.2742877
51
220.8900949
0
ARC
8
DEFAULT_255_2_778
10
23.8615892
20
4.6158122
40
0.21983
50
228.6233589
51
254.8185152
0
ARC
8
DEFAULT_255_2_778
10
24.0535452
20
5.2103516
40
0.8444071
50
252.8123267
51
261.5679878
0
ARC
8
DEFAULT_255_2_778
10
24.2865156
20
6.6646686
40
2.3172296
50
261.142763
51
265.0900384
0
ARC
8
DEFAULT_255_2_778
10
24.566552
20
9.8144817
40
5.4794607
50
264.9915819
51
267.2318789
0
ARC
8
DEFAULT_255_2_778
10
24.9028515
20
16.5001734
40
12.1735994
50
267.1705617
51
268.3760329
0
ARC
8
DEFAULT_255_2_778
10
25.3075608
20
30.3408309
40
26.0201701
50
268.3489364
51
269.0100299
0
ARC
8
DEFAULT_255_2_778
10
25.4481855
20
37.1350246
40
32.8157875
50
268.9694919
51
268.9879669
0
ARC
8
DEFAULT_255_2_778
10
24.470186
20
-12.7570645
40
17.0860658
50
87.4217075
51
88.6639186
0
ARC
8
DEFAULT_255_2_778
10
24.7582874
20
-6.3720742
40
10.6945791
50
85.8569678
51
87.4248363
0
ARC
8
DEFAULT_255_2_778
10
25.0662686
20
-2.2054226
40
6.5165682
50
83.2547921
51
85.9110426
0
ARC
8
DEFAULT_255_2_778
10
25.3990139
20
0.5739738
40
3.7173299
50
79.2229514
51
83.3162897
0
ARC
8
DEFAULT_255_2_778
10
25.7195314
20
2.2322927
40
2.0283326
50
72.5328313
51
79.3579425
0
ARC
8
DEFAULT_255_2_778
10
26.0112009
20
3.1440515
40
1.0710782
50
60.7361552
51
72.7760966
0
ARC
8
DEFAULT_255_2_778
10
26.2037583
20
3.4936229
40
0.6719979
50
46.4236497
51
60.4889909
0
ARC
8
DEFAULT_255_2_778
10
26.1186655
20
3.490694
40
0.7351978
50
0.0478931
51
41.77165
0
ARC
8
DEFAULT_255_2_778
10
26.1226628
20
3.4913132
40
0.7312002
50
358.1459361
51
359.99964
0
ARC
8
DEFAULT_255_2_778
10
26.0908859
20
3.4001822
40
0.7655735
50
0.0007204
51
5.0563272
0
ARC
8
DEFAULT_255_2_778
10
26.0918243
20
3.4001935
40
0.7646351
50
317.2905459
51
359.9998728
0
LINE
8
DEFAULT_255_2_778
10
21.5583802
20
6.663556
11
21.5583802
21
1.334856
0
LINE
8
DEFAULT_255_2_778
10
21.5583802
20
1.334856
11
28.1321802
21
1.334856
0
LINE
8
DEFAULT_255_2_778
10
28.1321802
20
1.334856
11
28.1321802
21
6.663556
0
LINE
8
DEFAULT_255_2_778
10
28.1321802
20
6.663556
11
21.5583802
21
6.663556
0
LINE
8
DEFAULT_255_2_778
10
22.8238802
20
2.820256
11
22.8238802
21
3.483256
0
LINE
8
DEFAULT_255_2_778
10
26.6134802
20
5.199356
11
26.6134802
21
4.526556
0
LINE
8
DEFAULT_255_2_778
10
26.6536802
20
2.881556
11
26.6536802
21
2.886856
0
ARC
8
DEFAULT_255_2_778
10
25.3738172
20
32.8930086
40
28.5611951
50
268.4915274
51
269.0135789
0
ARC
8
DEFAULT_255_2_778
10
25.0324436
20
19.9460056
40
15.6096926
50
267.7709591
51
268.4930997
0
ARC
8
DEFAULT_255_2_778
10
24.7360064
20
12.5217636
40
8.1795421
50
266.3024483
51
267.8231612
0
ARC
8
DEFAULT_255_2_778
10
24.441734
20
8.0563913
40
3.7044919
50
263.5072171
51
266.390445
0
ARC
8
DEFAULT_255_2_778
10
24.1774917
20
5.7944253
40
1.42717
50
257.6038414
51
263.7789559
0
ARC
8
DEFAULT_255_2_778
10
23.9549024
20
4.8145179
40
0.4223831
50
243.0293294
51
258.5593222
0
ARC
8
DEFAULT_255_2_778
10
23.8334351
20
4.5692527
40
0.1487334
50
225.843082
51
241.8813721
0
ARC
8
DEFAULT_255_2_778
10
23.8752175
20
4.5884907
40
0.1923576
50
180.2198183
51
220.9000637
0
ARC
8
DEFAULT_255_2_778
10
23.8991118
20
4.5887293
40
0.2162527
50
180.0123223
51
180.2587543
0
ARC
8
DEFAULT_255_2_778
10
23.8757406
20
4.5888475
40
0.1928816
50
136.2012245
51
180.0489263
0
ARC
8
DEFAULT_255_2_778
10
23.8990222
20
4.5415103
40
0.2431202
50
107.5312111
51
131.9428017
0
ARC
8
DEFAULT_255_2_778
10
24.0964977
20
3.9941215
40
0.8249015
50
99.8212839
51
109.1578493
0
ARC
8
DEFAULT_255_2_778
10
24.3208335
20
2.7785938
40
2.0609269
50
95.433556
51
100.2024041
0
ARC
8
DEFAULT_255_2_778
10
24.5410326
20
0.5620122
40
4.2884099
50
92.7040258
51
95.5580573
0
ARC
8
DEFAULT_255_2_778
10
24.7096906
20
-2.7914692
40
7.646121
50
91.1434462
51
92.7809404
0
ARC
8
DEFAULT_255_2_778
10
24.8060742
20
-7.4413654
40
12.2970152
50
89.9564385
51
91.1600943
0
ARC
8
DEFAULT_255_2_778
10
24.8091783
20
-0.135838
40
4.9914881
50
86.4089063
51
89.9283127
0
ARC
8
DEFAULT_255_2_778
10
24.7621417
20
-0.9497233
40
5.8067229
50
84.027235
51
86.4487081
0
ARC
8
DEFAULT_255_2_778
10
24.748095
20
-1.126956
40
5.9844566
50
78.16888
51
84.0700476
0
ARC
8
DEFAULT_255_2_778
10
25.04125
20
0.2600504
40
4.5668114
50
73.6350487
51
78.2009046
0
ARC
8
DEFAULT_255_2_778
10
25.4977865
20
1.8081386
40
2.9528109
50
68.5799195
51
73.671133
0
ARC
8
DEFAULT_255_2_778
10
25.8004847
20
2.6013122
40
2.1038919
50
66.8673151
51
68.3653426
0
ARC
8
DEFAULT_255_2_778
10
25.8205102
20
3.1647843
40
2.1910955
50
68.4023271
51
74.6325191
0
ARC
8
DEFAULT_255_2_778
10
25.3404064
20
1.4480981
40
3.9736432
50
74.5171518
51
79.0873935
0
ARC
8
DEFAULT_255_2_778
10
24.9598087
20
-0.4980365
40
5.95664
50
79.0365127
51
83.136556
0
ARC
8
DEFAULT_255_2_778
10
24.8006029
20
-1.7703284
40
7.2388426
50
83.088894
51
89.2781035
0
ARC
8
DEFAULT_255_2_778
10
24.8086254
20
-1.3606473
40
6.8290937
50
89.3021012
51
89.9983381
0
ARC
8
DEFAULT_255_2_778
10
24.7983642
20
-4.1806341
40
9.649086
50
89.9378935
51
91.9543754
0
ARC
8
DEFAULT_255_2_778
10
24.6842622
20
-0.9471438
40
6.4135863
50
91.9207696
51
94.8022662
0
ARC
8
DEFAULT_255_2_778
10
24.4808743
20
1.4239319
40
4.0338094
50
94.74298
51
99.0115535
0
ARC
8
DEFAULT_255_2_778
10
24.2232051
20
3.0249076
40
2.4122379
50
98.9231449
51
105.2874384
0
ARC
8
DEFAULT_255_2_778
10
23.9502807
20
4.0085841
40
1.3914144
50
105.1264604
51
115.2151238
0
ARC
8
DEFAULT_255_2_778
10
23.6983272
20
4.5344258
40
0.8083504
50
114.9367112
51
132.9428091
0
ARC
8
DEFAULT_255_2_778
10
23.6041224
20
4.6466967
40
0.6620282
50
133.5941162
51
134.9234671
0
ARC
8
DEFAULT_255_2_778
10
23.6407931
20
4.598551
40
0.7220579
50
134.2859595
51
155.4535657
0
ARC
8
DEFAULT_255_2_778
10
23.8135396
20
4.5568348
40
0.8971601
50
157.6138195
51
182.1711553
0
ARC
8
DEFAULT_255_2_778
10
23.6481789
20
4.4963758
40
0.7316344
50
177.9266026
51
179.999681
0
ARC
8
DEFAULT_255_2_778
10
23.6475951
20
4.4964092
40
0.7310506
50
180.0022956
51
220.3336163
0
ARC
8
DEFAULT_255_2_778
10
23.6103038
20
4.5584802
40
0.7462271
50
225.8281846
51
245.1067482
0
ARC
8
DEFAULT_255_2_778
10
23.8853885
20
5.1276717
40
1.3783641
50
244.6936279
51
254.5070538
0
ARC
8
DEFAULT_255_2_778
10
24.1953569
20
6.2157134
40
2.5096817
50
254.3228657
51
260.2203726
0
ARC
8
DEFAULT_255_2_778
10
24.5211908
20
8.0644517
40
4.3869062
50
260.1279827
51
263.9249487
0
ARC
8
DEFAULT_255_2_778
10
24.8454897
20
11.0515969
40
7.3915997
50
263.875767
51
266.4321794
0
ARC
8
DEFAULT_255_2_778
10
25.1442792
20
15.7419663
40
12.0914736
50
266.40219
51
268.1503385
0
ARC
8
DEFAULT_255_2_778
10
25.3081365
20
20.2713879
40
16.6238333
50
268.0897631
51
268.554296
0
ARC
8
DEFAULT_255_2_778
10
24.1936488
20
-22.659495
40
26.3215202
50
87.9319315
51
88.4868095
0
ARC
8
DEFAULT_255_2_778
10
24.5816326
20
-12.0403466
40
15.6952881
50
87.0794199
51
87.9484329
0
ARC
8
DEFAULT_255_2_778
10
24.9337208
20
-5.1694553
40
8.8153819
50
85.9185381
51
87.0894778
0
ARC
8
DEFAULT_255_2_778
10
25.2457313
20
-0.8706906
40
4.5053153
50
83.8545808
51
85.9853794
0
ARC
8
DEFAULT_255_2_778
10
25.5282339
20
1.7062373
40
1.9129601
50
79.9531699
51
84.0047311
0
ARC
8
DEFAULT_255_2_778
10
25.7533941
20
2.9453415
40
0.6536005
50
71.2547716
51
80.4389946
0
ARC
8
DEFAULT_255_2_778
10
25.9001794
20
3.3666162
40
0.2075321
50
46.795493
51
72.2537667
0
ARC
8
DEFAULT_255_2_778
10
25.8550025
20
3.3208527
40
0.2718227
50
44.8766598
51
46.4581922
0
ARC
8
DEFAULT_255_2_778
10
25.9434196
20
3.4031395
40
0.1511628
50
0.0055877
51
46.4213763
0
ARC
8
DEFAULT_255_2_778
10
25.9434568
20
3.4031538
40
0.1511257
50
356.0510562
51
0.0001535
0
ARC
8
DEFAULT_255_2_778
10
25.9118668
20
3.3819113
40
0.1826783
50
0.0002718
51
3.4002865
0
ARC
8
DEFAULT_255_2_778
10
25.9120042
20
3.3819287
40
0.182541
50
317.9835725
51
359.9947922
0
ARC
8
DEFAULT_255_2_778
10
25.8572659
20
3.4730755
40
0.2859115
50
286.4173053
51
311.7431086
0
ARC
8
DEFAULT_255_2_778
10
25.6310212
20
4.144019
40
0.9938211
50
278.2307019
51
287.9966428
0
ARC
8
DEFAULT_255_2_778
10
25.3754973
20
5.7894593
40
2.6589499
50
273.7315667
51
278.6041751
0
ARC
8
DEFAULT_255_2_778
10
25.1253011
20
9.4018245
40
6.2799567
50
271.2580886
51
273.8644568
0
ARC
8
DEFAULT_255_2_778
10
24.9193355
20
18.1720461
40
15.0525923
50
269.9552006
51
271.3089292
0
ARC
8
DEFAULT_255_2_778
10
24.8823781
20
29.117907
40
25.9984609
50
269.9994389
51
270.0555094
0
ARC
8
DEFAULT_255_2_778
10
24.8876326
20
8.055477
40
4.9360339
50
267.1069879
51
269.9360519
0
ARC
8
DEFAULT_255_2_778
10
24.9657927
20
9.5307507
40
6.4133732
50
263.2673421
51
267.0748113
0
LINE
8
DEFAULT_255_2_778
10
24.2139092
20
3.1616043
11
24.2138044
21
3.1616165
0
ARC
8
DEFAULT_255_2_778
10
25.051996
20
10.3313195
40
7.2185322
50
258.5616502
51
263.3319659
0
ARC
8
DEFAULT_255_2_778
10
24.7704948
20
8.9553375
40
5.8140545
50
255.1794616
51
258.5915539
0
ARC
8
DEFAULT_255_2_778
10
24.2839816
20
7.1248264
40
3.9199954
50
251.4715703
51
255.2101145
0
ARC
8
DEFAULT_255_2_778
10
23.7664547
20
5.5879071
40
2.2982846
50
246.7644855
51
251.5290747
0
ARC
8
DEFAULT_255_2_778
10
23.489643
20
4.9252206
40
1.5801585
50
245.6219371
51
246.5078495
0
ARC
8
DEFAULT_255_2_778
10
23.7832607
20
5.0785236
40
2.4547173
50
247.3367581
51
253.669741
0
ARC
8
DEFAULT_255_2_778
10
24.2515624
20
6.651449
40
4.0958663
50
253.569807
51
258.2653599
0
ARC
8
DEFAULT_255_2_778
10
24.6287129
20
8.4455808
40
5.9292069
50
258.2230452
51
262.3188646
0
ARC
8
DEFAULT_255_2_778
10
24.8499466
20
10.0715092
40
7.5701167
50
262.3042787
51
267.0456814
0
ARC
8
DEFAULT_255_2_778
10
24.8828288
20
10.5617601
40
8.0614141
50
266.9918705
51
269.9949873
0
ARC
8
DEFAULT_255_2_778
10
24.8918446
20
11.8501598
40
9.3498187
50
269.9404288
51
272.1658371
0
ARC
8
DEFAULT_255_2_778
10
24.9987908
20
9.0913015
40
6.5888902
50
272.1431672
51
275.0295051
0
ARC
8
DEFAULT_255_2_778
10
25.1870379
20
6.981001
40
4.4702124
50
274.9972702
51
278.7879703
0
ARC
8
DEFAULT_255_2_778
10
25.4259225
20
5.4519749
40
2.9226411
50
278.7393885
51
283.8332386
0
ARC
8
DEFAULT_255_2_778
10
25.6901355
20
4.3922162
40
1.83045
50
283.7341749
51
291.1319415
0
ARC
8
DEFAULT_255_2_778
10
25.954862
20
3.7160788
40
1.1043474
50
290.9677151
51
302.3108658
0
ARC
8
DEFAULT_255_2_778
10
26.150303
20
3.4032373
40
0.7354832
50
302.4696842
51
314.6545762
0
ARC
8
DEFAULT_255_2_778
10
26.0777669
20
3.4175955
40
0.7977583
50
317.6370504
51
3.9569402
0
ARC
8
DEFAULT_255_2_778
10
26.1519017
20
3.5005598
40
0.7222614
50
357.785103
51
0.0005043
0
ARC
8
DEFAULT_255_2_778
10
26.1520741
20
3.5005393
40
0.7220891
50
0.0021347
51
42.185521
0
ARC
8
DEFAULT_255_2_778
10
26.1691437
20
3.4400286
40
0.7521857
50
46.4780161
51
65.9909797
0
ARC
8
DEFAULT_255_2_778
10
25.9174984
20
2.895459
40
1.3520551
50
65.6393094
51
75.320179
0
ARC
8
DEFAULT_255_2_778
10
25.617611
20
1.7806783
40
2.5064543
50
75.1465969
51
80.9191978
0
ARC
8
DEFAULT_255_2_778
10
25.2882648
20
-0.2309911
40
4.5448974
50
80.8218464
51
84.4296582
0
ARC
8
DEFAULT_255_2_778
10
24.9700997
20
-3.3845709
40
7.714476
50
84.351289
51
86.4407848
0
ARC
8
DEFAULT_255_2_778
10
24.6655256
20
-8.2353153
40
12.5747725
50
86.4277897
51
87.9739604
0
ARC
8
DEFAULT_255_2_778
10
24.4330573
20
-14.4037
40
18.7475252
50
87.9304167
51
88.6274424
0
LINE
8
DEFAULT_255_2_778
10
26.6270235
20
4.5360462
11
26.6270235
21
5.2020462
0
LINE
8
DEFAULT_255_2_778
10
22.8374235
20
3.4859462
11
22.8374235
21
2.8133462
0
LINE
8
DEFAULT_255_2_778
10
24.8821235
20
4.3384462
11
24.8821235
21
4.3360462
0
ENDSEC
0
EOF