0
SECTION
2
HEADER
9
$MEASUREMENT
70
1
0
ENDSEC
0
SECTION
2
TABLES
0
TABLE
2
LTYPE
0
LTYPE
72
65
70
64
2
CONTINUOUS
3
______
73
0
40
0
0
ENDTAB
0
TABLE
2
LAYER
0
LAYER
2
DEFAULT_255_2_778
70
0
62
255
6
CONTINUOUS
0
ENDTAB
0
ENDSEC
0
SECTION
2
ENTITIES
0
ARC
8
DEFAULT_255_2_778
10
6.6152021
20
7.6882258
40
2.2777606
50
21.7643541
51
24.6345953
0
ARC
8
DEFAULT_255_2_778
10
6.6766858
20
7.716507
40
2.2100844
50
24.6325487
51
24.8323843
0
ARC
8
DEFAULT_255_2_778
10
6.7071946
20
7.735829
40
2.1742871
50
24.7079298
51
39.5086712
0
ARC
8
DEFAULT_255_2_778
10
6.9100301
20
7.9034933
40
1.9111267
50
39.4992334
51
57.2525895
0
ARC
8
DEFAULT_255_2_778
10
6.9421367
20
7.9428209
40
1.860691
50
57.4290303
51
72.4399673
0
ARC
8
DEFAULT_255_2_778
10
6.8787099
20
7.736182
40
2.0768378
50
72.4916329
51
84.275481
0
ARC
8
DEFAULT_255_2_778
10
6.8416341
20
7.4110619
40
2.4040388
50
84.1691479
51
90.0606043
0
ARC
8
DEFAULT_255_2_778
10
6.8396142
20
7.1809347
40
2.6341646
50
90.0113742
51
92.3655969
0
ARC
8
DEFAULT_255_2_778
10
6.8459406
20
7.026578
40
2.7886508
50
92.3645665
51
94.5179699
0
ARC
8
DEFAULT_255_2_778
10
6.8550044
20
6.9050851
40
2.9104803
50
94.5074467
51
94.6472177
0
ARC
8
DEFAULT_255_2_778
10
6.8653303
20
7.4917875
40
2.3272617
50
96.0710237
51
105.4104676
0
ARC
8
DEFAULT_255_2_778
10
6.784842
20
7.7836238
40
2.0245294
50
105.4092178
51
117.2098081
0
ARC
8
DEFAULT_255_2_778
10
6.7233778
20
7.907025
40
1.8866805
50
117.2633401
51
132.6617871
0
ARC
8
DEFAULT_255_2_778
10
6.7953659
20
7.8384786
40
1.985882
50
132.848915
51
152.8360364
0
ARC
8
DEFAULT_255_2_778
10
6.9851274
20
7.7361699
40
2.2014256
50
152.7217527
51
167.0156673
0
ARC
8
DEFAULT_255_2_778
10
7.00412
20
7.7292454
40
2.2214898
50
166.9517021
51
173.4207884
0
ARC
8
DEFAULT_255_2_778
10
6.910138
20
7.7396967
40
2.1269293
50
173.4103971
51
179.1340339
0
ARC
8
DEFAULT_255_2_778
10
6.8240412
20
7.7420816
40
2.0408065
50
179.1644531
51
179.9992324
0
ARC
8
DEFAULT_255_2_778
10
6.7202817
20
7.7405804
40
1.9370475
50
179.9547867
51
185.6075872
0
ARC
8
DEFAULT_255_2_778
10
6.5055359
20
7.7191302
40
1.7212334
50
185.5954772
51
191.436656
0
ARC
8
DEFAULT_255_2_778
10
6.3265488
20
7.6841705
40
1.5388687
50
191.4822597
51
194.7798268
0
ARC
8
DEFAULT_255_2_778
10
3.7150936
20
5.6325983
40
2.0036304
50
55.8934601
51
65.6641645
0
ARC
8
DEFAULT_255_2_778
10
3.6608535
20
5.5178774
40
2.1305104
50
65.6064518
51
76.549061
0
ARC
8
DEFAULT_255_2_778
10
3.668979
20
5.5586436
40
2.0889728
50
76.5057234
51
89.071019
0
ARC
8
DEFAULT_255_2_778
10
3.6713781
20
5.6063742
40
2.0412103
50
89.1166278
51
89.9997642
0
ARC
8
DEFAULT_255_2_778
10
3.6708817
20
5.6300365
40
2.017548
50
89.9856659
51
98.9748243
0
ARC
8
DEFAULT_255_2_778
10
3.670816
20
5.6341617
40
2.0134632
50
98.9912904
51
107.3080888
0
ARC
8
DEFAULT_255_2_778
10
3.6817926
20
5.5981193
40
2.0511391
50
107.30129
51
111.1479027
0
ARC
8
DEFAULT_255_2_778
10
3.708078
20
5.532432
40
2.1218859
50
111.1699543
51
117.9626465
0
ARC
8
DEFAULT_255_2_778
10
3.7734217
20
5.409573
40
2.2610409
50
117.9653585
51
123.9978499
0
ARC
8
DEFAULT_255_2_778
10
3.874146
20
5.2598115
40
2.441523
50
123.9923442
51
128.9927084
0
ARC
8
DEFAULT_255_2_778
10
3.961965
20
5.1491987
40
2.5827522
50
128.962877
51
130.5935745
0
ARC
8
DEFAULT_255_2_778
10
4.0641438
20
5.3296372
40
2.5197804
50
135.0319604
51
140.2995623
0
ARC
8
DEFAULT_255_2_778
10
3.9151078
20
5.4533984
40
2.3260575
50
140.3000771
51
146.1643759
0
ARC
8
DEFAULT_255_2_778
10
3.7950716
20
5.5339482
40
2.1814998
50
146.1662185
51
152.8525557
0
ARC
8
DEFAULT_255_2_778
10
3.7146329
20
5.5754887
40
2.0909683
50
152.8597222
51
160.4767164
0
ARC
8
DEFAULT_255_2_778
10
3.6887696
20
5.5852197
40
2.06334
50
160.4913854
51
163.8910556
0
ARC
8
DEFAULT_255_2_778
10
3.6928251
20
5.5842269
40
2.0675119
50
163.8958069
51
170.67011
0
ARC
8
DEFAULT_255_2_778
10
3.7313779
20
5.5782004
40
2.1065316
50
170.6783586
51
177.7486601
0
ARC
8
DEFAULT_255_2_778
10
3.7730608
20
5.5760286
40
2.1482676
50
177.7344546
51
180.0019484
0
ARC
8
DEFAULT_255_2_778
10
3.849292
20
5.5784665
40
2.2245003
50
180.0646742
51
193.4190094
0
ARC
8
DEFAULT_255_2_778
10
3.866697
20
5.5795763
40
2.2416897
50
193.3433621
51
204.2708275
0
ARC
8
DEFAULT_255_2_778
10
3.658493
20
5.4831312
40
2.012246
50
204.2042465
51
213.9452751
0
ARC
8
DEFAULT_255_2_778
10
3.3116173
20
5.247355
40
1.5928315
50
213.8770211
51
223.8256517
0
ARC
8
DEFAULT_255_2_778
10
2.9685747
20
4.9149055
40
1.1151354
50
223.7074579
51
235.6341592
0
ARC
8
DEFAULT_255_2_778
10
2.81224
20
4.6971287
40
0.8471468
50
236.0478791
51
239.3677147
0
ARC
8
DEFAULT_255_2_778
10
2.2503743
20
2.6085962
40
1.3658228
50
84.5289237
51
88.0285295
0
ARC
8
DEFAULT_255_2_778
10
2.2460795
20
2.4986532
40
1.4758486
50
88.008729
51
90.0086609
0
ARC
8
DEFAULT_255_2_778
10
2.2486776
20
2.3218172
40
1.6526868
50
90.0978041
51
97.0259312
0
ARC
8
DEFAULT_255_2_778
10
2.2756696
20
2.0956462
40
1.8804613
50
96.9992517
51
103.6352295
0
ARC
8
DEFAULT_255_2_778
10
2.3085985
20
1.9566238
40
2.0233282
50
103.6133634
51
110.1048631
0
ARC
8
DEFAULT_255_2_778
10
2.3282148
20
1.9014656
40
2.0818682
50
110.0900265
51
123.7499293
0
ARC
8
DEFAULT_255_2_778
10
2.2905001
20
1.9558839
40
2.0156681
50
123.7179369
51
138.6902499
0
ARC
8
DEFAULT_255_2_778
10
2.2762132
20
1.9712352
40
1.9948037
50
138.7505641
51
151.8438264
0
ARC
8
DEFAULT_255_2_778
10
2.3886221
20
1.912854
40
2.1214601
50
151.8862415
51
163.1403918
0
ARC
8
DEFAULT_255_2_778
10
2.5887447
20
1.849611
40
2.3313246
50
163.0793534
51
168.8410202
0
ARC
8
DEFAULT_255_2_778
10
2.9973154
20
1.843322
40
2.7343599
50
170.3687765
51
173.2805811
0
ARC
8
DEFAULT_255_2_778
10
2.82782
20
1.8631775
40
2.5637054
50
173.2780545
51
176.5820231
0
ARC
8
DEFAULT_255_2_778
10
2.6742777
20
1.8723929
40
2.4098868
50
176.5830907
51
179.9835844
0
ARC
8
DEFAULT_255_2_778
10
2.4141354
20
1.8665947
40
2.1497543
50
179.8270629
51
192.5474226
0
ARC
8
DEFAULT_255_2_778
10
2.186077
20
1.8167972
40
1.9163246
50
192.5754349
51
210.5636347
0
ARC
8
DEFAULT_255_2_778
10
2.3010981
20
1.9203594
40
2.0682537
50
211.4137499
51
254.0089017
0
ARC
8
DEFAULT_255_2_778
10
2.3841454
20
2.1027862
40
2.2666929
50
253.2612455
51
267.7310313
0
ARC
8
DEFAULT_255_2_778
10
2.3803719
20
2.0451666
40
2.2089696
50
267.7696625
51
269.99804
0
ARC
8
DEFAULT_255_2_778
10
15.2039438
20
1.9503004
40
2.1141159
50
269.8035827
51
283.3569999
0
ARC
8
DEFAULT_255_2_778
10
15.2576703
20
1.7186266
40
1.8762977
50
283.3950957
51
302.9733546
0
ARC
8
DEFAULT_255_2_778
10
15.0827148
20
1.8893586
40
2.1154338
50
304.4321184
51
0.6790354
0
ARC
8
DEFAULT_255_2_778
10
15.0489219
20
1.9185753
40
2.1490822
50
359.8894558
51
359.999996
0
ARC
8
DEFAULT_255_2_778
10
15.0001989
20
1.9188057
40
2.1978051
50
359.993988
51
4.3418969
0
ARC
8
DEFAULT_255_2_778
10
14.9198314
20
1.8804184
40
2.2810753
50
5.1505362
51
14.7509919
0
ARC
8
DEFAULT_255_2_778
10
15.1578233
20
1.9426575
40
2.0350799
50
14.7625178
51
26.5206486
0
ARC
8
DEFAULT_255_2_778
10
15.2391982
20
1.981153
40
1.9450797
50
26.5763451
51
40.8475396
0
ARC
8
DEFAULT_255_2_778
10
15.1865882
20
1.9324792
40
2.0167131
50
40.916007
51
56.2867243
0
ARC
8
DEFAULT_255_2_778
10
15.1364801
20
1.8614512
40
2.103609
50
56.2252218
51
68.8015082
0
ARC
8
DEFAULT_255_2_778
10
15.1630713
20
1.9320395
40
2.0281822
50
68.7808052
51
75.6707397
0
ARC
8
DEFAULT_255_2_778
10
15.2062557
20
2.1037156
40
1.8511592
50
75.6506871
51
82.2421309
0
ARC
8
DEFAULT_255_2_778
10
15.2400165
20
2.3558498
40
1.5967757
50
82.2212122
51
88.8773602
0
ARC
8
DEFAULT_255_2_778
10
15.2457957
20
2.5220511
40
1.4304953
50
88.9783649
51
89.9975422
0
ARC
8
DEFAULT_255_2_778
10
15.2448365
20
2.6311376
40
1.3214094
50
89.9557493
51
94.1048618
0
ARC
8
DEFAULT_255_2_778
10
15.2321239
20
2.8058402
40
1.1462451
50
94.0961404
51
98.6125723
0
ARC
8
DEFAULT_255_2_778
10
15.2186895
20
2.9016711
40
1.0494835
50
98.6708808
51
99.3549167
0
ARC
8
DEFAULT_255_2_778
10
14.6610561
20
4.6290252
40
0.7927336
50
299.2246364
51
303.9855122
0
ARC
8
DEFAULT_255_2_778
10
14.5660117
20
4.7706045
40
0.9632565
50
303.9657872
51
307.9535639
0
ARC
8
DEFAULT_255_2_778
10
14.4574268
20
4.9101292
40
1.1400552
50
307.9439801
51
311.5127544
0
ARC
8
DEFAULT_255_2_778
10
14.2328888
20
5.1559148
40
1.4729316
50
311.7162941
51
320.1081741
0
ARC
8
DEFAULT_255_2_778
10
13.892518
20
5.4431887
40
1.9183248
50
320.044874
51
327.965319
0
ARC
8
DEFAULT_255_2_778
10
13.6455596
20
5.5998749
40
2.2107903
50
327.9178299
51
336.6935727
0
ARC
8
DEFAULT_255_2_778
10
13.6027812
20
5.621201
40
2.2585172
50
336.626074
51
347.5671553
0
ARC
8
DEFAULT_255_2_778
10
13.7489746
20
5.59062
40
2.1091689
50
347.5233963
51
359.9087804
0
ARC
8
DEFAULT_255_2_778
10
13.8772948
20
5.5881296
40
1.9808463
50
359.9749032
51
7.7889696
0
ARC
8
DEFAULT_255_2_778
10
13.9207989
20
5.5935605
40
1.9370076
50
7.8042075
51
14.881077
0
ARC
8
DEFAULT_255_2_778
10
13.9169276
20
5.5923339
40
1.9410641
50
14.8867222
51
19.2537234
0
ARC
8
DEFAULT_255_2_778
10
13.8763066
20
5.5775532
40
1.9842872
50
19.2698691
51
26.1612773
0
ARC
8
DEFAULT_255_2_778
10
13.7850076
20
5.5325692
40
2.0860667
50
26.1646284
51
32.1032482
0
ARC
8
DEFAULT_255_2_778
10
13.6578181
20
5.4525888
40
2.2363131
50
32.1072517
51
37.6137489
0
ARC
8
DEFAULT_255_2_778
10
13.5011103
20
5.3319265
40
2.4340928
50
37.6122799
51
42.4787621
0
ARC
8
DEFAULT_255_2_778
10
13.3718868
20
5.2153809
40
2.6081043
50
42.4499558
51
44.5977667
0
ARC
8
DEFAULT_255_2_778
10
13.6291036
20
5.3672397
40
2.3194606
50
46.388149
51
51.9513397
0
ARC
8
DEFAULT_255_2_778
10
13.7309748
20
5.4974028
40
2.1541723
50
51.9513099
51
58.3129071
0
ARC
8
DEFAULT_255_2_778
10
13.7905352
20
5.5933858
40
2.0412116
50
58.3203096
51
65.1564777
0
ARC
8
DEFAULT_255_2_778
10
13.8132595
20
5.6412487
40
1.9882308
50
65.1712354
51
70.4040403
0
ARC
8
DEFAULT_255_2_778
10
13.8176775
20
5.6531183
40
1.975567
50
70.4092983
51
78.072782
0
ARC
8
DEFAULT_255_2_778
10
13.8123727
20
5.6264747
40
2.0027318
50
78.0818259
51
85.6863532
0
ARC
8
DEFAULT_255_2_778
10
13.809089
20
5.5872038
40
2.0421385
50
85.6773587
51
90.0052262
0
ARC
8
DEFAULT_255_2_778
10
13.8095612
20
5.5475255
40
2.0818169
50
90.0181209
51
100.5454354
0
ARC
8
DEFAULT_255_2_778
10
13.7981457
20
5.5993811
40
2.0287487
50
100.4965103
51
109.4731671
0
ARC
8
DEFAULT_255_2_778
10
13.7149585
20
5.8298325
40
1.7837486
50
109.4216388
51
117.6948208
0
ARC
8
DEFAULT_255_2_778
10
13.5275469
20
6.1833588
40
1.3836229
50
117.6271056
51
126.2519674
0
ARC
8
DEFAULT_255_2_778
10
13.3101517
20
6.4832523
40
1.0132296
50
126.3665011
51
132.6326298
0
ARC
8
DEFAULT_255_2_778
10
11.3930219
20
7.6009543
40
1.2859345
50
343.1729368
51
348.5987294
0
ARC
8
DEFAULT_255_2_778
10
11.1224342
20
7.6557835
40
1.5620211
50
348.5892765
51
353.7420726
0
ARC
8
DEFAULT_255_2_778
10
10.8544124
20
7.6856691
40
1.8317035
50
353.7266841
51
358.5269481
0
ARC
8
DEFAULT_255_2_778
10
10.6948859
20
7.691438
40
1.9913262
50
358.4790108
51
0.004681
0
ARC
8
DEFAULT_255_2_778
10
10.5445604
20
7.689817
40
2.1416525
50
0.0477189
51
5.4803156
0
ARC
8
DEFAULT_255_2_778
10
10.3834639
20
7.6749436
40
2.3034332
50
5.4658891
51
11.2374853
0
ARC
8
DEFAULT_255_2_778
10
10.3299841
20
7.6650293
40
2.3578199
50
11.2205329
51
16.3848158
0
ARC
8
DEFAULT_255_2_778
10
10.4205052
20
7.696166
40
2.262196
50
16.274959
51
31.2684885
0
ARC
8
DEFAULT_255_2_778
10
10.637937
20
7.8286832
40
2.0075645
50
31.2567729
51
48.2827468
0
ARC
8
DEFAULT_255_2_778
10
10.6976407
20
7.8885305
40
1.9231679
50
48.4239463
51
62.1835187
0
ARC
8
DEFAULT_255_2_778
10
10.639184
20
7.7744455
40
2.0513488
50
62.2263898
51
72.9654656
0
ARC
8
DEFAULT_255_2_778
10
10.561702
20
7.5234686
40
2.3140132
50
72.95161
51
80.9848856
0
ARC
8
DEFAULT_255_2_778
10
10.6015255
20
7.0077334
40
2.8196982
50
83.4269439
51
89.7161139
0
ARC
8
DEFAULT_255_2_778
10
10.6110242
20
7.5866422
40
2.2407592
50
89.8856479
51
98.5938473
0
ARC
8
DEFAULT_255_2_778
10
10.5718676
20
7.8492328
40
1.9752657
50
98.6089827
51
108.7062571
0
ARC
8
DEFAULT_255_2_778
10
10.5365166
20
7.9580195
40
1.8608885
50
108.7495495
51
120.4017723
0
ARC
8
DEFAULT_255_2_778
10
10.5627795
20
7.9174725
40
1.909152
50
120.4657682
51
132.2178983
0
ARC
8
DEFAULT_255_2_778
10
10.6718429
20
7.7974054
40
2.0713584
50
132.2204567
51
141.9303931
0
ARC
8
DEFAULT_255_2_778
10
10.7669459
20
7.7198431
40
2.1940572
50
141.8672066
51
142.1470214
0
ARC
8
DEFAULT_255_2_778
10
10.769406
20
7.7186865
40
2.1967094
50
142.1625761
51
147.34333
0
ARC
8
DEFAULT_255_2_778
10
10.7764035
20
7.7135438
40
2.2053759
50
147.3289409
51
151.7373115
0
ARC
8
DEFAULT_255_2_778
10
10.6821281
20
7.7637746
40
2.0985545
50
151.7264388
51
155.2978414
0
ARC
8
DEFAULT_255_2_778
10
10.4596167
20
7.8653758
40
1.8539453
50
155.276706
51
158.8036802
0
LINE
8
DEFAULT_255_2_778
10
2.3802963
20
-0.1638031
11
15.1966963
21
-0.1638031
0
ARC
8
DEFAULT_255_2_778
10
3.5858222
20
5.6694778
40
1.61675
50
132.4325874
51
147.6789149
0
ARC
8
DEFAULT_255_2_778
10
3.7744065
20
5.5457574
40
1.8422685
50
147.563138
51
164.3861853
0
ARC
8
DEFAULT_255_2_778
10
3.7466383
20
5.5497118
40
1.8144646
50
164.2704429
51
179.9099974
0
ARC
8
DEFAULT_255_2_778
10
3.6536156
20
5.5518795
40
1.7214397
50
179.977283
51
187.9268731
0
ARC
8
DEFAULT_255_2_778
10
3.6252647
20
5.5485772
40
1.6929042
50
187.9485024
51
188.4928642
0
ARC
8
DEFAULT_255_2_778
10
3.6000879
20
5.5439954
40
1.6673271
50
188.4649166
51
203.4506713
0
ARC
8
DEFAULT_255_2_778
10
3.64216
20
5.5639949
40
1.713884
50
203.5043141
51
215.124191
0
ARC
8
DEFAULT_255_2_778
10
3.7709891
20
5.6550177
40
1.8716243
50
215.1341796
51
224.4820894
0
ARC
8
DEFAULT_255_2_778
10
3.9447519
20
5.8253055
40
2.114917
50
224.4750996
51
232.1076159
0
ARC
8
DEFAULT_255_2_778
10
4.1059262
20
6.0288668
40
2.3745518
50
232.0552565
51
236.3998719
0
ARC
8
DEFAULT_255_2_778
10
3.2172888
20
5.3162363
40
2.2302572
50
21.0678786
51
31.1335789
0
ARC
8
DEFAULT_255_2_778
10
3.4783206
20
5.4744789
40
1.9250062
50
31.1190712
51
43.4621211
0
ARC
8
DEFAULT_255_2_778
10
3.6359575
20
5.6248215
40
1.707172
50
43.4390115
51
60.6044069
0
ARC
8
DEFAULT_255_2_778
10
3.6835251
20
5.7041301
40
1.6147283
50
60.6936742
51
90.0750935
0
ARC
8
DEFAULT_255_2_778
10
3.6818263
20
5.64787
40
1.6709871
50
90.0143156
51
96.9518291
0
ARC
8
DEFAULT_255_2_778
10
3.6935174
20
5.5678174
40
1.7518672
50
97.0144923
51
110.4327777
0
ARC
8
DEFAULT_255_2_778
10
3.7431916
20
5.433174
40
1.8953807
50
110.4189867
51
121.1205061
0
ARC
8
DEFAULT_255_2_778
10
3.8306872
20
5.2874554
40
2.0653491
50
121.1091388
51
130.000448
0
ARC
8
DEFAULT_255_2_778
10
3.9060303
20
5.1937797
40
2.1855399
50
129.9349503
51
130.2134494
0
LINE
8
DEFAULT_255_2_778
10
2.791865
20
4.0510552
11
7.658065
21
0.7125552
0
LINE
8
DEFAULT_255_2_778
10
7.658065
20
0.7125552
11
5.298465
21
6.1179552
0
ARC
8
DEFAULT_255_2_778
10
6.709474
20
8.3453616
40
1.1457782
50
91.2810065
51
99.1208321
0
ARC
8
DEFAULT_255_2_778
10
6.7461566
20
8.1127327
40
1.3812809
50
99.0935843
51
106.1260645
0
ARC
8
DEFAULT_255_2_778
10
6.8005309
20
7.9207787
40
1.580785
50
106.0868953
51
111.7810723
0
ARC
8
DEFAULT_255_2_778
10
6.8851099
20
7.7190192
40
1.7995283
50
111.898104
51
125.7633614
0
ARC
8
DEFAULT_255_2_778
10
6.8970029
20
7.6922959
40
1.8281731
50
125.5763299
51
144.0271109
0
ARC
8
DEFAULT_255_2_778
10
6.7633255
20
7.7896684
40
1.662792
50
144.0367832
51
162.9418089
0
ARC
8
DEFAULT_255_2_778
10
6.7482623
20
7.7986553
40
1.6457605
50
163.0870839
51
177.8235928
0
ARC
8
DEFAULT_255_2_778
10
6.8313023
20
7.793037
40
1.7289556
50
177.742046
51
180.0038374
0
ARC
8
DEFAULT_255_2_778
10
6.9056304
20
7.7939444
40
1.8032841
50
180.0325121
51
185.9745707
0
ARC
8
DEFAULT_255_2_778
10
7.0468094
20
7.8087368
40
1.9452359
50
185.975075
51
191.2888816
0
ARC
8
DEFAULT_255_2_778
10
7.2174673
20
7.8426504
40
2.1192308
50
191.2848312
51
195.8545925
0
ARC
8
DEFAULT_255_2_778
10
7.4171443
20
7.8994112
40
2.3268187
50
195.8558327
51
200.1667388
0
ARC
8
DEFAULT_255_2_778
10
7.6206463
20
7.9724633
40
2.5430301
50
200.131039
51
200.1953455
0
ARC
8
DEFAULT_255_2_778
10
5.818286
20
7.7516248
40
2.7367647
50
352.4714529
51
354.9754339
0
ARC
8
DEFAULT_255_2_778
10
5.9898931
20
7.7364713
40
2.56449
50
354.9768972
51
357.4451981
0
ARC
8
DEFAULT_255_2_778
10
6.1403887
20
7.7297428
40
2.4138442
50
357.4455162
51
359.9875722
0
ARC
8
DEFAULT_255_2_778
10
6.4328642
20
7.7353642
40
2.1213776
50
359.8340312
51
10.0887356
0
ARC
8
DEFAULT_255_2_778
10
6.7581454
20
7.793604
40
1.790924
50
10.0772594
51
23.2693705
0
ARC
8
DEFAULT_255_2_778
10
6.9142106
20
7.8592722
40
1.6216115
50
23.3162818
51
41.3415869
0
ARC
8
DEFAULT_255_2_778
10
6.8828045
20
7.8228726
40
1.6692473
50
41.5675475
51
67.3702899
0
ARC
8
DEFAULT_255_2_778
10
6.8448926
20
7.7467601
40
1.7540968
50
67.183876
51
81.8273375
0
ARC
8
DEFAULT_255_2_778
10
6.8532799
20
7.805731
40
1.6945326
50
81.8245973
51
89.3212291
0
ARC
8
DEFAULT_255_2_778
10
6.8547883
20
7.8588263
40
1.6414233
50
89.3519243
51
90.0003154
0
ARC
8
DEFAULT_255_2_778
10
6.853944
20
7.9055417
40
1.5947081
50
89.9699897
51
96.1225767
0
LINE
8
DEFAULT_255_2_778
10
5.2339591
20
7.0945535
11
7.6742591
21
1.3393535
0
LINE
8
DEFAULT_255_2_778
10
7.6742591
20
1.3393535
11
8.5314591
21
7.3930535
0
ARC
8
DEFAULT_255_2_778
10
9.3710669
20
7.2495599
40
0.3739491
50
87.7425947
51
89.6113081
0
ARC
8
DEFAULT_255_2_778
10
9.3597192
20
6.933696
40
0.6900158
50
84.068428
51
87.834161
0
ARC
8
DEFAULT_255_2_778
10
9.3719916
20
7.0246543
40
0.5982828
50
76.1231198
51
84.3372469
0
ARC
8
DEFAULT_255_2_778
10
9.4731453
20
7.3820737
40
0.2273777
50
44.7072637
51
79.2692695
0
ARC
8
DEFAULT_255_2_778
10
9.5601177
20
7.4794513
40
0.0973931
50
16.4926382
51
39.9817193
0
ARC
8
DEFAULT_255_2_778
10
9.4066599
20
7.8158198
40
0.3952714
50
299.9283112
51
308.6449073
0
ARC
8
DEFAULT_255_2_778
10
9.16095
20
8.2336785
40
0.8800089
50
296.8608004
51
300.2192205
0
ARC
8
DEFAULT_255_2_778
10
8.9143954
20
8.7081329
40
1.4146833
50
297.0288013
51
297.0869186
0
ARC
8
DEFAULT_255_2_778
10
8.9197352
20
8.6974691
40
1.4027577
50
296.9450086
51
297.0324517
0
ARC
8
DEFAULT_255_2_778
10
8.9290751
20
8.6785952
40
1.3817004
50
296.8664127
51
296.9544012
0
ARC
8
DEFAULT_255_2_778
10
8.8615942
20
8.8114417
40
1.5307031
50
296.7937704
51
296.8724851
0
ARC
8
DEFAULT_255_2_778
10
8.8720488
20
8.7902951
40
1.5071142
50
296.7221596
51
296.8013886
0
ARC
8
DEFAULT_255_2_778
10
8.6618617
20
9.2076587
40
1.9744159
50
296.6641142
51
296.7240452
0
ARC
8
DEFAULT_255_2_778
10
8.5011722
20
9.5282272
40
2.3330037
50
296.6075318
51
296.6577906
0
ARC
8
DEFAULT_255_2_778
10
8.5171602
20
9.4976251
40
2.2984819
50
296.5423046
51
296.5928523
0
ARC
8
DEFAULT_255_2_778
10
8.5333286
20
9.4652804
40
2.2623213
50
296.4911468
51
296.5420308
0
ARC
8
DEFAULT_255_2_778
10
15.2225216
20
-4.2155357
40
12.9663479
50
115.9802882
51
116.4510171
0
ARC
8
DEFAULT_255_2_778
10
10.0505264
20
6.1948581
40
1.342002
50
116.731131
51
120.0824905
0
ARC
8
DEFAULT_255_2_778
10
9.7150391
20
6.754812
40
0.6893768
50
119.2826023
51
138.5114564
0
ARC
8
DEFAULT_255_2_778
10
9.6467489
20
6.8269457
40
0.5905005
50
139.3647919
51
156.855835
0
ARC
8
DEFAULT_255_2_778
10
9.7954199
20
6.764114
40
0.7519022
50
156.9060937
51
169.0291622
0
ARC
8
DEFAULT_255_2_778
10
10.0988148
20
6.7040262
40
1.0611882
50
168.9616308
51
177.703819
0
ARC
8
DEFAULT_255_2_778
10
10.3984982
20
6.6864682
40
1.3613457
50
177.4707809
51
180.0275651
0
ARC
8
DEFAULT_255_2_778
10
10.5804273
20
6.6864024
40
1.5432747
50
180.0218712
51
182.1803641
0
ARC
8
DEFAULT_255_2_778
10
10.7753166
20
6.6937579
40
1.7383027
50
182.1782388
51
184.1293824
0
ARC
8
DEFAULT_255_2_778
10
10.917873
20
6.7035127
40
1.8811915
50
184.1130615
51
184.7357623
0
ARC
8
DEFAULT_255_2_778
10
10.3596125
20
7.8337407
40
2.0179862
50
338.9160791
51
344.3545996
0
ARC
8
DEFAULT_255_2_778
10
10.4982977
20
7.7947871
40
1.8739345
50
344.3579416
51
350.1537034
0
ARC
8
DEFAULT_255_2_778
10
10.6044565
20
7.7763555
40
1.7661874
50
350.1539074
51
356.899955
0
ARC
8
DEFAULT_255_2_778
10
10.6585662
20
7.7727367
40
1.7119614
50
356.9229558
51
359.9962518
0
ARC
8
DEFAULT_255_2_778
10
10.6946955
20
7.773318
40
1.675832
50
359.9762983
51
19.5081015
0
ARC
8
DEFAULT_255_2_778
10
10.5794484
20
7.7253406
40
1.8004976
50
19.7225065
51
45.9523913
0
ARC
8
DEFAULT_255_2_778
10
10.5695087
20
7.7307194
40
1.803575
50
45.6066299
51
66.59511
0
ARC
8
DEFAULT_255_2_778
10
10.683217
20
7.9855129
40
1.524581
50
66.7131842
51
79.0373406
0
ARC
8
DEFAULT_255_2_778
10
10.7235921
20
8.1788961
40
1.3270516
50
79.160939
51
86.1981672
0
ARC
8
DEFAULT_255_2_778
10
10.7301487
20
8.2588406
40
1.2468489
50
86.2552124
51
87.9613481
0
ARC
8
DEFAULT_255_2_778
10
10.6358206
20
7.7731612
40
1.7372834
50
85.4213459
51
87.5840493
0
ARC
8
DEFAULT_255_2_778
10
10.6312249
20
7.6646746
40
1.8458674
50
87.5834768
51
89.6157603
0
ARC
8
DEFAULT_255_2_778
10
10.6446683
20
7.7521444
40
1.7583564
50
90.034689
51
97.7000418
0
ARC
8
DEFAULT_255_2_778
10
10.6490613
20
7.713176
40
1.7975622
50
97.6723812
51
98.9160355
0
ARC
8
DEFAULT_255_2_778
10
10.6418008
20
7.7337756
40
1.7760906
50
98.7876376
51
126.2577648
0
ARC
8
DEFAULT_255_2_778
10
10.5542295
20
7.8612513
40
1.6215146
50
126.4265636
51
148.6252269
0
ARC
8
DEFAULT_255_2_778
10
10.6279469
20
7.8214456
40
1.7051829
50
148.7728854
51
164.3168756
0
ARC
8
DEFAULT_255_2_778
10
10.913411
20
7.7413116
40
2.0016811
50
164.3173066
51
175.9408114
0
ARC
8
DEFAULT_255_2_778
10
11.2332163
20
7.7121809
40
2.3227551
50
175.7824594
51
180.0337192
0
ARC
8
DEFAULT_255_2_778
10
11.3916171
20
7.7110006
40
2.4811556
50
180.0043086
51
181.4964483
0
ARC
8
DEFAULT_255_2_778
10
11.4519991
20
7.7123752
40
2.5415529
50
181.4918795
51
182.0693854
0
LINE
8
DEFAULT_255_2_778
10
8.9121037
20
7.6235004
11
9.3736037
21
7.6235004
0
LINE
8
DEFAULT_255_2_778
10
9.0431037
20
6.5482004
11
9.8189037
21
1.3399004
0
LINE
8
DEFAULT_255_2_778
10
9.8189037
20
1.3399004
11
12.2425037
21
7.1078004
0
ARC
8
DEFAULT_255_2_778
10
13.3879127
20
5.9643662
40
2.3028506
50
305.2623109
51
312.3928992
0
ARC
8
DEFAULT_255_2_778
10
13.5867918
20
5.7467944
40
2.0080788
50
312.3874591
51
320.7662937
0
ARC
8
DEFAULT_255_2_778
10
13.7515309
20
5.6123382
40
1.7954348
50
320.764732
51
330.9856482
0
ARC
8
DEFAULT_255_2_778
10
13.8574699
20
5.5529043
40
1.6739642
50
331.005887
51
343.7850852
0
ARC
8
DEFAULT_255_2_778
10
13.8764851
20
5.5463107
40
1.6538645
50
343.8204757
51
350.4455922
0
ARC
8
DEFAULT_255_2_778
10
13.8539185
20
5.5498002
40
1.6766972
50
350.4560012
51
358.5554206
0
ARC
8
DEFAULT_255_2_778
10
13.8284974
20
5.5509
40
1.7021381
50
358.5399822
51
0.0007233
0
ARC
8
DEFAULT_255_2_778
10
13.7612302
20
5.5471547
40
1.7694094
50
0.1219748
51
20.9745962
0
ARC
8
DEFAULT_255_2_778
10
13.7754638
20
5.5585166
40
1.7520606
50
20.794274
51
38.5167612
0
ARC
8
DEFAULT_255_2_778
10
13.9024429
20
5.6548818
40
1.5927023
50
38.6490297
51
44.9265744
0
ARC
8
DEFAULT_255_2_778
10
13.9934194
20
5.8378334
40
1.4006119
50
42.2549761
51
58.5232221
0
ARC
8
DEFAULT_255_2_778
10
13.7706323
20
5.4867968
40
1.8163354
50
58.3115686
51
76.3990907
0
ARC
8
DEFAULT_255_2_778
10
13.768814
20
5.5039865
40
1.8000647
50
76.2141725
51
89.8987216
0
ARC
8
DEFAULT_255_2_778
10
13.7708104
20
5.6436353
40
1.6604135
50
89.959091
51
98.4882319
0
ARC
8
DEFAULT_255_2_778
10
13.7540098
20
5.745092
40
1.557589
50
98.427874
51
119.3947411
0
ARC
8
DEFAULT_255_2_778
10
13.8022485
20
5.6684748
40
1.6480251
50
119.5485056
51
134.4949062
0
ARC
8
DEFAULT_255_2_778
10
14.0224685
20
5.444524
40
1.9621122
50
134.4987243
51
145.8499618
0
ARC
8
DEFAULT_255_2_778
10
14.4319471
20
5.1652378
40
2.4577657
50
145.8205124
51
154.6776232
0
ARC
8
DEFAULT_255_2_778
10
14.8491502
20
4.9594168
40
2.9229239
50
154.5285972
51
157.7019044
0
LINE
8
DEFAULT_255_2_778
10
12.1450959
20
6.0689483
11
9.8529959
21
0.7283483
0
LINE
8
DEFAULT_255_2_778
10
9.8529959
20
0.7283483
11
14.7173959
21
4.0840483
0
ARC
8
DEFAULT_255_2_778
10
15.2340384
20
1.7153836
40
1.5819683
50
269.8294813
51
289.3760891
0
ARC
8
DEFAULT_255_2_778
10
15.162301
20
1.8134571
40
1.6986505
50
290.5613406
51
345.1890926
0
ARC
8
DEFAULT_255_2_778
10
15.0181554
20
1.8833979
40
1.8561407
50
344.2392599
51
359.9894341
0
ARC
8
DEFAULT_255_2_778
10
15.0312571
20
1.8831528
40
1.8430388
50
359.9969791
51
7.6751071
0
ARC
8
DEFAULT_255_2_778
10
15.0348639
20
1.8835754
40
1.839408
50
7.6770661
51
8.7878281
0
ARC
8
DEFAULT_255_2_778
10
15.0322188
20
1.8831188
40
1.8420918
50
8.7892925
51
15.2475866
0
ARC
8
DEFAULT_255_2_778
10
15.0260882
20
1.8815413
40
1.8484215
50
15.2447874
51
16.7879683
0
ARC
8
DEFAULT_255_2_778
10
15.1099469
20
1.8753672
40
1.7701766
50
17.7633046
51
83.70309
0
ARC
8
DEFAULT_255_2_778
10
15.1615703
20
2.0407153
40
1.6005078
50
84.8908435
51
89.9405769
0
ARC
8
DEFAULT_255_2_778
10
15.1679145
20
1.9895951
40
1.6516338
50
90.1624988
51
106.9507261
0
ARC
8
DEFAULT_255_2_778
10
15.2219123
20
1.804464
40
1.8444667
50
106.8785687
51
115.9998524
0
ARC
8
DEFAULT_255_2_778
10
15.3100024
20
1.6203938
40
2.0485245
50
115.9574595
51
121.721098
0
ARC
8
DEFAULT_255_2_778
10
15.3826714
20
1.4998522
40
2.1892682
50
121.6801276
51
123.5440477
0
LINE
8
DEFAULT_255_2_778
10
14.1729303
20
3.3221223
11
9.6043303
21
0.1334223
0
LINE
8
DEFAULT_255_2_778
10
9.6043303
20
0.1334223
11
15.2293303
21
0.1334223
0
ARC
8
DEFAULT_255_2_778
10
2.0678161
20
1.3493706
40
2.3437052
50
57.3086089
51
62.1077043
0
ARC
8
DEFAULT_255_2_778
10
2.1464109
20
1.4980518
40
2.1755288
50
62.1053248
51
67.376204
0
ARC
8
DEFAULT_255_2_778
10
2.1929138
20
1.6076875
40
2.0564409
50
67.3971006
51
70.646845
0
ARC
8
DEFAULT_255_2_778
10
2.2316243
20
1.7217846
40
1.9359631
50
70.6087402
51
77.9771979
0
ARC
8
DEFAULT_255_2_778
10
2.2603433
20
1.8572093
40
1.7975269
50
77.9733698
51
86.5337895
0
ARC
8
DEFAULT_255_2_778
10
2.266218
20
1.9336286
40
1.7208928
50
86.5751969
51
89.994155
0
ARC
8
DEFAULT_255_2_778
10
2.2621811
20
2.0246834
40
1.6298436
50
89.8519158
51
136.6478514
0
ARC
8
DEFAULT_255_2_778
10
2.438077
20
1.8468082
40
1.8798733
50
136.3859623
51
151.095127
0
ARC
8
DEFAULT_255_2_778
10
2.6611398
20
1.7192313
40
2.1368164
50
150.9914954
51
159.2836076
0
ARC
8
DEFAULT_255_2_778
10
2.8173548
20
1.8664347
40
2.2391873
50
164.2267811
51
169.0245328
0
ARC
8
DEFAULT_255_2_778
10
2.6795383
20
1.8930708
40
2.0988203
50
169.0220822
51
174.4404287
0
ARC
8
DEFAULT_255_2_778
10
2.5643103
20
1.9044158
40
1.9830353
50
174.4441329
51
179.9770311
0
ARC
8
DEFAULT_255_2_778
10
2.4098178
20
1.9001204
40
1.8285497
50
179.8404988
51
198.0950408
0
ARC
8
DEFAULT_255_2_778
10
2.3313466
20
1.8800732
40
1.747741
50
198.2693469
51
256.8681778
0
ARC
8
DEFAULT_255_2_778
10
2.359305
20
1.9697761
40
1.8414629
50
256.6551236
51
270.0553473
0
LINE
8
DEFAULT_255_2_778
10
2.3637838
20
0.133014
11
7.9056838
21
0.133014
0
LINE
8
DEFAULT_255_2_778
10
7.9056838
20
0.133014
11
3.3336838
21
3.321814
0
ENDSEC
0
EOF