0
SECTION
2
HEADER
9
$MEASUREMENT
70
1
0
ENDSEC
0
SECTION
2
TABLES
0
TABLE
2
LTYPE
0
LTYPE
72
65
70
64
2
CONTINUOUS
3
______
73
0
40
0
0
ENDTAB
0
TABLE
2
LAYER
0
LAYER
2
DEFAULT_255_2_778
70
0
62
255
6
CONTINUOUS
0
ENDTAB
0
ENDSEC
0
SECTION
2
ENTITIES
0
ARC
8
DEFAULT_255_2_778
10
15.6181933
20
7.8100655
40
1.4476906
50
46.38124
51
89.9967462
0
ARC
8
DEFAULT_255_2_778
10
15.6182793
20
7.8088574
40
1.4488987
50
90.0001519
51
91.7041031
0
ARC
8
DEFAULT_255_2_778
10
15.6213032
20
7.7898674
40
1.4679723
50
91.8000335
51
150.782851
0
ARC
8
DEFAULT_255_2_778
10
11.4693701
20
15.2872301
40
7.0598346
50
272.8797009
51
273.762906
0
ARC
8
DEFAULT_255_2_778
10
11.3021994
20
18.6295225
40
10.4063051
50
272.007582
51
272.8744471
0
ARC
8
DEFAULT_255_2_778
10
11.1316172
20
23.4564111
40
15.2362067
50
271.3125113
51
272.0127836
0
ARC
8
DEFAULT_255_2_778
10
10.9764748
20
30.281931
40
22.0634894
50
270.6259764
51
271.3092881
0
ARC
8
DEFAULT_255_2_778
10
10.8699855
20
40.0595305
40
31.8416688
50
269.9827338
51
270.625367
0
ARC
8
DEFAULT_255_2_778
10
10.860988
20
47.0610952
40
38.8432321
50
269.8541762
51
269.9991179
0
ARC
8
DEFAULT_255_2_778
10
10.8801687
20
52.6662568
40
44.4484248
50
269.4011084
51
269.8478406
0
ARC
8
DEFAULT_255_2_778
10
10.9253743
20
57.3702246
40
49.1526085
50
269.1137901
51
269.4057301
0
ARC
8
DEFAULT_255_2_778
10
10.9216665
20
57.1959299
40
48.9782772
50
268.9067206
51
269.1149735
0
ARC
8
DEFAULT_255_2_778
10
10.8499976
20
53.5033903
40
45.2850424
50
268.6724652
51
268.9082409
0
ARC
8
DEFAULT_255_2_778
10
10.6922045
20
46.7066632
40
38.486484
50
268.4625929
51
268.6728905
0
ARC
8
DEFAULT_255_2_778
10
10.4638358
20
38.2355729
40
30.0123161
50
268.2239091
51
268.4645221
0
ARC
8
DEFAULT_255_2_778
10
10.2306717
20
30.6754179
40
22.4485667
50
268.0441701
51
268.2206808
0
ARC
8
DEFAULT_255_2_778
10
10.0005688
20
23.9841807
40
15.7533744
50
267.7600224
51
268.0500015
0
ARC
8
DEFAULT_255_2_778
10
9.7486211
20
17.5676285
40
9.331878
50
267.3792334
51
267.7659414
0
ARC
8
DEFAULT_255_2_778
10
9.5409607
20
13.0465435
40
4.8060265
50
266.8511574
51
267.3877736
0
ARC
8
DEFAULT_255_2_778
10
9.4009973
20
10.5034039
40
2.2590382
50
266.184431
51
266.8526127
0
ARC
8
DEFAULT_255_2_778
10
9.2996956
20
9.0134417
40
0.7656398
50
264.505628
51
266.3286781
0
ARC
8
DEFAULT_255_2_778
10
9.2323015
20
8.3340154
40
0.082907
50
257.4154067
51
265.9092066
0
ARC
8
DEFAULT_255_2_778
10
9.2149545
20
8.2560182
40
0.0030046
50
236.4100426
51
256.1987752
0
ARC
8
DEFAULT_255_2_778
10
11.6562758
20
6.9277327
40
2.7876106
50
148.5853632
51
151.2975027
0
ARC
8
DEFAULT_255_2_778
10
12.7722535
20
6.2479037
40
4.0943517
50
146.3179909
51
148.6063602
0
ARC
8
DEFAULT_255_2_778
10
14.1169068
20
5.3542365
40
5.7088888
50
144.4954386
51
146.3388289
0
ARC
8
DEFAULT_255_2_778
10
15.7955128
20
4.1561888
40
7.7711778
50
142.6578183
51
144.4923897
0
ARC
8
DEFAULT_255_2_778
10
17.8891097
20
2.5614037
40
10.4029994
50
141.1272281
51
142.6689643
0
ARC
8
DEFAULT_255_2_778
10
20.2105532
20
0.6928396
40
13.3830377
50
139.8656496
51
141.1365069
0
ARC
8
DEFAULT_255_2_778
10
22.9129241
20
-1.5857573
40
16.9178379
50
138.6255612
51
139.865083
0
ARC
8
DEFAULT_255_2_778
10
25.7685577
20
-4.0957376
40
20.7197627
50
137.7599643
51
138.6366339
0
ARC
8
DEFAULT_255_2_778
10
28.7770538
20
-6.8286655
40
24.784236
50
136.8402573
51
137.757984
0
ARC
8
DEFAULT_255_2_778
10
32.0653445
20
-9.9087247
40
29.2897452
50
136.1311455
51
136.8452604
0
ARC
8
DEFAULT_255_2_778
10
35.3928603
20
-13.1069409
40
33.9050402
50
135.4597097
51
136.1316838
0
ARC
8
DEFAULT_255_2_778
10
26.2386769
20
-4.0821684
40
21.05026
50
134.2768732
51
135.4913692
0
ARC
8
DEFAULT_255_2_778
10
23.2443111
20
-1.0094361
40
16.7598162
50
132.8440903
51
134.2811997
0
ARC
8
DEFAULT_255_2_778
10
20.9386393
20
1.477264
40
13.3686808
50
131.2206736
51
132.8459591
0
ARC
8
DEFAULT_255_2_778
10
19.2175066
20
3.4432592
40
10.7557449
50
129.2792335
51
131.2255597
0
ARC
8
DEFAULT_255_2_778
10
18.0426515
20
4.8786809
40
8.9008271
50
127.1840231
51
129.2750247
0
ARC
8
DEFAULT_255_2_778
10
17.3828268
20
5.7472304
40
7.8100722
50
124.6425433
51
127.1785213
0
ARC
8
DEFAULT_255_2_778
10
17.5845111
20
5.4422639
40
8.1756245
50
121.9922367
51
124.5904653
0
ARC
8
DEFAULT_255_2_778
10
22.4373871
20
-2.3798898
40
17.3808466
50
120.7403657
51
121.898648
0
ARC
8
DEFAULT_255_2_778
10
14.3372284
20
14.1811041
40
1.4563856
50
253.5246032
51
269.9675964
0
ARC
8
DEFAULT_255_2_778
10
14.3364205
20
14.1614337
40
1.436715
50
269.9993701
51
271.5064971
0
ARC
8
DEFAULT_255_2_778
10
14.3352421
20
14.1662922
40
1.4416032
50
271.5482399
51
301.6903252
0
ARC
8
DEFAULT_255_2_778
10
14.332882
20
14.1723181
40
1.4479709
50
301.6445305
51
354.0138849
0
ARC
8
DEFAULT_255_2_778
10
14.3231783
20
14.1711015
40
1.4574966
50
354.1012297
51
0.0082802
0
ARC
8
DEFAULT_255_2_778
10
14.3064914
20
14.1712973
40
1.4741833
50
0.0005771
51
1.4661136
0
ARC
8
DEFAULT_255_2_778
10
14.3394473
20
14.1702463
40
1.4412664
50
1.5414023
51
31.6901315
0
ARC
8
DEFAULT_255_2_778
10
14.3331337
20
14.1677061
40
1.4479737
50
31.6444189
51
84.0124845
0
ARC
8
DEFAULT_255_2_778
10
14.3344005
20
14.1582886
40
1.4572095
50
84.1006449
51
90.0082434
0
ARC
8
DEFAULT_255_2_778
10
14.3342058
20
14.1416577
40
1.4738402
50
90.0005825
51
91.4662818
0
ARC
8
DEFAULT_255_2_778
10
14.3348786
20
14.174775
40
1.4407518
50
91.5267276
51
121.6921497
0
ARC
8
DEFAULT_255_2_778
10
14.3381701
20
14.1675633
40
1.4486177
50
121.6530743
51
173.7849266
0
ARC
8
DEFAULT_255_2_778
10
14.3482323
20
14.1686129
40
1.4585088
50
173.86871
51
180.0088109
0
ARC
8
DEFAULT_255_2_778
10
14.3654211
20
14.1684093
40
1.4756976
50
180.0008033
51
181.4442541
0
ARC
8
DEFAULT_255_2_778
10
14.3275911
20
14.1719582
40
1.4379761
50
181.623606
51
197.2092492
0
ARC
8
DEFAULT_255_2_778
10
6.0458063
20
19.2220091
40
8.8149909
50
319.9839988
51
321.5993223
0
ARC
8
DEFAULT_255_2_778
10
2.6154777
20
22.0970647
40
13.2908249
50
318.8016782
51
320.0003901
0
ARC
8
DEFAULT_255_2_778
10
-1.7364109
20
25.9040283
40
19.0728577
50
317.827939
51
318.8075592
0
ARC
8
DEFAULT_255_2_778
10
-8.1461641
20
31.7165682
40
27.7256341
50
316.8026653
51
317.8184073
0
ARC
8
DEFAULT_255_2_778
10
-17.3749219
20
40.3773038
40
40.3817908
50
315.9775048
51
316.8076684
0
ARC
8
DEFAULT_255_2_778
10
-25.7711846
20
48.4696794
40
52.0429903
50
315.6242068
51
315.9950588
0
ARC
8
DEFAULT_255_2_778
10
-33.4788805
20
56.0172356
40
62.830676
50
315.1455282
51
315.6202965
0
ARC
8
DEFAULT_255_2_778
10
-41.348177
20
63.8382055
40
73.925421
50
314.8578187
51
315.1501723
0
ARC
8
DEFAULT_255_2_778
10
-45.4920867
20
67.9978416
40
79.796924
50
314.7728229
51
314.8602959
0
ARC
8
DEFAULT_255_2_778
10
-18.606582
20
41.021347
40
41.7108734
50
314.6473644
51
314.6537668
0
LINE
8
DEFAULT_255_2_778
10
10.7053764
20
11.3463397
11
10.2451383
21
10.8911483
0
ARC
8
DEFAULT_255_2_778
10
-106.7785921
20
129.3039394
40
166.4816583
50
314.5408377
51
314.6619624
0
ARC
8
DEFAULT_255_2_778
10
-63.1998955
20
85.0202058
40
104.351538
50
314.3430235
51
314.5411878
0
ARC
8
DEFAULT_255_2_778
10
-46.5040316
20
67.9474149
40
80.4720071
50
314.2239173
51
314.3378408
0
ARC
8
DEFAULT_255_2_778
10
-29.535137
20
50.4764768
40
56.1167992
50
313.631187
51
314.2495594
0
ARC
8
DEFAULT_255_2_778
10
-14.0269094
20
34.2126345
40
33.6442008
50
312.8955409
51
313.6268845
0
ARC
8
DEFAULT_255_2_778
10
-5.8304284
20
25.3936586
40
21.6044072
50
312.1001347
51
312.8903696
0
ARC
8
DEFAULT_255_2_778
10
-1.1747971
20
20.2435236
40
14.6618724
50
311.290392
51
312.0940304
0
ARC
8
DEFAULT_255_2_778
10
2.1038982
20
16.5049746
40
9.6892901
50
310.0722871
51
311.3107839
0
ARC
8
DEFAULT_255_2_778
10
4.6906272
20
13.4244603
40
5.6667644
50
308.1916741
51
310.1091118
0
ARC
8
DEFAULT_255_2_778
10
6.1361145
20
11.5914345
40
3.3323683
50
306.4574286
51
308.1447897
0
ARC
8
DEFAULT_255_2_778
10
8.1787645
20
9.0444902
40
0.1471902
50
228.2266062
51
244.8852715
0
ARC
8
DEFAULT_255_2_778
10
8.5480286
20
9.4866823
40
0.723224
50
223.9028632
51
229.7471088
0
ARC
8
DEFAULT_255_2_778
10
9.5026988
20
10.4198004
40
2.0581648
50
221.2780058
51
224.1902258
0
ARC
8
DEFAULT_255_2_778
10
11.0736651
20
11.809424
40
4.1555341
50
219.8280889
51
221.3874688
0
ARC
8
DEFAULT_255_2_778
10
13.462942
20
13.8017411
40
7.266478
50
218.4446157
51
219.8260386
0
ARC
8
DEFAULT_255_2_778
10
16.9981353
20
16.6127228
40
11.7830255
50
217.3983767
51
218.4618949
0
ARC
8
DEFAULT_255_2_778
10
21.1406266
20
19.7828638
40
16.9993483
50
216.4826209
51
217.4068196
0
ARC
8
DEFAULT_255_2_778
10
25.0814281
20
22.6991193
40
21.9018434
50
215.5160092
51
216.4869648
0
ARC
8
DEFAULT_255_2_778
10
26.60218
20
23.7908219
40
23.7738682
50
215.2201827
51
215.5284061
0
ARC
8
DEFAULT_255_2_778
10
26.6125929
20
23.7990384
40
23.7871135
50
214.5348816
51
215.2218859
0
ARC
8
DEFAULT_255_2_778
10
24.552781
20
22.3872267
40
21.2899124
50
213.5138365
51
214.5475293
0
ARC
8
DEFAULT_255_2_778
10
20.6616827
20
19.810423
40
16.6229473
50
212.5690085
51
213.5138639
0
ARC
8
DEFAULT_255_2_778
10
17.2092173
20
17.6041322
40
12.5257245
50
211.6843903
51
212.5652409
0
ARC
8
DEFAULT_255_2_778
10
14.6564542
20
16.0274598
40
9.5253087
50
210.8676234
51
211.6791978
0
ARC
8
DEFAULT_255_2_778
10
12.3232831
20
14.6364759
40
6.8089674
50
209.528451
51
210.8936271
0
ARC
8
DEFAULT_255_2_778
10
10.1288299
20
13.3953243
40
4.2878409
50
207.7074494
51
209.5499509
0
ARC
8
DEFAULT_255_2_778
10
8.9704175
20
12.7827424
40
2.9774379
50
206.8381065
51
207.6357302
0
ARC
8
DEFAULT_255_2_778
10
-49.1964115
20
-16.7029148
40
62.2359358
50
26.8832081
51
26.8922442
0
ARC
8
DEFAULT_255_2_778
10
-95.5674031
20
-40.2171424
40
114.2281252
50
26.8908005
51
26.8957034
0
ARC
8
DEFAULT_255_2_778
10
-94.4349561
20
-39.6464866
40
112.960027
50
26.8974046
51
26.9023421
0
ARC
8
DEFAULT_255_2_778
10
-93.3120759
20
-39.0805224
40
111.7025834
50
26.9040634
51
26.909036
0
ARC
8
DEFAULT_255_2_778
10
-47.0811453
20
-15.6166062
40
59.8580629
50
26.908645
51
26.9178862
0
ARC
8
DEFAULT_255_2_778
10
-164.0445546
20
-75.0020819
40
191.0337995
50
26.9180556
51
26.9209394
0
ARC
8
DEFAULT_255_2_778
10
-46.0593413
20
-15.0907342
40
58.7088959
50
26.9211085
51
26.9304534
0
ARC
8
DEFAULT_255_2_778
10
-159.8446209
20
-72.8901144
40
186.3327895
50
26.929562
51
26.9324942
0
ARC
8
DEFAULT_255_2_778
10
-88.0166436
20
-36.4032865
40
105.7688589
50
26.9348221
51
26.9399666
0
ARC
8
DEFAULT_255_2_778
10
-44.5694514
20
-14.322731
40
57.0327383
50
26.9395936
51
26.9490951
0
ARC
8
DEFAULT_255_2_778
10
-59.2102059
20
-21.7618004
40
73.4550231
50
26.9460424
51
26.9533894
0
ARC
8
DEFAULT_255_2_778
10
-151.6168557
20
-68.7533271
40
177.12369
50
26.9541499
51
26.9571843
0
ARC
8
DEFAULT_255_2_778
10
-57.9227251
20
-21.1030227
40
72.0087927
50
26.9579508
51
26.965384
0
ARC
8
DEFAULT_255_2_778
10
-57.2894889
20
-20.778866
40
71.2974121
50
26.9639598
51
26.9714364
0
ARC
8
DEFAULT_255_2_778
10
-56.6609058
20
-20.4570207
40
70.5912265
50
26.9700181
51
26.9775386
0
ARC
8
DEFAULT_255_2_778
10
-56.036948
20
-20.1374734
40
69.8902052
50
26.9761264
51
26.9836912
0
ARC
8
DEFAULT_255_2_778
10
-55.4405879
20
-19.8303881
40
69.2194316
50
26.981155
51
26.9887619
0
ARC
8
DEFAULT_255_2_778
10
-80.6183931
20
-32.653399
40
97.4745458
50
26.9890229
51
26.9944027
0
ARC
8
DEFAULT_255_2_778
10
-54.2445728
20
-19.2158956
40
67.8748011
50
26.9924351
51
27.0001295
0
ARC
8
DEFAULT_255_2_778
10
-53.6451219
20
-18.9085716
40
67.2011642
50
26.998696
51
27.0064358
0
ARC
8
DEFAULT_255_2_778
10
-77.9620628
20
-31.3005371
40
94.4935517
50
27.0055847
51
27.0110665
0
ARC
8
DEFAULT_255_2_778
10
-77.1073254
20
-30.8643246
40
93.5339385
50
27.0107969
51
27.0163124
0
ARC
8
DEFAULT_255_2_778
10
-76.186235
20
-30.3983249
40
92.5016824
50
27.0183263
51
27.0238806
0
ARC
8
DEFAULT_255_2_778
10
-133.8133166
20
-59.7920882
40
157.1922835
50
27.0242176
51
27.0274728
0
ARC
8
DEFAULT_255_2_778
10
-132.0976147
20
-58.9266599
40
155.2706899
50
27.0306948
51
27.0339768
0
ARC
8
DEFAULT_255_2_778
10
-37.8258462
20
-10.820447
40
49.434146
50
27.0320059
51
27.0422726
0
ARC
8
DEFAULT_255_2_778
10
-50.3601642
20
-17.2147798
40
63.5052728
50
27.0391594
51
27.0471188
0
ARC
8
DEFAULT_255_2_778
10
-49.8224441
20
-16.9371278
40
62.900107
50
27.0445935
51
27.0525968
0
ARC
8
DEFAULT_255_2_778
10
-125.8223966
20
-55.7483286
40
148.2365124
50
27.05238
51
27.0557621
0
ARC
8
DEFAULT_255_2_778
10
-124.3930961
20
-55.0210574
40
146.6328239
50
27.056718
51
27.0601233
0
ARC
8
DEFAULT_255_2_778
10
-122.7859348
20
-54.2094584
40
144.8323824
50
27.0634405
51
27.0668741
0
ARC
8
DEFAULT_255_2_778
10
-47.7415868
20
-15.8603949
40
60.5572092
50
27.0654728
51
27.0736514
0
ARC
8
DEFAULT_255_2_778
10
-69.5224144
20
-26.9923072
40
85.0178698
50
27.0728929
51
27.0786948
0
ARC
8
DEFAULT_255_2_778
10
-46.7195646
20
-15.3319034
40
59.4066425
50
27.0767253
51
27.0849948
0
ARC
8
DEFAULT_255_2_778
10
-46.2331802
20
-15.0787903
40
58.8583536
50
27.0812002
51
27.089513
0
ARC
8
DEFAULT_255_2_778
10
-115.6693046
20
-50.5944673
40
136.8502677
50
27.0893089
51
27.0928697
0
ARC
8
DEFAULT_255_2_778
10
-66.5836944
20
-25.4844614
40
81.7148931
50
27.0932831
51
27.0992223
0
ARC
8
DEFAULT_255_2_778
10
-65.8518336
20
-25.1097059
40
80.8926633
50
27.0990609
51
27.1050362
0
ARC
8
DEFAULT_255_2_778
10
-365.4613729
20
-178.4696019
40
417.4712333
50
27.106101
51
27.1072542
0
ARC
8
DEFAULT_255_2_778
10
-358.4763427
20
-174.9320082
40
409.6415427
50
27.1119782
51
27.1131487
0
ARC
8
DEFAULT_255_2_778
10
-63.7231216
20
-24.0173053
40
78.5000189
50
27.1154263
51
27.1215094
0
ARC
8
DEFAULT_255_2_778
10
-111.4759542
20
-48.4743549
40
132.1514897
50
27.1207627
51
27.1243615
0
ARC
8
DEFAULT_255_2_778
10
-62.408444
20
-23.3377815
40
77.0201205
50
27.1236147
51
27.1297646
0
ARC
8
DEFAULT_255_2_778
10
-61.7168466
20
-22.9831732
40
76.2429113
50
27.1295997
51
27.1357873
0
ARC
8
DEFAULT_255_2_778
10
-107.6581005
20
-46.5299353
40
127.8670222
50
27.1362713
51
27.1399459
0
ARC
8
DEFAULT_255_2_778
10
-30.8792823
20
-7.1700051
40
41.5872969
50
27.1366928
51
27.1479454
0
ARC
8
DEFAULT_255_2_778
10
-41.3510481
20
-12.5336906
40
53.3527964
50
27.1421641
51
27.1508998
0
ARC
8
DEFAULT_255_2_778
10
-104.0359013
20
-44.6812295
40
123.8003306
50
27.150808
51
27.1545576
0
ARC
8
DEFAULT_255_2_778
10
-102.9321319
20
-44.1147869
40
122.5597001
50
27.1544377
51
27.1582099
0
ARC
8
DEFAULT_255_2_778
10
-40.0635465
20
-11.8612589
40
51.9003122
50
27.1568267
51
27.165699
0
ARC
8
DEFAULT_255_2_778
10
-100.5997367
20
-42.923615
40
119.9407434
50
27.1643301
51
27.1681539
0
ARC
8
DEFAULT_255_2_778
10
-99.4556736
20
-42.3391247
40
118.6560242
50
27.1693029
51
27.1731525
0
ARC
8
DEFAULT_255_2_778
10
-98.320918
20
-41.7592902
40
117.3817116
50
27.1743157
51
27.1781914
0
ARC
8
DEFAULT_255_2_778
10
-97.1954079
20
-41.1840808
40
116.1177365
50
27.179369
51
27.1832712
0
ARC
8
DEFAULT_255_2_778
10
-96.1587595
20
-40.6513924
40
114.9522338
50
27.1831355
51
27.1870615
0
ARC
8
DEFAULT_255_2_778
10
-37.605383
20
-10.5743793
40
49.1257603
50
27.1856318
51
27.1947815
0
ARC
8
DEFAULT_255_2_778
10
-55.0567705
20
-19.5348839
40
68.7431391
50
27.1901251
51
27.1966376
0
ARC
8
DEFAULT_255_2_778
10
-54.4449902
20
-19.2204644
40
68.055291
50
27.1965982
51
27.2031501
0
ARC
8
DEFAULT_255_2_778
10
-291.6519438
20
-141.1443692
40
334.7622041
50
27.2030897
51
27.2044163
0
ARC
8
DEFAULT_255_2_778
10
-287.4964572
20
-139.0247859
40
330.0973906
50
27.206956
51
27.208296
0
ARC
8
DEFAULT_255_2_778
10
-282.7657394
20
-136.6176388
40
324.7895146
50
27.2122147
51
27.2135712
0
ARC
8
DEFAULT_255_2_778
10
-52.2102039
20
-18.0607486
40
65.5375308
50
27.2148168
51
27.2215122
0
ARC
8
DEFAULT_255_2_778
10
-51.7028044
20
-17.7945023
40
64.9645393
50
27.2174045
51
27.224132
0
ARC
8
DEFAULT_255_2_778
10
-270.2493901
20
-130.236393
40
310.7404308
50
27.2254136
51
27.2268144
0
ARC
8
DEFAULT_255_2_778
10
-50.623839
20
-17.234105
40
63.7487311
50
27.2267167
51
27.2335178
0
ARC
8
DEFAULT_255_2_778
10
-88.6346949
20
-36.7956096
40
106.4977385
50
27.2327813
51
27.2368361
0
ARC
8
DEFAULT_255_2_778
10
-258.848587
20
-124.4156914
40
297.9397606
50
27.2374588
51
27.2389024
0
ARC
8
DEFAULT_255_2_778
10
288.8750306
20
157.5757244
40
318.1124454
50
207.2422689
51
207.2436156
0
ARC
8
DEFAULT_255_2_778
10
-48.5533307
20
-16.1560592
40
61.414407
50
27.2442276
51
27.2511752
0
ARC
8
DEFAULT_255_2_778
10
-84.9276564
20
-34.8867394
40
102.3280961
50
27.2490484
51
27.2532016
0
ARC
8
DEFAULT_255_2_778
10
-84.0857774
20
-34.4502507
40
101.3797943
50
27.2517783
51
27.2559536
0
ARC
8
DEFAULT_255_2_778
10
-83.1296319
20
-33.960321
40
100.3054387
50
27.2572959
51
27.2614992
0
ARC
8
DEFAULT_255_2_778
10
-82.3000936
20
-33.5301026
40
99.3709787
50
27.2600808
51
27.2643067
0
ARC
8
DEFAULT_255_2_778
10
-81.4243796
20
-33.0786735
40
98.3857561
50
27.2642394
51
27.2684907
0
ARC
8
DEFAULT_255_2_778
10
-80.5551496
20
-32.6305216
40
97.4077985
50
27.2684311
51
27.272708
0
ARC
8
DEFAULT_255_2_778
10
-79.6923654
20
-32.1856278
40
96.4370631
50
27.2726563
51
27.2769591
0
ARC
8
DEFAULT_255_2_778
10
-253.5689058
20
-121.8454005
40
292.0691825
50
27.2776443
51
27.2790594
0
ARC
8
DEFAULT_255_2_778
10
-249.4771688
20
-119.7593996
40
287.4764437
50
27.2833122
51
27.2847442
0
ARC
8
DEFAULT_255_2_778
10
-246.4379346
20
-118.1997787
40
284.0604066
50
27.286182
51
27.2876254
0
ARC
8
DEFAULT_255_2_778
10
-242.9679881
20
-116.4253317
40
280.1631003
50
27.2904566
51
27.2919143
0
ARC
8
DEFAULT_255_2_778
10
-29.5447638
20
-6.305809
40
40.0052732
50
27.2897227
51
27.2998912
0
ARC
8
DEFAULT_255_2_778
10
-237.1049619
20
-113.4154472
40
273.5726305
50
27.2962306
51
27.2977116
0
ARC
8
DEFAULT_255_2_778
10
-233.7431941
20
-111.6957654
40
269.7965742
50
27.3005964
51
27.3020922
0
ARC
8
DEFAULT_255_2_778
10
246.0986928
20
136.0106879
40
270.2096516
50
207.3042594
51
207.3057471
0
ARC
8
DEFAULT_255_2_778
10
-75.9250082
20
-30.2338255
40
92.1941319
50
27.3072245
51
27.3115675
0
ARC
8
DEFAULT_255_2_778
10
-75.1738601
20
-29.8434438
40
91.3476
50
27.3101781
51
27.314544
0
ARC
8
DEFAULT_255_2_778
10
-221.6996841
20
-105.5218988
40
256.262868
50
27.3152848
51
27.3168349
0
ARC
8
DEFAULT_255_2_778
10
-41.1432057
20
-12.2609533
40
53.0431696
50
27.3152967
51
27.3227562
0
ARC
8
DEFAULT_255_2_778
10
-40.7173509
20
-12.0378325
40
52.5624122
50
27.3197476
51
27.3272456
0
ARC
8
DEFAULT_255_2_778
10
-213.2994878
20
-101.2106791
40
246.8209784
50
27.3257212
51
27.3273117
0
ARC
8
DEFAULT_255_2_778
10
240.8293613
20
133.4761711
40
264.3648288
50
207.3295417
51
207.3310207
0
ARC
8
DEFAULT_255_2_778
10
-70.6717611
20
-27.5100832
40
86.2767594
50
27.3325422
51
27.3370564
0
ARC
8
DEFAULT_255_2_778
10
-69.9699643
20
-27.1448052
40
85.4855946
50
27.3355807
51
27.3401188
0
ARC
8
DEFAULT_255_2_778
10
-69.328495
20
-26.8080956
40
84.7611392
50
27.3370843
51
27.3416432
0
ARC
8
DEFAULT_255_2_778
10
237.7729547
20
131.9972763
40
260.9706162
50
207.3432344
51
207.3447093
0
ARC
8
DEFAULT_255_2_778
10
-67.9063361
20
-26.0702496
40
83.1589693
50
27.3447382
51
27.3493485
0
ARC
8
DEFAULT_255_2_778
10
-206.7269334
20
-97.873375
40
239.4498745
50
27.3495583
51
27.3519494
0
ARC
8
DEFAULT_255_2_778
10
-108.9693349
20
-47.3091118
40
129.3894695
50
27.3537179
51
27.3581168
0
ARC
8
DEFAULT_255_2_778
10
-52.7520162
20
-18.2186157
40
66.0914136
50
27.3563284
51
27.3648895
0
ARC
8
DEFAULT_255_2_778
10
-208.0459781
20
-98.5935457
40
240.9523411
50
27.364653
51
27.3669874
0
ARC
8
DEFAULT_255_2_778
10
-204.5653514
20
-96.7981634
40
237.035949
50
27.3683312
51
27.3706903
0
ARC
8
DEFAULT_255_2_778
10
-200.8789598
20
-94.9005728
40
232.8898378
50
27.3730633
51
27.3754503
0
ARC
8
DEFAULT_255_2_778
10
-68.0364497
20
-26.1141681
40
83.294711
50
27.375704
51
27.3823389
0
ARC
8
DEFAULT_255_2_778
10
-193.9748002
20
-91.3415558
40
225.1223537
50
27.381523
51
27.3839635
0
ARC
8
DEFAULT_255_2_778
10
-193.9028291
20
-91.3147146
40
225.0461019
50
27.3863236
51
27.3879424
0
ARC
8
DEFAULT_255_2_778
10
-100.202018
20
-42.7698837
40
119.5167572
50
27.3879603
51
27.3925126
0
ARC
8
DEFAULT_255_2_778
10
193.9850971
20
109.6781862
40
211.823661
50
207.391944
51
207.3936471
0
ARC
8
DEFAULT_255_2_778
10
-97.7601824
20
-41.5005374
40
116.7647055
50
27.3938492
51
27.3984635
0
ARC
8
DEFAULT_255_2_778
10
-96.1648247
20
-40.6766689
40
114.9691781
50
27.3998051
51
27.4044642
0
ARC
8
DEFAULT_255_2_778
10
-189.2261558
20
-88.9183012
40
219.7912486
50
27.4030804
51
27.4055032
0
ARC
8
DEFAULT_255_2_778
10
-186.0831636
20
-87.2946053
40
216.2536278
50
27.4068815
51
27.4093296
0
ARC
8
DEFAULT_255_2_778
10
-182.7508303
20
-85.576887
40
212.504639
50
27.411792
51
27.4142688
0
ARC
8
DEFAULT_255_2_778
10
-60.9048655
20
-22.3764735
40
75.2430954
50
27.4122666
51
27.4192211
0
ARC
8
DEFAULT_255_2_778
10
-92.7890161
20
-38.9116842
40
111.1598357
50
27.4166883
51
27.4213683
0
LINE
8
DEFAULT_255_2_778
10
5.8813109
20
12.2808506
11
5.5673476
21
12.8846453
0
ARC
8
DEFAULT_255_2_778
10
42.080556
20
31.8462302
40
41.1431172
50
207.0133519
51
207.443193
0
ARC
8
DEFAULT_255_2_778
10
18.8906722
20
20.0333187
40
15.1178337
50
205.9826133
51
207.0462127
0
ARC
8
DEFAULT_255_2_778
10
10.9730469
20
16.1811765
40
6.3128519
50
203.886537
51
206.0361988
0
ARC
8
DEFAULT_255_2_778
10
7.6695105
20
14.7245704
40
2.7024539
50
199.71797
51
204.0104324
0
ARC
8
DEFAULT_255_2_778
10
6.333551
20
14.2446569
40
1.2829107
50
194.0449904
51
199.6718109
0
ARC
8
DEFAULT_255_2_778
10
3.9881849
20
14.6323514
40
1.3040046
50
327.5835822
51
359.9960032
0
ARC
8
DEFAULT_255_2_778
10
3.9889901
20
14.6322603
40
1.3031996
50
0.0000076
51
1.7349251
0
ARC
8
DEFAULT_255_2_778
10
3.9745839
20
14.6371938
40
1.3174607
50
1.5014986
51
33.7260394
0
ARC
8
DEFAULT_255_2_778
10
3.9683889
20
14.6348291
40
1.3239269
50
33.6623
51
84.9208681
0
ARC
8
DEFAULT_255_2_778
10
3.968997
20
14.623444
40
1.3352145
50
84.9901099
51
90.0061556
0
ARC
8
DEFAULT_255_2_778
10
3.9688719
20
14.6094359
40
1.3492226
50
90.000778
51
91.4686125
0
ARC
8
DEFAULT_255_2_778
10
3.9671058
20
14.6420232
40
1.3166012
50
91.4281298
51
136.6256311
0
ARC
8
DEFAULT_255_2_778
10
3.9437573
20
14.6502489
40
1.2940194
50
136.180384
51
180.0024554
0
ARC
8
DEFAULT_255_2_778
10
3.9705603
20
14.6502157
40
1.3208225
50
180.0009661
51
182.0609575
0
ARC
8
DEFAULT_255_2_778
10
3.9694286
20
14.6379594
40
1.3193072
50
181.5307862
51
216.9065508
0
ARC
8
DEFAULT_255_2_778
10
3.9731363
20
14.638066
40
1.3223377
50
216.8137687
51
263.0822135
0
ARC
8
DEFAULT_255_2_778
10
3.9745205
20
14.6545155
40
1.3388343
50
263.1081965
51
267.1688703
0
ARC
8
DEFAULT_255_2_778
10
0.848146
20
10.3706107
40
4.2483144
50
42.3722024
51
43.9171415
0
ARC
8
DEFAULT_255_2_778
10
-0.1550994
20
9.455497
40
5.6062299
50
40.6642428
51
42.3715754
0
ARC
8
DEFAULT_255_2_778
10
-1.2369458
20
8.5242958
40
7.033649
50
39.1424746
51
40.6756153
0
ARC
8
DEFAULT_255_2_778
10
-2.3830021
20
7.5919028
40
8.5110799
50
37.4494561
51
39.1404213
0
ARC
8
DEFAULT_255_2_778
10
-3.6745747
20
6.6022756
40
10.1382005
50
35.7379491
51
37.4511506
0
ARC
8
DEFAULT_255_2_778
10
-5.0818208
20
5.5893524
40
11.8720848
50
34.0071003
51
35.7391253
0
ARC
8
DEFAULT_255_2_778
10
-6.4627389
20
4.6553384
40
13.5392121
50
32.6109939
51
34.0152532
0
ARC
8
DEFAULT_255_2_778
10
-7.877885
20
3.7507367
40
15.2187782
50
31.0435115
51
32.608442
0
ARC
8
DEFAULT_255_2_778
10
-9.5198189
20
2.7626029
40
17.1351173
50
29.4327806
51
31.0431178
0
ARC
8
DEFAULT_255_2_778
10
-10.9524031
20
1.9504493
40
18.7818962
50
28.4875727
51
29.4430193
0
ARC
8
DEFAULT_255_2_778
10
-3.1709486
20
6.1748273
40
9.9277221
50
27.0202841
51
28.4795683
0
ARC
8
DEFAULT_255_2_778
10
-4.3678196
20
5.5742837
40
11.2667834
50
23.2585235
51
26.9757673
0
ARC
8
DEFAULT_255_2_778
10
-5.1896877
20
5.2126089
40
12.164681
50
20.9551252
51
23.2949919
0
ARC
8
DEFAULT_255_2_778
10
-4.7323342
20
5.3854863
40
11.6757495
50
19.1727043
51
20.965543
0
ARC
8
DEFAULT_255_2_778
10
-3.2586124
20
5.8957332
40
10.1161974
50
17.4523438
51
19.1843137
0
ARC
8
DEFAULT_255_2_778
10
-0.9784608
20
6.6108382
40
7.72654
50
15.7349909
51
17.4646496
0
ARC
8
DEFAULT_255_2_778
10
1.6253519
20
7.3417866
40
5.0220779
50
13.7171333
51
15.7642719
0
ARC
8
DEFAULT_255_2_778
10
4.112818
20
7.9436284
40
2.46285
50
10.5724637
51
13.8374854
0
ARC
8
DEFAULT_255_2_778
10
5.8321262
20
8.2583613
40
0.7150083
50
4.0542554
51
11.0586268
0
ARC
8
DEFAULT_255_2_778
10
6.3242114
20
8.2975871
40
0.2214237
50
0.1168131
51
2.9320365
0
ARC
8
DEFAULT_255_2_778
10
6.41425
20
8.2976038
40
0.1313854
50
356.0183563
51
0.1895501
0
ARC
8
DEFAULT_255_2_778
10
6.4759528
20
8.2931619
40
0.0695231
50
349.8019363
51
356.139278
0
ARC
8
DEFAULT_255_2_778
10
6.4991838
20
8.2893138
40
0.0459791
50
348.2052566
51
349.3960548
0
ARC
8
DEFAULT_255_2_778
10
6.9909571
20
5.0239132
40
3.2865101
50
97.8129202
51
99.4347404
0
ARC
8
DEFAULT_255_2_778
10
7.2345281
20
3.48685
40
4.8427225
50
99.2964854
51
99.3381384
0
ARC
8
DEFAULT_255_2_778
10
7.5124483
20
1.7949112
40
6.5573352
50
99.3355352
51
99.3662631
0
ARC
8
DEFAULT_255_2_778
10
7.5170147
20
1.7674602
40
6.5851634
50
99.3665935
51
99.3971547
0
ARC
8
DEFAULT_255_2_778
10
7.4508707
20
2.1678587
40
6.1793383
50
99.3982626
51
99.4307883
0
ARC
8
DEFAULT_255_2_778
10
7.4527028
20
2.1531065
40
6.1941914
50
99.4251467
51
99.4575486
0
ARC
8
DEFAULT_255_2_778
10
7.3906585
20
2.5218678
40
5.8202475
50
99.4515701
51
99.4860016
0
ARC
8
DEFAULT_255_2_778
10
7.4567261
20
2.1233805
40
6.2241742
50
99.4813149
51
99.5134602
0
ARC
8
DEFAULT_255_2_778
10
7.9822506
20
-1.0126548
40
9.4039371
50
99.5133084
51
99.534548
0
ARC
8
DEFAULT_255_2_778
10
7.9878714
20
-1.0433899
40
9.4351787
50
99.5372935
51
99.5584247
0
ARC
8
DEFAULT_255_2_778
10
7.8449442
20
-0.1924523
40
8.5723214
50
99.5608178
51
99.584032
0
ARC
8
DEFAULT_255_2_778
10
9.698158
20
-11.1547005
40
19.6901127
50
99.5904324
51
99.6005189
0
ARC
8
DEFAULT_255_2_778
10
7.7243275
20
0.5195986
40
7.8501269
50
99.6065506
51
99.6317979
0
ARC
8
DEFAULT_255_2_778
10
7.6174999
20
1.1447091
40
7.2159546
50
99.6259963
51
99.6534033
0
ARC
8
DEFAULT_255_2_778
10
9.1613888
20
-7.9340101
40
16.4250119
50
99.6521414
51
99.6641551
0
ARC
8
DEFAULT_255_2_778
10
7.6136144
20
1.1550653
40
7.2050934
50
99.6641396
51
99.6914629
0
ARC
8
DEFAULT_255_2_778
10
8.4223283
20
-3.5829573
40
12.0116386
50
99.6893723
51
99.7057226
0
ARC
8
DEFAULT_255_2_778
10
8.7509874
20
-5.5009612
40
13.9575975
50
99.7081971
51
99.7222329
0
ARC
8
DEFAULT_255_2_778
10
8.1720938
20
-2.1271873
40
10.534519
50
99.7176419
51
99.7361909
0
ARC
8
DEFAULT_255_2_778
10
8.4227939
20
-3.586318
40
12.0150299
50
99.7377779
51
99.7539985
0
ARC
8
DEFAULT_255_2_778
10
8.1680003
20
-2.108235
40
10.515147
50
99.7502059
51
99.7686899
0
ARC
8
DEFAULT_255_2_778
10
12.8377906
20
-29.2137812
40
38.0200115
50
99.773297
51
99.7783949
0
ARC
8
DEFAULT_255_2_778
10
10.851536
20
-17.6653048
40
26.3019702
50
99.7870448
51
99.7943929
0
ARC
8
DEFAULT_255_2_778
10
8.1564109
20
-2.0544628
40
10.4601873
50
99.7931094
51
99.8115319
0
ARC
8
DEFAULT_255_2_778
10
9.7817301
20
-11.4563868
40
20.0015624
50
99.8097709
51
99.8193765
0
ARC
8
DEFAULT_255_2_778
10
10.8758786
20
-17.7750967
40
26.414304
50
99.8204815
51
99.8277328
0
ARC
8
DEFAULT_255_2_778
10
7.7775437
20
0.1098636
40
8.2629545
50
99.8267082
51
99.8498162
0
ARC
8
DEFAULT_255_2_778
10
9.7826395
20
-11.4439531
40
19.9894668
50
99.8471567
51
99.8566783
0
ARC
8
DEFAULT_255_2_778
10
9.7665006
20
-11.3608653
40
19.9048429
50
99.8518501
51
99.861381
0
ARC
8
DEFAULT_255_2_778
10
9.0823329
20
-7.422737
40
15.9077264
50
99.8628387
51
99.8747249
0
ARC
8
DEFAULT_255_2_778
10
65.3993132
20
-330.8560319
40
344.2074348
50
99.8773235
51
99.877871
0
ARC
8
DEFAULT_255_2_778
10
8.6065106
20
-4.7014943
40
13.1451977
50
99.8799295
51
99.8942157
0
ARC
8
DEFAULT_255_2_778
10
9.0489756
20
-7.2484495
40
15.7302999
50
99.8878114
51
99.8997081
0
ARC
8
DEFAULT_255_2_778
10
8.5803871
20
-4.5719037
40
13.0130457
50
99.8933298
51
99.9076595
0
ARC
8
DEFAULT_255_2_778
10
8.2450683
20
-2.6606156
40
11.0725667
50
99.9001032
51
99.9168834
0
ARC
8
DEFAULT_255_2_778
10
8.5556938
20
-4.4471437
40
12.8858975
50
99.9093674
51
99.9237334
0
ARC
8
DEFAULT_255_2_778
10
17.5779768
20
-56.0427039
40
65.2643608
50
99.919748
51
99.9225738
0
ARC
8
DEFAULT_255_2_778
10
17.6422203
20
-56.3703024
40
65.5981295
50
99.9285409
51
99.9313418
0
ARC
8
DEFAULT_255_2_778
10
12.309732
20
-25.9206488
40
34.6850768
50
99.9297024
51
99.9349792
0
ARC
8
DEFAULT_255_2_778
10
12.3100929
20
-25.9056426
40
34.6703579
50
99.9398453
51
99.945104
0
ARC
8
DEFAULT_255_2_778
10
-740.6234125
20
4258.9392351
40
4315.8243851
50
279.9650188
51
279.9664451
0
ARC
8
DEFAULT_255_2_778
10
1.8116118
20
33.2855458
40
25.4445806
50
279.610544
51
279.9691981
0
ARC
8
DEFAULT_255_2_778
10
3.4130676
20
23.8412632
40
15.8654821
50
278.9803946
51
279.6024002
0
ARC
8
DEFAULT_255_2_778
10
3.7470971
20
21.7455975
40
13.7433649
50
278.713106
51
278.9686844
0
ARC
8
DEFAULT_255_2_778
10
3.9467547
20
20.4250328
40
12.4077953
50
277.5697208
51
278.7255501
0
ARC
8
DEFAULT_255_2_778
10
4.1050821
20
19.2358288
40
11.2080978
50
276.0358603
51
277.5682347
0
ARC
8
DEFAULT_255_2_778
10
4.1792867
20
18.5360829
40
10.5044284
50
274.1916065
51
276.0346911
0
ARC
8
DEFAULT_255_2_778
10
4.2142616
20
18.0620814
40
10.0291383
50
272.2039056
51
274.190261
0
ARC
8
DEFAULT_255_2_778
10
4.2285252
20
17.6924651
40
9.6592467
50
270.0064453
51
272.2036733
0
ARC
8
DEFAULT_255_2_778
10
4.2295904
20
17.5079024
40
9.4746842
50
269.6305216
51
270.0001296
0
ARC
8
DEFAULT_255_2_778
10
6.9148369
20
306.6087558
40
298.5879709
50
269.471291
51
269.4729989
0
ARC
8
DEFAULT_255_2_778
10
16.2495251
20
1321.7091528
40
1313.7312869
50
269.4719536
51
269.4727141
0
ARC
8
DEFAULT_255_2_778
10
20.0463142
20
1740.3143534
40
1732.3537024
50
269.473424
51
269.4739792
0
ARC
8
DEFAULT_255_2_778
10
6.7627813
20
295.3778884
40
287.3561799
50
269.4725064
51
269.4741202
0
ARC
8
DEFAULT_255_2_778
10
6.8329711
20
304.769189
40
296.7477291
50
269.4741147
51
269.4756484
0
ARC
8
DEFAULT_255_2_778
10
6.7294567
20
294.2694259
40
286.2474582
50
269.4732049
51
269.4755439
0
ARC
8
DEFAULT_255_2_778
10
500.9607938
20
54240.2188464
40
54234.4608066
50
269.4749582
51
269.4750836
0
ARC
8
DEFAULT_255_2_778
10
12.0999263
20
894.8051979
40
886.8072286
50
269.4671008
51
269.4753054
0
ARC
8
DEFAULT_255_2_778
10
7.5952051
20
410.2860109
40
402.2671012
50
269.4524984
51
269.4668377
0
ARC
8
DEFAULT_255_2_778
10
6.0962272
20
253.3079466
40
245.2818802
50
269.4297912
51
269.4522406
0
ARC
8
DEFAULT_255_2_778
10
4.7958041
20
124.4644947
40
116.4318686
50
269.3080832
51
269.4387115
0
ARC
8
DEFAULT_255_2_778
10
4.0223484
20
60.4904368
40
52.4531352
50
269.0897517
51
269.3090148
0
ARC
8
DEFAULT_255_2_778
10
3.6418631
20
36.5567819
40
28.5164562
50
268.7824844
51
269.0902007
0
ARC
8
DEFAULT_255_2_778
10
3.3330569
20
22.439488
40
14.3957906
50
268.0331369
51
268.8173947
0
ARC
8
DEFAULT_255_2_778
10
3.0657079
20
14.697302
40
6.6489904
50
266.8296331
51
268.0457875
0
ARC
8
DEFAULT_255_2_778
10
2.8481536
20
10.8838647
40
2.8293647
50
264.1784415
51
266.9575919
0
ARC
8
DEFAULT_255_2_778
10
2.652999
20
9.02278
40
0.9580988
50
258.1112079
51
264.5000033
0
ARC
8
DEFAULT_255_2_778
10
2.5535631
20
8.5253822
40
0.4509151
50
255.0571629
51
257.4546005
0
ARC
8
DEFAULT_255_2_778
10
1.2981567
20
7.8131299
40
1.1722326
50
13.6474844
51
89.061277
0
ARC
8
DEFAULT_255_2_778
10
1.2984192
20
7.8034396
40
1.1819175
50
89.0816963
51
90.0000711
0
ARC
8
DEFAULT_255_2_778
10
1.2984303
20
7.8002989
40
1.1850581
50
90.0006105
51
91.1574505
0
ARC
8
DEFAULT_255_2_778
10
1.3027765
20
7.828451
40
1.1570101
50
91.4007917
51
136.6887298
0
ARC
8
DEFAULT_255_2_778
10
1.297454
20
7.8244531
40
1.1558982
50
136.3635593
51
180.0888036
0
ARC
8
DEFAULT_255_2_778
10
1.3302336
20
7.8226706
40
1.1886764
50
180.0004362
51
181.5501159
0
ARC
8
DEFAULT_255_2_778
10
1.3155736
20
7.8142386
40
1.1738211
50
181.1580411
51
225.339692
0
ARC
8
DEFAULT_255_2_778
10
1.2775656
20
7.7789082
40
1.1219774
50
225.4520768
51
270.0041087
0
ARC
8
DEFAULT_255_2_778
10
1.2776364
20
7.7814804
40
1.1245497
50
270.0004965
51
271.8475551
0
ARC
8
DEFAULT_255_2_778
10
1.2926246
20
7.44427
40
0.787042
50
271.548446
51
273.3042254
0
ARC
8
DEFAULT_255_2_778
10
1.2080534
20
7.8778953
40
1.2262621
50
276.0824678
51
311.2404436
0
ARC
8
DEFAULT_255_2_778
10
1.1322026
20
8.0231861
40
1.3860575
50
309.63872
51
317.6338439
0
ARC
8
DEFAULT_255_2_778
10
1.370702
20
7.8056011
40
1.0632183
50
317.6363617
51
324.1080986
0
ARC
8
DEFAULT_255_2_778
10
1.6396993
20
7.6120512
40
0.7318275
50
324.0374574
51
331.6022477
0
ARC
8
DEFAULT_255_2_778
10
1.8499653
20
7.4970192
40
0.4921568
50
331.7407334
51
337.6934594
0
ARC
8
DEFAULT_255_2_778
10
2.5004361
20
7.2448169
40
0.2058108
50
151.6601657
51
161.4724863
0
ARC
8
DEFAULT_255_2_778
10
2.3907961
20
6.9406392
40
0.4081878
50
96.7314097
51
100.0887893
0
ARC
8
DEFAULT_255_2_778
10
2.4341274
20
6.5584025
40
0.7928706
50
92.4725331
51
96.6034059
0
ARC
8
DEFAULT_255_2_778
10
2.460755
20
6.0624489
40
1.2895218
50
91.5225357
51
92.7038942
0
ARC
8
DEFAULT_255_2_778
10
2.4847671
20
5.1059574
40
2.246314
50
90.0081624
51
91.4865595
0
ARC
8
DEFAULT_255_2_778
10
2.4887785
20
4.2285578
40
3.1237166
50
90.0025291
51
90.0794471
0
ARC
8
DEFAULT_255_2_778
10
2.475259
20
1.9587694
40
5.3935215
50
88.4539666
51
89.8578461
0
ARC
8
DEFAULT_255_2_778
10
2.2071825
20
-8.6820557
40
16.0377171
50
88.0392222
51
88.5222439
0
ARC
8
DEFAULT_255_2_778
10
0.1490823
20
-69.376445
40
76.7669899
50
87.9354884
51
88.0539886
0
ARC
8
DEFAULT_255_2_778
10
4.0551768
20
-20.5772607
40
27.8905494
50
88.858075
51
89.5465778
0
ARC
8
DEFAULT_255_2_778
10
4.1410725
20
-16.2325347
40
23.5449745
50
88.2081693
51
88.8563532
0
ARC
8
DEFAULT_255_2_778
10
4.2717747
20
-12.1414338
40
19.4517875
50
87.2929752
51
88.2161715
0
ARC
8
DEFAULT_255_2_778
10
4.4647568
20
-8.0834983
40
15.3892659
50
86.2276498
51
87.2971261
0
ARC
8
DEFAULT_255_2_778
10
4.6687924
20
-4.9656969
40
12.2647959
50
85.3013017
51
86.2204834
0
ARC
8
DEFAULT_255_2_778
10
4.8888385
20
-2.3194797
40
9.6094471
50
83.9839399
51
85.3164427
0
ARC
8
DEFAULT_255_2_778
10
5.1437025
20
0.0960029
40
7.1805561
50
82.5440843
51
83.9863362
0
ARC
8
DEFAULT_255_2_778
10
5.3133808
20
1.417716
40
5.8480009
50
81.9913982
51
82.5120836
0
ARC
8
DEFAULT_255_2_778
10
5.4079673
20
2.0873225
40
5.171747
50
81.2709498
51
81.9955338
0
ARC
8
DEFAULT_255_2_778
10
5.5358584
20
2.9153371
40
4.3339142
50
80.1927338
51
81.2808462
0
ARC
8
DEFAULT_255_2_778
10
5.6800415
20
3.7488193
40
3.488053
50
79.0276293
51
80.1944633
0
ARC
8
DEFAULT_255_2_778
10
5.7531453
20
4.1322266
40
3.0977407
50
78.8328195
51
79.0052741
0
ARC
8
DEFAULT_255_2_778
10
-4.0091288
20
14.5903861
40
12.7443413
50
323.4963133
51
324.3983582
0
ARC
8
DEFAULT_255_2_778
10
-7.0526431
20
16.8399626
40
16.5289905
50
322.7410121
51
323.5041392
0
ARC
8
DEFAULT_255_2_778
10
-9.8762304
20
18.9858189
40
20.0754454
50
322.0961087
51
322.745438
0
ARC
8
DEFAULT_255_2_778
10
-12.4842192
20
21.0149877
40
23.3798562
50
321.5440098
51
322.0987765
0
ARC
8
DEFAULT_255_2_778
10
-15.4341114
20
23.3599484
40
27.1482381
50
320.8298812
51
321.5403612
0
ARC
8
DEFAULT_255_2_778
10
-19.0945383
20
26.342379
40
31.8698498
50
320.0931665
51
320.8295512
0
ARC
8
DEFAULT_255_2_778
10
-22.6139908
20
29.282158
40
36.4555711
50
319.5477059
51
320.0975711
0
ARC
8
DEFAULT_255_2_778
10
-26.0379176
20
32.2024406
40
40.9557183
50
318.9424699
51
319.546748
0
ARC
8
DEFAULT_255_2_778
10
-29.5183613
20
35.2319472
40
45.5699784
50
318.4521327
51
318.9444966
0
ARC
8
DEFAULT_255_2_778
10
-32.8209902
20
38.1586725
40
49.9828095
50
317.969714
51
318.4522325
0
ARC
8
DEFAULT_255_2_778
10
-10.4475071
20
17.9857345
40
19.857735
50
317.0593353
51
317.9832992
0
ARC
8
DEFAULT_255_2_778
10
-7.9391371
20
15.6460665
40
16.4275823
50
315.652662
51
317.0731917
0
ARC
8
DEFAULT_255_2_778
10
-5.523986
20
13.2835174
40
13.0490335
50
313.9902499
51
315.6583241
0
ARC
8
DEFAULT_255_2_778
10
-3.6058416
20
11.2956238
40
10.2866074
50
312.1117739
51
313.9938101
0
ARC
8
DEFAULT_255_2_778
10
-2.1143646
20
9.6437496
40
8.0610312
50
309.8538235
51
312.1208567
0
ARC
8
DEFAULT_255_2_778
10
-1.0246113
20
8.3383368
40
6.3605416
50
307.3731563
51
309.8535114
0
ARC
8
DEFAULT_255_2_778
10
-0.3130457
20
7.407026
40
5.1885069
50
304.5918412
51
307.3712614
0
ARC
8
DEFAULT_255_2_778
10
0.0113737
20
6.9399474
40
4.6198188
50
301.6558701
51
304.5683429
0
ARC
8
DEFAULT_255_2_778
10
-0.6809564
20
8.0870437
40
5.9596045
50
299.2629791
51
301.5338435
0
ARC
8
DEFAULT_255_2_778
10
-22.4560878
20
46.6877809
40
50.2785771
50
299.3291793
51
299.4083146
0
ARC
8
DEFAULT_255_2_778
10
1.878088
20
1.4404675
40
1.4436199
50
78.2652834
51
89.9327977
0
ARC
8
DEFAULT_255_2_778
10
1.8797462
20
1.4929666
40
1.3911198
50
89.9985596
51
91.6416833
0
ARC
8
DEFAULT_255_2_778
10
1.8745263
20
1.4500806
40
1.4338531
50
91.384087
51
136.7125186
0
ARC
8
DEFAULT_255_2_778
10
1.869187
20
1.4440249
40
1.4341414
50
136.3901479
51
179.997091
0
ARC
8
DEFAULT_255_2_778
10
1.8704992
20
1.4440956
40
1.4354536
50
179.9999164
51
181.7197955
0
ARC
8
DEFAULT_255_2_778
10
1.8691781
20
1.4354654
40
1.4338998
50
181.3766872
51
226.7114683
0
ARC
8
DEFAULT_255_2_778
10
1.8776821
20
1.4348172
40
1.4392743
50
226.4473539
51
269.996363
0
ARC
8
DEFAULT_255_2_778
10
1.8775777
20
1.4367227
40
1.4411798
50
270.0005195
51
271.6148918
0
ARC
8
DEFAULT_255_2_778
10
1.8841086
20
1.4294748
40
1.4337646
50
271.3621683
51
316.7133259
0
ARC
8
DEFAULT_255_2_778
10
1.8899926
20
1.435657
40
1.4337458
50
316.3722626
51
359.9961324
0
ARC
8
DEFAULT_255_2_778
10
1.8883421
20
1.4355492
40
1.4353962
50
0.0004401
51
1.719301
0
ARC
8
DEFAULT_255_2_778
10
1.894092
20
1.4396402
40
1.4295316
50
1.56232
51
18.4187901
0
ARC
8
DEFAULT_255_2_778
10
5.2470936
20
1.1280382
40
2.1376175
50
154.3317141
51
159.0796932
0
ARC
8
DEFAULT_255_2_778
10
6.5578928
20
0.5040069
40
3.5893725
50
150.7615223
51
154.4168916
0
ARC
8
DEFAULT_255_2_778
10
7.9385146
20
-0.2653847
40
5.1699021
50
147.5944739
51
150.7946842
0
ARC
8
DEFAULT_255_2_778
10
9.2873607
20
-1.1190982
40
6.7662132
50
144.643342
51
147.6121525
0
ARC
8
DEFAULT_255_2_778
10
10.5276949
20
-1.9969348
40
8.2857603
50
141.8720555
51
144.6558151
0
ARC
8
DEFAULT_255_2_778
10
11.6377962
20
-2.8667392
40
9.6960379
50
139.1835078
51
141.8790315
0
ARC
8
DEFAULT_255_2_778
10
12.6134723
20
-3.7077318
40
10.9841415
50
136.6593473
51
139.1901346
0
ARC
8
DEFAULT_255_2_778
10
13.4963264
20
-4.5405878
40
12.1978468
50
134.0537728
51
136.660328
0
ARC
8
DEFAULT_255_2_778
10
14.1612628
20
-5.2231878
40
13.1507755
50
132.5120296
51
134.0679199
0
ARC
8
DEFAULT_255_2_778
10
7.6945711
20
6.0651178
40
0.4946568
50
122.851801
51
127.2596138
0
ARC
8
DEFAULT_255_2_778
10
7.7954079
20
5.9148482
40
0.6756031
50
120.4867576
51
123.1226923
0
ARC
8
DEFAULT_255_2_778
10
7.7206471
20
6.0454187
40
0.5251583
50
114.621074
51
120.6851792
0
ARC
8
DEFAULT_255_2_778
10
7.6171026
20
6.2736675
40
0.2745248
50
105.7268517
51
114.8217246
0
ARC
8
DEFAULT_255_2_778
10
7.5513251
20
6.4768355
40
0.0616869
50
90.8665193
51
98.0447815
0
ARC
8
DEFAULT_255_2_778
10
7.5537122
20
6.4149653
40
0.1235947
50
89.9982741
51
91.5392761
0
ARC
8
DEFAULT_255_2_778
10
7.5448034
20
6.315244
40
0.2234937
50
66.4515527
51
87.71454
0
ARC
8
DEFAULT_255_2_778
10
7.4182147
20
5.9980355
40
0.5649622
50
57.8416293
51
67.5353166
0
ARC
8
DEFAULT_255_2_778
10
7.1713333
20
5.6013174
40
1.0322235
50
49.1150224
51
57.9611253
0
ARC
8
DEFAULT_255_2_778
10
7.1940482
20
5.6201377
40
1.0031389
50
44.7043232
51
49.3922873
0
ARC
8
DEFAULT_255_2_778
10
7.3870709
20
5.813315
40
0.73006
50
42.6896408
51
44.5851409
0
ARC
8
DEFAULT_255_2_778
10
6.8222907
20
5.3354148
40
1.4695648
50
40.8659464
51
41.4551112
0
ARC
8
DEFAULT_255_2_778
10
4.9766398
20
3.7389529
40
3.9098759
50
39.8991334
51
40.8618245
0
ARC
8
DEFAULT_255_2_778
10
3.0021881
20
2.0844606
40
6.4858805
50
39.0128682
51
39.9238371
0
ARC
8
DEFAULT_255_2_778
10
1.1512584
20
0.584763
40
8.8681134
50
37.9458519
51
39.0136509
0
ARC
8
DEFAULT_255_2_778
10
-0.5927047
20
-0.7767541
40
11.0806084
50
36.9122244
51
37.9525229
0
ARC
8
DEFAULT_255_2_778
10
-2.0444866
20
-1.8688054
40
12.8972661
50
35.9796392
51
36.9176883
0
ARC
8
DEFAULT_255_2_778
10
-3.2137374
20
-2.7186613
40
14.3427425
50
35.1403386
51
35.9828076
0
ARC
8
DEFAULT_255_2_778
10
-4.3817468
20
-3.5396709
40
15.7704336
50
34.0006611
51
35.1370398
0
ARC
8
DEFAULT_255_2_778
10
-5.6352992
20
-4.3851206
40
17.2824451
50
32.7287188
51
34.0003779
0
ARC
8
DEFAULT_255_2_778
10
-6.6696351
20
-5.0515929
40
18.512906
50
31.7511455
51
32.733166
0
ARC
8
DEFAULT_255_2_778
10
-7.6670407
20
-5.6671419
40
19.6849625
50
30.2523626
51
31.746958
0
ARC
8
DEFAULT_255_2_778
10
-8.7404952
20
-6.2935228
40
20.9278052
50
28.6796769
51
30.2530755
0
ARC
8
DEFAULT_255_2_778
10
-8.4589996
20
-6.1431169
40
20.6086632
50
28.6618706
51
28.6884055
0
ARC
8
DEFAULT_255_2_778
10
-14.225357
20
-9.296901
40
27.181123
50
27.8620387
51
28.6651658
0
ARC
8
DEFAULT_255_2_778
10
-10.63239
20
-7.3968756
40
23.1167032
50
27.103933
51
27.8605176
0
ARC
8
DEFAULT_255_2_778
10
-7.0047336
20
-5.5440507
40
19.0432728
50
26.0262466
51
27.1142577
0
ARC
8
DEFAULT_255_2_778
10
-3.0617997
20
-3.6215043
40
14.6565994
50
24.6956392
51
26.0360379
0
ARC
8
DEFAULT_255_2_778
10
0.6540732
20
-1.9154115
40
10.5677785
50
23.0729176
51
24.7088165
0
ARC
8
DEFAULT_255_2_778
10
3.8343338
20
-0.5625013
40
7.1117087
50
21.1510305
51
23.0863297
0
ARC
8
DEFAULT_255_2_778
10
6.3892295
20
0.4230804
40
4.3733055
50
18.633573
51
21.1862912
0
ARC
8
DEFAULT_255_2_778
10
11.3010435
20
0.9386619
40
1.1691583
50
131.0464043
51
179.9996877
0
ARC
8
DEFAULT_255_2_778
10
11.3032325
20
0.9386753
40
1.1713472
50
180.0003431
51
181.6858314
0
ARC
8
DEFAULT_255_2_778
10
11.3070381
20
0.9356128
40
1.1750654
50
181.5311115
51
217.1326326
0
ARC
8
DEFAULT_255_2_778
10
11.3114009
20
0.9362955
40
1.1789576
50
217.0310919
51
266.5346322
0
ARC
8
DEFAULT_255_2_778
10
11.3113737
20
0.9498365
40
1.1924725
50
266.5752611
51
270.0033345
0
ARC
8
DEFAULT_255_2_778
10
11.3114369
20
0.9594365
40
1.2020724
50
270.0002984
51
271.3850345
0
ARC
8
DEFAULT_255_2_778
10
11.3082195
20
0.932075
40
1.174803
50
271.5741563
51
307.1638688
0
ARC
8
DEFAULT_255_2_778
10
11.3073255
20
0.9366409
40
1.1789836
50
307.0644453
51
356.5383344
0
ARC
8
DEFAULT_255_2_778
10
11.2935707
20
0.9366487
40
1.192714
50
356.5778585
51
0.0029732
0
ARC
8
DEFAULT_255_2_778
10
11.2838005
20
0.9366902
40
1.2024841
50
0.0009725
51
1.4641465
0
ARC
8
DEFAULT_255_2_778
10
11.3044008
20
0.9351295
40
1.1819324
50
1.5652941
51
46.4396355
0
ARC
8
DEFAULT_255_2_778
10
11.3127134
20
0.9463354
40
1.1680849
50
46.356323
51
89.8293615
0
ARC
8
DEFAULT_255_2_778
10
8.536094
20
0.560247
40
3.1850252
50
29.2066575
51
29.3678509
0
ARC
8
DEFAULT_255_2_778
10
8.4615171
20
0.5183083
40
3.2705855
50
29.3674217
51
29.5247607
0
ARC
8
DEFAULT_255_2_778
10
8.2079358
20
0.3746434
40
3.5620355
50
29.525472
51
29.6702464
0
ARC
8
DEFAULT_255_2_778
10
8.1242068
20
0.3268098
40
3.6584646
50
29.6720562
51
29.8132928
0
ARC
8
DEFAULT_255_2_778
10
7.9322283
20
0.2166673
40
3.8797949
50
29.8150385
51
29.9484593
0
ARC
8
DEFAULT_255_2_778
10
7.9079834
20
0.2027919
40
3.9077295
50
29.9472735
51
30.0799596
0
ARC
8
DEFAULT_255_2_778
10
7.6992322
20
0.0821514
40
4.1488335
50
30.0767236
51
30.2018863
0
ARC
8
DEFAULT_255_2_778
10
7.3842134
20
-0.1013686
40
4.5134104
50
30.2036505
51
30.3188582
0
ARC
8
DEFAULT_255_2_778
10
7.2775064
20
-0.1639749
40
4.6371275
50
30.3210406
51
30.4333094
0
ARC
8
DEFAULT_255_2_778
10
7.1696004
20
-0.2272382
40
4.7622113
50
30.43197
51
30.5414056
0
ARC
8
DEFAULT_255_2_778
10
6.8814291
20
-0.397188
40
5.0967643
50
30.5406629
51
30.643009
0
ARC
8
DEFAULT_255_2_778
10
6.5567465
20
-0.5896775
40
5.4742176
50
30.6443019
51
30.7396656
0
ARC
8
DEFAULT_255_2_778
10
6.4229443
20
-0.6694557
40
5.6299981
50
30.7414759
51
30.8342609
0
ARC
8
DEFAULT_255_2_778
10
6.0373062
20
-0.8998292
40
6.0792071
50
30.835672
51
30.9216451
0
ARC
8
DEFAULT_255_2_778
10
6.1469442
20
-0.8341447
40
5.9513989
50
30.9215527
51
31.0094062
0
ARC
8
DEFAULT_255_2_778
10
6.0038881
20
-0.9196359
40
6.1180529
50
31.0054122
51
31.0908951
0
ARC
8
DEFAULT_255_2_778
10
5.370039
20
-1.3018082
40
6.8582017
50
31.0905198
51
31.1667879
0
ARC
8
DEFAULT_255_2_778
10
5.191825
20
-1.4093767
40
7.0663634
50
31.1652571
51
31.2392801
0
ARC
8
DEFAULT_255_2_778
10
5.0067115
20
-1.521511
40
7.2827913
50
31.2382853
51
31.3101016
0
ARC
8
DEFAULT_255_2_778
10
4.8155869
20
-1.6373604
40
7.5062852
50
31.3074773
51
31.3771408
0
ARC
8
DEFAULT_255_2_778
10
4.1703572
20
-2.0304565
40
8.2618286
50
31.3747688
51
31.4380412
0
ARC
8
DEFAULT_255_2_778
10
4.4118546
20
-1.8825142
40
7.9786186
50
31.4361336
51
31.5016237
0
ARC
8
DEFAULT_255_2_778
10
3.6910885
20
-2.3233389
40
8.8235029
50
31.4966991
51
31.5558864
0
ARC
8
DEFAULT_255_2_778
10
3.0586732
20
-2.7116079
40
9.5655957
50
31.5552502
51
31.6098107
0
ARC
8
DEFAULT_255_2_778
10
2.0124939
20
-3.3557992
40
10.7942021
50
31.6113047
51
31.6596191
0
ARC
8
DEFAULT_255_2_778
10
1.6405362
20
-3.5855357
40
11.2313878
50
31.661238
51
31.7076325
0
ARC
8
DEFAULT_255_2_778
10
1.5953402
20
-3.6138199
40
11.2847035
50
31.709197
51
31.7553288
0
ARC
8
DEFAULT_255_2_778
10
1.2001111
20
-3.858289
40
11.7494305
50
31.7546783
51
31.7989394
0
ARC
8
DEFAULT_255_2_778
10
0.7779625
20
-4.1196031
40
12.2459126
50
31.7972759
51
31.8396944
0
ARC
8
DEFAULT_255_2_778
10
-0.4397049
20
-4.8755611
40
13.6791559
50
31.8389966
51
31.8769242
0
ARC
8
DEFAULT_255_2_778
10
-0.1621582
20
-4.7024763
40
13.3520621
50
31.8751667
51
31.9139723
0
ARC
8
DEFAULT_255_2_778
10
-1.6189039
20
-5.6095037
40
15.0681059
50
31.9132946
51
31.9476326
0
ARC
8
DEFAULT_255_2_778
10
-2.2935485
20
-6.030292
40
15.863221
50
31.9478792
51
31.9804474
0
ARC
8
DEFAULT_255_2_778
10
-2.3241092
20
-6.0486934
40
15.8988896
50
31.9783673
51
32.0108113
0
ARC
8
DEFAULT_255_2_778
10
-5.3922359
20
-7.9665257
40
19.5171049
50
32.010435
51
32.0368206
0
ARC
8
DEFAULT_255_2_778
10
-3.8775808
20
-7.0181517
40
17.7300422
50
32.0352906
51
32.0642851
0
ARC
8
DEFAULT_255_2_778
10
-10.3498742
20
-11.0733827
40
25.3678088
50
32.0657951
51
32.086023
0
ARC
8
DEFAULT_255_2_778
10
-7.8332749
20
-9.4960428
40
22.3977461
50
32.0870298
51
32.1098967
0
ARC
8
DEFAULT_255_2_778
10
-8.7048965
20
-10.0424567
40
23.4264794
50
32.1087301
51
32.131279
0
ARC
8
DEFAULT_255_2_778
10
-7.8158899
20
-9.4835738
40
22.3763923
50
32.130122
51
32.1536791
0
ARC
8
DEFAULT_255_2_778
10
-11.9695759
20
-12.0932934
40
27.2818733
50
32.1513522
51
32.170631
0
ARC
8
DEFAULT_255_2_778
10
-14.0183632
20
-13.3802616
40
29.7013392
50
32.1677637
51
32.1854319
0
ARC
8
DEFAULT_255_2_778
10
-21.9896582
20
-18.3972511
40
39.1200294
50
32.1854657
51
32.1988485
0
ARC
8
DEFAULT_255_2_778
10
-26.4460183
20
-21.2049117
40
44.3871064
50
32.2004497
51
32.2122159
0
ARC
8
DEFAULT_255_2_778
10
78.9168469
20
45.3473585
40
80.234519
50
212.083545
51
212.3151431
0
ARC
8
DEFAULT_255_2_778
10
26.4740876
20
12.4570682
40
18.3312592
50
210.9599542
51
212.0464868
0
ARC
8
DEFAULT_255_2_778
10
21.9735502
20
9.7550061
40
13.0818809
50
209.0730083
51
210.9518952
0
ARC
8
DEFAULT_255_2_778
10
20.4075347
20
8.8819674
40
11.2889514
50
206.6462718
51
209.0624875
0
ARC
8
DEFAULT_255_2_778
10
19.9340473
20
8.6407161
40
10.7575559
50
206.0250109
51
206.6288105
0
ARC
8
DEFAULT_255_2_778
10
19.8163311
20
8.583196
40
10.626538
50
205.4011053
51
206.0248054
0
ARC
8
DEFAULT_255_2_778
10
36.19198
20
16.3710083
40
28.759708
50
204.3480854
51
205.4221525
0
ARC
8
DEFAULT_255_2_778
10
33.4409451
20
15.1273315
40
25.7406148
50
203.1896062
51
204.3506074
0
ARC
8
DEFAULT_255_2_778
10
30.4492855
20
13.8466983
40
22.4863796
50
201.9888403
51
203.1918346
0
ARC
8
DEFAULT_255_2_778
10
27.4664522
20
12.6419515
40
19.2694385
50
200.8654523
51
201.9880694
0
ARC
8
DEFAULT_255_2_778
10
24.3925861
20
11.4725003
40
15.9806297
50
199.5609028
51
200.8728927
0
ARC
8
DEFAULT_255_2_778
10
21.0668968
20
10.2928018
40
12.4519056
50
198.0977738
51
199.569443
0
ARC
8
DEFAULT_255_2_778
10
17.8076182
20
9.229175
40
9.0234663
50
196.4847707
51
198.1070052
0
ARC
8
DEFAULT_255_2_778
10
14.7922851
20
8.3397986
40
5.8797087
50
194.4727128
51
196.5121882
0
ARC
8
DEFAULT_255_2_778
10
12.2330983
20
7.6823613
40
3.2374285
50
191.7736682
51
194.5260613
0
ARC
8
DEFAULT_255_2_778
10
10.3496119
20
7.2953141
40
1.3146041
50
187.012075
51
192.0096334
0
ARC
8
DEFAULT_255_2_778
10
9.4577977
20
7.185142
40
0.4160107
50
180.6676874
51
186.9464172
0
ARC
8
DEFAULT_255_2_778
10
9.2217542
20
7.180744
40
0.1799395
50
176.4578015
51
180.1432368
0
ARC
8
DEFAULT_255_2_778
10
9.1468212
20
7.1855335
40
0.104854
50
171.2328074
51
176.5401257
0
ARC
8
DEFAULT_255_2_778
10
9.7078919
20
7.0514557
40
0.6814276
50
166.4273648
51
167.2784219
0
ARC
8
DEFAULT_255_2_778
10
9.1059094
20
7.2032325
40
0.0609609
50
126.6166957
51
172.32722
0
ARC
8
DEFAULT_255_2_778
10
9.1691441
20
7.109878
40
0.1736781
50
113.5368561
51
124.9910069
0
ARC
8
DEFAULT_255_2_778
10
9.3049823
20
6.8258868
40
0.4884144
50
113.5812899
51
114.8424113
0
ARC
8
DEFAULT_255_2_778
10
9.1594248
20
7.1458067
40
0.1370867
50
101.4627007
51
111.3159908
0
ARC
8
DEFAULT_255_2_778
10
9.2638682
20
6.6854027
40
0.6091605
50
99.3665493
51
102.4845992
0
ARC
8
DEFAULT_255_2_778
10
9.437749
20
5.6438026
40
1.6651737
50
97.4610926
51
99.4368159
0
ARC
8
DEFAULT_255_2_778
10
9.7045545
20
3.6390885
40
3.6875623
50
96.3824275
51
97.526795
0
ARC
8
DEFAULT_255_2_778
10
10.0167591
20
0.8785917
40
6.4656566
50
95.7171741
51
96.4125689
0
ARC
8
DEFAULT_255_2_778
10
10.3722251
20
-2.6646772
40
10.0267113
50
95.1418444
51
95.7213135
0
ARC
8
DEFAULT_255_2_778
10
10.7353785
20
-6.6742349
40
14.0526808
50
94.7673828
51
95.1514203
0
ARC
8
DEFAULT_255_2_778
10
11.0654018
20
-10.6237143
40
18.0159246
50
94.4444933
51
94.7694122
0
ARC
8
DEFAULT_255_2_778
10
11.3948669
20
-14.862752
40
22.2677463
50
94.1172722
51
94.4444354
0
ARC
8
DEFAULT_255_2_778
10
11.7786913
20
-20.215811
40
27.634548
50
93.6774688
51
94.1141501
0
ARC
8
DEFAULT_255_2_778
10
12.0886352
20
-25.0051827
40
32.433938
50
93.3257546
51
93.6812068
0
ARC
8
DEFAULT_255_2_778
10
12.2578689
20
-27.9141351
40
35.347809
50
92.8104286
51
93.3260662
0
ARC
8
DEFAULT_255_2_778
10
12.2318484
20
-27.3337719
40
34.7668683
50
92.2732864
51
92.8144941
0
ARC
8
DEFAULT_255_2_778
10
12.0241596
20
-21.9257821
40
29.3548974
50
91.4220701
51
92.2869249
0
ARC
8
DEFAULT_255_2_778
10
11.8448835
20
-14.8720582
40
22.2988972
50
90.7917744
51
91.4113636
0
ARC
8
DEFAULT_255_2_778
10
11.7728136
20
-9.587937
40
17.0142847
50
90.0734951
51
90.7949949
0
ARC
8
DEFAULT_255_2_778
10
11.7645818
20
-6.5684352
40
13.9947756
50
89.9992369
51
90.0556506
0
ARC
8
DEFAULT_255_2_778
10
11.7657267
20
-5.8878717
40
13.3142122
50
89.6484386
51
90.0041246
0
ARC
8
DEFAULT_255_2_778
10
11.7760357
20
-4.1796408
40
11.6059501
50
89.3182683
51
89.6475864
0
ARC
8
DEFAULT_255_2_778
10
11.7930088
20
-2.7606685
40
10.1868763
50
88.9555715
51
89.3187672
0
ARC
8
DEFAULT_255_2_778
10
11.6418566
20
-11.0283702
40
18.4559596
50
86.4878709
51
88.9542494
0
ARC
8
DEFAULT_255_2_778
10
11.8292194
20
-8.040253
40
15.4619772
50
84.7303179
51
86.5025425
0
ARC
8
DEFAULT_255_2_778
10
12.2530963
20
-3.4859163
40
10.88796
50
82.7914545
51
84.7503059
0
ARC
8
DEFAULT_255_2_778
10
12.7979745
20
0.7986003
40
6.5689369
50
80.4344739
51
82.8171426
0
ARC
8
DEFAULT_255_2_778
10
13.3450152
20
4.0119169
40
3.3093975
50
76.8625014
51
80.5290108
0
ARC
8
DEFAULT_255_2_778
10
13.8154372
20
6.0011875
40
1.2652838
50
70.4533791
51
77.1328902
0
ARC
8
DEFAULT_255_2_778
10
14.119531
20
6.8495232
40
0.3641067
50
58.663016
51
70.8842104
0
ARC
8
DEFAULT_255_2_778
10
15.6154274
20
7.7998316
40
1.4545651
50
206.0735151
51
270.0053631
0
ARC
8
DEFAULT_255_2_778
10
15.6155432
20
7.8288151
40
1.4835486
50
270.0007868
51
271.5585011
0
ARC
8
DEFAULT_255_2_778
10
15.6174897
20
7.7971736
40
1.4518662
50
271.5156769
51
301.6866661
0
ARC
8
DEFAULT_255_2_778
10
15.6141446
20
7.8047111
40
1.4600378
50
301.6429947
51
353.7745353
0
ARC
8
DEFAULT_255_2_778
10
15.6053846
20
7.8033484
40
1.4686002
50
353.8644492
51
0.00887
0
ARC
8
DEFAULT_255_2_778
10
15.5882696
20
7.8035675
40
1.4857152
50
0.000316
51
1.4751678
0
ARC
8
DEFAULT_255_2_778
10
15.6268237
20
7.8078073
40
1.4470682
50
1.346651
51
46.6867975
0
LINE
8
DEFAULT_255_2_778
10
14.3400922
20
8.5064153
11
11.9326922
21
8.2426153
0
LINE
8
DEFAULT_255_2_778
10
9.2132922
20
8.2535153
11
9.2111922
21
8.2665153
0
LINE
8
DEFAULT_255_2_778
10
13.5531922
20
12.5588153
11
13.9241922
21
12.7845153
0
LINE
8
DEFAULT_255_2_778
10
2.9145922
20
7.3407153
11
4.2758922
21
7.3124153
0
LINE
8
DEFAULT_255_2_778
10
5.2746922
20
4.4707153
11
7.3950922
21
6.4588153
0
ENDSEC
0
EOF