0
SECTION
2
HEADER
9
$MEASUREMENT
70
1
0
ENDSEC
0
SECTION
2
TABLES
0
TABLE
2
LTYPE
0
LTYPE
72
65
70
64
2
CONTINUOUS
3
______
73
0
40
0
0
ENDTAB
0
TABLE
2
LAYER
0
LAYER
2
DEFAULT_255_2_778
70
0
62
255
6
CONTINUOUS
0
ENDTAB
0
ENDSEC
0
SECTION
2
ENTITIES
0
ARC
8
DEFAULT_255_2_778
10
-4.7158232
20
-1.2645763
40
7.4079235
50
17.4180912
51
26.1031653
0
ARC
8
DEFAULT_255_2_778
10
5.7367219
20
1.1795414
40
1.5933056
50
179.9861365
51
182.1955407
0
ARC
8
DEFAULT_255_2_778
10
5.097003
20
1.115306
40
0.9524226
50
179.8077473
51
213.4819545
0
ARC
8
DEFAULT_255_2_778
10
4.7740118
20
0.9354422
40
0.5844817
50
216.2443683
51
250.4371403
0
ARC
8
DEFAULT_255_2_778
10
4.8502479
20
1.1516966
40
0.81378
50
250.4776568
51
267.322479
0
ARC
8
DEFAULT_255_2_778
10
4.8745702
20
1.4305943
40
1.0935675
50
266.7321425
51
270.0338526
0
ARC
8
DEFAULT_255_2_778
10
4.8718246
20
1.4174474
40
1.0804258
50
270.1798632
51
311.4309668
0
ARC
8
DEFAULT_255_2_778
10
4.6008241
20
1.7937948
40
1.5426008
50
309.7276682
51
311.0027047
0
ARC
8
DEFAULT_255_2_778
10
4.8143375
20
1.4452108
40
1.6004595
50
270.0013326
51
310.9944479
0
ARC
8
DEFAULT_255_2_778
10
4.8143574
20
1.4464232
40
1.6016718
50
269.444046
51
270.0006166
0
ARC
8
DEFAULT_255_2_778
10
4.7880487
20
1.3410976
40
1.4963094
50
253.4593153
51
270.4123087
0
ARC
8
DEFAULT_255_2_778
10
4.7169133
20
1.0797912
40
1.2255802
50
202.0774801
51
253.169408
0
ARC
8
DEFAULT_255_2_778
10
5.1926108
20
1.3043159
40
1.7510321
50
188.2302667
51
203.0351417
0
ARC
8
DEFAULT_255_2_778
10
5.7248126
20
1.3897988
40
2.2900052
50
179.8416713
51
188.4408575
0
ARC
8
DEFAULT_255_2_778
10
6.2534651
20
1.4100855
40
2.8186834
50
173.3758701
51
180.2837391
0
ARC
8
DEFAULT_255_2_778
10
5.1721252
20
1.5409353
40
1.7294759
50
161.1775849
51
173.5493938
0
ARC
8
DEFAULT_255_2_778
10
4.8110477
20
1.6552653
40
1.3508459
50
138.2068842
51
160.8263591
0
ARC
8
DEFAULT_255_2_778
10
4.6745131
20
1.8162232
40
1.1421509
50
116.4752547
51
139.6623582
0
ARC
8
DEFAULT_255_2_778
10
4.6704226
20
1.7741869
40
1.1781682
50
92.1428908
51
115.3857606
0
ARC
8
DEFAULT_255_2_778
10
4.7105991
20
1.3371043
40
1.6166228
50
89.9710383
51
92.9866157
0
ARC
8
DEFAULT_255_2_778
10
4.7475739
20
1.8096012
40
1.1446969
50
90.0000826
51
91.8101078
0
ARC
8
DEFAULT_255_2_778
10
4.7473419
20
1.8100054
40
1.1442928
50
47.1867171
51
89.988463
0
ARC
8
DEFAULT_255_2_778
10
4.8730885
20
1.9330931
40
0.9685783
50
23.6245826
51
47.6950014
0
ARC
8
DEFAULT_255_2_778
10
4.4472295
20
1.7443495
40
1.4343858
50
12.1593794
51
23.7150806
0
ARC
8
DEFAULT_255_2_778
10
3.5380361
20
1.5415504
40
2.3659075
50
5.2927623
51
12.3227094
0
ARC
8
DEFAULT_255_2_778
10
2.0204852
20
1.3950368
40
3.8905077
50
0.6999201
51
5.3796921
0
ARC
8
DEFAULT_255_2_778
10
0.6475536
20
1.3621881
40
5.2637626
50
359.991714
51
0.8748958
0
ARC
8
DEFAULT_255_2_778
10
4.6983221
20
1.9528486
40
0.5157395
50
88.5673743
51
123.0257475
0
ARC
8
DEFAULT_255_2_778
10
4.7298776
20
1.9414727
40
0.5428536
50
125.1642661
51
159.3275629
0
ARC
8
DEFAULT_255_2_778
10
5.1410196
20
1.7710114
40
0.9878052
50
158.4956186
51
174.3946619
0
ARC
8
DEFAULT_255_2_778
10
5.6572916
20
1.7054983
40
1.5080799
50
173.8334015
51
180.1432854
0
ARC
8
DEFAULT_255_2_778
10
3.9451199
20
1.7122845
40
1.2987393
50
359.5342313
51
12.4967392
0
ARC
8
DEFAULT_255_2_778
10
4.4427691
20
1.8272535
40
0.788016
50
12.1650484
51
31.9467289
0
ARC
8
DEFAULT_255_2_778
10
4.7158815
20
2.0074548
40
0.4609956
50
30.9031607
51
90.5798313
0
ARC
8
DEFAULT_255_2_778
10
7.0390265
20
2.2571728
40
1.1405056
50
350.4111438
51
351.1051978
0
ARC
8
DEFAULT_255_2_778
10
4.8688516
20
2.6229993
40
3.3412982
50
349.401753
51
350.4246174
0
ARC
8
DEFAULT_255_2_778
10
2.3717513
20
3.0886287
40
5.8814399
50
348.2885256
51
349.4171811
0
ARC
8
DEFAULT_255_2_778
10
0.2088818
20
3.5338352
40
8.0896532
50
347.4394048
51
348.3103993
0
ARC
8
DEFAULT_255_2_778
10
-1.8646622
20
3.9970716
40
10.2143112
50
346.2728251
51
347.432607
0
ARC
8
DEFAULT_255_2_778
10
-4.0621461
20
4.5328227
40
12.476161
50
345.1409878
51
346.277474
0
ARC
8
DEFAULT_255_2_778
10
-5.4487508
20
4.8970975
40
13.909813
50
344.7728163
51
345.1553614
0
ARC
8
DEFAULT_255_2_778
10
15.268073
20
-0.5560655
40
8.0372272
50
165.0604732
51
170.8679424
0
ARC
8
DEFAULT_255_2_778
10
1.3709867
20
-6.3165349
40
13.9983764
50
29.3586951
51
30.499357
0
ARC
8
DEFAULT_255_2_778
10
6.4165233
20
-3.3420773
40
8.1413437
50
30.4842837
51
32.2238741
0
ARC
8
DEFAULT_255_2_778
10
9.0721244
20
-1.6654292
40
5.0007454
50
32.1969187
51
34.9110515
0
ARC
8
DEFAULT_255_2_778
10
10.406463
20
-0.7346169
40
3.3738248
50
34.91687
51
38.4784898
0
ARC
8
DEFAULT_255_2_778
10
10.9732016
20
-0.2858556
40
2.6509297
50
38.5071809
51
42.9057627
0
ARC
8
DEFAULT_255_2_778
10
11.0758214
20
-0.1931154
40
2.5126271
50
42.9498462
51
43.9881098
0
ARC
8
DEFAULT_255_2_778
10
12.6219394
20
1.3292061
40
0.3436268
50
40.4020621
51
90.0138236
0
ARC
8
DEFAULT_255_2_778
10
12.6218907
20
1.3258946
40
0.3469384
50
90.0056578
51
90.3425872
0
ARC
8
DEFAULT_255_2_778
10
13.2038215
20
2.0033165
40
1.9696348
50
79.9488972
51
90.2852304
0
ARC
8
DEFAULT_255_2_778
10
13.302387
20
2.5473093
40
1.4167903
50
65.8530491
51
80.0342903
0
ARC
8
DEFAULT_255_2_778
10
13.4456281
20
2.8621009
40
1.070948
50
42.9187034
51
65.9564651
0
ARC
8
DEFAULT_255_2_778
10
13.3915821
20
2.8497223
40
1.1193002
50
359.5666939
51
41.4986802
0
ARC
8
DEFAULT_255_2_778
10
13.0689367
20
2.8135701
40
1.4421795
50
359.9982856
51
1.1000506
0
ARC
8
DEFAULT_255_2_778
10
13.2708184
20
2.8016728
40
1.2403545
50
328.3588968
51
0.5475854
0
ARC
8
DEFAULT_255_2_778
10
13.5247569
20
2.6437853
40
0.9413373
50
281.410198
51
328.4320773
0
ARC
8
DEFAULT_255_2_778
10
13.5067125
20
2.7474661
40
1.0465425
50
269.8578632
51
281.2556134
0
ARC
8
DEFAULT_255_2_778
10
13.3265966
20
1.3832543
40
0.3639081
50
46.6224127
51
60.8029499
0
ARC
8
DEFAULT_255_2_778
10
12.8062415
20
0.8134338
40
1.1355361
50
40.3706003
51
47.2853286
0
ARC
8
DEFAULT_255_2_778
10
11.6224486
20
-0.2062709
40
2.6979445
50
36.5818598
51
40.5852227
0
ARC
8
DEFAULT_255_2_778
10
9.7226853
20
-1.6281809
40
5.070892
50
34.2744512
51
36.6903226
0
ARC
8
DEFAULT_255_2_778
10
7.4774999
20
-3.1651585
40
7.7917627
50
32.6380517
51
34.3162727
0
ARC
8
DEFAULT_255_2_778
10
5.7600373
20
-4.2712771
40
9.8345927
50
31.6678519
51
32.668212
0
ARC
8
DEFAULT_255_2_778
10
12.9798638
20
4.8340096
40
2.6905231
50
269.6859453
51
274.5433905
0
ARC
8
DEFAULT_255_2_778
10
13.1068425
20
3.3115543
40
1.1628088
50
274.2487382
51
284.1488524
0
ARC
8
DEFAULT_255_2_778
10
13.2736034
20
2.6809915
40
0.5106677
50
283.2999298
51
309.3976225
0
ARC
8
DEFAULT_255_2_778
10
13.3185661
20
2.613401
40
0.4299761
50
310.4842574
51
315.7609884
0
ARC
8
DEFAULT_255_2_778
10
13.1925571
20
2.7346959
40
0.604876
50
315.8567167
51
346.2107558
0
ARC
8
DEFAULT_255_2_778
10
12.9619346
20
2.8005512
40
0.8445963
50
345.6010008
51
0.3375423
0
ARC
8
DEFAULT_255_2_778
10
12.6920384
20
2.812593
40
1.1145004
50
359.6367363
51
359.9994847
0
ARC
8
DEFAULT_255_2_778
10
13.0663938
20
2.8280057
40
0.7403056
50
358.80627
51
18.6725438
0
ARC
8
DEFAULT_255_2_778
10
13.3257441
20
2.906569
40
0.4695326
50
19.7226837
51
68.3354427
0
ARC
8
DEFAULT_255_2_778
10
13.1418061
20
2.4987779
40
0.9166496
50
67.0602372
51
81.4820312
0
ARC
8
DEFAULT_255_2_778
10
13.0101858
20
1.6853696
40
1.7406081
50
81.1631698
51
89.4558392
0
ARC
8
DEFAULT_255_2_778
10
12.986592
20
0.970408
40
2.4558191
50
89.0638221
51
90.0064331
0
ARC
8
DEFAULT_255_2_778
10
17.2021219
20
1.1795414
40
1.5933056
50
179.9861366
51
182.1955407
0
ARC
8
DEFAULT_255_2_778
10
16.562315
20
1.1153001
40
0.9523346
50
179.807376
51
213.4850333
0
ARC
8
DEFAULT_255_2_778
10
16.2394477
20
0.9355078
40
0.5845384
50
216.2482673
51
250.4407305
0
ARC
8
DEFAULT_255_2_778
10
16.3157396
20
1.1519324
40
0.8140157
50
250.4805312
51
267.3230784
0
ARC
8
DEFAULT_255_2_778
10
16.3400702
20
1.4309734
40
1.0939466
50
266.7327126
51
270.033842
0
ARC
8
DEFAULT_255_2_778
10
16.3372505
20
1.4173782
40
1.0803569
50
270.1838086
51
311.4323684
0
ARC
8
DEFAULT_255_2_778
10
16.0662243
20
1.7937946
40
1.5426006
50
309.7276682
51
311.0027047
0
ARC
8
DEFAULT_255_2_778
10
16.2797405
20
1.4454699
40
1.6007187
50
270.0013604
51
310.990981
0
ARC
8
DEFAULT_255_2_778
10
16.2797615
20
1.4472543
40
1.602503
50
269.4441902
51
270.0006106
0
ARC
8
DEFAULT_255_2_778
10
16.2534533
20
1.3408104
40
1.4960222
50
253.4577193
51
270.4122141
0
ARC
8
DEFAULT_255_2_778
10
16.1824059
20
1.0797611
40
1.2255647
50
202.0762489
51
253.1669292
0
ARC
8
DEFAULT_255_2_778
10
16.6581554
20
1.304318
40
1.7510768
50
188.2301261
51
203.034596
0
ARC
8
DEFAULT_255_2_778
10
17.1903486
20
1.3898001
40
2.2900412
50
179.8417059
51
188.4407564
0
ARC
8
DEFAULT_255_2_778
10
17.7205673
20
1.4101008
40
2.8202856
50
173.3799642
51
180.2838897
0
ARC
8
DEFAULT_255_2_778
10
16.6374866
20
1.541086
40
1.7293337
50
161.1812537
51
173.5538851
0
ARC
8
DEFAULT_255_2_778
10
16.2757581
20
1.6556189
40
1.3500216
50
138.195742
51
160.8300851
0
ARC
8
DEFAULT_255_2_778
10
16.1395787
20
1.8168508
40
1.1414136
50
116.4716058
51
139.6722555
0
ARC
8
DEFAULT_255_2_778
10
16.1359284
20
1.773982
40
1.1783733
50
92.1428802
51
115.3835295
0
ARC
8
DEFAULT_255_2_778
10
16.1760999
20
1.3370122
40
1.6167148
50
89.9710672
51
92.9865309
0
ARC
8
DEFAULT_255_2_778
10
16.2130739
20
1.8096012
40
1.1446969
50
90.0000826
51
91.8101078
0
ARC
8
DEFAULT_255_2_778
10
16.2128419
20
1.8100054
40
1.1442928
50
47.1867171
51
89.988463
0
ARC
8
DEFAULT_255_2_778
10
16.3385885
20
1.9330931
40
0.9685783
50
23.6245826
51
47.6950014
0
ARC
8
DEFAULT_255_2_778
10
15.9127295
20
1.7443495
40
1.4343858
50
12.1593794
51
23.7150806
0
ARC
8
DEFAULT_255_2_778
10
15.0035361
20
1.5415504
40
2.3659075
50
5.2927623
51
12.3227094
0
ARC
8
DEFAULT_255_2_778
10
13.4859852
20
1.3950368
40
3.8905077
50
0.6999201
51
5.3796921
0
ARC
8
DEFAULT_255_2_778
10
12.1130536
20
1.3621881
40
5.2637626
50
359.991714
51
0.8748958
0
ARC
8
DEFAULT_255_2_778
10
16.1643221
20
1.9528486
40
0.5157395
50
88.5673743
51
123.0257475
0
ARC
8
DEFAULT_255_2_778
10
16.1958776
20
1.9414727
40
0.5428536
50
125.1642661
51
159.3275629
0
ARC
8
DEFAULT_255_2_778
10
16.6070196
20
1.7710114
40
0.9878052
50
158.4956186
51
174.3946619
0
ARC
8
DEFAULT_255_2_778
10
17.1232916
20
1.7054983
40
1.5080799
50
173.8334015
51
180.1432854
0
ARC
8
DEFAULT_255_2_778
10
15.4131277
20
1.7121648
40
1.2948307
50
359.5381206
51
12.5405005
0
ARC
8
DEFAULT_255_2_778
10
15.90503
20
1.8262055
40
0.789915
50
12.2131236
51
31.9504291
0
ARC
8
DEFAULT_255_2_778
10
16.180462
20
2.0087307
40
0.4597099
50
30.8137922
51
90.4419234
0
ARC
8
DEFAULT_255_2_778
10
18.5767837
20
0.739077
40
0.8815708
50
258.8670312
51
270.3920774
0
ARC
8
DEFAULT_255_2_778
10
18.5208601
20
0.4616722
40
0.5985893
50
241.5659721
51
258.9922358
0
ARC
8
DEFAULT_255_2_778
10
18.4788345
20
0.3755749
40
0.5028842
50
210.0626461
51
241.1057854
0
ARC
8
DEFAULT_255_2_778
10
18.6766016
20
0.48632
40
0.7295319
50
191.9844285
51
209.8094952
0
ARC
8
DEFAULT_255_2_778
10
19.1616078
20
0.5963244
40
1.2268281
50
183.3402482
51
192.3065463
0
ARC
8
DEFAULT_255_2_778
10
20.0026688
20
0.6533454
40
2.0697978
50
180.4508066
51
183.5594737
0
ARC
8
DEFAULT_255_2_778
10
23.2592534
20
0.6861032
40
5.3265441
50
179.9072379
51
180.5275455
0
ARC
8
DEFAULT_255_2_778
10
13.1182818
20
3.3412268
40
4.8160029
50
358.5377066
51
0.0007818
0
ARC
8
DEFAULT_255_2_778
10
13.0973853
20
3.3412801
40
4.8368994
50
0.0001465
51
1.074415
0
ARC
8
DEFAULT_255_2_778
10
13.1485411
20
3.3441014
40
4.7857001
50
1.0521278
51
8.900339
0
ARC
8
DEFAULT_255_2_778
10
17.110499
20
3.8904868
40
1.4675972
50
5.0121696
51
13.4211737
0
ARC
8
DEFAULT_255_2_778
10
15.0053435
20
3.687751
40
3.5824608
50
1.6675598
51
5.3006716
0
ARC
8
DEFAULT_255_2_778
10
10.5785217
20
3.5335476
40
8.0119353
50
0.6008703
51
1.8486044
0
ARC
8
DEFAULT_255_2_778
10
1.3393579
20
3.43131
40
17.2516639
50
359.9542241
51
0.6186092
0
ARC
8
DEFAULT_255_2_778
10
27.0009036
20
0.8910175
40
8.4098974
50
179.9113678
51
181.102772
0
ARC
8
DEFAULT_255_2_778
10
21.6685387
20
0.7833854
40
3.0764526
50
181.0099046
51
183.4934922
0
ARC
8
DEFAULT_255_2_778
10
19.5631223
20
0.6483895
40
0.9667442
50
183.1111531
51
189.5893401
0
ARC
8
DEFAULT_255_2_778
10
18.8865118
20
0.5285956
40
0.2796842
50
188.4816651
51
210.3189913
0
ARC
8
DEFAULT_255_2_778
10
18.943999
20
0.5660506
40
0.3482322
50
210.8639129
51
213.270272
0
ARC
8
DEFAULT_255_2_778
10
19.0390747
20
0.6277842
40
0.461591
50
213.2029354
51
213.736719
0
ARC
8
DEFAULT_255_2_778
10
18.7907247
20
0.489673
40
0.1798462
50
221.1082989
51
270.007437
0
ARC
8
DEFAULT_255_2_778
10
18.7907469
20
0.4893065
40
0.1794796
50
270.0003649
51
273.5085166
0
ARC
8
DEFAULT_255_2_778
10
18.7907168
20
0.4893431
40
0.1795182
50
273.5174115
51
294.8352583
0
ARC
8
DEFAULT_255_2_778
10
18.5953816
20
0.8661402
40
1.0104868
50
269.9900286
51
291.8471791
0
ARC
8
DEFAULT_255_2_778
10
18.595224
20
0.8708545
40
1.0152009
50
269.3110073
51
269.998969
0
ARC
8
DEFAULT_255_2_778
10
19.7072696
20
3.7434145
40
0.4198062
50
224.2215852
51
269.4604456
0
ARC
8
DEFAULT_255_2_778
10
19.7078915
20
3.7439563
40
0.4206298
50
179.9753427
51
224.2153872
0
ARC
8
DEFAULT_255_2_778
10
19.7082147
20
3.7441471
40
0.4209529
50
179.0771633
51
180.0013348
0
ARC
8
DEFAULT_255_2_778
10
19.7115924
20
3.747685
40
0.4242885
50
111.8740489
51
179.5622139
0
ARC
8
DEFAULT_255_2_778
10
19.7116157
20
3.7470675
40
0.4248703
50
93.6032397
51
111.8459428
0
ARC
8
DEFAULT_255_2_778
10
19.7115611
20
3.7472383
40
0.4246965
50
89.9992344
51
93.5973277
0
ARC
8
DEFAULT_255_2_778
10
19.7117077
20
3.747147
40
0.424788
50
44.2437772
51
90.0190114
0
ARC
8
DEFAULT_255_2_778
10
19.7127989
20
3.74814
40
0.4233134
50
359.9811603
51
44.2505406
0
ARC
8
DEFAULT_255_2_778
10
19.7128361
20
3.7479974
40
0.4232761
50
356.9693345
51
0.0004629
0
ARC
8
DEFAULT_255_2_778
10
19.7132046
20
3.7479962
40
0.4229081
50
336.3913566
51
356.9668504
0
ARC
8
DEFAULT_255_2_778
10
19.7112217
20
3.7479514
40
0.4247079
50
270.0312721
51
336.5040312
0
ARC
8
DEFAULT_255_2_778
10
19.7114501
20
3.7497191
40
0.4264756
50
268.8668679
51
270.0004606
0
ARC
8
DEFAULT_255_2_778
10
21.8639496
20
1.2770227
40
1.4338424
50
254.9091976
51
270.462205
0
ARC
8
DEFAULT_255_2_778
10
21.772977
20
0.9350199
40
1.0799499
50
204.0292444
51
254.8452741
0
ARC
8
DEFAULT_255_2_778
10
22.2818034
20
1.1930133
40
1.649981
50
190.8292592
51
205.0168591
0
ARC
8
DEFAULT_255_2_778
10
23.0182767
20
1.3398665
40
2.4009372
50
181.1238479
51
190.9692744
0
ARC
8
DEFAULT_255_2_778
10
23.570464
20
1.3650745
40
2.9535476
50
179.9931628
51
181.4026646
0
ARC
8
DEFAULT_255_2_778
10
22.9797041
20
1.3743233
40
2.3628045
50
170.6038336
51
180.2157299
0
ARC
8
DEFAULT_255_2_778
10
22.4334025
20
1.4665398
40
1.8087784
50
158.1255737
51
170.6605369
0
ARC
8
DEFAULT_255_2_778
10
22.077034
20
1.6109793
40
1.4242537
50
141.0904662
51
158.1765332
0
ARC
8
DEFAULT_255_2_778
10
21.9174134
20
1.7389003
40
1.2197008
50
114.0616991
51
141.0568178
0
ARC
8
DEFAULT_255_2_778
10
21.9178481
20
1.7267361
40
1.2309937
50
89.8758119
51
113.8493344
0
ARC
8
DEFAULT_255_2_778
10
21.9379999
20
1.5954008
40
1.3624383
50
78.0171581
51
90.7352709
0
ARC
8
DEFAULT_255_2_778
10
22.0078869
20
1.9755748
40
0.9760958
50
56.4714206
51
77.3968719
0
ARC
8
DEFAULT_255_2_778
10
21.8385207
20
1.7091212
40
1.2917781
50
50.4609595
51
56.7371448
0
ARC
8
DEFAULT_255_2_778
10
21.6060365
20
1.4242222
40
1.6594913
50
46.9003376
51
50.5327079
0
ARC
8
DEFAULT_255_2_778
10
21.5734044
20
1.2779125
40
1.2600036
50
47.6376449
51
55.6937539
0
ARC
8
DEFAULT_255_2_778
10
21.8571852
20
1.696445
40
0.7543385
50
55.5814786
51
68.5888188
0
ARC
8
DEFAULT_255_2_778
10
21.9263702
20
1.8659165
40
0.571312
50
68.8438677
51
90.1357838
0
ARC
8
DEFAULT_255_2_778
10
21.9160113
20
1.9329744
40
0.504333
50
88.9769159
51
90.0018295
0
ARC
8
DEFAULT_255_2_778
10
21.9159991
20
1.9347097
40
0.5025976
50
90.0004478
51
156.0384011
0
ARC
8
DEFAULT_255_2_778
10
22.3025085
20
1.733591
40
0.9378596
50
154.3999906
51
168.5882877
0
ARC
8
DEFAULT_255_2_778
10
23.3593101
20
1.5067075
40
2.0187035
50
168.2107473
51
175.7611908
0
ARC
8
DEFAULT_255_2_778
10
25.3878351
20
1.3433687
40
4.0537734
50
175.5780673
51
179.7701549
0
ARC
8
DEFAULT_255_2_778
10
27.2665088
20
1.3136987
40
5.9325924
50
179.5563946
51
180.0035903
0
ARC
8
DEFAULT_255_2_778
10
24.1921002
20
1.3005107
40
2.8582126
50
179.7430854
51
185.2921412
0
ARC
8
DEFAULT_255_2_778
10
22.8817982
20
1.1744217
40
1.5418735
50
185.117597
51
194.1742141
0
ARC
8
DEFAULT_255_2_778
10
22.1563098
20
0.9858628
40
0.7923165
50
193.8005433
51
210.2709501
0
ARC
8
DEFAULT_255_2_778
10
21.9190809
20
0.8547588
40
0.521384
50
210.9695072
51
222.2456397
0
ARC
8
DEFAULT_255_2_778
10
21.9182656
20
0.855669
40
0.5213939
50
222.3799129
51
269.9892865
0
ARC
8
DEFAULT_255_2_778
10
21.9181511
20
0.8579074
40
0.5236323
50
270.0018622
51
270.805924
0
ARC
8
DEFAULT_255_2_778
10
21.9150559
20
1.0462695
40
0.7120195
50
270.8417699
51
303.0349306
0
ARC
8
DEFAULT_255_2_778
10
21.6598746
20
1.467611
40
1.2044616
50
302.284922
51
315.7352403
0
ARC
8
DEFAULT_255_2_778
10
21.8130677
20
1.2264305
40
1.418153
50
299.265262
51
315.6240858
0
ARC
8
DEFAULT_255_2_778
10
21.9415796
20
1.0368161
40
1.1900749
50
274.4365702
51
298.330459
0
ARC
8
DEFAULT_255_2_778
10
21.8818096
20
1.5461578
40
1.7026335
50
269.8959075
51
275.1160256
0
LINE
8
DEFAULT_255_2_778
10
2.2294163
20
-0.0805731
11
1.3219163
21
1.8244269
0
LINE
8
DEFAULT_255_2_778
10
1.3219163
20
1.8244269
11
0.8067163
21
3.0246269
0
LINE
8
DEFAULT_255_2_778
10
0.8067163
20
3.0246269
11
0.7893163
21
3.0071269
0
LINE
8
DEFAULT_255_2_778
10
0.7893163
20
3.0071269
11
0.8303163
21
1.8834269
0
LINE
8
DEFAULT_255_2_778
10
0.8303163
20
1.8834269
11
0.8536163
21
-0.0778731
0
LINE
8
DEFAULT_255_2_778
10
0.8536163
20
-0.0778731
11
0.1921163
21
-0.0778731
0
LINE
8
DEFAULT_255_2_778
10
0.1921163
20
-0.0778731
11
0.1921163
21
3.9729269
0
LINE
8
DEFAULT_255_2_778
10
0.1921163
20
3.9729269
11
0.9530163
21
3.9729269
0
LINE
8
DEFAULT_255_2_778
10
0.9530163
20
3.9729269
11
1.9365163
21
1.9948269
0
LINE
8
DEFAULT_255_2_778
10
2.3524163
20
0.9529269
11
2.3699163
21
0.9704269
0
LINE
8
DEFAULT_255_2_778
10
2.3699163
20
0.9704269
11
2.3117163
21
2.1240269
0
LINE
8
DEFAULT_255_2_778
10
2.3117163
20
2.1240269
11
2.3000163
21
3.9760269
0
LINE
8
DEFAULT_255_2_778
10
2.3000163
20
3.9760269
11
2.9385163
21
3.9760269
0
LINE
8
DEFAULT_255_2_778
10
2.9385163
20
3.9760269
11
2.9385163
21
-0.0720731
0
LINE
8
DEFAULT_255_2_778
10
2.9385163
20
-0.0720731
11
2.2294163
21
-0.0805731
0
LINE
8
DEFAULT_255_2_778
10
4.1434163
20
1.2249269
11
4.1434163
21
1.1799269
0
LINE
8
DEFAULT_255_2_778
10
5.6129163
20
0.6296269
11
5.8642163
21
0.2372269
0
LINE
8
DEFAULT_255_2_778
10
5.9113163
20
1.3614269
11
5.9113163
21
1.2291269
0
LINE
8
DEFAULT_255_2_778
10
5.9113163
20
1.2291269
11
4.1434163
21
1.2249269
0
LINE
8
DEFAULT_255_2_778
10
4.1492163
20
1.7017269
11
5.2438163
21
1.7017269
0
LINE
8
DEFAULT_255_2_778
10
4.7112163
20
2.4684269
11
4.7112163
21
2.4684269
0
LINE
8
DEFAULT_255_2_778
10
9.3382163
20
-0.0921731
11
8.7331163
21
-0.0921731
0
LINE
8
DEFAULT_255_2_778
10
8.7331163
20
-0.0921731
11
8.3706163
21
1.2717269
0
LINE
8
DEFAULT_255_2_778
10
8.3706163
20
1.2717269
11
8.1775163
21
2.0808269
0
LINE
8
DEFAULT_255_2_778
10
8.1775163
20
2.0808269
11
8.1658163
21
2.0808269
0
LINE
8
DEFAULT_255_2_778
10
7.9727163
20
1.2437269
11
7.6155163
21
-0.0908731
0
LINE
8
DEFAULT_255_2_778
10
7.6155163
20
-0.0908731
11
7.0123163
21
-0.0908731
0
LINE
8
DEFAULT_255_2_778
10
7.0123163
20
-0.0908731
11
6.2026163
21
2.8423269
0
LINE
8
DEFAULT_255_2_778
10
6.2026163
20
2.8423269
11
6.8411163
21
2.9323269
0
LINE
8
DEFAULT_255_2_778
10
6.8411163
20
2.9323269
11
7.1628163
21
1.4982269
0
LINE
8
DEFAULT_255_2_778
10
7.1628163
20
1.4982269
11
7.3152163
21
0.7195269
0
LINE
8
DEFAULT_255_2_778
10
7.3152163
20
0.7195269
11
7.3327163
21
0.7195269
0
LINE
8
DEFAULT_255_2_778
10
7.5025163
20
1.5159269
11
7.8835163
21
2.8857269
0
LINE
8
DEFAULT_255_2_778
10
7.8835163
20
2.8857269
11
8.5185163
21
2.8857269
0
LINE
8
DEFAULT_255_2_778
10
8.5185163
20
2.8857269
11
8.8524163
21
1.5495269
0
LINE
8
DEFAULT_255_2_778
10
8.8524163
20
1.5495269
11
9.0398163
21
0.7066269
0
LINE
8
DEFAULT_255_2_778
10
9.0398163
20
0.7066269
11
9.0572163
21
0.7066269
0
LINE
8
DEFAULT_255_2_778
10
9.0572163
20
0.7066269
11
9.2038163
21
1.5003269
0
LINE
8
DEFAULT_255_2_778
10
9.2038163
20
1.5003269
11
9.5081163
21
2.8822269
0
LINE
8
DEFAULT_255_2_778
10
9.5081163
20
2.8822269
11
10.1756163
21
2.8822269
0
LINE
8
DEFAULT_255_2_778
10
10.1756163
20
2.8822269
11
9.3382163
21
-0.0921731
0
LINE
8
DEFAULT_255_2_778
10
13.9256163
20
-0.0805731
11
13.5715163
21
0.5465269
0
LINE
8
DEFAULT_255_2_778
10
12.6198163
20
1.6728269
11
12.6198163
21
-0.0775731
0
LINE
8
DEFAULT_255_2_778
10
12.6198163
20
-0.0775731
11
11.9584163
21
-0.0775731
0
LINE
8
DEFAULT_255_2_778
10
11.9584163
20
-0.0775731
11
11.9584163
21
3.9729269
0
LINE
8
DEFAULT_255_2_778
10
11.9584163
20
3.9729269
11
13.1940163
21
3.9729269
0
LINE
8
DEFAULT_255_2_778
10
14.1303163
20
0.8918269
11
14.7272163
21
-0.0799731
0
LINE
8
DEFAULT_255_2_778
10
14.7272163
20
-0.0799731
11
13.9256163
21
-0.0805731
0
LINE
8
DEFAULT_255_2_778
10
12.9889163
20
3.4257269
11
12.6198163
21
3.4257269
0
LINE
8
DEFAULT_255_2_778
10
12.6198163
20
3.4257269
11
12.6198163
21
2.1435269
0
LINE
8
DEFAULT_255_2_778
10
12.6198163
20
2.1435269
11
12.9651163
21
2.1435269
0
LINE
8
DEFAULT_255_2_778
10
12.9863163
20
3.4262269
11
12.9889163
21
3.4257269
0
LINE
8
DEFAULT_255_2_778
10
15.6088163
20
1.2249269
11
15.6088163
21
1.1799269
0
LINE
8
DEFAULT_255_2_778
10
17.0783163
20
0.6296269
11
17.3297163
21
0.2372269
0
LINE
8
DEFAULT_255_2_778
10
17.3768163
20
1.3614269
11
17.3768163
21
1.2291269
0
LINE
8
DEFAULT_255_2_778
10
17.3768163
20
1.2291269
11
15.6088163
21
1.2249269
0
LINE
8
DEFAULT_255_2_778
10
15.6152163
20
1.7017269
11
16.7079163
21
1.7017269
0
LINE
8
DEFAULT_255_2_778
10
16.1769163
20
2.4684269
11
16.1772163
21
2.4684269
0
LINE
8
DEFAULT_255_2_778
10
17.9327163
20
0.6947269
11
17.9327163
21
3.2183269
0
LINE
8
DEFAULT_255_2_778
10
17.8766163
20
4.0845269
11
18.5380163
21
4.2311269
0
LINE
8
DEFAULT_255_2_778
10
18.5910163
20
3.4175269
11
18.5910163
21
0.9040269
0
LINE
8
DEFAULT_255_2_778
10
18.8661163
20
0.3264269
11
18.9714163
21
-0.0717731
0
LINE
8
DEFAULT_255_2_778
10
18.5830163
20
-0.1442731
11
18.5828163
21
-0.1424731
0
LINE
8
DEFAULT_255_2_778
10
19.7030163
20
3.3233269
11
19.7033163
21
3.3236269
0
LINE
8
DEFAULT_255_2_778
10
19.3818163
20
-0.0805731
11
19.3818163
21
2.8352269
0
LINE
8
DEFAULT_255_2_778
10
19.3818163
20
2.8352269
11
20.0319163
21
2.9524269
0
LINE
8
DEFAULT_255_2_778
10
20.0319163
20
2.9524269
11
20.0319163
21
-0.0797731
0
LINE
8
DEFAULT_255_2_778
10
20.0319163
20
-0.0797731
11
19.3818163
21
-0.0805731
0
LINE
8
DEFAULT_255_2_778
10
22.7399163
20
2.6359269
11
22.4224163
21
2.2089269
0
LINE
8
DEFAULT_255_2_778
10
22.5224163
20
0.6269269
11
22.8267163
21
0.2346269
0
LINE
8
DEFAULT_255_2_778
10
21.8787163
20
-0.1564731
11
21.8755163
21
-0.1567731
0
ARC
8
DEFAULT_255_2_778
10
13.3823642
20
9.8871486
40
3.7869778
50
12.6278321
51
47.3752471
0
ARC
8
DEFAULT_255_2_778
10
12.7577956
20
9.2674182
40
4.6661028
50
46.8855142
51
59.8003743
0
ARC
8
DEFAULT_255_2_778
10
12.3898542
20
8.6441916
40
5.3898255
50
59.7524119
51
70.3461184
0
ARC
8
DEFAULT_255_2_778
10
12.1679186
20
8.0318442
40
6.0411446
50
70.317185
51
79.7944975
0
ARC
8
DEFAULT_255_2_778
10
12.0705848
20
7.5028308
40
6.5790342
50
79.7765256
51
88.783385
0
ARC
8
DEFAULT_255_2_778
10
12.0590433
20
7.2476982
40
6.8343571
50
88.7320626
51
90.0009564
0
ARC
8
DEFAULT_255_2_778
10
12.0598766
20
7.1322332
40
6.9498221
50
90.0078106
51
93.8516298
0
ARC
8
DEFAULT_255_2_778
10
12.0702953
20
6.9754617
40
7.1069393
50
93.850536
51
97.5352587
0
ARC
8
DEFAULT_255_2_778
10
12.0886151
20
6.8362702
40
7.2473312
50
97.5345361
51
101.0819824
0
ARC
8
DEFAULT_255_2_778
10
12.1053224
20
6.7478221
40
7.3373414
50
101.077257
51
102.2593082
0
ARC
8
DEFAULT_255_2_778
10
12.0689707
20
6.8950946
40
7.1857097
50
102.2254087
51
110.9473903
0
ARC
8
DEFAULT_255_2_778
10
11.9342205
20
7.2438176
40
6.8118596
50
110.9375301
51
119.9658599
0
ARC
8
DEFAULT_255_2_778
10
11.6915076
20
7.6611785
40
6.3290592
50
119.9495401
51
129.3706487
0
ARC
8
DEFAULT_255_2_778
10
11.3042067
20
8.1295533
40
5.7213002
50
129.3476159
51
139.4749236
0
ARC
8
DEFAULT_255_2_778
10
10.7633164
20
8.5872999
40
5.012724
50
139.4347237
51
151.2808558
0
ARC
8
DEFAULT_255_2_778
10
10.0865817
20
8.9497471
40
4.2450818
50
151.1820414
51
167.9035772
0
ARC
8
DEFAULT_255_2_778
10
9.6167115
20
9.0617112
40
3.7621976
50
168.0713014
51
179.9398855
0
ARC
8
DEFAULT_255_2_778
10
9.4901728
20
9.0652916
40
3.635657
50
179.9942184
51
185.9180452
0
ARC
8
DEFAULT_255_2_778
10
9.4781318
20
9.0642767
40
3.6235755
50
185.9217139
51
187.3017994
0
ARC
8
DEFAULT_255_2_778
10
9.48679
20
9.0654618
40
3.6323142
50
187.3029829
51
191.0020278
0
ARC
8
DEFAULT_255_2_778
10
9.5061145
20
9.0691251
40
3.6519825
50
191.0005842
51
192.2613764
0
ARC
8
DEFAULT_255_2_778
10
9.6310891
20
9.1203594
40
3.78506
50
192.6174777
51
227.3761972
0
ARC
8
DEFAULT_255_2_778
10
10.2586526
20
9.7427221
40
4.668153
50
226.8813313
51
239.7924751
0
ARC
8
DEFAULT_255_2_778
10
10.6265858
20
10.365687
40
5.3916461
50
239.7442657
51
250.3362312
0
ARC
8
DEFAULT_255_2_778
10
10.8478298
20
10.9757418
40
6.0405739
50
250.3072213
51
259.7864719
0
ARC
8
DEFAULT_255_2_778
10
10.9445297
20
11.5008053
40
6.574464
50
259.7684769
51
268.781647
0
ARC
8
DEFAULT_255_2_778
10
10.9559603
20
11.753213
40
6.8270602
50
268.730779
51
270.0009532
0
ARC
8
DEFAULT_255_2_778
10
10.9551369
20
11.8672451
40
6.9410924
50
270.007734
51
273.8560652
0
ARC
8
DEFAULT_255_2_778
10
10.9448518
20
12.0218819
40
7.0960707
50
273.8549549
51
277.5448504
0
ARC
8
DEFAULT_255_2_778
10
10.9267929
20
12.1589905
40
7.2343635
50
277.5440577
51
281.0972809
0
ARC
8
DEFAULT_255_2_778
10
10.9107563
20
12.2440151
40
7.320885
50
281.0923629
51
282.276854
0
ARC
8
DEFAULT_255_2_778
10
10.940984
20
12.1253517
40
7.1985091
50
282.2425937
51
290.9635449
0
ARC
8
DEFAULT_255_2_778
10
11.0770581
20
11.7735001
40
6.8212635
50
290.9536015
51
299.9657676
0
ARC
8
DEFAULT_255_2_778
10
11.3221532
20
11.3520441
40
6.3337256
50
299.9492861
51
309.3597641
0
ARC
8
DEFAULT_255_2_778
10
11.7123942
20
10.8799129
40
5.721198
50
309.3366663
51
319.4600667
0
ARC
8
DEFAULT_255_2_778
10
12.2555536
20
10.4199768
40
5.0094753
50
319.4199026
51
331.2691672
0
ARC
8
DEFAULT_255_2_778
10
12.9322212
20
10.0573306
40
4.2417976
50
331.1709534
51
347.9019027
0
ARC
8
DEFAULT_255_2_778
10
13.3990739
20
9.9459876
40
3.7619937
50
348.0698035
51
359.9408677
0
ARC
8
DEFAULT_255_2_778
10
13.5222533
20
9.9424391
40
3.6388124
50
359.9947405
51
5.7225245
0
ARC
8
DEFAULT_255_2_778
10
13.5319178
20
9.9431779
40
3.6291224
50
5.7261327
51
7.6532723
0
ARC
8
DEFAULT_255_2_778
10
13.5223718
20
9.9418021
40
3.6387667
50
7.6547242
51
11.1096864
0
ARC
8
DEFAULT_255_2_778
10
13.5041736
20
9.9383469
40
3.6572897
50
11.1078669
51
12.2613058
0
ARC
8
DEFAULT_255_2_778
10
11.5070721
20
9.5014218
40
2.2441746
50
237.7855671
51
270.0169889
0
ARC
8
DEFAULT_255_2_778
10
11.5063543
20
9.5030504
40
2.2451703
50
203.3361551
51
237.8232225
0
ARC
8
DEFAULT_255_2_778
10
11.5199868
20
9.5093032
40
2.2601644
50
202.4980357
51
203.3448015
0
ARC
8
DEFAULT_255_2_778
10
11.5071416
20
9.5045378
40
2.2464733
50
189.2491101
51
202.5111086
0
ARC
8
DEFAULT_255_2_778
10
11.5038724
20
9.5037358
40
2.2431177
50
183.3043423
51
189.2423104
0
ARC
8
DEFAULT_255_2_778
10
11.506778
20
9.503922
40
2.2460292
50
179.9995935
51
183.3048135
0
ARC
8
DEFAULT_255_2_778
10
11.5082168
20
9.5044621
40
2.2474681
50
140.7816985
51
180.0133629
0
ARC
8
DEFAULT_255_2_778
10
11.510097
20
9.5014822
40
2.250809
50
134.9962983
51
140.7531916
0
ARC
8
DEFAULT_255_2_778
10
11.5053831
20
9.5078511
40
2.2429725
50
111.7536678
51
135.0261777
0
ARC
8
DEFAULT_255_2_778
10
11.5078192
20
9.501581
40
2.249699
50
90.004826
51
111.7521104
0
ARC
8
DEFAULT_255_2_778
10
11.5076411
20
9.5072684
40
2.2440115
50
86.6810635
51
90.0002897
0
ARC
8
DEFAULT_255_2_778
10
11.5078294
20
9.5102401
40
2.241034
50
71.719598
51
86.6814713
0
ARC
8
DEFAULT_255_2_778
10
11.5038302
20
9.4976961
40
2.2541993
50
67.4762661
51
71.7230862
0
ARC
8
DEFAULT_255_2_778
10
11.5074096
20
9.5038323
40
2.2471603
50
35.3767845
51
67.5006365
0
ARC
8
DEFAULT_255_2_778
10
11.5108173
20
9.5048228
40
2.2438087
50
1.1196496
51
35.4065405
0
ARC
8
DEFAULT_255_2_778
10
11.4935717
20
9.5040531
40
2.2610659
50
359.9998542
51
1.1306117
0
LINE
8
DEFAULT_255_2_778
10
13.7546376
20
9.5040473
11
13.7546377
21
9.5032926
0
ARC
8
DEFAULT_255_2_778
10
11.5081982
20
9.5033531
40
2.2464395
50
314.9988033
51
359.9984585
0
ARC
8
DEFAULT_255_2_778
10
11.5082416
20
9.5033625
40
2.2464154
50
269.9987443
51
314.9978492
0
LINE
8
DEFAULT_255_2_778
10
11.5081924
20
7.2569472
11
11.5074376
21
7.2569473
0
LINE
8
DEFAULT_255_2_778
10
17.0780376
20
10.7150473
11
17.0777376
21
10.7150473
0
LINE
8
DEFAULT_255_2_778
10
11.5074376
20
7.2569473
11
11.5077376
21
7.2572473
0
ARC
8
DEFAULT_255_2_778
10
12.0041924
20
9.4219758
40
3.2282535
50
89.9915086
51
107.9820404
0
ARC
8
DEFAULT_255_2_778
10
12.0124364
20
9.4148874
40
3.2375456
50
108.0820825
51
164.4907901
0
ARC
8
DEFAULT_255_2_778
10
12.0111475
20
9.4221189
40
3.2343768
50
164.608125
51
179.9785594
0
LINE
8
DEFAULT_255_2_778
10
8.7767708
20
9.4233293
11
8.7767708
21
9.4229517
0
ARC
8
DEFAULT_255_2_778
10
12.0020535
20
9.422885
40
3.2252827
50
179.9988164
51
225.0084553
0
ARC
8
DEFAULT_255_2_778
10
12.0021523
20
9.4228733
40
3.2253442
50
225.0070665
51
270.0015271
0
LINE
8
DEFAULT_255_2_778
10
12.0022382
20
6.1975291
11
12.0033708
21
6.1975293
0
ARC
8
DEFAULT_255_2_778
10
12.0060534
20
9.4222971
40
3.2247689
50
269.9523377
51
287.9633549
0
ARC
8
DEFAULT_255_2_778
10
11.9980811
20
9.4286644
40
3.2332894
50
288.0629439
51
344.5378115
0
ARC
8
DEFAULT_255_2_778
10
11.9995526
20
9.4213177
40
3.2299194
50
344.6564594
51
0.0463278
0
LINE
8
DEFAULT_255_2_778
10
15.2294708
20
9.4239293
11
15.2294708
21
9.4243066
0
ARC
8
DEFAULT_255_2_778
10
12.0038598
20
9.4242374
40
3.2256111
50
0.0012296
51
45.0085511
0
ARC
8
DEFAULT_255_2_778
10
12.0005354
20
9.4164827
40
3.2334472
50
45.0640411
51
89.9639329
0
LINE
8
DEFAULT_255_2_778
10
11.5077708
20
7.5414293
11
11.5072729
21
7.5414292
0
ARC
8
DEFAULT_255_2_778
10
11.5068379
20
9.5031623
40
1.9617331
50
232.1084668
51
270.0127064
0
ARC
8
DEFAULT_255_2_778
10
11.5053649
20
9.5031219
40
1.9607969
50
202.4882383
51
232.1417075
0
ARC
8
DEFAULT_255_2_778
10
11.5067614
20
9.5046815
40
1.9626839
50
188.0831471
51
202.5147132
0
ARC
8
DEFAULT_255_2_778
10
11.5037994
20
9.5040112
40
1.959657
50
183.3360076
51
188.0759203
0
ARC
8
DEFAULT_255_2_778
10
11.5059086
20
9.5041422
40
1.9617703
50
179.9997156
51
183.3362431
0
ARC
8
DEFAULT_255_2_778
10
11.507337
20
9.5045596
40
1.9631985
50
139.6897204
51
180.0118977
0
ARC
8
DEFAULT_255_2_778
10
11.5121333
20
9.4995947
40
1.9700681
50
134.9923466
51
139.6698516
0
ARC
8
DEFAULT_255_2_778
10
11.5060061
20
9.5074211
40
1.9602016
50
109.482534
51
135.0274295
0
ARC
8
DEFAULT_255_2_778
10
11.5081051
20
9.5018928
40
1.9661134
50
90.0046081
51
109.4864699
0
ARC
8
DEFAULT_255_2_778
10
11.5079567
20
9.5066655
40
1.9613406
50
86.6629907
51
90.0002834
0
ARC
8
DEFAULT_255_2_778
10
11.5080586
20
9.5087474
40
1.9592563
50
70.6666656
51
86.6624207
0
ARC
8
DEFAULT_255_2_778
10
11.5039533
20
9.496319
40
1.9723431
50
67.4926266
51
70.6736614
0
ARC
8
DEFAULT_255_2_778
10
11.50875
20
9.5060577
40
1.9615101
50
29.6965472
51
67.5131717
0
ARC
8
DEFAULT_255_2_778
10
11.5097332
20
9.5052878
40
1.9610379
50
359.9792674
51
29.7303182
0
LINE
8
DEFAULT_255_2_778
10
13.4707708
20
9.5045782
11
13.4707708
21
9.5043293
0
ARC
8
DEFAULT_255_2_778
10
11.514798
20
9.502157
40
1.955974
50
335.3383894
51
0.0636315
0
ARC
8
DEFAULT_255_2_778
10
11.5060558
20
9.5070721
40
1.9659698
50
279.771605
51
335.3145202
0
ARC
8
DEFAULT_255_2_778
10
11.508253
20
9.5179754
40
1.976346
50
270.0092141
51
279.6551835
0
LINE
8
DEFAULT_255_2_778
10
12.0025708
20
12.6499293
11
12.0046708
21
12.6502293
0
LINE
8
DEFAULT_255_2_778
10
11.5085708
20
7.5416293
11
11.5077708
21
7.5414293
0
ENDSEC
0
EOF