0
SECTION
2
HEADER
9
$MEASUREMENT
70
1
0
ENDSEC
0
SECTION
2
TABLES
0
TABLE
2
LTYPE
0
LTYPE
72
65
70
64
2
CONTINUOUS
3
______
73
0
40
0
0
ENDTAB
0
TABLE
2
LAYER
0
LAYER
2
DEFAULT_255_2_778
70
0
62
255
6
CONTINUOUS
0
ENDTAB
0
ENDSEC
0
SECTION
2
ENTITIES
0
ARC
8
DEFAULT_255_2_778
10
7.3737583
20
6.5303087
40
3.8957524
50
88.1861044
51
89.0980325
0
ARC
8
DEFAULT_255_2_778
10
7.3625215
20
5.8279976
40
4.5981533
50
89.0957912
51
89.9015946
0
ARC
8
DEFAULT_255_2_778
10
7.3610501
20
5.5506144
40
4.8755389
50
89.8899017
51
90.0013822
0
ARC
8
DEFAULT_255_2_778
10
7.3674792
20
4.3016502
40
6.1245065
50
90.0612459
51
91.9811511
0
ARC
8
DEFAULT_255_2_778
10
7.4419151
20
2.0940466
40
8.333364
50
91.9679017
51
93.6547544
0
ARC
8
DEFAULT_255_2_778
10
7.5672029
20
0.1078088
40
10.3235488
50
93.6459952
51
95.2979308
0
ARC
8
DEFAULT_255_2_778
10
7.678664
20
-1.1106329
40
11.5470772
50
95.2903916
51
97.8968281
0
ARC
8
DEFAULT_255_2_778
10
7.4650776
20
0.3406201
40
10.0802491
50
97.8276329
51
101.2289994
0
ARC
8
DEFAULT_255_2_778
10
6.9202989
20
3.1126853
40
7.2551673
50
101.2720927
51
103.7209527
0
ARC
8
DEFAULT_255_2_778
10
6.4100081
20
5.1937296
40
5.1124736
50
103.6972119
51
106.714053
0
ARC
8
DEFAULT_255_2_778
10
5.9359296
20
6.7748099
40
3.461848
50
106.7250064
51
109.8774032
0
ARC
8
DEFAULT_255_2_778
10
11.4461705
20
20.575929
40
12.4871119
50
236.6936168
51
237.6197237
0
ARC
8
DEFAULT_255_2_778
10
12.8194028
20
22.6543103
40
14.9781764
50
234.9576821
51
236.6691295
0
ARC
8
DEFAULT_255_2_778
10
14.1082183
20
24.5024853
40
17.2313439
50
233.9443608
51
234.9776258
0
ARC
8
DEFAULT_255_2_778
10
14.3442169
20
24.8297719
40
17.6348393
50
233.1889609
51
233.9503363
0
ARC
8
DEFAULT_255_2_778
10
13.645108
20
23.8962723
40
16.4685742
50
232.6968205
51
233.190302
0
ARC
8
DEFAULT_255_2_778
10
12.0385405
20
21.7897923
40
13.819364
50
232.2126319
51
232.7023443
0
ARC
8
DEFAULT_255_2_778
10
9.3932074
20
18.3784913
40
9.5025641
50
231.8525679
51
232.2148296
0
ARC
8
DEFAULT_255_2_778
10
6.0396554
20
14.1106583
40
4.0747922
50
231.5742289
51
231.8684301
0
ARC
8
DEFAULT_255_2_778
10
9.9065562
20
-3.9963674
40
15.3497995
50
118.0325173
51
118.2650993
0
ARC
8
DEFAULT_255_2_778
10
6.0478584
20
2.9622619
40
7.3943044
50
117.4643426
51
127.4568552
0
ARC
8
DEFAULT_255_2_778
10
4.5278909
20
5.0496282
40
4.8133507
50
128.2055235
51
131.4713514
0
ARC
8
DEFAULT_255_2_778
10
-14.2261558
20
1.90362
40
16.1834304
50
26.3119388
51
26.3710175
0
ARC
8
DEFAULT_255_2_778
10
-21.1637651
20
-1.4892079
40
23.9061843
50
25.1057859
51
26.230835
0
ARC
8
DEFAULT_255_2_778
10
-236.2924873
20
-102.2709657
40
261.4716064
50
25.0007749
51
25.1021364
0
ARC
8
DEFAULT_255_2_778
10
14.8097322
20
14.7085109
40
15.5423048
50
204.6147295
51
208.3242363
0
ARC
8
DEFAULT_255_2_778
10
5.4785373
20
9.6004138
40
4.9051691
50
207.5152679
51
225.8391932
0
ARC
8
DEFAULT_255_2_778
10
4.4830503
20
8.6727809
40
3.5468166
50
226.9359896
51
236.4775259
0
ARC
8
DEFAULT_255_2_778
10
4.8060344
20
4.2591607
40
2.7071312
50
135.3601319
51
147.4445786
0
ARC
8
DEFAULT_255_2_778
10
5.3023851
20
3.7750593
40
3.4004588
50
127.2061038
51
135.4326484
0
ARC
8
DEFAULT_255_2_778
10
5.8150238
20
3.1041447
40
4.2448044
50
120.8644993
51
127.241302
0
ARC
8
DEFAULT_255_2_778
10
6.328047
20
2.2494196
40
5.2416718
50
115.6275579
51
120.8851405
0
ARC
8
DEFAULT_255_2_778
10
6.8317622
20
1.2020763
40
6.4038491
50
111.0406368
51
115.6379867
0
ARC
8
DEFAULT_255_2_778
10
7.3191547
20
-0.0634227
40
7.7599609
50
106.8085093
51
111.0446531
0
ARC
8
DEFAULT_255_2_778
10
7.7614724
20
-1.5234558
40
9.2855233
50
102.9632556
51
106.8160175
0
ARC
8
DEFAULT_255_2_778
10
8.1279055
20
-3.1119284
40
10.9157128
50
99.2821308
51
102.9672361
0
ARC
8
DEFAULT_255_2_778
10
8.3957488
20
-4.747241
40
12.5728149
50
95.5702277
51
99.2847133
0
ARC
8
DEFAULT_255_2_778
10
8.5512597
20
-6.3693187
40
14.2023282
50
90.6406179
51
95.55945
0
ARC
8
DEFAULT_255_2_778
10
8.5680936
20
-7.0220154
40
14.8551752
50
89.9996353
51
90.6773948
0
ARC
8
DEFAULT_255_2_778
10
8.5681188
20
-7.1077332
40
14.940893
50
89.2142384
51
89.999734
0
ARC
8
DEFAULT_255_2_778
10
8.5733425
20
-7.0086016
40
14.8416996
50
83.525442
51
89.2291546
0
ARC
8
DEFAULT_255_2_778
10
8.7127438
20
-5.7742566
40
13.599508
50
79.8187913
51
83.5225981
0
ARC
8
DEFAULT_255_2_778
10
8.9902338
20
-4.232113
40
12.0325979
50
76.3357698
51
79.8213063
0
ARC
8
DEFAULT_255_2_778
10
9.3845922
20
-2.6126878
40
10.3658476
50
72.8062312
51
76.3392936
0
ARC
8
DEFAULT_255_2_778
10
9.8565257
20
-1.0878334
40
8.7696326
50
69.2199138
51
72.8068172
0
ARC
8
DEFAULT_255_2_778
10
10.3835164
20
0.2968936
40
7.2880167
50
65.1505614
51
69.2311807
0
ARC
8
DEFAULT_255_2_778
10
10.9545283
20
1.5272902
40
5.9315768
50
60.5361195
51
65.1610798
0
ARC
8
DEFAULT_255_2_778
10
11.5365056
20
2.5549141
40
4.7505999
50
55.1503595
51
60.5511416
0
ARC
8
DEFAULT_255_2_778
10
12.0978618
20
3.3596873
40
3.7693864
50
48.897491
51
55.1627046
0
ARC
8
DEFAULT_255_2_778
10
12.6306457
20
3.9670323
40
2.9614752
50
40.7377132
51
48.9400052
0
ARC
8
DEFAULT_255_2_778
10
12.9985235
20
4.2908716
40
2.4714014
50
35.6935148
51
40.6148731
0
ARC
8
DEFAULT_255_2_778
10
13.6374301
20
8.3484394
40
2.9518817
50
297.6141488
51
314.8559533
0
ARC
8
DEFAULT_255_2_778
10
12.6736735
20
9.2424452
40
4.2657146
50
315.5627962
51
332.7396736
0
ARC
8
DEFAULT_255_2_778
10
6.5239356
20
12.4212529
40
11.1884354
50
332.6937778
51
339.9025488
0
ARC
8
DEFAULT_255_2_778
10
-96.9138496
20
51.9767496
40
121.9303727
50
339.1488604
51
339.3696368
0
ARC
8
DEFAULT_255_2_778
10
87.0849387
20
-17.419291
40
74.7200444
50
159.2597921
51
159.2805522
0
ARC
8
DEFAULT_255_2_778
10
28.2210535
20
-24.0771469
40
34.9019563
50
108.3951791
51
110.3836001
0
ARC
8
DEFAULT_255_2_778
10
14.6763791
20
7.3565532
40
1.8901164
50
42.7394109
51
46.5051275
0
ARC
8
DEFAULT_255_2_778
10
13.7191242
20
6.3511468
40
3.2783438
50
46.4628979
51
49.2633211
0
ARC
8
DEFAULT_255_2_778
10
12.3909171
20
4.8103317
40
5.3126114
50
49.2536787
51
51.6518205
0
ARC
8
DEFAULT_255_2_778
10
11.3802954
20
3.5476351
40
6.9299221
50
51.5760933
51
52.2188365
0
ARC
8
DEFAULT_255_2_778
10
10.45026
20
2.3382445
40
8.4555574
50
52.2586146
51
54.175743
0
ARC
8
DEFAULT_255_2_778
10
9.8334866
20
1.4928279
40
9.5020342
50
54.1439865
51
55.9929508
0
ARC
8
DEFAULT_255_2_778
10
10.5963442
20
2.6260634
40
8.1359552
50
55.9828959
51
57.2516086
0
ARC
8
DEFAULT_255_2_778
10
11.8416452
20
4.5658097
40
5.8308771
50
57.2325281
51
58.6970297
0
ARC
8
DEFAULT_255_2_778
10
12.4959754
20
5.6326306
40
4.5793878
50
58.7570803
51
58.8709291
0
ARC
8
DEFAULT_255_2_778
10
-8.9315359
20
-3.4270246
40
27.1047688
50
28.6115609
51
29.0384977
0
ARC
8
DEFAULT_255_2_778
10
-18.6932911
20
-8.8453046
40
38.2694282
50
29.0367609
51
29.3929896
0
ARC
8
DEFAULT_255_2_778
10
-25.9534724
20
-12.9271176
40
46.5983772
50
29.3845064
51
29.4743433
0
ARC
8
DEFAULT_255_2_778
10
-36.5588016
20
-18.9356997
40
58.7875501
50
29.4867678
51
29.8829821
0
ARC
8
DEFAULT_255_2_778
10
-49.2669134
20
-26.2268078
40
73.438703
50
29.8752986
51
30.0838645
0
ARC
8
DEFAULT_255_2_778
10
-52.2748295
20
-27.9667976
40
76.9136302
50
30.0822488
51
30.2103867
0
ARC
8
DEFAULT_255_2_778
10
-48.2364811
20
-25.614846
40
72.2403088
50
30.2099778
51
30.2928198
0
ARC
8
DEFAULT_255_2_778
10
-38.7535005
20
-20.0735395
40
61.2570035
50
30.291613
51
30.3731619
0
ARC
8
DEFAULT_255_2_778
10
-22.1570316
20
-10.3464713
40
42.0200952
50
30.3726622
51
30.4332567
0
ARC
8
DEFAULT_255_2_778
10
-1.0291666
20
2.0669782
40
17.5153935
50
30.4295494
51
30.4802474
0
ARC
8
DEFAULT_255_2_778
10
5.1774675
20
22.9162702
40
14.9048876
50
306.5140999
51
306.607369
0
ARC
8
DEFAULT_255_2_778
10
-6.4946722
20
38.6779127
40
34.517848
50
306.4000022
51
306.518281
0
ARC
8
DEFAULT_255_2_778
10
-14.5863889
20
49.649942
40
48.1509438
50
306.2869404
51
306.4023376
0
ARC
8
DEFAULT_255_2_778
10
-20.2497169
20
57.3636974
40
57.7204425
50
306.1174843
51
306.2867146
0
ARC
8
DEFAULT_255_2_778
10
-23.1716707
20
61.3667655
40
62.676486
50
305.9061967
51
306.1182189
0
ARC
8
DEFAULT_255_2_778
10
-22.9771649
20
61.0957088
40
62.3428661
50
305.6244573
51
305.9075003
0
ARC
8
DEFAULT_255_2_778
10
-19.4074631
20
56.1074463
40
56.2089019
50
305.1851019
51
305.6284054
0
ARC
8
DEFAULT_255_2_778
10
-15.5140206
20
50.5935261
40
49.4589253
50
305.0021463
51
305.1794719
0
ARC
8
DEFAULT_255_2_778
10
-25.4657733
20
-197.3597761
40
210.9500024
50
79.5333783
51
79.578972
0
ARC
8
DEFAULT_255_2_778
10
0.2939496
20
-57.2994488
40
68.5405273
50
79.5795509
51
79.7230113
0
ARC
8
DEFAULT_255_2_778
10
6.9748405
20
-20.2775525
40
30.9206796
50
79.6650877
51
80.6532691
0
ARC
8
DEFAULT_255_2_778
10
9.2885389
20
-6.1755323
40
16.6301206
50
80.6280862
51
82.7645316
0
ARC
8
DEFAULT_255_2_778
10
10.0963764
20
0.2617967
40
10.1423119
50
82.711655
51
86.5458748
0
ARC
8
DEFAULT_255_2_778
10
10.303129
20
3.51409
40
6.883478
50
86.6326781
51
89.9160514
0
ARC
8
DEFAULT_255_2_778
10
10.3101663
20
4.9491833
40
5.4483782
50
89.967944
51
92.2504687
0
ARC
8
DEFAULT_255_2_778
10
10.2894541
20
5.5403601
40
4.8568447
50
92.2801755
51
93.1192644
0
ARC
8
DEFAULT_255_2_778
10
23.0145291
20
26.1715317
40
20.4396643
50
230.5085996
51
230.5430985
0
ARC
8
DEFAULT_255_2_778
10
25.8802275
20
29.6451007
40
24.9427637
50
230.0337411
51
230.5029541
0
ARC
8
DEFAULT_255_2_778
10
30.801755
20
35.4983062
40
32.5900724
50
229.0993674
51
230.0122148
0
ARC
8
DEFAULT_255_2_778
10
35.6659902
20
41.1319693
40
40.0331112
50
228.651609
51
229.1165739
0
ARC
8
DEFAULT_255_2_778
10
36.7891342
20
42.4119236
40
41.7359707
50
228.3477194
51
228.6549482
0
ARC
8
DEFAULT_255_2_778
10
35.177261
20
40.600387
40
39.3111407
50
228.1503035
51
228.3483264
0
ARC
8
DEFAULT_255_2_778
10
31.1244849
20
36.0772971
40
33.2379756
50
227.9568924
51
228.1523605
0
ARC
8
DEFAULT_255_2_778
10
24.1954444
20
28.3941919
40
22.8918795
50
227.8134919
51
227.9581332
0
ARC
8
DEFAULT_255_2_778
10
15.4179228
20
18.7110259
40
9.8225036
50
227.7024939
51
227.8200474
0
LINE
8
DEFAULT_255_2_778
10
8.8075711
20
11.445709
11
7.4970711
21
10.424109
0
LINE
8
DEFAULT_255_2_778
10
3.5071711
20
10.918409
11
2.6925711
21
9.552609
0
LINE
8
DEFAULT_255_2_778
10
1.3402711
20
8.656209
11
0.2731711
21
9.092009
0
LINE
8
DEFAULT_255_2_778
10
8.8075711
20
11.445709
11
8.8075711
21
11.445709
0
ARC
8
DEFAULT_255_2_778
10
7.2697821
20
6.2545136
40
6.0253631
50
217.3939081
51
233.6354234
0
ARC
8
DEFAULT_255_2_778
10
7.928344
20
7.1206123
40
7.1132933
50
233.5002192
51
243.0470662
0
ARC
8
DEFAULT_255_2_778
10
8.3767439
20
7.9945328
40
8.0955296
50
243.021711
51
251.2561383
0
ARC
8
DEFAULT_255_2_778
10
8.671418
20
8.862074
40
9.0117502
50
251.2544095
51
260.1505597
0
ARC
8
DEFAULT_255_2_778
10
8.7802281
20
9.4613689
40
9.6208262
50
260.122622
51
270.0172167
0
ARC
8
DEFAULT_255_2_778
10
8.7831304
20
9.5221449
40
9.6816018
50
269.9999328
51
270.7042782
0
ARC
8
DEFAULT_255_2_778
10
8.8049506
20
9.1636436
40
9.3228756
50
270.5972693
51
285.3254716
0
ARC
8
DEFAULT_255_2_778
10
9.1176407
20
8.0123058
40
8.1298352
50
285.3447104
51
297.2525005
0
ARC
8
DEFAULT_255_2_778
10
9.7856255
20
6.7821673
40
6.7304362
50
296.9925102
51
320.0058654
0
ARC
8
DEFAULT_255_2_778
10
10.1594464
20
6.4190612
40
6.2107922
50
320.3556977
51
321.1941691
0
ARC
8
DEFAULT_255_2_778
10
11.9776809
20
9.5644388
40
5.6747893
50
313.5073803
51
325.5791024
0
ARC
8
DEFAULT_255_2_778
10
10.6539286
20
10.9072267
40
7.5601129
50
308.7315119
51
313.7776299
0
ARC
8
DEFAULT_255_2_778
10
10.0580334
20
11.6323813
40
8.4986384
50
307.7981872
51
308.8066217
0
ARC
8
DEFAULT_255_2_778
10
9.6101085
20
12.2170451
40
9.2351509
50
304.8837251
51
307.7709443
0
ARC
8
DEFAULT_255_2_778
10
9.0376562
20
13.0333635
40
10.2321818
50
303.0458382
51
304.8989997
0
ARC
8
DEFAULT_255_2_778
10
8.5484069
20
13.7855857
40
11.129513
50
301.285289
51
303.0453826
0
ARC
8
DEFAULT_255_2_778
10
8.0599353
20
14.5878494
40
12.0687845
50
299.9987556
51
301.2892232
0
ARC
8
DEFAULT_255_2_778
10
7.5128043
20
15.535811
40
13.1633088
50
298.9221615
51
299.9981998
0
ARC
8
DEFAULT_255_2_778
10
13.0628882
20
5.5177672
40
1.710652
50
293.2563343
51
298.4891648
0
ARC
8
DEFAULT_255_2_778
10
12.6138284
20
6.5573873
40
2.8431104
50
289.3366056
51
293.2983181
0
ARC
8
DEFAULT_255_2_778
10
12.0033499
20
8.3018291
40
4.6912877
50
285.7363291
51
289.3173854
0
ARC
8
DEFAULT_255_2_778
10
11.4360203
20
10.2690676
40
6.7386716
50
284.2997732
51
285.8428643
0
ARC
8
DEFAULT_255_2_778
10
10.8455036
20
12.619718
40
9.1623498
50
281.8294965
51
284.2473774
0
ARC
8
DEFAULT_255_2_778
10
10.3585904
20
14.8966163
40
11.4907128
50
280.6637634
51
281.8784022
0
ARC
8
DEFAULT_255_2_778
10
10.2385386
20
15.5233082
40
12.1287968
50
279.8771628
51
280.673269
0
ARC
8
DEFAULT_255_2_778
10
10.3420217
20
14.926245
40
11.5228322
50
279.3692589
51
279.8794941
0
ARC
8
DEFAULT_255_2_778
10
10.6182759
20
13.2461805
40
9.8202071
50
278.87389
51
279.3747427
0
ARC
8
DEFAULT_255_2_778
10
11.0794125
20
10.290757
40
6.8290243
50
278.5084744
51
278.8763
0
ARC
8
DEFAULT_255_2_778
10
11.6577189
20
6.4190872
40
2.9144025
50
278.2250168
51
278.5260496
0
ARC
8
DEFAULT_255_2_778
10
6.0125517
20
7.0561899
40
3.5324771
50
260.6015946
51
260.8194119
0
ARC
8
DEFAULT_255_2_778
10
6.8473466
20
12.1060219
40
8.6508446
50
260.2803318
51
260.6084878
0
ARC
8
DEFAULT_255_2_778
10
7.4668922
20
15.733106
40
12.3304605
50
259.963294
51
260.2882314
0
ARC
8
DEFAULT_255_2_778
10
7.859604
20
17.9518442
40
14.5836852
50
259.4754819
51
259.9632065
0
ARC
8
DEFAULT_255_2_778
10
8.0086576
20
18.7590547
40
15.4045415
50
258.8515739
51
259.4788143
0
ARC
8
DEFAULT_255_2_778
10
7.8582593
20
18.0035637
40
14.6342274
50
257.9895237
51
258.8573882
0
ARC
8
DEFAULT_255_2_778
10
7.2339228
20
15.1141733
40
11.6781723
50
256.0128551
51
258.0357143
0
ARC
8
DEFAULT_255_2_778
10
6.1728049
20
10.8815285
40
7.3145517
50
253.0953042
51
256.0646146
0
ARC
8
DEFAULT_255_2_778
10
5.3063019
20
8.0162974
40
4.3211677
50
250.2138518
51
253.0410403
0
ARC
8
DEFAULT_255_2_778
10
4.7402529
20
6.4453837
40
2.6513831
50
246.6813688
51
250.2324421
0
ARC
8
DEFAULT_255_2_778
10
4.4278469
20
5.709404
40
1.851861
50
244.984293
51
246.5438362
0
ARC
8
DEFAULT_255_2_778
10
7.5929199
20
11.4430673
40
8.397788
50
237.3068401
51
241.9564043
0
ARC
8
DEFAULT_255_2_778
10
7.168379
20
10.7757527
40
7.6068818
50
229.5835456
51
237.2830379
0
ARC
8
DEFAULT_255_2_778
10
8.076129
20
11.8006538
40
8.9757612
50
222.3040426
51
229.4135267
0
ARC
8
DEFAULT_255_2_778
10
10.5902342
20
14.1471201
40
12.4145512
50
220.7224584
51
222.5036627
0
ARC
8
DEFAULT_255_2_778
10
12.3099466
20
15.6358415
40
14.6891212
50
220.0273527
51
220.7471782
0
ARC
8
DEFAULT_255_2_778
10
13.7723613
20
16.8641892
40
16.5989627
50
219.3797166
51
220.0274742
0
LINE
8
DEFAULT_255_2_778
10
0.9383565
20
6.3354625
11
2.4827565
21
2.5953625
0
LINE
8
DEFAULT_255_2_778
10
14.9993565
20
2.5268625
11
16.6588565
21
6.3566625
0
LINE
8
DEFAULT_255_2_778
10
12.0746565
20
3.5346625
11
8.7726565
21
5.2472625
0
LINE
8
DEFAULT_255_2_778
10
8.7726565
20
5.2472625
11
5.4489565
21
3.5689625
0
LINE
8
DEFAULT_255_2_778
10
0.9420565
20
6.3328625
11
0.9383565
21
6.3354625
0
ENDSEC
0
EOF