0
SECTION
2
HEADER
9
$MEASUREMENT
70
1
0
ENDSEC
0
SECTION
2
TABLES
0
TABLE
2
LTYPE
0
LTYPE
72
65
70
64
2
CONTINUOUS
3
______
73
0
40
0
0
ENDTAB
0
TABLE
2
LAYER
0
LAYER
2
DEFAULT_255_2_778
70
0
62
255
6
CONTINUOUS
0
ENDTAB
0
ENDSEC
0
SECTION
2
ENTITIES
0
LINE
8
DEFAULT_255_2_778
10
3.7882362
20
4.6827788
11
6.6240362
21
-0.2297212
0
LINE
8
DEFAULT_255_2_778
10
6.6240362
20
-0.2297212
11
5.3207362
21
-0.2422212
0
LINE
8
DEFAULT_255_2_778
10
5.3207362
20
-0.2422212
11
4.5635362
21
1.0775788
0
LINE
8
DEFAULT_255_2_778
10
4.5635362
20
1.0775788
11
3.8009362
21
-0.2350212
0
LINE
8
DEFAULT_255_2_778
10
3.8009362
20
-0.2350212
11
3.1535362
21
-0.2347212
0
LINE
8
DEFAULT_255_2_778
10
3.1535362
20
-0.2347212
11
2.8217362
21
0.3382788
0
LINE
8
DEFAULT_255_2_778
10
2.8217362
20
0.3382788
11
3.9081362
21
2.2062788
0
LINE
8
DEFAULT_255_2_778
10
3.9081362
20
2.2062788
11
3.1368362
21
3.5482788
0
LINE
8
DEFAULT_255_2_778
10
3.1368362
20
3.5482788
11
3.7882362
21
4.6827788
0
LINE
8
DEFAULT_255_2_778
10
4.8119754
20
6.7062908
11
1.9755754
21
1.7940908
0
LINE
8
DEFAULT_255_2_778
10
1.9755754
20
1.7940908
11
1.3133754
21
2.9166908
0
LINE
8
DEFAULT_255_2_778
10
1.3133754
20
2.9166908
11
2.0769754
21
4.2321908
0
LINE
8
DEFAULT_255_2_778
10
2.0769754
20
4.2321908
11
0.5587754
21
4.2361908
0
LINE
8
DEFAULT_255_2_778
10
0.5587754
20
4.2361908
11
0.2351754
21
4.7970908
0
LINE
8
DEFAULT_255_2_778
10
0.2351754
20
4.7970908
11
0.5656754
21
5.3709908
0
LINE
8
DEFAULT_255_2_778
10
0.5656754
20
5.3709908
11
2.7264754
21
5.3640908
0
LINE
8
DEFAULT_255_2_778
10
2.7264754
20
5.3640908
11
3.5030754
21
6.7028908
0
LINE
8
DEFAULT_255_2_778
10
3.5030754
20
6.7028908
11
4.8119754
21
6.7062908
0
LINE
8
DEFAULT_255_2_778
10
5.0293754
20
2.7795908
11
10.7017754
21
2.7793908
0
LINE
8
DEFAULT_255_2_778
10
10.7017754
20
2.7793908
11
10.0607754
21
1.6445908
0
LINE
8
DEFAULT_255_2_778
10
10.0607754
20
1.6445908
11
8.5391754
21
1.6487908
0
LINE
8
DEFAULT_255_2_778
10
8.5391754
20
1.6487908
11
9.2947754
21
0.3319908
0
LINE
8
DEFAULT_255_2_778
10
9.2947754
20
0.3319908
11
8.9708754
21
-0.2287092
0
LINE
8
DEFAULT_255_2_778
10
8.9708754
20
-0.2287092
11
8.3089754
21
-0.2295092
0
LINE
8
DEFAULT_255_2_778
10
8.3089754
20
-0.2295092
11
7.2341754
21
1.6445908
0
LINE
8
DEFAULT_255_2_778
10
7.2341754
20
1.6445908
11
5.6863754
21
1.6476908
0
LINE
8
DEFAULT_255_2_778
10
5.6863754
20
1.6476908
11
5.0293754
21
2.7795908
0
LINE
8
DEFAULT_255_2_778
10
8.3308754
20
4.9319908
11
5.4950754
21
9.8442908
0
LINE
8
DEFAULT_255_2_778
10
5.4950754
20
9.8442908
11
6.7984754
21
9.8566908
0
LINE
8
DEFAULT_255_2_778
10
6.7984754
20
9.8566908
11
7.5556754
21
8.5369908
0
LINE
8
DEFAULT_255_2_778
10
7.5556754
20
8.5369908
11
8.3179754
21
9.8495908
0
LINE
8
DEFAULT_255_2_778
10
8.3179754
20
9.8495908
11
8.9653754
21
9.8492908
0
LINE
8
DEFAULT_255_2_778
10
8.9653754
20
9.8492908
11
9.2971754
21
9.2761908
0
LINE
8
DEFAULT_255_2_778
10
9.2971754
20
9.2761908
11
8.2107754
21
7.4081908
0
LINE
8
DEFAULT_255_2_778
10
8.2107754
20
7.4081908
11
8.9820754
21
6.0662908
0
LINE
8
DEFAULT_255_2_778
10
8.9820754
20
6.0662908
11
8.3308754
21
4.9319908
0
LINE
8
DEFAULT_255_2_778
10
3.7882362
20
4.6827788
11
6.6240362
21
-0.2297212
0
LINE
8
DEFAULT_255_2_778
10
6.6240362
20
-0.2297212
11
5.3207362
21
-0.2422212
0
LINE
8
DEFAULT_255_2_778
10
5.3207362
20
-0.2422212
11
4.5635362
21
1.0775788
0
LINE
8
DEFAULT_255_2_778
10
4.5635362
20
1.0775788
11
3.8009362
21
-0.2350212
0
LINE
8
DEFAULT_255_2_778
10
3.8009362
20
-0.2350212
11
3.1535362
21
-0.2347212
0
LINE
8
DEFAULT_255_2_778
10
3.1535362
20
-0.2347212
11
2.8217362
21
0.3382788
0
LINE
8
DEFAULT_255_2_778
10
2.8217362
20
0.3382788
11
3.9081362
21
2.2062788
0
LINE
8
DEFAULT_255_2_778
10
3.9081362
20
2.2062788
11
3.1368362
21
3.5482788
0
LINE
8
DEFAULT_255_2_778
10
3.1368362
20
3.5482788
11
3.7882362
21
4.6827788
0
LINE
8
DEFAULT_255_2_778
10
7.0823891
20
6.8475807
11
1.4099891
21
6.8478807
0
LINE
8
DEFAULT_255_2_778
10
1.4099891
20
6.8478807
11
2.0510891
21
7.9826807
0
LINE
8
DEFAULT_255_2_778
10
2.0510891
20
7.9826807
11
3.5726891
21
7.9783807
0
LINE
8
DEFAULT_255_2_778
10
3.5726891
20
7.9783807
11
2.8170891
21
9.2952807
0
LINE
8
DEFAULT_255_2_778
10
2.8170891
20
9.2952807
11
3.1408891
21
9.8558807
0
LINE
8
DEFAULT_255_2_778
10
3.1408891
20
9.8558807
11
3.8028891
21
9.8566807
0
LINE
8
DEFAULT_255_2_778
10
3.8028891
20
9.8566807
11
4.8773891
21
7.9826807
0
LINE
8
DEFAULT_255_2_778
10
4.8773891
20
7.9826807
11
6.4251891
21
7.9794807
0
LINE
8
DEFAULT_255_2_778
10
6.4251891
20
7.9794807
11
7.0823891
21
6.8475807
0
LINE
8
DEFAULT_255_2_778
10
7.3038891
20
2.9094807
11
10.1401891
21
7.8217807
0
LINE
8
DEFAULT_255_2_778
10
10.1401891
20
7.8217807
11
10.8023891
21
6.6991807
0
LINE
8
DEFAULT_255_2_778
10
10.8023891
20
6.6991807
11
10.0388891
21
5.3836807
0
LINE
8
DEFAULT_255_2_778
10
10.0388891
20
5.3836807
11
11.5569891
21
5.3796807
0
LINE
8
DEFAULT_255_2_778
10
11.5569891
20
5.3796807
11
11.8805891
21
4.8187807
0
LINE
8
DEFAULT_255_2_778
10
11.8805891
20
4.8187807
11
11.5501891
21
4.2448807
0
LINE
8
DEFAULT_255_2_778
10
11.5501891
20
4.2448807
11
9.3892891
21
4.2517807
0
LINE
8
DEFAULT_255_2_778
10
9.3892891
20
4.2517807
11
8.6126891
21
2.9129807
0
LINE
8
DEFAULT_255_2_778
10
8.6126891
20
2.9129807
11
7.3038891
21
2.9094807
0
ARC
8
DEFAULT_255_2_778
10
18.2322912
20
6.798713
40
0.3747531
50
270.053954
51
359.9460383
0
ARC
8
DEFAULT_255_2_778
10
18.2325474
20
6.7982635
40
0.3744967
50
0.0147708
51
89.9852107
0
ARC
8
DEFAULT_255_2_778
10
18.2329036
20
6.7979002
40
0.3748599
50
90.0396719
51
179.9297187
0
ARC
8
DEFAULT_255_2_778
10
18.2395599
20
6.7976694
40
0.3815165
50
179.8962768
51
179.9792539
0
ARC
8
DEFAULT_255_2_778
10
18.2324562
20
6.7983728
40
0.3744129
50
180.0865109
51
270.028751
0
ARC
8
DEFAULT_255_2_778
10
24.6275723
20
5.2720027
40
1.9516338
50
89.4929305
51
139.0929039
0
ARC
8
DEFAULT_255_2_778
10
24.8303506
20
5.0948922
40
2.2208662
50
139.0653254
51
155.2481794
0
ARC
8
DEFAULT_255_2_778
10
25.215518
20
4.9154979
40
2.6457593
50
155.2124872
51
167.585846
0
ARC
8
DEFAULT_255_2_778
10
25.7496699
20
4.7953437
40
3.1932535
50
167.5407251
51
177.1490045
0
ARC
8
DEFAULT_255_2_778
10
26.1865082
20
4.7651181
40
3.6310644
50
177.0155049
51
180.0166953
0
ARC
8
DEFAULT_255_2_778
10
25.9616307
20
4.7552408
40
3.4061981
50
179.8516507
51
189.0879478
0
ARC
8
DEFAULT_255_2_778
10
25.3742185
20
4.6596502
40
2.8110616
50
189.0551603
51
200.4597405
0
ARC
8
DEFAULT_255_2_778
10
24.9349467
20
4.4939208
40
2.34157
50
200.417463
51
215.2586666
0
ARC
8
DEFAULT_255_2_778
10
24.6607098
20
4.2969664
40
2.0039466
50
215.1867425
51
238.9992203
0
ARC
8
DEFAULT_255_2_778
10
24.6324796
20
4.2752968
40
1.9708755
50
239.378223
51
270.3594544
0
ARC
8
DEFAULT_255_2_778
10
24.662257
20
4.2559224
40
1.9515401
50
269.4887631
51
319.0947179
0
ARC
8
DEFAULT_255_2_778
10
24.4595203
20
4.4328712
40
2.2206351
50
319.0693661
51
335.2536331
0
ARC
8
DEFAULT_255_2_778
10
24.0743075
20
4.612288
40
2.6455786
50
335.2170319
51
347.5643809
0
ARC
8
DEFAULT_255_2_778
10
23.5398623
20
4.7326443
40
3.1934039
50
347.5205341
51
357.1451359
0
ARC
8
DEFAULT_255_2_778
10
23.1015877
20
4.7630029
40
3.6326565
50
357.0111955
51
0.0166743
0
ARC
8
DEFAULT_255_2_778
10
23.3284481
20
4.7728774
40
3.4058074
50
359.8516662
51
9.0884696
0
ARC
8
DEFAULT_255_2_778
10
23.9156901
20
4.8684454
40
2.8108425
50
9.0556954
51
20.4606265
0
ARC
8
DEFAULT_255_2_778
10
24.3548352
20
5.0341344
40
2.3414838
50
20.4183681
51
35.259656
0
ARC
8
DEFAULT_255_2_778
10
24.6289847
20
5.2310331
40
2.0039638
50
35.1877567
51
58.9997279
0
ARC
8
DEFAULT_255_2_778
10
24.6572063
20
5.2526952
40
1.9709037
50
59.3786308
51
90.3593836
0
ARC
8
DEFAULT_255_2_778
10
24.6644914
20
5.4085253
40
1.3360793
50
39.3705015
51
90.8425773
0
ARC
8
DEFAULT_255_2_778
10
24.3970755
20
5.1827553
40
1.6860283
50
23.7430235
51
39.537125
0
ARC
8
DEFAULT_255_2_778
10
23.9122719
20
4.9658018
40
2.217154
50
12.3650744
51
23.8306712
0
ARC
8
DEFAULT_255_2_778
10
23.2335486
20
4.8139341
40
2.9126554
50
3.4598001
51
12.4241471
0
ARC
8
DEFAULT_255_2_778
10
22.6114281
20
4.7665221
40
3.5365166
50
359.9633524
51
3.6182768
0
ARC
8
DEFAULT_255_2_778
10
22.8321877
20
4.7549609
40
3.3157694
50
352.3394604
51
0.1606879
0
ARC
8
DEFAULT_255_2_778
10
23.5862239
20
4.6511846
40
2.55463
50
342.4873218
51
352.3918147
0
ARC
8
DEFAULT_255_2_778
10
24.1692886
20
4.4644701
40
1.9424062
50
329.3745921
51
342.5642021
0
ARC
8
DEFAULT_255_2_778
10
24.5559566
20
4.2321367
40
1.4913191
50
309.742549
51
329.4878968
0
ARC
8
DEFAULT_255_2_778
10
24.6629652
20
4.1220335
40
1.3382962
50
269.2241655
51
309.2335715
0
ARC
8
DEFAULT_255_2_778
10
24.625149
20
4.1197329
40
1.336018
50
219.3679335
51
270.8446654
0
ARC
8
DEFAULT_255_2_778
10
24.8926414
20
4.3455092
40
1.6860299
50
203.7387972
51
219.5336057
0
ARC
8
DEFAULT_255_2_778
10
25.377844
20
4.5625976
40
2.217575
50
192.3620135
51
203.8264807
0
ARC
8
DEFAULT_255_2_778
10
26.0571627
20
4.7145581
40
2.9136779
50
183.4587086
51
192.4210732
0
ARC
8
DEFAULT_255_2_778
10
26.6799136
20
4.7620001
40
3.5381702
50
179.9634039
51
183.6171726
0
ARC
8
DEFAULT_255_2_778
10
26.4588706
20
4.7735745
40
3.3171396
50
172.3415595
51
180.160886
0
ARC
8
DEFAULT_255_2_778
10
25.7033943
20
4.8775186
40
2.5545508
50
162.4888476
51
172.3939656
0
ARC
8
DEFAULT_255_2_778
10
25.1196401
20
5.064436
40
1.9416088
50
149.3721157
51
162.5658306
0
ARC
8
DEFAULT_255_2_778
10
24.7329672
20
5.2967822
40
1.4905108
50
129.7323647
51
149.4850576
0
ARC
8
DEFAULT_255_2_778
10
24.626614
20
5.4059718
40
1.3386123
50
89.2196867
51
129.2189236
0
ARC
8
DEFAULT_255_2_778
10
28.4641599
20
5.9609186
40
1.4931876
50
179.4381782
51
193.2236622
0
ARC
8
DEFAULT_255_2_778
10
28.0892816
20
5.8838416
40
1.1106695
50
193.7767413
51
231.7123119
0
ARC
8
DEFAULT_255_2_778
10
28.6558507
20
6.5432903
40
1.9796587
50
230.6673162
51
240.7376743
0
ARC
8
DEFAULT_255_2_778
10
29.3750206
20
7.8080184
40
3.4345449
50
240.5844172
51
246.5618405
0
ARC
8
DEFAULT_255_2_778
10
30.0428488
20
9.296004
40
5.0654344
50
246.3258232
51
247.9443638
0
ARC
8
DEFAULT_255_2_778
10
26.1486387
20
-0.3306259
40
5.3190208
50
66.9166881
51
68.0050523
0
ARC
8
DEFAULT_255_2_778
10
26.604628
20
0.7384986
40
4.1567158
50
65.5626015
51
66.9209617
0
ARC
8
DEFAULT_255_2_778
10
26.837557
20
1.2551567
40
3.5899811
50
65.4865504
51
65.5358049
0
ARC
8
DEFAULT_255_2_778
10
27.2794074
20
2.1888729
40
2.5571414
50
59.8271057
51
65.8140971
0
ARC
8
DEFAULT_255_2_778
10
27.920144
20
3.2802769
40
1.2915787
50
48.7793896
51
60.0654682
0
ARC
8
DEFAULT_255_2_778
10
28.3085894
20
3.7128506
40
0.7102722
50
2.9691792
51
49.3546586
0
ARC
8
DEFAULT_255_2_778
10
27.8837491
20
3.6587329
40
1.1377964
50
359.9107231
51
4.5827639
0
ARC
8
DEFAULT_255_2_778
10
28.1759206
20
3.6466678
40
0.8456861
50
338.6028801
51
0.6973254
0
ARC
8
DEFAULT_255_2_778
10
28.2407302
20
3.6460142
40
0.785443
50
289.6032546
51
336.9222323
0
ARC
8
DEFAULT_255_2_778
10
28.0106554
20
4.1834913
40
1.3694424
50
274.3801352
51
291.1269086
0
ARC
8
DEFAULT_255_2_778
10
27.9592108
20
4.6344678
40
1.8231087
50
269.9444766
51
274.9097519
0
ARC
8
DEFAULT_255_2_778
10
27.9594739
20
5.9425455
40
3.1311861
50
261.8858471
51
269.9628573
0
ARC
8
DEFAULT_255_2_778
10
27.9997362
20
6.2174519
40
3.4090233
50
254.1888677
51
261.8680766
0
ARC
8
DEFAULT_255_2_778
10
28.0782244
20
6.5085688
40
3.7105132
50
251.2601919
51
254.2475633
0
ARC
8
DEFAULT_255_2_778
10
27.8743159
20
5.5503476
40
3.2185545
50
250.9281957
51
270.9760822
0
ARC
8
DEFAULT_255_2_778
10
27.9428976
20
4.7790863
40
2.4468649
50
269.6779459
51
284.1174783
0
ARC
8
DEFAULT_255_2_778
10
28.1202038
20
4.1006389
40
1.7456734
50
283.9051066
51
303.6909043
0
ARC
8
DEFAULT_255_2_778
10
28.3875407
20
3.7040075
40
1.2673666
50
303.581534
51
344.8948184
0
ARC
8
DEFAULT_255_2_778
10
28.1346236
20
3.7673154
40
1.5280503
50
345.0743325
51
0.3578869
0
ARC
8
DEFAULT_255_2_778
10
28.3824207
20
3.789803
40
1.2802888
50
359.4207631
51
14.4969284
0
ARC
8
DEFAULT_255_2_778
10
28.618692
20
3.833121
40
1.0408386
50
15.4441543
51
52.3030289
0
ARC
8
DEFAULT_255_2_778
10
27.9953723
20
3.0958627
40
2.0057971
50
51.0922691
51
61.0244176
0
ARC
8
DEFAULT_255_2_778
10
27.1313612
20
1.559624
40
3.768316
50
60.8472992
51
66.3553639
0
ARC
8
DEFAULT_255_2_778
10
26.1434301
20
-0.6336532
40
6.1737434
50
66.1200737
51
67.8145125
0
ARC
8
DEFAULT_255_2_778
10
25.5981379
20
-1.9560167
40
7.6041151
50
67.7723974
51
68.1465727
0
ARC
8
DEFAULT_255_2_778
10
29.5182532
20
7.893505
40
2.9969395
50
242.814439
51
248.6801524
0
ARC
8
DEFAULT_255_2_778
10
28.7898132
20
6.4913351
40
1.4168791
50
231.1014026
51
243.111889
0
ARC
8
DEFAULT_255_2_778
10
28.366427
20
5.9788046
40
0.7521741
50
183.5056829
51
231.6851705
0
ARC
8
DEFAULT_255_2_778
10
28.7898527
20
6.0370509
40
1.1788104
50
179.902346
51
185.0731807
0
ARC
8
DEFAULT_255_2_778
10
28.2886607
20
6.0485706
40
0.6776834
50
151.7149044
51
180.8041139
0
ARC
8
DEFAULT_255_2_778
10
28.3237344
20
6.0035554
40
0.7302631
50
110.5851092
51
149.908441
0
ARC
8
DEFAULT_255_2_778
10
28.5077972
20
5.5711702
40
1.1999286
50
92.1512396
51
111.5537304
0
ARC
8
DEFAULT_255_2_778
10
28.5339453
20
5.2866411
40
1.4853191
50
89.9884752
51
92.7472
0
ARC
8
DEFAULT_255_2_778
10
28.5295364
20
4.7337154
40
2.0382501
50
84.1344893
51
89.8676644
0
ARC
8
DEFAULT_255_2_778
10
28.4633281
20
4.1320616
40
2.6435236
50
73.4963532
51
84.0396353
0
ARC
8
DEFAULT_255_2_778
10
28.5721073
20
4.4822127
40
2.2769017
50
68.6500391
51
73.6178449
0
ARC
8
DEFAULT_255_2_778
10
28.6893487
20
5.1994281
40
2.0359459
50
67.6226244
51
79.8285996
0
ARC
8
DEFAULT_255_2_778
10
28.5209728
20
4.2899941
40
2.9608258
50
79.7293339
51
89.3701073
0
ARC
8
DEFAULT_255_2_778
10
28.4991637
20
3.7247441
40
3.526316
50
89.1167397
51
90.0019439
0
ARC
8
DEFAULT_255_2_778
10
28.4893101
20
5.2316743
40
2.0194092
50
89.7238208
51
104.8076956
0
ARC
8
DEFAULT_255_2_778
10
28.3665051
20
5.6780377
40
1.5564909
50
104.6366383
51
124.8029002
0
ARC
8
DEFAULT_255_2_778
10
28.1356731
20
5.9944491
40
1.1649648
50
124.3628398
51
175.7002154
0
ARC
8
DEFAULT_255_2_778
10
28.2879054
20
5.9761101
40
1.3181615
50
175.4014351
51
180.0239102
0
LINE
8
DEFAULT_255_2_778
10
16.8605441
20
7.31006
11
16.2985441
21
7.31006
0
LINE
8
DEFAULT_255_2_778
10
16.2985441
20
7.31006
11
16.2985441
21
4.76026
0
LINE
8
DEFAULT_255_2_778
10
16.2985441
20
4.76026
11
16.3345441
21
3.19736
0
LINE
8
DEFAULT_255_2_778
10
16.3345441
20
3.19736
11
16.3128441
21
3.19736
0
LINE
8
DEFAULT_255_2_778
10
16.3128441
20
3.19736
11
15.4918441
21
4.57326
0
LINE
8
DEFAULT_255_2_778
10
15.4918441
20
4.57326
11
13.7273441
21
7.31036
0
LINE
8
DEFAULT_255_2_778
10
13.7273441
20
7.31036
11
12.9563441
21
7.31036
0
LINE
8
DEFAULT_255_2_778
10
12.9563441
20
7.31036
11
12.9563441
21
2.42666
0
LINE
8
DEFAULT_255_2_778
10
12.9563441
20
2.42666
11
13.5183441
21
2.42666
0
LINE
8
DEFAULT_255_2_778
10
13.5183441
20
2.42666
11
13.5183441
21
4.97646
0
LINE
8
DEFAULT_255_2_778
10
13.5183441
20
4.97646
11
13.4823441
21
6.64046
0
LINE
8
DEFAULT_255_2_778
10
13.4823441
20
6.64046
11
13.5040441
21
6.64046
0
LINE
8
DEFAULT_255_2_778
10
13.5040441
20
6.64046
11
14.3972441
21
5.16376
0
LINE
8
DEFAULT_255_2_778
10
14.3972441
20
5.16376
11
16.1617441
21
2.42666
0
LINE
8
DEFAULT_255_2_778
10
16.1617441
20
2.42666
11
16.8605441
21
2.42666
0
LINE
8
DEFAULT_255_2_778
10
16.8605441
20
2.42666
11
16.8605441
21
7.31006
0
LINE
8
DEFAULT_255_2_778
10
17.9302441
20
2.42646
11
18.5353441
21
2.42646
0
LINE
8
DEFAULT_255_2_778
10
18.5353441
20
2.42646
11
18.5353441
21
5.91286
0
LINE
8
DEFAULT_255_2_778
10
18.5353441
20
5.91286
11
17.9302441
21
5.91286
0
LINE
8
DEFAULT_255_2_778
10
17.9302441
20
5.91286
11
17.9302441
21
2.42646
0
LINE
8
DEFAULT_255_2_778
10
18.2326441
20
6.42396
11
18.2326441
21
6.42396
0
LINE
8
DEFAULT_255_2_778
10
22.3046441
20
5.91256
11
21.6129441
21
5.91256
0
LINE
8
DEFAULT_255_2_778
10
21.6129441
20
5.91256
11
20.7631441
21
4.63036
0
LINE
8
DEFAULT_255_2_778
10
20.7631441
20
4.63036
11
20.7414441
21
4.63036
0
LINE
8
DEFAULT_255_2_778
10
20.7414441
20
4.63036
11
19.9204441
21
5.91256
0
LINE
8
DEFAULT_255_2_778
10
19.9204441
20
5.91256
11
19.1711441
21
5.91256
0
LINE
8
DEFAULT_255_2_778
10
19.1711441
20
5.91256
11
20.4173441
21
4.21266
0
LINE
8
DEFAULT_255_2_778
10
20.4173441
20
4.21266
11
20.4173441
21
4.19096
0
LINE
8
DEFAULT_255_2_778
10
20.4173441
20
4.19096
11
19.1280441
21
2.42646
0
LINE
8
DEFAULT_255_2_778
10
19.1280441
20
2.42646
11
19.8196441
21
2.42646
0
LINE
8
DEFAULT_255_2_778
10
19.8196441
20
2.42646
11
20.7271441
21
3.80936
0
LINE
8
DEFAULT_255_2_778
10
20.7271441
20
3.80936
11
20.7488441
21
3.80936
0
LINE
8
DEFAULT_255_2_778
10
20.7488441
20
3.80936
11
21.6563441
21
2.42646
0
LINE
8
DEFAULT_255_2_778
10
21.6563441
20
2.42646
11
22.4056441
21
2.42646
0
LINE
8
DEFAULT_255_2_778
10
22.4056441
20
2.42646
11
21.0875441
21
4.22006
0
LINE
8
DEFAULT_255_2_778
10
21.0875441
20
4.22006
11
21.0875441
21
4.24176
0
LINE
8
DEFAULT_255_2_778
10
21.0875441
20
4.24176
11
22.3046441
21
5.91256
0
LINE
8
DEFAULT_255_2_778
10
24.6448441
20
7.22356
11
24.6448441
21
7.22356
0
LINE
8
DEFAULT_255_2_778
10
24.6448441
20
6.74446
11
24.6448441
21
6.74446
0
LINE
8
DEFAULT_255_2_778
10
26.8861441
20
2.99476
11
26.8226441
21
2.50846
0
LINE
8
DEFAULT_255_2_778
10
29.4010441
20
6.60286
11
29.4644441
21
7.08206
0
LINE
8
DEFAULT_255_2_778
10
26.9697441
20
5.97556
11
26.9710441
21
5.97556
0
ENDSEC
0
EOF