0
SECTION
2
HEADER
9
$MEASUREMENT
70
1
0
ENDSEC
0
SECTION
2
TABLES
0
TABLE
2
LTYPE
0
LTYPE
72
65
70
64
2
CONTINUOUS
3
______
73
0
40
0
0
ENDTAB
0
TABLE
2
LAYER
0
LAYER
2
DEFAULT_255_2_778
70
0
62
255
6
CONTINUOUS
0
ENDTAB
0
ENDSEC
0
SECTION
2
ENTITIES
0
ARC
8
DEFAULT_255_2_778
10
7.0205429
20
4.1087267
40
4.551174
50
90.9011925
51
91.8069711
0
ARC
8
DEFAULT_255_2_778
10
7.0204628
20
4.1144061
40
4.5454941
50
90.0001168
51
90.9013094
0
ARC
8
DEFAULT_255_2_778
10
7.0200777
20
4.1054839
40
4.5544163
50
83.0270682
51
89.9952722
0
ARC
8
DEFAULT_255_2_778
10
6.9998724
20
3.9542596
40
4.7069751
50
75.6084483
51
83.0064098
0
ARC
8
DEFAULT_255_2_778
10
6.9135313
20
3.6224575
40
5.0498253
50
68.6534739
51
75.5952498
0
ARC
8
DEFAULT_255_2_778
10
6.7372574
20
3.1708546
40
5.5346113
50
62.7201301
51
68.6556071
0
ARC
8
DEFAULT_255_2_778
10
6.4934832
20
2.6955863
40
6.0687503
50
57.9389668
51
62.731195
0
ARC
8
DEFAULT_255_2_778
10
6.2396855
20
2.2874825
40
6.5493331
50
54.3448651
51
57.9524509
0
ARC
8
DEFAULT_255_2_778
10
6.0537749
20
2.0255854
40
6.8705033
50
52.3918668
51
54.3582195
0
ARC
8
DEFAULT_255_2_778
10
5.9045617
20
1.832634
40
7.1144184
50
49.6313129
51
52.3881858
0
ARC
8
DEFAULT_255_2_778
10
5.7901399
20
1.6971714
40
7.2917377
50
47.3812928
51
49.6357327
0
ARC
8
DEFAULT_255_2_778
10
5.7749809
20
1.6801808
40
7.3145052
50
45.5831348
51
47.3840304
0
ARC
8
DEFAULT_255_2_778
10
5.8567453
20
1.7634053
40
7.197836
50
44.1272748
51
45.5843678
0
ARC
8
DEFAULT_255_2_778
10
6.0497994
20
1.9501906
40
6.9292127
50
42.6515303
51
44.1300968
0
ARC
8
DEFAULT_255_2_778
10
6.3285571
20
2.2074271
40
6.5499024
50
41.712891
51
42.6486829
0
ARC
8
DEFAULT_255_2_778
10
6.7015941
20
2.5391804
40
6.0506866
50
40.5604248
51
41.7182721
0
ARC
8
DEFAULT_255_2_778
10
7.2969346
20
3.0480688
40
5.2674898
50
39.412707
51
40.5659382
0
ARC
8
DEFAULT_255_2_778
10
8.0130635
20
3.6369583
40
4.3403268
50
38.5775677
51
39.4087442
0
ARC
8
DEFAULT_255_2_778
10
8.8362543
20
4.2927867
40
3.2878281
50
37.7052851
51
38.5883117
0
ARC
8
DEFAULT_255_2_778
10
9.8126041
20
5.0474088
40
2.0538452
50
37.010823
51
37.7081687
0
ARC
8
DEFAULT_255_2_778
10
10.8027978
20
5.7932488
40
0.8141839
50
36.4469284
51
37.0455411
0
ARC
8
DEFAULT_255_2_778
10
10.3711885
20
7.0624008
40
1.340721
50
323.7247206
51
324.136841
0
ARC
8
DEFAULT_255_2_778
10
8.8204706
20
8.1988506
40
3.2632826
50
323.2918715
51
323.7478776
0
ARC
8
DEFAULT_255_2_778
10
7.5341387
20
9.1570975
40
4.8673047
50
322.8467843
51
323.2997912
0
ARC
8
DEFAULT_255_2_778
10
6.2742656
20
10.1124296
40
6.4484243
50
322.1673719
51
322.8421329
0
ARC
8
DEFAULT_255_2_778
10
5.1024114
20
11.0220137
40
7.9318613
50
321.4031332
51
322.1700447
0
ARC
8
DEFAULT_255_2_778
10
4.2282512
20
11.7193134
40
9.0500664
50
320.5623305
51
321.4053841
0
ARC
8
DEFAULT_255_2_778
10
3.6776641
20
12.171506
40
9.7625439
50
319.7701036
51
320.5653735
0
ARC
8
DEFAULT_255_2_778
10
3.342013
20
12.4554969
40
10.202217
50
318.6349273
51
319.7699179
0
ARC
8
DEFAULT_255_2_778
10
3.2227789
20
12.5599363
40
10.360723
50
317.2746422
51
318.637212
0
ARC
8
DEFAULT_255_2_778
10
3.361888
20
12.4305862
40
10.1707694
50
315.628209
51
317.2782421
0
ARC
8
DEFAULT_255_2_778
10
3.7403839
20
12.0587889
40
9.640212
50
313.5335922
51
315.6346312
0
ARC
8
DEFAULT_255_2_778
10
4.1723235
20
11.6057483
40
9.0142596
50
312.1085507
51
313.5266107
0
ARC
8
DEFAULT_255_2_778
10
4.8036944
20
10.8980227
40
8.0658595
50
308.3381842
51
312.1522913
0
ARC
8
DEFAULT_255_2_778
10
6.3410618
20
8.8583683
40
5.5127173
50
294.1209909
51
308.9550145
0
ARC
8
DEFAULT_255_2_778
10
7.2831314
20
6.7969476
40
3.2463465
50
277.6332771
51
293.8142066
0
ARC
8
DEFAULT_255_2_778
10
7.3978334
20
6.1080887
40
2.5484523
50
270.0562109
51
277.1345392
0
ARC
8
DEFAULT_255_2_778
10
7.3946675
20
6.1480127
40
2.5883813
50
270.0020568
51
270.1254237
0
ARC
8
DEFAULT_255_2_778
10
7.394603
20
6.1339735
40
2.574342
50
251.6426657
51
270.0035035
0
ARC
8
DEFAULT_255_2_778
10
6.2005441
20
3.5295281
40
3.2528701
50
78.4449035
51
83.2330515
0
ARC
8
DEFAULT_255_2_778
10
6.409662
20
4.5428859
40
2.2181629
50
71.5598727
51
78.4938187
0
ARC
8
DEFAULT_255_2_778
10
6.6077332
20
5.1304648
40
1.5981021
50
60.0740532
51
71.6330827
0
ARC
8
DEFAULT_255_2_778
10
6.5777586
20
5.1227744
40
1.6198722
50
38.8326421
51
59.2908728
0
ARC
8
DEFAULT_255_2_778
10
5.5840192
20
4.2679175
40
2.9303246
50
35.1848777
51
39.6694335
0
ARC
8
DEFAULT_255_2_778
10
4.0554626
20
3.1839107
40
4.8042348
50
32.7486352
51
35.2466034
0
ARC
8
DEFAULT_255_2_778
10
1.1805748
20
1.3272022
40
8.2265617
50
31.5090288
51
32.793244
0
ARC
8
DEFAULT_255_2_778
10
-4.1588955
20
-1.9547743
40
14.4940399
50
30.9570568
51
31.5386441
0
ARC
8
DEFAULT_255_2_778
10
-22.7276187
20
-13.0794766
40
36.1402042
50
30.5883333
51
30.9385957
0
ARC
8
DEFAULT_255_2_778
10
180.7075644
20
107.2470988
40
200.2162197
50
210.6058853
51
210.6636213
0
ARC
8
DEFAULT_255_2_778
10
51.6471234
20
30.7489003
40
50.1876545
50
210.6847267
51
210.7649616
0
ARC
8
DEFAULT_255_2_778
10
9.4541725
20
5.894825
40
0.6407345
50
37.6419359
51
38.6420192
0
ARC
8
DEFAULT_255_2_778
10
8.68308
20
5.2798021
40
1.6270592
50
38.6019029
51
39.9554748
0
ARC
8
DEFAULT_255_2_778
10
8.0436506
20
4.7456047
40
2.4602673
50
39.9286716
51
41.3126111
0
ARC
8
DEFAULT_255_2_778
10
7.5572414
20
4.3184706
40
3.1075983
50
41.3073971
51
42.9437558
0
ARC
8
DEFAULT_255_2_778
10
7.1996733
20
3.9862109
40
3.5957081
50
42.9376626
51
44.7384085
0
ARC
8
DEFAULT_255_2_778
10
6.9613203
20
3.7503119
40
3.9310595
50
44.7354337
51
46.8667665
0
ARC
8
DEFAULT_255_2_778
10
6.8241161
20
3.6041959
40
4.1314961
50
46.863607
51
49.5118285
0
ARC
8
DEFAULT_255_2_778
10
6.782331
20
3.5558448
40
4.1953998
50
49.5065665
51
52.5812239
0
ARC
8
DEFAULT_255_2_778
10
6.8025225
20
3.5823575
40
4.1620741
50
52.580209
51
54.5966221
0
ARC
8
DEFAULT_255_2_778
10
6.8581926
20
3.6618807
40
4.0650038
50
54.5868438
51
58.6912875
0
ARC
8
DEFAULT_255_2_778
10
6.9542239
20
3.8208845
40
3.8792517
50
58.6827361
51
63.7871593
0
ARC
8
DEFAULT_255_2_778
10
7.0503859
20
4.01718
40
3.660668
50
63.7803907
51
70.0030519
0
ARC
8
DEFAULT_255_2_778
10
7.1152508
20
4.1947455
40
3.4716259
50
70.0068841
51
76.9738133
0
ARC
8
DEFAULT_255_2_778
10
7.1389324
20
4.2935184
40
3.3700571
50
76.9875702
51
84.1334961
0
ARC
8
DEFAULT_255_2_778
10
7.1389758
20
4.287132
40
3.3764056
50
84.1453055
51
90.0092012
0
ARC
8
DEFAULT_255_2_778
10
7.0392709
20
4.7332853
40
2.9319297
50
88.0617938
51
90.021273
0
ARC
8
DEFAULT_255_2_778
10
7.0461869
20
3.8932227
40
3.7720005
50
90.1215876
51
93.7137217
0
ARC
8
DEFAULT_255_2_778
10
7.2064764
20
1.4033416
40
6.2670354
50
93.7016546
51
95.7597468
0
ARC
8
DEFAULT_255_2_778
10
7.1006981
20
2.9068222
40
6.5867344
50
90.9732177
51
91.9511787
0
ARC
8
DEFAULT_255_2_778
10
7.1004474
20
2.9212484
40
6.5723059
50
90.0000705
51
90.9731687
0
ARC
8
DEFAULT_255_2_778
10
7.1002531
20
2.9201409
40
6.5734133
50
84.228205
51
89.9983769
0
ARC
8
DEFAULT_255_2_778
10
7.0861994
20
2.7924603
40
6.70186
50
78.3500159
51
84.2184412
0
ARC
8
DEFAULT_255_2_778
10
7.0246076
20
2.4989893
40
7.0017229
50
72.578771
51
78.3413274
0
ARC
8
DEFAULT_255_2_778
10
6.8936101
20
2.0814981
40
7.4392834
50
67.5563397
51
72.5788173
0
ARC
8
DEFAULT_255_2_778
10
6.6947457
20
1.5998285
40
7.9603905
50
63.0176555
51
67.5569718
0
ARC
8
DEFAULT_255_2_778
10
6.4443786
20
1.1065038
40
8.5136106
50
59.1449367
51
63.0224707
0
ARC
8
DEFAULT_255_2_778
10
6.1938539
20
0.6846916
40
9.0042087
50
56.2094941
51
59.1529974
0
ARC
8
DEFAULT_255_2_778
10
5.9707825
20
0.3506761
40
9.4058642
50
53.5317746
51
56.211784
0
ARC
8
DEFAULT_255_2_778
10
5.7917359
20
0.1073588
40
9.7079578
50
51.3910144
51
53.5355244
0
ARC
8
DEFAULT_255_2_778
10
5.681673
20
-0.0310348
40
9.8847811
50
49.5948255
51
51.3930557
0
ARC
8
DEFAULT_255_2_778
10
5.6432835
20
-0.0764901
40
9.9442781
50
47.8325858
51
49.5961559
0
ARC
8
DEFAULT_255_2_778
10
5.7001126
20
-0.0141629
40
9.8599328
50
46.2220855
51
47.8342172
0
ARC
8
DEFAULT_255_2_778
10
5.8707648
20
0.1636866
40
9.6134523
50
44.8600972
51
46.2230844
0
ARC
8
DEFAULT_255_2_778
10
6.1407653
20
0.4323676
40
9.2325455
50
43.7393136
51
44.8601155
0
ARC
8
DEFAULT_255_2_778
10
6.4887463
20
0.7654116
40
8.7508725
50
42.8092237
51
43.739082
0
ARC
8
DEFAULT_255_2_778
10
6.8895194
20
1.1367133
40
8.2045356
50
42.0318727
51
42.8089067
0
ARC
8
DEFAULT_255_2_778
10
7.4345201
20
1.6271055
40
7.4713849
50
41.0663414
51
42.0368732
0
ARC
8
DEFAULT_255_2_778
10
8.2259239
20
2.3161826
40
6.4220293
50
40.1367546
51
41.0696385
0
ARC
8
DEFAULT_255_2_778
10
9.1205289
20
3.0707111
40
5.2517168
50
39.4101417
51
40.1349208
0
ARC
8
DEFAULT_255_2_778
10
10.1400891
20
3.9075964
40
3.932672
50
38.6443165
51
39.4201959
0
ARC
8
DEFAULT_255_2_778
10
11.3071354
20
4.8406107
40
2.4385124
50
38.0312273
51
38.6462499
0
ARC
8
DEFAULT_255_2_778
10
12.4771041
20
5.7550811
40
0.9535602
50
37.527701
51
38.0613551
0
ARC
8
DEFAULT_255_2_778
10
11.8577758
20
7.4703296
40
1.7829763
50
320.0685049
51
320.4883534
0
ARC
8
DEFAULT_255_2_778
10
9.8458335
20
9.1516541
40
4.4049531
50
319.6384177
51
320.0964357
0
ARC
8
DEFAULT_255_2_778
10
8.1657896
20
10.5782465
40
6.6089749
50
319.1942786
51
319.6469767
0
ARC
8
DEFAULT_255_2_778
10
6.8107051
20
11.7474078
40
8.3987212
50
318.7545137
51
319.198164
0
ARC
8
DEFAULT_255_2_778
10
5.7506211
20
12.676452
40
9.8082959
50
318.3217534
51
318.756608
0
ARC
8
DEFAULT_255_2_778
10
4.7110119
20
13.6026715
40
11.200657
50
317.6767939
51
318.319196
0
ARC
8
DEFAULT_255_2_778
10
3.7596223
20
14.4688526
40
12.4872851
50
316.9539727
51
317.6775452
0
ARC
8
DEFAULT_255_2_778
10
3.0576067
20
15.1241746
40
13.4476354
50
316.1674689
51
316.9551352
0
ARC
8
DEFAULT_255_2_778
10
2.623108
20
15.5407383
40
14.0495608
50
315.4336986
51
316.1691735
0
ARC
8
DEFAULT_255_2_778
10
2.3752899
20
15.7848077
40
14.397388
50
314.3962782
51
315.4337698
0
ARC
8
DEFAULT_255_2_778
10
2.3252098
20
15.8354305
40
14.4685957
50
313.1801559
51
314.3977299
0
ARC
8
DEFAULT_255_2_778
10
2.497887
20
15.6506783
40
14.2157114
50
311.7851619
51
313.1822021
0
ARC
8
DEFAULT_255_2_778
10
2.8441625
20
15.2626436
40
13.6956367
50
310.3132735
51
311.7866804
0
ARC
8
DEFAULT_255_2_778
10
3.2986995
20
14.7262272
40
12.9925391
50
308.685419
51
310.3152603
0
ARC
8
DEFAULT_255_2_778
10
3.9386871
20
13.9225599
40
11.9651849
50
306.1233243
51
308.6986345
0
ARC
8
DEFAULT_255_2_778
10
4.8500397
20
12.6641238
40
10.4114192
50
302.1175678
51
306.154884
0
ARC
8
DEFAULT_255_2_778
10
6.4564343
20
9.9715862
40
7.2772434
50
287.8731011
51
302.6762626
0
ARC
8
DEFAULT_255_2_778
10
7.3188356
20
7.3538562
40
4.5212027
50
270.5170273
51
287.6529313
0
ARC
8
DEFAULT_255_2_778
10
7.3660428
20
7.2336945
40
4.4008617
50
261.6137989
51
269.9165566
0
ARC
8
DEFAULT_255_2_778
10
7.4760162
20
8.0649531
40
5.2392858
50
260.2310014
51
261.7498101
0
ARC
8
DEFAULT_255_2_778
10
7.4413842
20
9.09411
40
7.1782956
50
263.1645338
51
265.8168089
0
ARC
8
DEFAULT_255_2_778
10
7.2405428
20
6.3380564
40
4.4149341
50
265.8072621
51
269.8493388
0
ARC
8
DEFAULT_255_2_778
10
7.2342162
20
9.8126937
40
7.889558
50
269.9616365
51
276.4338286
0
ARC
8
DEFAULT_255_2_778
10
7.2610727
20
9.5448179
40
7.6203604
50
276.4588631
51
284.9701042
0
ARC
8
DEFAULT_255_2_778
10
6.8211676
20
10.868574
40
9.0132058
50
285.4979164
51
302.5885732
0
ARC
8
DEFAULT_255_2_778
10
3.3235889
20
16.5075597
40
15.6484545
50
302.2581125
51
308.8796586
0
ARC
8
DEFAULT_255_2_778
10
-5.2656298
20
27.3418589
40
29.4741479
50
308.6577956
51
310.8091113
0
ARC
8
DEFAULT_255_2_778
10
14.7348349
20
5.9483142
40
1.1756048
50
231.1209812
51
235.3822177
0
ARC
8
DEFAULT_255_2_778
10
15.5631904
20
7.1401777
40
2.6270529
50
235.2817413
51
237.8676785
0
ARC
8
DEFAULT_255_2_778
10
17.0801006
20
9.5499229
40
5.4744878
50
237.8376786
51
239.5779247
0
ARC
8
DEFAULT_255_2_778
10
19.6828806
20
13.9647431
40
10.5994327
50
239.529758
51
240.436635
0
ARC
8
DEFAULT_255_2_778
10
26.0418034
20
25.1933066
40
23.50356
50
240.4584664
51
241.1307752
0
ARC
8
DEFAULT_255_2_778
10
96.080483
20
152.1502291
40
168.4983069
50
241.1177802
51
241.2168515
0
ARC
8
DEFAULT_255_2_778
10
-26.0183281
20
-69.9753135
40
84.9733555
50
61.1405617
51
61.1758842
0
ARC
8
DEFAULT_255_2_778
10
0.6601888
20
-21.6339314
40
29.7589602
50
60.5530162
51
61.2034142
0
ARC
8
DEFAULT_255_2_778
10
9.2378322
20
-6.4348435
40
12.3065042
50
59.4379597
51
60.5407285
0
ARC
8
DEFAULT_255_2_778
10
12.0731781
20
-1.6310175
40
6.7283388
50
58.0522068
51
59.4281721
0
ARC
8
DEFAULT_255_2_778
10
13.7146043
20
0.9928297
40
3.6333723
50
55.6050525
51
58.1216116
0
ARC
8
DEFAULT_255_2_778
10
14.8059285
20
2.5825091
40
1.7051463
50
51.6449958
51
55.6897278
0
ARC
8
DEFAULT_255_2_778
10
15.4126632
20
3.3471534
40
0.7290293
50
45.5565025
51
51.7474389
0
ARC
8
DEFAULT_255_2_778
10
12.3705974
20
8.1090973
40
5.5326751
50
305.7852704
51
309.9486638
0
ARC
8
DEFAULT_255_2_778
10
11.3937564
20
9.4620546
40
7.2014204
50
302.1776612
51
305.7955076
0
ARC
8
DEFAULT_255_2_778
10
10.3428733
20
11.1282302
40
9.1713171
50
299.120549
51
302.1911093
0
ARC
8
DEFAULT_255_2_778
10
9.2403535
20
13.1059298
40
11.435571
50
296.2845452
51
299.1241257
0
ARC
8
DEFAULT_255_2_778
10
8.1492173
20
15.3096858
40
13.8946591
50
293.8206125
51
296.2945709
0
ARC
8
DEFAULT_255_2_778
10
7.0408621
20
17.827824
40
16.6459249
50
290.9403556
51
293.8100375
0
ARC
8
DEFAULT_255_2_778
10
5.9155331
20
20.7856028
40
19.8105401
50
286.9170516
51
290.9227314
0
ARC
8
DEFAULT_255_2_778
10
5.5242242
20
22.0216019
40
21.1069248
50
285.4773341
51
286.9569995
0
ARC
8
DEFAULT_255_2_778
10
5.6034821
20
21.7221709
40
20.797202
50
282.8690469
51
285.487036
0
ARC
8
DEFAULT_255_2_778
10
5.9367916
20
20.2655069
40
19.3028911
50
281.0290156
51
282.8675509
0
ARC
8
DEFAULT_255_2_778
10
6.3045341
20
18.3723055
40
17.3743049
50
279.1596203
51
281.0330735
0
ARC
8
DEFAULT_255_2_778
10
6.6537567
20
16.2044805
40
15.1785314
50
277.3213407
51
279.1608157
0
ARC
8
DEFAULT_255_2_778
10
6.9354563
20
14.0067178
40
12.9627889
50
275.3951641
51
277.3242881
0
ARC
8
DEFAULT_255_2_778
10
7.1376394
20
11.8562575
40
10.8028453
50
273.2853132
51
275.3999804
0
ARC
8
DEFAULT_255_2_778
10
7.2529626
20
9.830833
40
8.7741406
50
270.925579
51
273.2914485
0
ARC
8
DEFAULT_255_2_778
10
7.2783387
20
8.5805699
40
7.5236324
50
270.0060531
51
270.8861585
0
ARC
8
DEFAULT_255_2_778
10
7.2708638
20
7.3869256
40
6.3299935
50
270.0014124
51
270.074854
0
ARC
8
DEFAULT_255_2_778
10
7.2703166
20
7.2127914
40
6.1558592
50
263.6890054
51
270.0065447
0
ARC
8
DEFAULT_255_2_778
10
7.2678685
20
6.804948
40
3.9694008
50
253.9266828
51
259.9845259
0
ARC
8
DEFAULT_255_2_778
10
7.2215448
20
6.6421051
40
3.8000984
50
247.2983001
51
253.9180429
0
ARC
8
DEFAULT_255_2_778
10
7.2056592
20
6.6016557
40
3.7566522
50
240.1209807
51
247.2837216
0
ARC
8
DEFAULT_255_2_778
10
7.2556796
20
6.6863006
40
3.8549649
50
232.8576971
51
240.1030842
0
ARC
8
DEFAULT_255_2_778
10
7.3930977
20
6.8669805
40
4.0819642
50
226.4756121
51
232.851419
0
ARC
8
DEFAULT_255_2_778
10
7.6124351
20
7.0975348
40
4.4001844
50
220.6092363
51
226.4721857
0
ARC
8
DEFAULT_255_2_778
10
7.8344952
20
7.2907573
40
4.6945332
50
217.4866359
51
220.6354743
0
ARC
8
DEFAULT_255_2_778
10
8.048736
20
7.4538854
40
4.9638082
50
213.2412624
51
217.4757793
0
ARC
8
DEFAULT_255_2_778
10
8.2761793
20
7.6037001
40
5.2361582
50
209.5890396
51
213.2480895
0
ARC
8
DEFAULT_255_2_778
10
8.4099193
20
7.6804618
40
5.3903603
50
206.6622832
51
209.5966254
0
ARC
8
DEFAULT_255_2_778
10
8.4084958
20
7.6802599
40
5.3889976
50
204.3103942
51
206.6671556
0
ARC
8
DEFAULT_255_2_778
10
8.2523871
20
7.6101665
40
5.2178752
50
202.2462811
51
204.3146628
0
ARC
8
DEFAULT_255_2_778
10
7.9378509
20
7.4816052
40
4.8780797
50
200.6293713
51
202.2473133
0
ARC
8
DEFAULT_255_2_778
10
7.4392221
20
7.2944826
40
4.3454962
50
199.038269
51
200.6366703
0
ARC
8
DEFAULT_255_2_778
10
6.70214
20
7.0405056
40
3.5658846
50
197.6513006
51
199.0439116
0
ARC
8
DEFAULT_255_2_778
10
5.7398468
20
6.7348486
40
2.5562144
50
196.4266827
51
197.6630252
0
ARC
8
DEFAULT_255_2_778
10
4.5465114
20
6.3838558
40
1.3123319
50
195.3798358
51
196.4613952
0
ARC
8
DEFAULT_255_2_778
10
3.5976888
20
6.1223259
40
0.328126
50
194.9933369
51
195.2889503
0
ARC
8
DEFAULT_255_2_778
10
3.8787459
20
5.4919015
40
0.8094617
50
136.6243525
51
137.627405
0
ARC
8
DEFAULT_255_2_778
10
4.71209
20
4.7076985
40
1.953767
50
135.6248851
51
136.6921506
0
ARC
8
DEFAULT_255_2_778
10
5.4521521
20
3.983846
40
2.9889743
50
134.2734435
51
135.6281802
0
ARC
8
DEFAULT_255_2_778
10
6.04934
20
3.3727856
40
3.8433908
50
132.9998388
51
134.2887254
0
ARC
8
DEFAULT_255_2_778
10
6.5218903
20
2.8658018
40
4.5364535
50
131.3394219
51
132.9978337
0
ARC
8
DEFAULT_255_2_778
10
6.8766052
20
2.4635571
40
5.0727587
50
129.7381936
51
131.3465758
0
ARC
8
DEFAULT_255_2_778
10
7.1156606
20
2.1761909
40
5.4465592
50
127.8697175
51
129.7394528
0
ARC
8
DEFAULT_255_2_778
10
7.2764782
20
1.9695869
40
5.7083751
50
125.5955773
51
127.8709543
0
ARC
8
DEFAULT_255_2_778
10
7.3590981
20
1.8546615
40
5.849916
50
123.0177932
51
125.5984029
0
ARC
8
DEFAULT_255_2_778
10
7.3762884
20
1.8286669
40
5.8810795
50
121.3606837
51
123.0202246
0
ARC
8
DEFAULT_255_2_778
10
7.3612349
20
1.8538381
40
5.8517515
50
118.2807909
51
121.3630873
0
ARC
8
DEFAULT_255_2_778
10
7.3153999
20
1.9395568
40
5.7545484
50
114.8225024
51
118.2832689
0
ARC
8
DEFAULT_255_2_778
10
7.2564809
20
2.0674853
40
5.6137042
50
110.8573299
51
114.824849
0
ARC
8
DEFAULT_255_2_778
10
7.2025725
20
2.2089967
40
5.4622726
50
106.6383912
51
110.8574165
0
ARC
8
DEFAULT_255_2_778
10
7.1643435
20
2.3369512
40
5.3287293
50
101.7804075
51
106.6384861
0
ARC
8
DEFAULT_255_2_778
10
7.1466379
20
2.4200796
40
5.243737
50
96.9407334
51
101.7764633
0
ARC
8
DEFAULT_255_2_778
10
7.144058
20
2.4388318
40
5.2248105
50
96.2248006
51
96.9374991
0
ARC
8
DEFAULT_255_2_778
10
6.377701
20
5.1666647
40
1.6053689
50
83.0795576
51
87.4521122
0
ARC
8
DEFAULT_255_2_778
10
6.3769381
20
5.1501209
40
1.6219302
50
87.4511685
51
90.0023422
0
ARC
8
DEFAULT_255_2_778
10
6.3822395
20
5.0308729
40
1.7411864
50
90.1766325
51
104.5307435
0
ARC
8
DEFAULT_255_2_778
10
6.4834629
20
4.6443174
40
2.1407743
50
104.5574813
51
115.9906711
0
ARC
8
DEFAULT_255_2_778
10
6.693388
20
4.2016412
40
2.6306804
50
115.8752969
51
122.7672487
0
ARC
8
DEFAULT_255_2_778
10
6.863474
20
3.9304543
40
2.9507726
50
122.6943822
51
125.6928043
0
ARC
8
DEFAULT_255_2_778
10
6.9775555
20
3.7720363
40
3.1459924
50
125.6968993
51
129.3949826
0
ARC
8
DEFAULT_255_2_778
10
7.0307547
20
3.7060315
40
3.2307638
50
129.3811662
51
131.9516733
0
ARC
8
DEFAULT_255_2_778
10
6.9644674
20
3.7790366
40
3.1321559
50
131.9426325
51
134.2222785
0
ARC
8
DEFAULT_255_2_778
10
6.7625468
20
3.9863448
40
2.8427626
50
134.2198908
51
135.872043
0
ARC
8
DEFAULT_255_2_778
10
6.4173686
20
4.3205067
40
2.3623337
50
135.8604524
51
137.392879
0
ARC
8
DEFAULT_255_2_778
10
5.8839907
20
4.8104677
40
1.6380729
50
137.3767237
51
138.6934706
0
ARC
8
DEFAULT_255_2_778
10
5.1763708
20
5.4313117
40
0.6967059
50
138.6342764
51
139.7101179
0
ARC
8
DEFAULT_255_2_778
10
5.4611162
20
6.1159101
40
0.8490843
50
196.0023338
51
197.0493961
0
ARC
8
DEFAULT_255_2_778
10
6.5419198
20
6.4449007
40
1.9788491
50
196.9812039
51
198.123019
0
ARC
8
DEFAULT_255_2_778
10
7.4320252
20
6.7360504
40
2.9153617
50
198.1197053
51
199.6332925
0
ARC
8
DEFAULT_255_2_778
10
8.0677115
20
6.961723
40
3.5899165
50
199.6167351
51
201.0738811
0
ARC
8
DEFAULT_255_2_778
10
8.4893613
20
7.1243061
40
4.0418255
50
201.0752405
51
203.1515849
0
ARC
8
DEFAULT_255_2_778
10
8.7179428
20
7.2214848
40
4.2902062
50
203.1446732
51
205.677946
0
ARC
8
DEFAULT_255_2_778
10
8.7293906
20
7.2262416
40
4.3025847
50
205.6689785
51
208.8001397
0
ARC
8
DEFAULT_255_2_778
10
8.5541643
20
7.128575
40
4.1019815
50
208.7838041
51
213.0619469
0
ARC
8
DEFAULT_255_2_778
10
8.3153747
20
6.9740905
40
3.8175781
50
213.0739541
51
216.2428613
0
ARC
8
DEFAULT_255_2_778
10
8.0460851
20
6.7739454
40
3.4820643
50
216.2064277
51
221.9055862
0
ARC
8
DEFAULT_255_2_778
10
7.723741
20
6.482071
40
3.047217
50
221.8692752
51
229.9127553
0
ARC
8
DEFAULT_255_2_778
10
7.4780495
20
6.1900601
40
2.665596
50
229.9112195
51
239.7833619
0
ARC
8
DEFAULT_255_2_778
10
7.3719665
20
6.0122834
40
2.4585866
50
239.8346192
51
249.5893408
0
ARC
8
DEFAULT_255_2_778
10
7.3588508
20
5.9804052
40
2.424136
50
249.6171081
51
251.1824867
0
ARC
8
DEFAULT_255_2_778
10
2.549296
20
5.7718767
40
0.6651501
50
144.973161
51
145.727998
0
ARC
8
DEFAULT_255_2_778
10
3.3531635
20
5.210038
40
1.6458972
50
144.1939715
51
145.0186791
0
ARC
8
DEFAULT_255_2_778
10
4.2000519
20
4.5985313
40
2.6904835
50
142.9604676
51
144.1840213
0
ARC
8
DEFAULT_255_2_778
10
4.977394
20
4.0132469
40
3.6635292
50
141.8011706
51
142.9770241
0
ARC
8
DEFAULT_255_2_778
10
5.6220514
20
3.5058674
40
4.4839053
50
140.340151
51
141.8001112
0
ARC
8
DEFAULT_255_2_778
10
6.1386198
20
3.078499
40
5.1543427
50
138.9398398
51
140.347715
0
ARC
8
DEFAULT_255_2_778
10
6.5274271
20
2.7398905
40
5.6699265
50
137.3042839
51
138.9405552
0
ARC
8
DEFAULT_255_2_778
10
6.8220853
20
2.468356
40
6.0706191
50
135.540017
51
137.3065552
0
ARC
8
DEFAULT_255_2_778
10
7.0274006
20
2.2670464
40
6.3581602
50
133.4936495
51
135.5411199
0
ARC
8
DEFAULT_255_2_778
10
7.1584622
20
2.1290966
40
6.5484422
50
131.0269796
51
133.4948002
0
ARC
8
DEFAULT_255_2_778
10
7.2171006
20
2.0620844
40
6.6374874
50
128.2402972
51
131.0291292
0
ARC
8
DEFAULT_255_2_778
10
7.2219306
20
2.0561745
40
6.6451188
50
126.4273607
51
128.2414661
0
ARC
8
DEFAULT_255_2_778
10
7.1995151
20
2.0869114
40
6.6070773
50
123.2410201
51
126.4292334
0
ARC
8
DEFAULT_255_2_778
10
7.1539723
20
2.1566949
40
6.5237477
50
119.6649373
51
123.2424426
0
ARC
8
DEFAULT_255_2_778
10
7.1049638
20
2.2427898
40
6.4246813
50
115.870612
51
119.6651647
0
ARC
8
DEFAULT_255_2_778
10
7.0662285
20
2.3226031
40
6.335965
50
111.6005916
51
115.870363
0
ARC
8
DEFAULT_255_2_778
10
7.0469616
20
2.3706033
40
6.2842428
50
107.1585657
51
111.5983735
0
ARC
8
DEFAULT_255_2_778
10
7.0495962
20
2.3608526
40
6.2943368
50
102.5602039
51
107.1552952
0
ARC
8
DEFAULT_255_2_778
10
7.0684526
20
2.2743945
40
6.3828264
50
98.0182883
51
102.5566443
0
ARC
8
DEFAULT_255_2_778
10
7.0901184
20
2.1213676
40
6.5373794
50
94.4162043
51
98.0192379
0
ARC
8
DEFAULT_255_2_778
10
7.1879323
20
2.1197378
40
7.3643805
50
94.6826103
51
105.0662176
0
ARC
8
DEFAULT_255_2_778
10
7.6229358
20
0.4492711
40
9.0905105
50
104.9769547
51
111.5201931
0
ARC
8
DEFAULT_255_2_778
10
8.1924612
20
-1.02006
40
10.6663346
50
111.4709319
51
115.7252291
0
ARC
8
DEFAULT_255_2_778
10
8.7475702
20
-2.1818274
40
11.9539034
50
115.7051848
51
118.7651848
0
ARC
8
DEFAULT_255_2_778
10
9.2392644
20
-3.0817726
40
12.9794085
50
118.7561182
51
121.1429623
0
ARC
8
DEFAULT_255_2_778
10
9.5561574
20
-3.6112465
40
13.5964638
50
121.1319697
51
122.1301925
0
ARC
8
DEFAULT_255_2_778
10
9.793453
20
-3.9876008
40
14.0413809
50
122.1334151
51
123.7912198
0
ARC
8
DEFAULT_255_2_778
10
10.0193937
20
-4.3261814
40
14.4484261
50
123.7890969
51
125.1695032
0
ARC
8
DEFAULT_255_2_778
10
10.138437
20
-4.4956039
40
14.6554892
50
125.168429
51
126.5148285
0
ARC
8
DEFAULT_255_2_778
10
10.1234882
20
-4.4759769
40
14.6308199
50
126.5135138
51
127.7008669
0
ARC
8
DEFAULT_255_2_778
10
9.9506885
20
-4.2528165
40
14.3485786
50
127.6998675
51
128.739328
0
ARC
8
DEFAULT_255_2_778
10
9.6278175
20
-3.8504549
40
13.8326905
50
128.7391183
51
129.5917634
0
ARC
8
DEFAULT_255_2_778
10
9.1949899
20
-3.3270396
40
13.1534975
50
129.5919395
51
130.2977111
0
ARC
8
DEFAULT_255_2_778
10
8.6801343
20
-2.719753
40
12.3573359
50
130.2981328
51
130.8871184
0
ARC
8
DEFAULT_255_2_778
10
7.9645928
20
-1.8945043
40
11.2650748
50
130.8832221
51
131.6185348
0
ARC
8
DEFAULT_255_2_778
10
6.9697091
20
-0.7749472
40
9.7673427
50
131.6174531
51
132.2770041
0
ARC
8
DEFAULT_255_2_778
10
5.8284297
20
0.480322
40
8.0708109
50
132.2770416
51
132.8376163
0
ARC
8
DEFAULT_255_2_778
10
4.4575435
20
1.9576206
40
6.0554354
50
132.8300533
51
133.4294446
0
ARC
8
DEFAULT_255_2_778
10
2.8783678
20
3.6257188
40
3.7584053
50
133.4282374
51
133.9032111
0
ARC
8
DEFAULT_255_2_778
10
1.2939631
20
5.2711013
40
1.4741942
50
133.879687
51
134.2907556
0
ARC
8
DEFAULT_255_2_778
10
1.3193455
20
6.6938396
40
1.1169986
50
199.2086046
51
199.8398509
0
ARC
8
DEFAULT_255_2_778
10
2.9957902
20
7.2970203
40
2.8986531
50
199.8083545
51
200.6001386
0
ARC
8
DEFAULT_255_2_778
10
4.4832467
20
7.8548086
40
4.4872543
50
200.5844343
51
201.3703406
0
ARC
8
DEFAULT_255_2_778
10
5.6595443
20
8.3143446
40
5.7501277
50
201.363403
51
202.1379032
0
ARC
8
DEFAULT_255_2_778
10
6.5876942
20
8.6914581
40
6.7519643
50
202.1340941
51
202.8944397
0
ARC
8
DEFAULT_255_2_778
10
7.315928
20
8.9986462
40
7.542337
50
202.8920143
51
203.6364988
0
ARC
8
DEFAULT_255_2_778
10
8.0044922
20
9.300517
40
8.2941656
50
203.6398021
51
204.741677
0
ARC
8
DEFAULT_255_2_778
10
8.6321404
20
9.5895585
40
8.9851702
50
204.7405319
51
205.9807802
0
ARC
8
DEFAULT_255_2_778
10
9.0782493
20
9.8066891
40
9.4813141
50
205.9793348
51
207.3284019
0
ARC
8
DEFAULT_255_2_778
10
9.3608608
20
9.9525622
40
9.799352
50
207.3275138
51
208.9119374
0
ARC
8
DEFAULT_255_2_778
10
9.4853725
20
10.0210046
40
9.9414345
50
208.9102944
51
210.6414306
0
ARC
8
DEFAULT_255_2_778
10
9.4640643
20
10.0079933
40
9.9164701
50
210.6394978
51
212.6732766
0
ARC
8
DEFAULT_255_2_778
10
9.3124227
20
9.9101845
40
9.7360218
50
212.6705202
51
215.0662091
0
ARC
8
DEFAULT_255_2_778
10
9.0446401
20
9.7214478
40
9.4084113
50
215.0623622
51
217.9287571
0
ARC
8
DEFAULT_255_2_778
10
8.7678111
20
9.506778
40
9.0581018
50
217.9340401
51
219.9297301
0
ARC
8
DEFAULT_255_2_778
10
8.4635733
20
9.2500002
40
8.6599904
50
219.9189378
51
223.3859127
0
ARC
8
DEFAULT_255_2_778
10
8.0772956
20
8.8835474
40
8.1275459
50
223.379007
51
227.6699771
0
ARC
8
DEFAULT_255_2_778
10
7.7200288
20
8.4911747
40
7.5968898
50
227.6691916
51
232.3747694
0
ARC
8
DEFAULT_255_2_778
10
7.4400601
20
8.1279885
40
7.1383194
50
232.3749138
51
237.6252253
0
ARC
8
DEFAULT_255_2_778
10
7.251145
20
7.8307666
40
6.7861411
50
237.6286189
51
243.4384575
0
ARC
8
DEFAULT_255_2_778
10
7.1607722
20
7.6524815
40
6.5862623
50
243.4481358
51
249.153679
0
ARC
8
DEFAULT_255_2_778
10
7.147286
20
7.6198243
40
6.5509437
50
249.1622674
51
254.6366775
0
ARC
8
DEFAULT_255_2_778
10
7.1762679
20
7.7277748
40
6.6627152
50
254.642302
51
259.6357158
0
ARC
8
DEFAULT_255_2_778
10
7.2189581
20
7.9639569
40
6.9027239
50
259.6398397
51
264.3508931
0
ARC
8
DEFAULT_255_2_778
10
7.2372844
20
8.1260582
40
7.0658424
50
264.3323992
51
264.6464542
0
ARC
8
DEFAULT_255_2_778
10
7.1700685
20
6.750065
40
4.822903
50
256.9082656
51
262.9488777
0
ARC
8
DEFAULT_255_2_778
10
7.1390612
20
6.61308
40
4.6824549
50
250.3486612
51
256.8981445
0
ARC
8
DEFAULT_255_2_778
10
7.1463188
20
6.6295537
40
4.7004099
50
243.3186866
51
250.3328765
0
ARC
8
DEFAULT_255_2_778
10
7.2401765
20
6.812397
40
4.9059286
50
236.0019472
51
243.2981102
0
ARC
8
DEFAULT_255_2_778
10
7.4702551
20
7.1511406
40
5.3154181
50
229.0364583
51
235.987561
0
ARC
8
DEFAULT_255_2_778
10
7.8373513
20
7.5748476
40
5.8760311
50
223.2371279
51
229.0420066
0
ARC
8
DEFAULT_255_2_778
10
8.2756858
20
7.9889338
40
6.4790258
50
218.6077498
51
223.2495484
0
ARC
8
DEFAULT_255_2_778
10
8.5594784
20
8.2205457
40
6.8453153
50
217.6572532
51
218.6404556
0
ARC
8
DEFAULT_255_2_778
10
8.8156773
20
8.4149812
40
7.1669309
50
213.990079
51
217.6365425
0
ARC
8
DEFAULT_255_2_778
10
9.1741871
20
8.6579911
40
7.6000381
50
211.0584463
51
213.9980941
0
ARC
8
DEFAULT_255_2_778
10
9.4084572
20
8.7999646
40
7.8739696
50
208.6773017
51
211.0639586
0
ARC
8
DEFAULT_255_2_778
10
9.4937912
20
8.847191
40
7.971499
50
206.7859077
51
208.6807789
0
ARC
8
DEFAULT_255_2_778
10
9.4330577
20
8.8168198
40
7.9035956
50
205.2622438
51
206.787776
0
ARC
8
DEFAULT_255_2_778
10
9.2163543
20
8.7149994
40
7.6641639
50
203.7247847
51
205.2652198
0
ARC
8
DEFAULT_255_2_778
10
8.8709021
20
8.5628492
40
7.2866896
50
202.7511668
51
203.722417
0
ARC
8
DEFAULT_255_2_778
10
8.3917843
20
8.3626299
40
6.7674198
50
201.559267
51
202.7566551
0
ARC
8
DEFAULT_255_2_778
10
7.6331376
20
8.0633079
40
5.9518597
50
200.4299452
51
201.5630602
0
ARC
8
DEFAULT_255_2_778
10
6.7037518
20
7.7169426
40
4.9600298
50
199.558549
51
200.4280321
0
ARC
8
DEFAULT_255_2_778
10
5.5923172
20
7.3228662
40
3.7808002
50
198.6499788
51
199.5697131
0
ARC
8
DEFAULT_255_2_778
10
4.2662491
20
6.8754071
40
2.3812732
50
197.9305752
51
198.6522651
0
ARC
8
DEFAULT_255_2_778
10
2.9106398
20
6.437324
40
0.9566355
50
197.3506397
51
197.9628168
0
LINE
8
DEFAULT_255_2_778
10
6.5780336
20
7.6355375
11
6.5780336
21
8.6451375
0
LINE
8
DEFAULT_255_2_778
10
6.5780336
20
8.6451375
11
6.8770336
21
8.6576375
0
LINE
8
DEFAULT_255_2_778
10
6.5838336
20
3.6906375
11
6.5838336
21
6.7597375
0
LINE
8
DEFAULT_255_2_778
10
8.5222336
20
5.0770375
11
9.9615336
21
6.2861375
0
LINE
8
DEFAULT_255_2_778
10
6.5775336
20
10.9793375
11
6.5775336
21
9.4712375
0
LINE
8
DEFAULT_255_2_778
10
6.5775336
20
9.4712375
11
6.8764336
21
9.4897375
0
LINE
8
DEFAULT_255_2_778
10
6.5870336
20
2.9016375
11
6.5870336
21
1.9668375
0
LINE
8
DEFAULT_255_2_778
10
6.5936336
20
1.0942375
11
6.5936336
21
-0.2207625
0
LINE
8
DEFAULT_255_2_778
10
6.5936336
20
-0.2207625
11
17.1978336
21
-0.2207625
0
LINE
8
DEFAULT_255_2_778
10
17.1978336
20
-0.2207625
11
17.1978336
21
10.9790375
0
LINE
8
DEFAULT_255_2_778
10
17.1978336
20
10.9790375
11
6.5775336
21
10.9793375
0
LINE
8
DEFAULT_255_2_778
10
6.5775336
20
3.6937375
11
6.5775336
21
2.8960375
0
LINE
8
DEFAULT_255_2_778
10
6.5775336
20
7.6328375
11
6.5775336
21
6.7603375
0
LINE
8
DEFAULT_255_2_778
10
6.5775336
20
6.7603375
11
6.5711336
21
6.7603375
0
LINE
8
DEFAULT_255_2_778
10
6.5867336
20
8.6393375
11
6.5867336
21
9.4595375
0
LINE
8
DEFAULT_255_2_778
10
6.5780336
20
1.0910375
11
6.5780336
21
1.9636375
0
LINE
8
DEFAULT_255_2_778
10
1.9975336
20
6.1520375
11
1.9996336
21
6.1464375
0
ENDSEC
0
EOF