0
SECTION
2
HEADER
9
$MEASUREMENT
70
1
0
ENDSEC
0
SECTION
2
TABLES
0
TABLE
2
LTYPE
0
LTYPE
72
65
70
64
2
CONTINUOUS
3
______
73
0
40
0
0
ENDTAB
0
TABLE
2
LAYER
0
LAYER
2
DEFAULT_255_2_778
70
0
62
255
6
CONTINUOUS
0
ENDTAB
0
ENDSEC
0
SECTION
2
ENTITIES
0
ARC
8
DEFAULT_255_2_778
10
15.1487882
20
3.5583436
40
0.1178259
50
87.6590362
51
138.5300302
0
ARC
8
DEFAULT_255_2_778
10
15.1709444
20
3.5419589
40
0.1452977
50
139.4746698
51
179.9955879
0
ARC
8
DEFAULT_255_2_778
10
15.1709786
20
3.541964
40
0.1453319
50
179.9975986
51
182.639569
0
ARC
8
DEFAULT_255_2_778
10
12.9869331
20
3.5420609
40
0.1337194
50
30.3720227
51
89.3282031
0
ARC
8
DEFAULT_255_2_778
10
12.9801327
20
3.5411389
40
0.134892
50
86.4432937
51
135.2701955
0
ARC
8
DEFAULT_255_2_778
10
12.9887407
20
3.5394159
40
0.1423021
50
137.2168885
51
180.0480641
0
ARC
8
DEFAULT_255_2_778
10
12.9897264
20
3.5392993
40
0.1432878
50
180.001105
51
181.6909732
0
ARC
8
DEFAULT_255_2_778
10
13.0059443
20
0.6572917
40
0.1597873
50
176.2396503
51
215.9556681
0
ARC
8
DEFAULT_255_2_778
10
12.963259
20
0.6426747
40
0.1174003
50
222.4266376
51
274.7109265
0
ARC
8
DEFAULT_255_2_778
10
12.9777202
20
0.6436057
40
0.1180331
50
267.659954
51
318.4847162
0
ARC
8
DEFAULT_255_2_778
10
12.9554173
20
0.659718
40
0.1454379
50
319.5556587
51
359.9876593
0
ARC
8
DEFAULT_255_2_778
10
12.9558361
20
0.6596809
40
0.1450191
50
0.0022864
51
2.6441775
0
ARC
8
DEFAULT_255_2_778
10
15.1527081
20
0.6750759
40
0.148696
50
213.7007739
51
267.9931536
0
ARC
8
DEFAULT_255_2_778
10
15.1544706
20
0.6462119
40
0.1199435
50
266.6687817
51
318.1393595
0
ARC
8
DEFAULT_255_2_778
10
15.1336194
20
0.6604865
40
0.1450357
50
319.4364681
51
0.0006432
0
ARC
8
DEFAULT_255_2_778
10
15.1340643
20
0.6604952
40
0.1445909
50
359.9972022
51
2.6463487
0
ARC
8
DEFAULT_255_2_778
10
15.1333426
20
3.5453805
40
0.1454894
50
356.1339872
51
39.6266692
0
ARC
8
DEFAULT_255_2_778
10
15.1615183
20
3.5651211
40
0.1112321
50
41.0512861
51
94.081711
0
ARC
8
DEFAULT_255_2_778
10
25.2626749
20
2.1153589
40
1.5829123
50
90.0243942
51
118.5462421
0
ARC
8
DEFAULT_255_2_778
10
25.2661758
20
2.1076591
40
1.5913492
50
118.5244909
51
171.6110735
0
ARC
8
DEFAULT_255_2_778
10
25.2785629
20
2.1086329
40
1.603464
50
171.7100705
51
179.9057307
0
ARC
8
DEFAULT_255_2_778
10
25.2580474
20
2.1119478
40
1.5829466
50
180.0244961
51
208.5456861
0
ARC
8
DEFAULT_255_2_778
10
25.265686
20
2.1153913
40
1.5913022
50
208.5231699
51
261.6090457
0
ARC
8
DEFAULT_255_2_778
10
25.2646399
20
2.1275083
40
1.6031394
50
261.7092281
51
269.9056825
0
ARC
8
DEFAULT_255_2_778
10
25.2642098
20
2.1030193
40
1.5786497
50
269.9198316
51
298.8765045
0
ARC
8
DEFAULT_255_2_778
10
25.2599803
20
2.1129618
40
1.5893991
50
298.8369288
51
351.9010616
0
ARC
8
DEFAULT_255_2_778
10
25.2517692
20
2.110835
40
1.5972318
50
352.0180894
51
0.0156436
0
ARC
8
DEFAULT_255_2_778
10
25.2658717
20
2.1106095
40
1.5831294
50
0.0239447
51
28.5442417
0
ARC
8
DEFAULT_255_2_778
10
25.2583914
20
2.1072299
40
1.5913154
50
28.52244
51
81.6109833
0
ARC
8
DEFAULT_255_2_778
10
25.2593642
20
2.0948482
40
1.6034251
50
81.7099209
51
89.9057811
0
ARC
8
DEFAULT_255_2_778
10
25.2605195
20
2.1033471
40
1.3196768
50
236.2311257
51
270.0643162
0
ARC
8
DEFAULT_255_2_778
10
25.2634258
20
2.1129231
40
1.3292558
50
186.049846
51
236.3564215
0
ARC
8
DEFAULT_255_2_778
10
25.2700816
20
2.1110622
40
1.3356806
50
179.9910393
51
185.9403729
0
ARC
8
DEFAULT_255_2_778
10
25.2541921
20
2.1127819
40
1.319792
50
146.5794689
51
180.0655871
0
ARC
8
DEFAULT_255_2_778
10
25.2637042
20
2.1098703
40
1.329338
50
96.0884477
51
146.7005388
0
ARC
8
DEFAULT_255_2_778
10
25.2617944
20
2.1032989
40
1.3356723
50
89.991139
51
95.9770837
0
ARC
8
DEFAULT_255_2_778
10
25.263514
20
2.1192128
40
1.3197592
50
56.5786461
51
90.0656867
0
ARC
8
DEFAULT_255_2_778
10
25.2605246
20
2.109628
40
1.3294085
50
6.0862965
51
56.6986427
0
ARC
8
DEFAULT_255_2_778
10
25.2536918
20
2.1114782
40
1.3360093
50
359.991118
51
5.9763264
0
ARC
8
DEFAULT_255_2_778
10
25.2700631
20
2.1097859
40
1.3196387
50
326.2302185
51
0.0644827
0
ARC
8
DEFAULT_255_2_778
10
25.2604089
20
2.1127721
40
1.329327
50
276.0476995
51
326.3545249
0
ARC
8
DEFAULT_255_2_778
10
25.2622102
20
2.1196917
40
1.3360206
50
269.9910248
51
275.9396135
0
ARC
8
DEFAULT_255_2_778
10
17.8088867
20
3.5283749
40
0.1478259
50
21.6324321
51
58.4657353
0
ARC
8
DEFAULT_255_2_778
10
17.79417
20
3.5111092
40
0.1702752
50
57.2834698
51
89.2829627
0
ARC
8
DEFAULT_255_2_778
10
17.7858828
20
3.5377623
40
0.1439861
50
85.8507359
51
89.995399
0
ARC
8
DEFAULT_255_2_778
10
17.7859184
20
3.538989
40
0.1427595
50
90.0096353
51
161.1679392
0
ARC
8
DEFAULT_255_2_778
10
16.4576057
20
0.6520809
40
0.1029366
50
154.8849249
51
182.9010817
0
ARC
8
DEFAULT_255_2_778
10
16.4641385
20
0.6438765
40
0.1093786
50
178.431145
51
180.0025689
0
ARC
8
DEFAULT_255_2_778
10
16.4632566
20
0.6437937
40
0.1084969
50
179.9588489
51
229.4356946
0
ARC
8
DEFAULT_255_2_778
10
16.4803793
20
0.6608586
40
0.1326095
50
228.6102821
51
270.0468266
0
ARC
8
DEFAULT_255_2_778
10
16.4804976
20
0.6607441
40
0.1324948
50
269.9957074
51
271.0393476
0
ARC
8
DEFAULT_255_2_778
10
16.4818945
20
0.6623017
40
0.1340344
50
270.4302144
51
338.036641
0
ARC
8
DEFAULT_255_2_778
10
19.1038105
20
0.6565643
40
0.1223477
50
201.2750218
51
240.0347196
0
ARC
8
DEFAULT_255_2_778
10
19.113679
20
0.6521796
40
0.1239443
50
235.063983
51
268.6231861
0
ARC
8
DEFAULT_255_2_778
10
19.1123585
20
0.6684403
40
0.140179
50
269.3224825
51
270.0066737
0
ARC
8
DEFAULT_255_2_778
10
19.1121977
20
0.6718096
40
0.1435484
50
270.0706825
51
309.7047285
0
ARC
8
DEFAULT_255_2_778
10
19.1434763
20
0.6412119
40
0.1001284
50
307.1189338
51
0.4916306
0
ARC
8
DEFAULT_255_2_778
10
19.1147574
20
0.638262
40
0.1288998
50
1.6933578
51
25.7051883
0
ARC
8
DEFAULT_255_2_778
10
22.6131977
20
3.5662915
40
0.1125192
50
87.1455874
51
139.7645066
0
ARC
8
DEFAULT_255_2_778
10
22.6374824
20
3.5446557
40
0.1450357
50
139.4364681
51
180.0006432
0
ARC
8
DEFAULT_255_2_778
10
22.6370375
20
3.544647
40
0.1445909
50
179.9972022
51
182.6463487
0
ARC
8
DEFAULT_255_2_778
10
20.4522031
20
3.5458815
40
0.133598
50
30.3425982
51
89.357637
0
ARC
8
DEFAULT_255_2_778
10
20.4453327
20
3.5448389
40
0.134892
50
86.4432937
51
135.2701955
0
ARC
8
DEFAULT_255_2_778
10
20.4544275
20
3.5429259
40
0.1427886
50
137.2936008
51
179.982599
0
ARC
8
DEFAULT_255_2_778
10
20.4540046
20
3.5429654
40
0.1423656
50
179.9984353
51
181.6882649
0
ARC
8
DEFAULT_255_2_778
10
20.4711444
20
0.6609918
40
0.1597875
50
176.2396848
51
215.9556574
0
ARC
8
DEFAULT_255_2_778
10
20.428513
20
0.646513
40
0.1175336
50
222.458642
51
274.6791352
0
ARC
8
DEFAULT_255_2_778
10
20.4429203
20
0.6473056
40
0.118033
50
267.6599391
51
318.4847571
0
ARC
8
DEFAULT_255_2_778
10
20.4206173
20
0.663418
40
0.1454379
50
319.5556587
51
359.9876593
0
ARC
8
DEFAULT_255_2_778
10
20.4210361
20
0.6633809
40
0.1450191
50
0.0022864
51
2.6441775
0
ARC
8
DEFAULT_255_2_778
10
22.617922
20
0.6767087
40
0.1487258
50
213.7083052
51
268.0267527
0
ARC
8
DEFAULT_255_2_778
10
22.6196367
20
0.6483398
40
0.1204629
50
266.7469575
51
317.9594216
0
ARC
8
DEFAULT_255_2_778
10
22.5979696
20
0.6621828
40
0.1458857
50
319.6204487
51
359.9622164
0
ARC
8
DEFAULT_255_2_778
10
22.5988357
20
0.6620809
40
0.1450196
50
0.0022847
51
2.6441759
0
ARC
8
DEFAULT_255_2_778
10
22.5980993
20
3.5453473
40
0.1459295
50
356.158738
51
39.5006659
0
ARC
8
DEFAULT_255_2_778
10
22.6266685
20
3.5647786
40
0.1115702
50
41.1333837
51
94.0436456
0
LINE
8
DEFAULT_255_2_778
10
15.0258009
20
3.5352711
11
15.0258009
21
1.0124711
0
LINE
8
DEFAULT_255_2_778
10
15.0258009
20
1.0124711
11
13.1023009
21
3.6096711
0
LINE
8
DEFAULT_255_2_778
10
12.8465009
20
3.5350711
11
12.8465009
21
0.6677711
0
LINE
8
DEFAULT_255_2_778
10
13.1007009
20
0.6663711
11
13.1007009
21
3.1960711
0
LINE
8
DEFAULT_255_2_778
10
13.1007009
20
3.1960711
11
15.0290009
21
0.5925711
0
LINE
8
DEFAULT_255_2_778
10
15.2785009
20
0.6671711
11
15.2785009
21
3.5355711
0
LINE
8
DEFAULT_255_2_778
10
15.1536009
20
3.6760711
11
15.1536009
21
3.6760711
0
LINE
8
DEFAULT_255_2_778
10
25.2620009
20
3.6982711
11
25.2620009
21
3.6982711
0
LINE
8
DEFAULT_255_2_778
10
25.2620009
20
0.7836711
11
25.2620009
21
0.7836711
0
LINE
8
DEFAULT_255_2_778
10
17.6508009
20
3.5850711
11
16.3644009
21
0.6957711
0
LINE
8
DEFAULT_255_2_778
10
16.6062009
20
0.6121711
11
16.9459009
21
1.3786711
0
LINE
8
DEFAULT_255_2_778
10
16.9459009
20
1.3786711
11
18.6546009
21
1.3786711
0
LINE
8
DEFAULT_255_2_778
10
18.6546009
20
1.3786711
11
18.9898009
21
0.6121711
0
LINE
8
DEFAULT_255_2_778
10
19.2309009
20
0.6941711
11
17.9463009
21
3.5828711
0
LINE
8
DEFAULT_255_2_778
10
17.0467009
20
1.6149711
11
17.7992009
21
3.3188711
0
LINE
8
DEFAULT_255_2_778
10
17.7992009
20
3.3188711
11
18.5485009
21
1.6149711
0
LINE
8
DEFAULT_255_2_778
10
18.5485009
20
1.6149711
11
17.0467009
21
1.6149711
0
LINE
8
DEFAULT_255_2_778
10
22.4926009
20
3.5379711
11
22.4926009
21
1.0151711
0
LINE
8
DEFAULT_255_2_778
10
22.4926009
20
1.0151711
11
20.5675009
21
3.6133711
0
LINE
8
DEFAULT_255_2_778
10
20.3117009
20
3.5387711
11
20.3117009
21
0.6714711
0
LINE
8
DEFAULT_255_2_778
10
20.5659009
20
0.6700711
11
20.5659009
21
3.1976711
0
LINE
8
DEFAULT_255_2_778
10
20.5659009
20
3.1976711
11
22.4942009
21
0.5941711
0
LINE
8
DEFAULT_255_2_778
10
22.7437009
20
0.6687711
11
22.7437009
21
3.5355711
0
LINE
8
DEFAULT_255_2_778
10
22.6188009
20
3.6760711
11
22.6188009
21
3.6786711
0
ARC
8
DEFAULT_255_2_778
10
5.37926
20
2.1106324
40
0.7475439
50
271.8100829
51
0.0344486
0
ARC
8
DEFAULT_255_2_778
10
5.3788153
20
2.1251786
40
0.7620969
50
269.9991382
51
271.808959
0
ARC
8
DEFAULT_255_2_778
10
5.3796676
20
2.1118513
40
0.74877
50
181.5356225
51
269.9339055
0
ARC
8
DEFAULT_255_2_778
10
5.3928997
20
2.1118018
40
0.7619963
50
180.0541346
51
181.5052336
0
ARC
8
DEFAULT_255_2_778
10
2.9365851
20
2.1259154
40
1.6943836
50
359.4983936
51
7.6877275
0
ARC
8
DEFAULT_255_2_778
10
3.860782
20
2.2572876
40
0.7609477
50
7.1939386
51
24.0913765
0
ARC
8
DEFAULT_255_2_778
10
4.1428312
20
2.3749458
40
0.4555043
50
25.0625926
51
77.4007944
0
ARC
8
DEFAULT_255_2_778
10
3.9603561
20
1.7614364
40
1.0949384
50
75.0843194
51
86.7766982
0
ARC
8
DEFAULT_255_2_778
10
3.8877558
20
0.8320625
40
2.0270251
50
86.2048971
51
90.1371461
0
ARC
8
DEFAULT_255_2_778
10
3.8680702
20
1.1647631
40
1.6943836
50
89.4983936
51
97.6877275
0
ARC
8
DEFAULT_255_2_778
10
3.736698
20
2.08896
40
0.7609477
50
97.1939386
51
114.0913765
0
ARC
8
DEFAULT_255_2_778
10
3.6190398
20
2.3710092
40
0.4555043
50
115.0625926
51
167.4007944
0
ARC
8
DEFAULT_255_2_778
10
4.2325492
20
2.1885341
40
1.0949384
50
165.0843194
51
176.7766982
0
ARC
8
DEFAULT_255_2_778
10
5.1619231
20
2.1159338
40
2.0270251
50
176.2048971
51
180.1371461
0
ARC
8
DEFAULT_255_2_778
10
2.38736
20
2.1106324
40
0.7475439
50
271.8100829
51
0.0344486
0
ARC
8
DEFAULT_255_2_778
10
2.3869153
20
2.1251786
40
0.7620969
50
269.9991382
51
271.808959
0
ARC
8
DEFAULT_255_2_778
10
2.3877676
20
2.1118513
40
0.74877
50
181.5356225
51
269.9339055
0
ARC
8
DEFAULT_255_2_778
10
2.4009997
20
2.1118018
40
0.7619963
50
180.0541346
51
181.5052336
0
ARC
8
DEFAULT_255_2_778
10
2.3865315
20
2.1115499
40
0.7475278
50
91.8161116
51
180.0358813
0
ARC
8
DEFAULT_255_2_778
10
2.3868925
20
2.0973384
40
0.7617435
50
89.9991496
51
91.809378
0
ARC
8
DEFAULT_255_2_778
10
2.401746
20
4.5545453
40
1.6955284
50
269.4984404
51
277.6833672
0
ARC
8
DEFAULT_255_2_778
10
2.5331921
20
3.6293172
40
0.7610611
50
277.1891726
51
294.0844141
0
ARC
8
DEFAULT_255_2_778
10
2.6509409
20
3.3469987
40
0.4553339
50
295.0547464
51
347.4052756
0
ARC
8
DEFAULT_255_2_778
10
2.0372135
20
3.5294976
40
1.0949834
50
345.0875545
51
356.7786197
0
ARC
8
DEFAULT_255_2_778
10
1.10691
20
3.6021339
40
2.0279997
50
356.2066688
51
0.1369642
0
ARC
8
DEFAULT_255_2_778
10
3.8825145
20
3.6073663
40
0.7476108
50
91.8146192
51
180.0294659
0
ARC
8
DEFAULT_255_2_778
10
3.8828927
20
3.5932158
40
0.7617661
50
89.999162
51
91.8093451
0
ARC
8
DEFAULT_255_2_778
10
3.8821241
20
3.6062004
40
0.7487818
50
1.5368622
51
89.9403396
0
ARC
8
DEFAULT_255_2_778
10
3.8673225
20
3.6060633
40
0.7635819
50
0.068924
51
1.5173605
0
ARC
8
DEFAULT_255_2_778
10
6.3258145
20
3.5921431
40
1.6949756
50
179.498396
51
187.6846181
0
ARC
8
DEFAULT_255_2_778
10
5.400962
20
3.4607298
40
0.7608847
50
187.190505
51
204.0873889
0
ARC
8
DEFAULT_255_2_778
10
5.1188102
20
3.34305
40
0.4553384
50
205.0590773
51
257.406763
0
ARC
8
DEFAULT_255_2_778
10
5.3013189
20
3.9568162
40
1.0950275
50
255.0882038
51
266.7787834
0
ARC
8
DEFAULT_255_2_778
10
5.3739559
20
4.8870755
40
2.0279997
50
266.2066688
51
270.1369642
0
ARC
8
DEFAULT_255_2_778
10
5.3806851
20
2.1217638
40
0.7373205
50
90.0000141
51
90.1461921
0
ARC
8
DEFAULT_255_2_778
10
5.3806502
20
2.1129687
40
0.7461155
50
44.9923734
51
89.9973347
0
ARC
8
DEFAULT_255_2_778
10
5.3808471
20
2.1129931
40
0.7459591
50
359.9977913
51
45.0017389
0
ARC
8
DEFAULT_255_2_778
10
5.3883183
20
2.1129645
40
0.7384879
50
359.8539322
51
359.9999859
0
ARC
8
DEFAULT_255_2_778
10
0.8751395
20
0.6148622
40
0.7366381
50
180.0000141
51
180.1462542
0
ARC
8
DEFAULT_255_2_778
10
0.885114
20
0.6147224
40
0.7466126
50
135.0190355
51
179.9892855
0
ARC
8
DEFAULT_255_2_778
10
0.8847633
20
0.6143716
40
0.7466127
50
90.0107145
51
134.9809645
0
ARC
8
DEFAULT_255_2_778
10
0.8846235
20
0.6243461
40
0.7366381
50
89.8537458
51
89.9999859
0
ARC
8
DEFAULT_255_2_778
10
0.8864892
20
0.6129619
40
0.7480199
50
1.4804463
51
89.998884
0
ARC
8
DEFAULT_255_2_778
10
0.8728564
20
0.6129943
40
0.7616475
50
359.9990643
51
1.4515204
0
ARC
8
DEFAULT_255_2_778
10
0.8864839
20
0.6129964
40
0.7480199
50
271.4804463
51
359.998884
0
ARC
8
DEFAULT_255_2_778
10
0.8865162
20
0.6266292
40
0.7616475
50
269.9990643
51
271.4515204
0
ARC
8
DEFAULT_255_2_778
10
0.8846235
20
0.6016175
40
0.7366381
50
270.0000141
51
270.1462542
0
ARC
8
DEFAULT_255_2_778
10
0.8847293
20
0.6112686
40
0.7462892
50
224.9978984
51
269.9918853
0
ARC
8
DEFAULT_255_2_778
10
0.8848826
20
0.6112455
40
0.7463812
50
180.0110397
51
224.9883204
0
ARC
8
DEFAULT_255_2_778
10
0.8751384
20
0.6111015
40
0.7366369
50
179.8537457
51
179.9999859
0
ARC
8
DEFAULT_255_2_778
10
9.8736931
20
3.6089973
40
0.7476108
50
271.8146192
51
0.0294659
0
ARC
8
DEFAULT_255_2_778
10
9.873315
20
3.6231478
40
0.7617661
50
269.999162
51
271.8093451
0
ARC
8
DEFAULT_255_2_778
10
9.8584676
20
1.166329
40
1.6951177
50
89.4985229
51
97.6842901
0
ARC
8
DEFAULT_255_2_778
10
9.7270661
20
2.0911412
40
0.7610683
50
97.1903688
51
114.0846785
0
ARC
8
DEFAULT_255_2_778
10
9.6093354
20
2.3734031
40
0.4554002
50
115.0542192
51
167.3991733
0
ARC
8
DEFAULT_255_2_778
10
10.2227578
20
2.1909445
40
1.0947466
50
165.0830884
51
176.7767945
0
ARC
8
DEFAULT_255_2_778
10
11.1522296
20
2.1183347
40
2.0269316
50
176.2048085
51
180.1371775
0
ARC
8
DEFAULT_255_2_778
10
8.3777762
20
2.1130137
40
0.7475278
50
271.8161116
51
0.0358813
0
ARC
8
DEFAULT_255_2_778
10
8.3774151
20
2.1272252
40
0.7617435
50
269.9991496
51
271.809378
0
ARC
8
DEFAULT_255_2_778
10
8.3625642
20
-0.3292474
40
1.6947941
50
89.498311
51
97.6868043
0
ARC
8
DEFAULT_255_2_778
10
8.2311475
20
0.5953652
40
0.7609405
50
97.192742
51
114.0911121
0
ARC
8
DEFAULT_255_2_778
10
8.1134712
20
0.877471
40
0.4554381
50
115.0631203
51
167.406896
0
ARC
8
DEFAULT_255_2_778
10
8.7272856
20
0.6949556
40
1.0951753
50
165.0887852
51
176.7785234
0
ARC
8
DEFAULT_255_2_778
10
9.6574911
20
0.6223288
40
2.0280932
50
176.2067573
51
180.1369327
0
ARC
8
DEFAULT_255_2_778
10
6.8817931
20
0.6170973
40
0.7476108
50
271.8146192
51
0.0294659
0
ARC
8
DEFAULT_255_2_778
10
6.881415
20
0.6312478
40
0.7617661
50
269.999162
51
271.8093451
0
ARC
8
DEFAULT_255_2_778
10
6.8823157
20
0.6183987
40
0.7489174
50
181.5465957
51
269.9302372
0
ARC
8
DEFAULT_255_2_778
10
6.8966122
20
0.6184001
40
0.763209
50
180.0689413
51
181.5177392
0
ARC
8
DEFAULT_255_2_778
10
6.8810145
20
0.6178663
40
0.7476108
50
91.8146192
51
180.0294659
0
ARC
8
DEFAULT_255_2_778
10
6.8813927
20
0.6037158
40
0.7617661
50
89.999162
51
91.8093451
0
ARC
8
DEFAULT_255_2_778
10
6.8962424
20
3.0604524
40
1.6950355
50
269.4984182
51
277.6845838
0
ARC
8
DEFAULT_255_2_778
10
7.0276424
20
2.1356757
40
0.7610215
50
277.1907456
51
294.0861802
0
ARC
8
DEFAULT_255_2_778
10
7.1453379
20
1.8534806
40
0.4554292
50
295.0572827
51
347.4027211
0
ARC
8
DEFAULT_255_2_778
10
6.5316376
20
2.0360006
40
1.0950586
50
345.0852638
51
356.777423
0
ARC
8
DEFAULT_255_2_778
10
5.6017917
20
2.1086277
40
2.0276179
50
356.2054491
51
0.1371665
0
ARC
8
DEFAULT_255_2_778
10
8.3768542
20
2.1139216
40
0.7474505
50
92.1706707
51
180.0337138
0
ARC
8
DEFAULT_255_2_778
10
8.3773896
20
2.099393
40
0.761989
50
89.9989305
51
92.1695222
0
ARC
8
DEFAULT_255_2_778
10
8.3922399
20
4.5555584
40
1.6942416
50
269.4982666
51
277.6880557
0
ARC
8
DEFAULT_255_2_778
10
8.5236239
20
3.6313213
40
0.7607641
50
277.194075
51
294.0940875
0
ARC
8
DEFAULT_255_2_778
10
8.6412312
20
3.3493821
40
0.4554425
50
295.0674514
51
347.4083829
0
ARC
8
DEFAULT_255_2_778
10
8.0273779
20
3.5319074
40
1.0952194
50
345.0894345
51
356.7786871
0
ARC
8
DEFAULT_255_2_778
10
7.0972166
20
3.6045348
40
2.0280932
50
356.2067573
51
0.1369328
0
ARC
8
DEFAULT_255_2_778
10
9.8727119
20
3.6099627
40
0.7474083
50
92.1685761
51
180.0445281
0
ARC
8
DEFAULT_255_2_778
10
9.8732892
20
3.5947101
40
0.7626718
50
89.9989045
51
92.1685603
0
ARC
8
DEFAULT_255_2_778
10
9.8725197
20
3.6085913
40
0.748791
50
1.5371953
51
89.9399999
0
ARC
8
DEFAULT_255_2_778
10
9.8592891
20
3.6086618
40
0.762015
50
0.0541342
51
1.505203
0
LINE
8
DEFAULT_255_2_778
10
6.1268038
20
2.1110818
11
6.1268038
21
2.1110818
0
LINE
8
DEFAULT_255_2_778
10
0.1385038
20
0.6129818
11
0.1385038
21
0.6129818
0
LINE
8
DEFAULT_255_2_778
10
10.6213038
20
3.6093818
11
10.6213038
21
3.6093818
0
ENDSEC
0
EOF