0
SECTION
2
HEADER
9
$MEASUREMENT
70
1
0
ENDSEC
0
SECTION
2
TABLES
0
TABLE
2
LTYPE
0
LTYPE
72
65
70
64
2
CONTINUOUS
3
______
73
0
40
0
0
ENDTAB
0
TABLE
2
LAYER
0
LAYER
2
DEFAULT_255_2_778
70
0
62
255
6
CONTINUOUS
0
ENDTAB
0
ENDSEC
0
SECTION
2
ENTITIES
0
LINE
8
DEFAULT_255_2_778
10
22.6139658
20
13.9984463
11
22.6139658
21
13.9087463
0
LINE
8
DEFAULT_255_2_778
10
22.6139658
20
13.9087463
11
22.5281658
21
13.9087463
0
LINE
8
DEFAULT_255_2_778
10
22.5281658
20
13.9087463
11
10.3901658
21
13.9087463
0
LINE
8
DEFAULT_255_2_778
10
10.3901658
20
13.9087463
11
10.3901658
21
13.9984463
0
LINE
8
DEFAULT_255_2_778
10
10.3901658
20
13.9984463
11
22.6136658
21
13.9984463
0
LINE
8
DEFAULT_255_2_778
10
22.6136658
20
13.9984463
11
22.6136658
21
27.7485463
0
LINE
8
DEFAULT_255_2_778
10
22.6136658
20
27.7485463
11
10.3904658
21
27.7485463
0
LINE
8
DEFAULT_255_2_778
10
10.3904658
20
27.7485463
11
10.3904658
21
28.4986463
0
LINE
8
DEFAULT_255_2_778
10
10.3904658
20
28.4986463
11
22.6139658
21
28.4986463
0
LINE
8
DEFAULT_255_2_778
10
22.6139658
20
28.4986463
11
22.6139658
21
42.2487463
0
LINE
8
DEFAULT_255_2_778
10
22.6139658
20
42.2487463
11
10.3904658
21
42.2487463
0
LINE
8
DEFAULT_255_2_778
10
10.3904658
20
42.2487463
11
10.3904658
21
42.9988463
0
LINE
8
DEFAULT_255_2_778
10
22.6139658
20
28.4989463
11
22.6139658
21
27.7488463
0
LINE
8
DEFAULT_255_2_778
10
22.6139658
20
42.2487463
11
22.6139658
21
42.9988463
0
LINE
8
DEFAULT_255_2_778
10
22.5281658
20
13.8854463
11
22.5281658
21
56.7267463
0
LINE
8
DEFAULT_255_2_778
10
22.5281658
20
56.7267463
11
10.2782658
21
56.7267463
0
LINE
8
DEFAULT_255_2_778
10
10.2782658
20
56.7267463
11
10.2782658
21
13.8854463
0
LINE
8
DEFAULT_255_2_778
10
10.2782658
20
13.8854463
11
22.5281658
21
13.8854463
0
LINE
8
DEFAULT_255_2_778
10
10.3904658
20
27.7488463
11
10.3904658
21
13.9986463
0
LINE
8
DEFAULT_255_2_778
10
11.9919658
20
24.1253463
11
10.9965658
21
24.1253463
0
LINE
8
DEFAULT_255_2_778
10
10.9965658
20
24.1253463
11
10.9965658
21
17.7253463
0
LINE
8
DEFAULT_255_2_778
10
10.9965658
20
17.7253463
11
11.9919658
21
17.7253463
0
LINE
8
DEFAULT_255_2_778
10
11.9919658
20
17.7253463
11
11.9919658
21
15.5954463
0
LINE
8
DEFAULT_255_2_778
10
11.9919658
20
15.5954463
11
18.9920658
21
15.5954463
0
LINE
8
DEFAULT_255_2_778
10
18.9920658
20
15.5954463
11
18.9920658
21
17.1903463
0
LINE
8
DEFAULT_255_2_778
10
18.9920658
20
17.1903463
11
20.4919658
21
17.1903463
0
LINE
8
DEFAULT_255_2_778
10
20.4919658
20
17.1903463
11
20.4919658
21
19.2054463
0
LINE
8
DEFAULT_255_2_778
10
20.4919658
20
19.2054463
11
22.2302658
21
19.2054463
0
LINE
8
DEFAULT_255_2_778
10
22.2302658
20
19.2054463
11
22.2302658
21
22.6455463
0
LINE
8
DEFAULT_255_2_778
10
22.2302658
20
22.6455463
11
20.4919658
21
22.6455463
0
LINE
8
DEFAULT_255_2_778
10
20.4919658
20
22.6455463
11
20.4919658
21
24.6606463
0
LINE
8
DEFAULT_255_2_778
10
20.4919658
20
24.6606463
11
18.9920658
21
24.6606463
0
LINE
8
DEFAULT_255_2_778
10
18.9920658
20
24.6606463
11
18.9920658
21
26.2555463
0
LINE
8
DEFAULT_255_2_778
10
18.9920658
20
26.2555463
11
11.9916658
21
26.2555463
0
LINE
8
DEFAULT_255_2_778
10
11.9916658
20
26.2555463
11
11.9919658
21
24.1253463
0
LINE
8
DEFAULT_255_2_778
10
10.3904658
20
42.2487463
11
10.3904658
21
28.4986463
0
LINE
8
DEFAULT_255_2_778
10
11.9919658
20
38.6253463
11
10.9965658
21
38.6253463
0
LINE
8
DEFAULT_255_2_778
10
10.9965658
20
38.6253463
11
10.9965658
21
32.2253463
0
LINE
8
DEFAULT_255_2_778
10
10.9965658
20
32.2253463
11
11.9919658
21
32.2253463
0
LINE
8
DEFAULT_255_2_778
10
11.9919658
20
32.2253463
11
11.9919658
21
30.0954463
0
LINE
8
DEFAULT_255_2_778
10
11.9919658
20
30.0954463
11
18.9920658
21
30.0954463
0
LINE
8
DEFAULT_255_2_778
10
18.9920658
20
30.0954463
11
18.9920658
21
31.6903463
0
LINE
8
DEFAULT_255_2_778
10
18.9920658
20
31.6903463
11
20.4919658
21
31.6903463
0
LINE
8
DEFAULT_255_2_778
10
20.4919658
20
31.6903463
11
20.4919658
21
33.7053463
0
LINE
8
DEFAULT_255_2_778
10
20.4919658
20
33.7053463
11
22.2302658
21
33.7053463
0
LINE
8
DEFAULT_255_2_778
10
22.2302658
20
33.7053463
11
22.2302658
21
37.1455463
0
LINE
8
DEFAULT_255_2_778
10
22.2302658
20
37.1455463
11
20.4919658
21
37.1455463
0
LINE
8
DEFAULT_255_2_778
10
20.4919658
20
37.1455463
11
20.4919658
21
39.1605463
0
LINE
8
DEFAULT_255_2_778
10
20.4919658
20
39.1605463
11
18.9920658
21
39.1605463
0
LINE
8
DEFAULT_255_2_778
10
18.9920658
20
39.1605463
11
18.9920658
21
40.7554463
0
LINE
8
DEFAULT_255_2_778
10
18.9920658
20
40.7554463
11
11.9916658
21
40.7554463
0
LINE
8
DEFAULT_255_2_778
10
11.9916658
20
40.7554463
11
11.9919658
21
38.6253463
0
LINE
8
DEFAULT_255_2_778
10
11.9919658
20
53.1252463
11
10.9965658
21
53.1252463
0
LINE
8
DEFAULT_255_2_778
10
10.9965658
20
53.1252463
11
10.9965658
21
46.7252463
0
LINE
8
DEFAULT_255_2_778
10
10.9965658
20
46.7252463
11
11.9919658
21
46.7252463
0
LINE
8
DEFAULT_255_2_778
10
11.9919658
20
46.7252463
11
11.9919658
21
44.5953463
0
LINE
8
DEFAULT_255_2_778
10
11.9919658
20
44.5953463
11
18.9920658
21
44.5953463
0
LINE
8
DEFAULT_255_2_778
10
18.9920658
20
44.5953463
11
18.9920658
21
46.1902463
0
LINE
8
DEFAULT_255_2_778
10
18.9920658
20
46.1902463
11
20.4919658
21
46.1902463
0
LINE
8
DEFAULT_255_2_778
10
20.4919658
20
46.1902463
11
20.4919658
21
48.2053463
0
LINE
8
DEFAULT_255_2_778
10
20.4919658
20
48.2053463
11
22.2302658
21
48.2053463
0
LINE
8
DEFAULT_255_2_778
10
22.2302658
20
48.2053463
11
22.2302658
21
51.6454463
0
LINE
8
DEFAULT_255_2_778
10
22.2302658
20
51.6454463
11
20.4919658
21
51.6454463
0
LINE
8
DEFAULT_255_2_778
10
20.4919658
20
51.6454463
11
20.4919658
21
53.6605463
0
LINE
8
DEFAULT_255_2_778
10
20.4919658
20
53.6605463
11
18.9920658
21
53.6605463
0
LINE
8
DEFAULT_255_2_778
10
18.9920658
20
53.6605463
11
18.9920658
21
55.2554463
0
LINE
8
DEFAULT_255_2_778
10
18.9920658
20
55.2554463
11
11.9916658
21
55.2554463
0
LINE
8
DEFAULT_255_2_778
10
11.9916658
20
55.2554463
11
11.9919658
21
53.1252463
0
LINE
8
DEFAULT_255_2_778
10
10.3904658
20
56.7487463
11
10.3904658
21
42.9986463
0
LINE
8
DEFAULT_255_2_778
10
10.3904658
20
42.9986463
11
22.6139658
21
42.9986463
0
LINE
8
DEFAULT_255_2_778
10
22.6139658
20
42.9986463
11
22.6139658
21
56.7487463
0
LINE
8
DEFAULT_255_2_778
10
22.6139658
20
56.7487463
11
10.3904658
21
56.7487463
0
LINE
8
DEFAULT_255_2_778
10
9.453299
20
79.3098562
11
9.453299
21
81.8098562
0
LINE
8
DEFAULT_255_2_778
10
13.703299
20
81.8098562
11
9.453299
21
81.8098562
0
LINE
8
DEFAULT_255_2_778
10
9.453299
20
81.8098562
11
9.953399
21
81.2624562
0
LINE
8
DEFAULT_255_2_778
10
9.953399
20
81.2624562
11
9.953399
21
79.7598562
0
LINE
8
DEFAULT_255_2_778
10
13.703299
20
79.3095562
11
9.453299
21
79.3095562
0
LINE
8
DEFAULT_255_2_778
10
9.453299
20
79.3095562
11
9.950699
21
79.7598562
0
LINE
8
DEFAULT_255_2_778
10
9.950699
20
79.7598562
11
13.213299
21
79.7572562
0
LINE
8
DEFAULT_255_2_778
10
13.213299
20
79.7572562
11
13.703299
21
79.3095562
0
LINE
8
DEFAULT_255_2_778
10
13.703299
20
79.3095562
11
13.703299
21
81.8095562
0
LINE
8
DEFAULT_255_2_778
10
13.703299
20
81.8095562
11
13.203199
21
81.2621562
0
LINE
8
DEFAULT_255_2_778
10
13.203199
20
81.2621562
11
13.203199
21
79.7595562
0
LINE
8
DEFAULT_255_2_778
10
13.203199
20
81.2595562
11
9.953399
21
81.2595562
0
LINE
8
DEFAULT_255_2_778
10
9.453299
20
76.3096562
11
9.453299
21
78.8096562
0
LINE
8
DEFAULT_255_2_778
10
13.703299
20
78.8096562
11
9.453299
21
78.8096562
0
LINE
8
DEFAULT_255_2_778
10
9.453299
20
78.8096562
11
9.953399
21
78.2622562
0
LINE
8
DEFAULT_255_2_778
10
9.953399
20
78.2622562
11
9.953399
21
76.7596562
0
LINE
8
DEFAULT_255_2_778
10
13.703299
20
76.3093562
11
9.453299
21
76.3093562
0
LINE
8
DEFAULT_255_2_778
10
9.453299
20
76.3093562
11
9.950699
21
76.7596562
0
LINE
8
DEFAULT_255_2_778
10
9.950699
20
76.7596562
11
13.213299
21
76.7570562
0
LINE
8
DEFAULT_255_2_778
10
13.213299
20
76.7570562
11
13.703299
21
76.3093562
0
LINE
8
DEFAULT_255_2_778
10
13.703299
20
76.3093562
11
13.703299
21
78.8093562
0
LINE
8
DEFAULT_255_2_778
10
13.703299
20
78.8093562
11
13.203199
21
78.2619562
0
LINE
8
DEFAULT_255_2_778
10
13.203199
20
78.2619562
11
13.203199
21
76.7593562
0
LINE
8
DEFAULT_255_2_778
10
13.203199
20
78.2593562
11
9.953399
21
78.2593562
0
LINE
8
DEFAULT_255_2_778
10
9.4532908
20
70.259928
11
9.4532908
21
72.760028
0
LINE
8
DEFAULT_255_2_778
10
13.7032908
20
72.760028
11
9.4532908
21
72.760028
0
LINE
8
DEFAULT_255_2_778
10
9.4532908
20
72.760028
11
9.9504908
21
72.262828
0
LINE
8
DEFAULT_255_2_778
10
9.9504908
20
72.262828
11
13.2031908
21
72.259928
0
LINE
8
DEFAULT_255_2_778
10
13.2031908
20
72.259928
11
13.7032908
21
72.760028
0
LINE
8
DEFAULT_255_2_778
10
13.7032908
20
72.760028
11
13.7032908
21
70.259928
0
LINE
8
DEFAULT_255_2_778
10
13.7032908
20
70.259928
11
13.2039908
21
70.759228
0
LINE
8
DEFAULT_255_2_778
10
13.2039908
20
70.759228
11
13.2031908
21
72.259928
0
LINE
8
DEFAULT_255_2_778
10
13.2031908
20
72.259928
11
13.2031908
21
72.259928
0
LINE
8
DEFAULT_255_2_778
10
13.7032908
20
70.259928
11
9.4532908
21
70.259928
0
LINE
8
DEFAULT_255_2_778
10
9.4532908
20
70.259928
11
9.9533908
21
70.760028
0
LINE
8
DEFAULT_255_2_778
10
9.9533908
20
70.760028
11
13.2031908
21
70.760028
0
LINE
8
DEFAULT_255_2_778
10
9.9533908
20
70.760028
11
9.9533908
21
72.259928
0
LINE
8
DEFAULT_255_2_778
10
13.7032908
20
73.260128
11
13.7032908
21
74.555228
0
LINE
8
DEFAULT_255_2_778
10
9.9533908
20
74.554928
11
9.9533908
21
74.556828
0
LINE
8
DEFAULT_255_2_778
10
9.9533908
20
74.556828
11
9.9533908
21
75.262428
0
LINE
8
DEFAULT_255_2_778
10
9.9533908
20
75.262428
11
9.4532908
21
75.809628
0
LINE
8
DEFAULT_255_2_778
10
9.4532908
20
75.809628
11
9.4532908
21
74.554928
0
LINE
8
DEFAULT_255_2_778
10
9.4532908
20
74.554928
11
9.9533908
21
74.556528
0
LINE
8
DEFAULT_255_2_778
10
9.9533908
20
74.556528
11
9.9533908
21
73.759628
0
LINE
8
DEFAULT_255_2_778
10
9.9533908
20
73.759628
11
9.4532908
21
73.259528
0
LINE
8
DEFAULT_255_2_778
10
9.4532908
20
73.259528
11
9.4532908
21
74.554928
0
LINE
8
DEFAULT_255_2_778
10
13.7032908
20
75.809628
11
13.7032908
21
74.554928
0
LINE
8
DEFAULT_255_2_778
10
13.7032908
20
74.554928
11
13.2031908
21
74.554928
0
LINE
8
DEFAULT_255_2_778
10
13.2031908
20
74.554928
11
13.2031908
21
73.759928
0
LINE
8
DEFAULT_255_2_778
10
13.2031908
20
73.759928
11
13.2031908
21
74.554928
0
LINE
8
DEFAULT_255_2_778
10
13.2031908
20
74.554928
11
13.2039908
21
75.265628
0
LINE
8
DEFAULT_255_2_778
10
13.2039908
20
75.265628
11
13.7032908
21
75.809628
0
LINE
8
DEFAULT_255_2_778
10
13.7032908
20
75.809628
11
9.4532908
21
75.809628
0
LINE
8
DEFAULT_255_2_778
10
9.4532908
20
73.259828
11
13.7032908
21
73.259828
0
LINE
8
DEFAULT_255_2_778
10
13.7032908
20
73.259828
11
13.2060908
21
73.756928
0
LINE
8
DEFAULT_255_2_778
10
13.2060908
20
73.756928
11
9.9533908
21
73.759928
0
LINE
8
DEFAULT_255_2_778
10
9.9533908
20
73.759928
11
9.9533908
21
73.759928
0
LINE
8
DEFAULT_255_2_778
10
13.2031908
20
75.259828
11
9.9533908
21
75.259828
0
LINE
8
DEFAULT_255_2_778
10
17.2034908
20
79.760128
11
17.2026908
21
81.265828
0
LINE
8
DEFAULT_255_2_778
10
17.2026908
20
81.265828
11
16.7033908
21
81.809828
0
LINE
8
DEFAULT_255_2_778
10
16.7033908
20
81.809828
11
16.7033908
21
79.309828
0
LINE
8
DEFAULT_255_2_778
10
20.9533908
20
79.309828
11
20.9533908
21
81.809828
0
LINE
8
DEFAULT_255_2_778
10
20.9533908
20
81.809828
11
20.4533908
21
81.262428
0
LINE
8
DEFAULT_255_2_778
10
20.4533908
20
81.262428
11
20.4533908
21
79.759828
0
LINE
8
DEFAULT_255_2_778
10
20.4533908
20
79.759828
11
20.7419908
21
79.515128
0
LINE
8
DEFAULT_255_2_778
10
20.7419908
20
79.515128
11
20.9533908
21
79.309528
0
LINE
8
DEFAULT_255_2_778
10
20.9533908
20
79.309528
11
16.7033908
21
79.309528
0
LINE
8
DEFAULT_255_2_778
10
16.7033908
20
79.309528
11
17.2007908
21
79.759828
0
LINE
8
DEFAULT_255_2_778
10
17.2007908
20
79.759828
11
20.4556908
21
79.759828
0
LINE
8
DEFAULT_255_2_778
10
16.7030908
20
81.809528
11
20.9530908
21
81.809528
0
LINE
8
DEFAULT_255_2_778
10
20.4530908
20
81.259728
11
17.2034908
21
81.259728
0
LINE
8
DEFAULT_255_2_778
10
16.7033908
20
76.309628
11
16.7033908
21
78.809728
0
LINE
8
DEFAULT_255_2_778
10
20.9533908
20
78.809728
11
16.7033908
21
78.809728
0
LINE
8
DEFAULT_255_2_778
10
16.7033908
20
78.809728
11
17.2034908
21
78.262328
0
LINE
8
DEFAULT_255_2_778
10
17.2034908
20
78.262328
11
17.2034908
21
76.759728
0
LINE
8
DEFAULT_255_2_778
10
20.9533908
20
76.309428
11
16.7033908
21
76.309428
0
LINE
8
DEFAULT_255_2_778
10
16.7033908
20
76.309428
11
17.2007908
21
76.759728
0
LINE
8
DEFAULT_255_2_778
10
17.2007908
20
76.759728
11
20.4633908
21
76.757128
0
LINE
8
DEFAULT_255_2_778
10
20.4633908
20
76.757128
11
20.9533908
21
76.309428
0
LINE
8
DEFAULT_255_2_778
10
20.9533908
20
76.309428
11
20.9533908
21
78.809428
0
LINE
8
DEFAULT_255_2_778
10
20.9533908
20
78.809428
11
20.4533908
21
78.262028
0
LINE
8
DEFAULT_255_2_778
10
20.4533908
20
78.262028
11
20.4533908
21
76.759428
0
LINE
8
DEFAULT_255_2_778
10
20.4533908
20
78.259428
11
17.2034908
21
78.259428
0
LINE
8
DEFAULT_255_2_778
10
16.7033908
20
70.259928
11
16.7033908
21
72.760028
0
LINE
8
DEFAULT_255_2_778
10
17.2034908
20
70.760028
11
17.2034908
21
72.259928
0
LINE
8
DEFAULT_255_2_778
10
17.2034908
20
72.259928
11
17.2034908
21
72.259928
0
LINE
8
DEFAULT_255_2_778
10
20.9533908
20
70.259928
11
16.7033908
21
70.259928
0
LINE
8
DEFAULT_255_2_778
10
16.7033908
20
70.259928
11
17.2034908
21
70.760028
0
LINE
8
DEFAULT_255_2_778
10
17.2034908
20
70.760028
11
20.4533908
21
70.760028
0
LINE
8
DEFAULT_255_2_778
10
20.9533908
20
72.760028
11
16.7033908
21
72.760028
0
LINE
8
DEFAULT_255_2_778
10
16.7033908
20
72.760028
11
17.2005908
21
72.262828
0
LINE
8
DEFAULT_255_2_778
10
17.2005908
20
72.262828
11
20.4533908
21
72.259928
0
LINE
8
DEFAULT_255_2_778
10
20.4533908
20
72.259928
11
20.9533908
21
72.760028
0
LINE
8
DEFAULT_255_2_778
10
20.9533908
20
72.760028
11
20.9533908
21
70.259928
0
LINE
8
DEFAULT_255_2_778
10
20.9533908
20
70.259928
11
20.4540908
21
70.759228
0
LINE
8
DEFAULT_255_2_778
10
20.4540908
20
70.759228
11
20.4533908
21
72.259928
0
LINE
8
DEFAULT_255_2_778
10
16.7033908
20
74.555228
11
16.7033908
21
73.260128
0
LINE
8
DEFAULT_255_2_778
10
16.7033908
20
73.260128
11
17.2026908
21
73.759328
0
LINE
8
DEFAULT_255_2_778
10
17.2026908
20
73.759328
11
17.2034908
21
74.555228
0
LINE
8
DEFAULT_255_2_778
10
17.2034908
20
74.555228
11
16.7033908
21
74.555228
0
LINE
8
DEFAULT_255_2_778
10
16.7033908
20
74.555228
11
16.7033908
21
75.809828
0
LINE
8
DEFAULT_255_2_778
10
16.7033908
20
75.809828
11
17.2026908
21
75.265928
0
LINE
8
DEFAULT_255_2_778
10
17.2026908
20
75.265928
11
17.2034908
21
74.555228
0
LINE
8
DEFAULT_255_2_778
10
20.9533908
20
73.260128
11
20.9533908
21
74.555228
0
LINE
8
DEFAULT_255_2_778
10
20.9533908
20
74.555228
11
20.9570908
21
74.555228
0
LINE
8
DEFAULT_255_2_778
10
20.9533908
20
75.809828
11
20.9533908
21
74.555228
0
LINE
8
DEFAULT_255_2_778
10
20.9533908
20
74.555228
11
20.4533908
21
74.555228
0
LINE
8
DEFAULT_255_2_778
10
20.4533908
20
74.555228
11
20.4533908
21
73.760128
0
LINE
8
DEFAULT_255_2_778
10
20.4533908
20
73.760128
11
20.4533908
21
74.555228
0
LINE
8
DEFAULT_255_2_778
10
20.4533908
20
74.555228
11
20.4540908
21
75.265928
0
LINE
8
DEFAULT_255_2_778
10
20.4540908
20
75.265928
11
20.9533908
21
75.809828
0
LINE
8
DEFAULT_255_2_778
10
20.9533908
20
75.809828
11
16.7033908
21
75.809828
0
LINE
8
DEFAULT_255_2_778
10
16.7033908
20
73.260128
11
20.9533908
21
73.260128
0
LINE
8
DEFAULT_255_2_778
10
20.9533908
20
73.260128
11
20.4562908
21
73.757228
0
LINE
8
DEFAULT_255_2_778
10
20.4562908
20
73.757228
11
17.2034908
21
73.760128
0
LINE
8
DEFAULT_255_2_778
10
17.2034908
20
73.760128
11
17.2034908
21
73.760128
0
LINE
8
DEFAULT_255_2_778
10
20.4533908
20
75.260028
11
17.2034908
21
75.260028
0
ARC
8
DEFAULT_255_2_778
10
2.2024773
20
87.7612124
40
0.4989461
50
89.9272462
51
103.6051035
0
ARC
8
DEFAULT_255_2_778
10
2.2052336
20
87.7555009
40
0.5051475
50
103.7565734
51
118.7309125
0
ARC
8
DEFAULT_255_2_778
10
2.2070155
20
87.7553572
40
0.5062175
50
121.4610761
51
135.9287212
0
ARC
8
DEFAULT_255_2_778
10
2.2008372
20
87.7617928
40
0.4973023
50
135.9663408
51
149.2368458
0
ARC
8
DEFAULT_255_2_778
10
2.2104311
20
87.7571774
40
0.5079831
50
151.3340304
51
165.8269035
0
ARC
8
DEFAULT_255_2_778
10
2.2004224
20
87.7611317
40
0.4973127
50
165.9862752
51
180.1236879
0
ARC
8
DEFAULT_255_2_778
10
28.7035994
20
87.7598467
40
0.5000114
50
0.0242292
51
89.9986937
0
ARC
8
DEFAULT_255_2_778
10
2.1049806
20
69.90141
40
16.1510411
50
91.4247146
51
92.9923935
0
ARC
8
DEFAULT_255_2_778
10
1.8627895
20
74.4961017
40
11.5499714
50
92.9824602
51
94.6331496
0
ARC
8
DEFAULT_255_2_778
10
1.5088262
20
78.8150859
40
7.2165098
50
94.601883
51
96.7328025
0
ARC
8
DEFAULT_255_2_778
10
1.1090263
20
82.1739909
40
3.833898
50
96.6842771
51
99.5980887
0
ARC
8
DEFAULT_255_2_778
10
0.7266979
20
84.3948116
40
1.5804315
50
99.3557015
51
104.8520951
0
ARC
8
DEFAULT_255_2_778
10
0.4164033
20
85.5362363
40
0.3976727
50
103.7927007
51
117.5826003
0
ARC
8
DEFAULT_255_2_778
10
0.2484713
20
85.8454875
40
0.0461604
50
110.5470345
51
168.6674568
0
ARC
8
DEFAULT_255_2_778
10
28.7100122
20
87.762434
40
1.9933
50
359.9317062
51
24.3119945
0
ARC
8
DEFAULT_255_2_778
10
28.7015269
20
87.7575911
40
2.0030269
50
24.3383105
51
80.196385
0
ARC
8
DEFAULT_255_2_778
10
28.7039273
20
87.7469484
40
2.0131097
50
80.3152812
51
90.0175439
0
ARC
8
DEFAULT_255_2_778
10
28.8037923
20
69.9193944
40
16.1332064
50
87.0124303
51
88.5817075
0
ARC
8
DEFAULT_255_2_778
10
29.0450625
20
74.5037992
40
11.5424577
50
85.3706744
51
87.0223896
0
ARC
8
DEFAULT_255_2_778
10
29.3982863
20
78.8174216
40
7.2144002
50
83.270256
51
85.4018298
0
ARC
8
DEFAULT_255_2_778
10
29.7976653
20
82.1743557
40
3.8337952
50
80.4046498
51
83.3186865
0
ARC
8
DEFAULT_255_2_778
10
30.1798545
20
84.3950087
40
1.5805177
50
75.1504362
51
80.6469666
0
ARC
8
DEFAULT_255_2_778
10
30.4901018
20
85.5364549
40
0.3977506
50
62.4212237
51
76.2097685
0
ARC
8
DEFAULT_255_2_778
10
30.6580505
20
85.8457853
40
0.0461607
50
11.3351618
51
69.4587438
0
ARC
8
DEFAULT_255_2_778
10
2.1962746
20
87.7626178
40
1.9930654
50
155.6907545
51
180.0735838
0
ARC
8
DEFAULT_255_2_778
10
2.2048538
20
87.7577071
40
2.0029057
50
99.8030209
51
155.6637615
0
ARC
8
DEFAULT_255_2_778
10
2.2024943
20
87.7469527
40
2.0131055
50
89.9824512
51
99.684731
0
LINE
8
DEFAULT_255_2_778
10
9.4533108
20
88.8686581
11
9.4533108
21
89.7584581
0
LINE
8
DEFAULT_255_2_778
10
17.9533108
20
86.0537581
11
17.9533108
21
84.8739581
0
LINE
8
DEFAULT_255_2_778
10
17.9533108
20
84.8739581
11
9.4533108
21
84.8739581
0
LINE
8
DEFAULT_255_2_778
10
9.4533108
20
84.8739581
11
9.4533108
21
86.0537581
0
LINE
8
DEFAULT_255_2_778
10
17.9533108
20
0.6467581
11
9.4533108
21
0.6467581
0
LINE
8
DEFAULT_255_2_778
10
18.2033108
20
4.4036581
11
22.2030108
21
4.4036581
0
LINE
8
DEFAULT_255_2_778
10
17.9533108
20
4.2157581
11
13.2029108
21
4.2157581
0
LINE
8
DEFAULT_255_2_778
10
13.2029108
20
4.6412581
11
13.2029108
21
4.2157581
0
LINE
8
DEFAULT_255_2_778
10
13.2029108
20
4.6412581
11
13.2029108
21
4.7584581
0
LINE
8
DEFAULT_255_2_778
10
13.2029108
20
4.7584581
11
12.7243108
21
4.7584581
0
LINE
8
DEFAULT_255_2_778
10
12.7243108
20
4.7584581
11
12.7240108
21
4.6412581
0
LINE
8
DEFAULT_255_2_778
10
12.7240108
20
4.6412581
11
12.7235108
21
4.2157581
0
LINE
8
DEFAULT_255_2_778
10
12.7235108
20
4.2157581
11
12.7235108
21
4.1115581
0
LINE
8
DEFAULT_255_2_778
10
12.7235108
20
4.1115581
11
9.4533108
21
4.1115581
0
LINE
8
DEFAULT_255_2_778
10
9.4533108
20
88.2585581
11
9.4533108
21
88.8686581
0
LINE
8
DEFAULT_255_2_778
10
9.4533108
20
88.8686581
11
17.9533108
21
88.8686581
0
LINE
8
DEFAULT_255_2_778
10
17.9533108
20
88.2585581
11
17.9533108
21
88.8686581
0
LINE
8
DEFAULT_255_2_778
10
17.9533108
20
88.8686581
11
17.9533108
21
89.7584581
0
LINE
8
DEFAULT_255_2_778
10
17.9533108
20
89.7584581
11
18.2033108
21
89.7584581
0
LINE
8
DEFAULT_255_2_778
10
17.9533108
20
88.2585581
11
17.9533108
21
86.0540581
0
LINE
8
DEFAULT_255_2_778
10
17.9533108
20
86.0540581
11
9.4533108
21
86.0540581
0
LINE
8
DEFAULT_255_2_778
10
9.4533108
20
86.0540581
11
9.4533108
21
88.2585581
0
LINE
8
DEFAULT_255_2_778
10
1.9624108
20
88.1984581
11
1.9428108
21
88.1871581
0
LINE
8
DEFAULT_255_2_778
10
1.7735108
20
88.0161581
11
1.7647108
21
88.0008581
0
LINE
8
DEFAULT_255_2_778
10
1.7031108
20
87.7600581
11
1.7031108
21
86.0476581
0
LINE
8
DEFAULT_255_2_778
10
1.7031108
20
87.7584581
11
1.7203108
21
87.8873581
0
LINE
8
DEFAULT_255_2_778
10
1.7203108
20
87.8873581
11
1.7700108
21
88.0079581
0
LINE
8
DEFAULT_255_2_778
10
1.7700108
20
88.0079581
11
1.8494108
21
88.1119581
0
LINE
8
DEFAULT_255_2_778
10
1.8494108
20
88.1119581
11
1.9531108
21
88.1913581
0
LINE
8
DEFAULT_255_2_778
10
1.9531108
20
88.1913581
11
2.0735108
21
88.2410581
0
LINE
8
DEFAULT_255_2_778
10
2.0735108
20
88.2410581
11
2.2031108
21
88.2598581
0
LINE
8
DEFAULT_255_2_778
10
25.9863108
20
36.1766581
11
25.9863108
21
43.0513581
0
LINE
8
DEFAULT_255_2_778
10
25.9863108
20
43.0513581
11
24.4864108
21
43.0513581
0
LINE
8
DEFAULT_255_2_778
10
24.4864108
20
43.0513581
11
24.4864108
21
44.4178581
0
LINE
8
DEFAULT_255_2_778
10
24.4864108
20
44.4178581
11
25.9863108
21
44.4178581
0
LINE
8
DEFAULT_255_2_778
10
22.8391108
20
4.4036581
11
22.8375108
21
5.0555581
0
LINE
8
DEFAULT_255_2_778
10
22.8375108
20
5.0555581
11
22.8330108
21
5.0796581
0
LINE
8
DEFAULT_255_2_778
10
22.8330108
20
5.0796581
11
22.8213108
21
5.1156581
0
LINE
8
DEFAULT_255_2_778
10
22.8213108
20
5.1156581
11
22.7965108
21
5.1616581
0
LINE
8
DEFAULT_255_2_778
10
22.7965108
20
5.1616581
11
22.7417108
21
5.2195581
0
LINE
8
DEFAULT_255_2_778
10
22.7417108
20
5.2195581
11
22.6491108
21
5.2637581
0
LINE
8
DEFAULT_255_2_778
10
22.6491108
20
5.2637581
11
22.5901108
21
5.2709581
0
LINE
8
DEFAULT_255_2_778
10
22.5901108
20
5.2709581
11
12.9735108
21
5.2709581
0
LINE
8
DEFAULT_255_2_778
10
12.9735108
20
5.2709581
11
12.8667108
21
5.2468581
0
LINE
8
DEFAULT_255_2_778
10
12.8667108
20
5.2468581
11
12.7920108
21
5.1928581
0
LINE
8
DEFAULT_255_2_778
10
12.7920108
20
5.1928581
11
12.7534108
21
5.1394581
0
LINE
8
DEFAULT_255_2_778
10
12.7534108
20
5.1394581
11
12.7338108
21
5.0920581
0
LINE
8
DEFAULT_255_2_778
10
12.7338108
20
5.0920581
11
12.7280108
21
5.0679581
0
LINE
8
DEFAULT_255_2_778
10
12.7280108
20
5.0679581
11
12.7246108
21
5.0441581
0
LINE
8
DEFAULT_255_2_778
10
12.7246108
20
5.0441581
11
12.7243108
21
4.7589581
0
LINE
8
DEFAULT_255_2_778
10
9.4533108
20
4.2162581
11
9.4533108
21
4.6417581
0
LINE
8
DEFAULT_255_2_778
10
9.4533108
20
4.6417581
11
12.7243108
21
4.6417581
0
LINE
8
DEFAULT_255_2_778
10
12.7238108
20
4.2162581
11
13.2032108
21
4.2162581
0
LINE
8
DEFAULT_255_2_778
10
13.2032108
20
4.2162581
11
13.2032108
21
3.6119581
0
LINE
8
DEFAULT_255_2_778
10
13.2032108
20
3.6119581
11
9.4533108
21
3.6119581
0
LINE
8
DEFAULT_255_2_778
10
9.2032108
20
4.4041581
11
9.2032108
21
4.7589581
0
LINE
8
DEFAULT_255_2_778
10
9.2032108
20
4.7589581
11
12.7243108
21
4.7589581
0
LINE
8
DEFAULT_255_2_778
10
9.4533108
20
3.6119581
11
9.4533108
21
4.1120581
0
LINE
8
DEFAULT_255_2_778
10
9.2032108
20
4.1120581
11
9.4533108
21
4.1120581
0
LINE
8
DEFAULT_255_2_778
10
9.4533108
20
4.1120581
11
9.4533108
21
4.2162581
0
LINE
8
DEFAULT_255_2_778
10
9.4533108
20
4.2162581
11
12.7238108
21
4.2162581
0
LINE
8
DEFAULT_255_2_778
10
24.4864108
20
74.4803581
11
25.9863108
21
74.4803581
0
LINE
8
DEFAULT_255_2_778
10
24.4864108
20
85.4179581
11
24.4864108
21
84.3747581
0
LINE
8
DEFAULT_255_2_778
10
27.1018108
20
85.9042581
11
27.1018108
21
85.4042581
0
LINE
8
DEFAULT_255_2_778
10
24.4864108
20
84.3747581
11
24.4864108
21
85.4042581
0
LINE
8
DEFAULT_255_2_778
10
24.4864108
20
85.4042581
11
25.9863108
21
85.4042581
0
LINE
8
DEFAULT_255_2_778
10
25.9863108
20
85.4042581
11
26.0810108
21
85.4042581
0
LINE
8
DEFAULT_255_2_778
10
25.9863108
20
74.4800581
11
28.7033108
21
74.4800581
0
LINE
8
DEFAULT_255_2_778
10
28.7033108
20
74.4800581
11
29.2033108
21
74.4573581
0
LINE
8
DEFAULT_255_2_778
10
29.2033108
20
4.1112581
11
29.2033108
21
3.6111581
0
LINE
8
DEFAULT_255_2_778
10
29.2033108
20
1.7583581
11
29.2033108
21
1.7583581
0
LINE
8
DEFAULT_255_2_778
10
29.2033108
20
63.2583581
11
29.2033108
21
14.7760581
0
LINE
8
DEFAULT_255_2_778
10
1.7031108
20
6.7584581
11
1.7031108
21
4.4639581
0
LINE
8
DEFAULT_255_2_778
10
1.7031108
20
56.9310581
11
1.7031108
21
57.2742581
0
LINE
8
DEFAULT_255_2_778
10
23.4018108
20
85.9045581
11
23.4018108
21
85.4044581
0
LINE
8
DEFAULT_255_2_778
10
23.4018108
20
85.4044581
11
18.8401108
21
85.4044581
0
LINE
8
DEFAULT_255_2_778
10
18.8401108
20
85.4044581
11
18.8378108
21
84.4604581
0
LINE
8
DEFAULT_255_2_778
10
18.8378108
20
84.4604581
11
18.8333108
21
84.4363581
0
LINE
8
DEFAULT_255_2_778
10
18.8333108
20
84.4363581
11
18.8216108
21
84.4003581
0
LINE
8
DEFAULT_255_2_778
10
18.8216108
20
84.4003581
11
18.7968108
21
84.3543581
0
LINE
8
DEFAULT_255_2_778
10
18.7968108
20
84.3543581
11
18.7420108
21
84.2966581
0
LINE
8
DEFAULT_255_2_778
10
18.7420108
20
84.2966581
11
18.6494108
21
84.2524581
0
LINE
8
DEFAULT_255_2_778
10
18.6494108
20
84.2524581
11
8.9738108
21
84.2453581
0
LINE
8
DEFAULT_255_2_778
10
8.9738108
20
84.2453581
11
8.9148108
21
84.2524581
0
LINE
8
DEFAULT_255_2_778
10
8.9148108
20
84.2524581
11
8.8222108
21
84.2966581
0
LINE
8
DEFAULT_255_2_778
10
8.8222108
20
84.2966581
11
8.7675108
21
84.3543581
0
LINE
8
DEFAULT_255_2_778
10
8.7675108
20
84.3543581
11
8.7429108
21
84.4003581
0
LINE
8
DEFAULT_255_2_778
10
8.7429108
20
84.4003581
11
8.7312108
21
84.4363581
0
LINE
8
DEFAULT_255_2_778
10
8.7312108
20
84.4363581
11
8.7267108
21
84.4604581
0
LINE
8
DEFAULT_255_2_778
10
8.7267108
20
84.4604581
11
8.7243108
21
85.4044581
0
LINE
8
DEFAULT_255_2_778
10
8.7243108
20
85.4044581
11
2.2031108
21
85.4044581
0
LINE
8
DEFAULT_255_2_778
10
24.4861108
20
4.1115581
11
24.4861108
21
3.6114581
0
LINE
8
DEFAULT_255_2_778
10
26.0807108
20
4.2305581
11
26.0807108
21
4.1112581
0
LINE
8
DEFAULT_255_2_778
10
26.0807108
20
4.1112581
11
26.0807108
21
3.6111581
0
LINE
8
DEFAULT_255_2_778
10
26.0807108
20
3.6111581
11
24.4861108
21
3.6111581
0
LINE
8
DEFAULT_255_2_778
10
24.4861108
20
3.6111581
11
24.4861108
21
3.2217581
0
LINE
8
DEFAULT_255_2_778
10
24.4861108
20
3.2217581
11
26.0807108
21
3.2217581
0
LINE
8
DEFAULT_255_2_778
10
26.0807108
20
3.2217581
11
26.0807108
21
3.6111581
0
LINE
8
DEFAULT_255_2_778
10
25.9860108
20
4.4033581
11
26.0807108
21
4.4033581
0
LINE
8
DEFAULT_255_2_778
10
27.1012108
20
4.1112581
11
27.1012108
21
3.6111581
0
LINE
8
DEFAULT_255_2_778
10
1.7031108
20
74.4576581
11
1.7052108
21
70.2584581
0
LINE
8
DEFAULT_255_2_778
10
24.4864108
20
83.1012581
11
24.4864108
21
84.3749581
0
LINE
8
DEFAULT_255_2_778
10
24.4864108
20
84.3749581
11
23.4018108
21
84.3749581
0
LINE
8
DEFAULT_255_2_778
10
23.4018108
20
84.3749581
11
23.4018108
21
85.4044581
0
LINE
8
DEFAULT_255_2_778
10
25.9863108
20
83.1012581
11
25.9863108
21
85.4179581
0
LINE
8
DEFAULT_255_2_778
10
25.9863108
20
85.4179581
11
24.4864108
21
85.4179581
0
LINE
8
DEFAULT_255_2_778
10
24.4864108
20
85.4179581
11
24.4864108
21
85.9042581
0
LINE
8
DEFAULT_255_2_778
10
25.9863108
20
5.9014581
11
25.9863108
21
4.4033581
0
LINE
8
DEFAULT_255_2_778
10
25.9863108
20
4.4033581
11
24.4864108
21
4.4033581
0
LINE
8
DEFAULT_255_2_778
10
24.4864108
20
74.4800581
11
24.4864108
21
70.7714581
0
LINE
8
DEFAULT_255_2_778
10
24.4864108
20
65.0080581
11
25.9863108
21
65.0080581
0
LINE
8
DEFAULT_255_2_778
10
25.9863108
20
65.0080581
11
28.7033108
21
65.0080581
0
LINE
8
DEFAULT_255_2_778
10
27.9183108
20
14.7575581
11
27.9183108
21
63.8232581
0
LINE
8
DEFAULT_255_2_778
10
27.9183108
20
63.8232581
11
25.9865108
21
63.8232581
0
LINE
8
DEFAULT_255_2_778
10
24.4866108
20
63.8232581
11
25.9865108
21
63.8232581
0
LINE
8
DEFAULT_255_2_778
10
24.4866108
20
63.8232581
11
2.8755108
21
63.8232581
0
LINE
8
DEFAULT_255_2_778
10
2.8755108
20
63.8232581
11
2.8755108
21
14.7578581
0
LINE
8
DEFAULT_255_2_778
10
29.2031108
20
72.9664581
11
29.2031108
21
65.0082581
0
LINE
8
DEFAULT_255_2_778
10
28.9531108
20
65.0082581
11
29.2031108
21
65.0082581
0
LINE
8
DEFAULT_255_2_778
10
29.9532108
20
65.0082581
11
29.2031108
21
65.0082581
0
LINE
8
DEFAULT_255_2_778
10
29.2031108
20
65.0082581
11
29.2031108
21
64.2595581
0
LINE
8
DEFAULT_255_2_778
10
24.4861108
20
65.0082581
11
24.4861108
21
68.2742581
0
LINE
8
DEFAULT_255_2_778
10
24.4861108
20
68.2742581
11
24.4861108
21
70.7716581
0
LINE
8
DEFAULT_255_2_778
10
24.4861108
20
70.7716581
11
25.9860108
21
70.7716581
0
LINE
8
DEFAULT_255_2_778
10
25.9860108
20
70.7716581
11
25.9860108
21
69.7662581
0
LINE
8
DEFAULT_255_2_778
10
28.7030108
20
14.7578581
11
27.9180108
21
14.7578581
0
LINE
8
DEFAULT_255_2_778
10
27.9180108
20
14.7578581
11
27.9180108
21
14.7030581
0
LINE
8
DEFAULT_255_2_778
10
2.2031108
20
4.1112581
11
2.2031108
21
3.6111581
0
LINE
8
DEFAULT_255_2_778
10
2.2031108
20
3.6111581
11
1.7031108
21
3.6111581
0
LINE
8
DEFAULT_255_2_778
10
1.7031108
20
3.6111581
11
1.7031108
21
1.7583581
0
LINE
8
DEFAULT_255_2_778
10
1.7031108
20
1.7583581
11
1.7203108
21
1.6294581
0
LINE
8
DEFAULT_255_2_778
10
1.7203108
20
1.6294581
11
1.7700108
21
1.5088581
0
LINE
8
DEFAULT_255_2_778
10
1.7700108
20
1.5088581
11
1.8491108
21
1.4048581
0
LINE
8
DEFAULT_255_2_778
10
1.8491108
20
1.4048581
11
1.9529108
21
1.3254581
0
LINE
8
DEFAULT_255_2_778
10
1.9529108
20
1.3254581
11
2.0732108
21
1.2754581
0
LINE
8
DEFAULT_255_2_778
10
2.0732108
20
1.2754581
11
2.2031108
21
1.2582581
0
LINE
8
DEFAULT_255_2_778
10
9.2032108
20
3.6111581
11
9.4533108
21
3.6111581
0
LINE
8
DEFAULT_255_2_778
10
9.4533108
20
3.6111581
11
9.4533108
21
1.2582581
0
LINE
8
DEFAULT_255_2_778
10
9.2032108
20
3.6111581
11
2.2031108
21
3.6111581
0
LINE
8
DEFAULT_255_2_778
10
2.2031108
20
3.6111581
11
2.2031108
21
1.2582581
0
LINE
8
DEFAULT_255_2_778
10
2.2031108
20
4.1112581
11
9.2032108
21
4.1112581
0
LINE
8
DEFAULT_255_2_778
10
9.2032108
20
-0.2416419
11
9.2032108
21
1.2582581
0
LINE
8
DEFAULT_255_2_778
10
9.2032108
20
1.2582581
11
9.2032108
21
3.6111581
0
LINE
8
DEFAULT_255_2_778
10
9.2032108
20
3.6111581
11
9.2032108
21
4.1112581
0
LINE
8
DEFAULT_255_2_778
10
9.2032108
20
4.1112581
11
9.2032108
21
4.2305581
0
LINE
8
DEFAULT_255_2_778
10
9.2032108
20
4.2305581
11
2.2031108
21
4.2305581
0
LINE
8
DEFAULT_255_2_778
10
2.2031108
20
4.2305581
11
2.2031108
21
4.4033581
0
LINE
8
DEFAULT_255_2_778
10
2.2031108
20
4.4033581
11
2.2031108
21
14.7030581
0
LINE
8
DEFAULT_255_2_778
10
0.2032108
20
56.9310581
11
1.7031108
21
56.9310581
0
LINE
8
DEFAULT_255_2_778
10
1.7031108
20
56.9310581
11
1.7031108
21
14.7763581
0
LINE
8
DEFAULT_255_2_778
10
29.2031108
20
4.4642581
11
29.2026108
21
14.7165581
0
LINE
8
DEFAULT_255_2_778
10
29.2026108
20
14.7165581
11
29.2026108
21
14.7758581
0
LINE
8
DEFAULT_255_2_778
10
29.2026108
20
14.7758581
11
28.7030108
21
14.7583581
0
LINE
8
DEFAULT_255_2_778
10
27.9180108
20
14.7035581
11
28.7030108
21
14.7035581
0
LINE
8
DEFAULT_255_2_778
10
29.2031108
20
4.2387581
11
29.2031108
21
4.4642581
0
LINE
8
DEFAULT_255_2_778
10
29.2031108
20
4.4642581
11
29.1859108
21
4.4485581
0
LINE
8
DEFAULT_255_2_778
10
29.1859108
20
4.4485581
11
29.1361108
21
4.4340581
0
LINE
8
DEFAULT_255_2_778
10
29.1361108
20
4.4340581
11
29.0570108
21
4.4216581
0
LINE
8
DEFAULT_255_2_778
10
29.0570108
20
4.4216581
11
28.8332108
21
4.4059581
0
LINE
8
DEFAULT_255_2_778
10
28.8332108
20
4.4059581
11
28.7036108
21
4.4038581
0
LINE
8
DEFAULT_255_2_778
10
30.7035108
20
14.7763581
11
30.5900108
21
14.7522581
0
LINE
8
DEFAULT_255_2_778
10
30.5900108
20
14.7522581
11
29.2031108
21
14.7165581
0
LINE
8
DEFAULT_255_2_778
10
29.2031108
20
14.7165581
11
28.7036108
21
14.7035581
0
LINE
8
DEFAULT_255_2_778
10
29.2036108
20
87.7587581
11
29.1864108
21
87.8875581
0
LINE
8
DEFAULT_255_2_778
10
29.1864108
20
87.8875581
11
29.1367108
21
88.0082581
0
LINE
8
DEFAULT_255_2_778
10
29.1367108
20
88.0082581
11
29.0573108
21
88.1122581
0
LINE
8
DEFAULT_255_2_778
10
29.0573108
20
88.1122581
11
28.9536108
21
88.1916581
0
LINE
8
DEFAULT_255_2_778
10
28.9536108
20
88.1916581
11
28.8332108
21
88.2413581
0
LINE
8
DEFAULT_255_2_778
10
28.8332108
20
88.2413581
11
28.7036108
21
88.2601581
0
LINE
8
DEFAULT_255_2_778
10
29.2036108
20
86.0479581
11
29.2036108
21
87.7600581
0
LINE
8
DEFAULT_255_2_778
10
28.7036108
20
88.2598581
11
28.7036108
21
89.7600581
0
LINE
8
DEFAULT_255_2_778
10
28.7036108
20
88.2598581
11
18.2033108
21
88.2598581
0
LINE
8
DEFAULT_255_2_778
10
9.2032108
20
88.2582581
11
9.4533108
21
88.2582581
0
LINE
8
DEFAULT_255_2_778
10
9.4533108
20
88.2582581
11
17.9533108
21
88.2582581
0
LINE
8
DEFAULT_255_2_778
10
17.9533108
20
88.2582581
11
18.2033108
21
88.2582581
0
LINE
8
DEFAULT_255_2_778
10
9.2032108
20
89.7584581
11
9.4533108
21
89.7584581
0
LINE
8
DEFAULT_255_2_778
10
9.4533108
20
89.7584581
11
17.9533108
21
89.7584581
0
LINE
8
DEFAULT_255_2_778
10
9.2032108
20
88.2601581
11
9.2032108
21
89.7600581
0
LINE
8
DEFAULT_255_2_778
10
9.2032108
20
89.7600581
11
2.2031108
21
89.7600581
0
LINE
8
DEFAULT_255_2_778
10
2.2031108
20
89.7600581
11
2.2031108
21
88.2601581
0
LINE
8
DEFAULT_255_2_778
10
2.2031108
20
88.2601581
11
2.2031108
21
86.0540581
0
LINE
8
DEFAULT_255_2_778
10
2.2031108
20
86.0540581
11
9.2032108
21
86.0540581
0
LINE
8
DEFAULT_255_2_778
10
9.2032108
20
86.0540581
11
9.2032108
21
88.2601581
0
LINE
8
DEFAULT_255_2_778
10
9.2032108
20
88.2601581
11
2.2031108
21
88.2601581
0
LINE
8
DEFAULT_255_2_778
10
0.2032108
20
6.7584581
11
1.7031108
21
6.7584581
0
LINE
8
DEFAULT_255_2_778
10
1.7031108
20
6.7584581
11
1.7031108
21
14.7072581
0
LINE
8
DEFAULT_255_2_778
10
0.2032108
20
4.4639581
11
0.2032108
21
6.7584581
0
LINE
8
DEFAULT_255_2_778
10
0.2032108
20
6.7584581
11
0.2032108
21
14.7760581
0
LINE
8
DEFAULT_255_2_778
10
0.2032108
20
14.7760581
11
0.2032108
21
56.9308581
0
LINE
8
DEFAULT_255_2_778
10
0.2032108
20
56.9308581
11
0.2032108
21
57.2739581
0
LINE
8
DEFAULT_255_2_778
10
0.2032108
20
57.2739581
11
0.2032108
21
64.2597581
0
LINE
8
DEFAULT_255_2_778
10
2.2031108
20
4.2305581
11
1.8901108
21
4.2332581
0
LINE
8
DEFAULT_255_2_778
10
1.8901108
20
4.2332581
11
1.7031108
21
4.2382581
0
LINE
8
DEFAULT_255_2_778
10
1.7031108
20
4.2382581
11
1.7031108
21
4.4636581
0
LINE
8
DEFAULT_255_2_778
10
1.7031108
20
4.4636581
11
1.7203108
21
4.4480581
0
LINE
8
DEFAULT_255_2_778
10
1.7203108
20
4.4480581
11
1.7700108
21
4.4335581
0
LINE
8
DEFAULT_255_2_778
10
1.7700108
20
4.4335581
11
1.8491108
21
4.4210581
0
LINE
8
DEFAULT_255_2_778
10
1.8491108
20
4.4210581
11
1.9529108
21
4.4115581
0
LINE
8
DEFAULT_255_2_778
10
1.9529108
20
4.4115581
11
2.2029108
21
4.4036581
0
LINE
8
DEFAULT_255_2_778
10
2.2029108
20
4.4036581
11
9.2030108
21
4.4036581
0
LINE
8
DEFAULT_255_2_778
10
9.2030108
20
4.4036581
11
9.2030108
21
4.2308581
0
LINE
8
DEFAULT_255_2_778
10
2.2029108
20
4.2308581
11
2.2029108
21
4.1115581
0
LINE
8
DEFAULT_255_2_778
10
2.2029108
20
4.1115581
11
1.7028108
21
4.1115581
0
LINE
8
DEFAULT_255_2_778
10
1.7028108
20
4.1115581
11
1.7028108
21
4.2385581
0
LINE
8
DEFAULT_255_2_778
10
1.7028108
20
74.5351581
11
1.7049108
21
85.4044581
0
LINE
8
DEFAULT_255_2_778
10
1.7049108
20
85.4044581
11
2.2029108
21
85.4044581
0
LINE
8
DEFAULT_255_2_778
10
2.2029108
20
85.9045581
11
2.2029108
21
85.4044581
0
LINE
8
DEFAULT_255_2_778
10
9.2030108
20
86.0537581
11
9.2030108
21
85.9042581
0
LINE
8
DEFAULT_255_2_778
10
9.2030108
20
85.9042581
11
2.2031108
21
85.9042581
0
LINE
8
DEFAULT_255_2_778
10
2.2031108
20
86.0537581
11
2.2031108
21
85.9042581
0
LINE
8
DEFAULT_255_2_778
10
2.2031108
20
85.9042581
11
1.7031108
21
85.9042581
0
LINE
8
DEFAULT_255_2_778
10
1.7031108
20
85.9042581
11
1.7031108
21
86.0474581
0
LINE
8
DEFAULT_255_2_778
10
2.2031108
20
86.0537581
11
1.7034108
21
86.0474581
0
LINE
8
DEFAULT_255_2_778
10
30.7033108
20
4.4636581
11
30.7033108
21
4.4636581
0
LINE
8
DEFAULT_255_2_778
10
28.7033108
20
-0.2416419
11
29.0163108
21
-0.2170419
0
LINE
8
DEFAULT_255_2_778
10
29.0163108
20
-0.2170419
11
29.3214108
21
-0.1437419
0
LINE
8
DEFAULT_255_2_778
10
29.3214108
20
-0.1437419
11
29.6113108
21
-0.0236419
0
LINE
8
DEFAULT_255_2_778
10
29.6113108
20
-0.0236419
11
29.8780108
21
0.1398581
0
LINE
8
DEFAULT_255_2_778
10
29.8780108
20
0.1398581
11
30.1175108
21
0.3441581
0
LINE
8
DEFAULT_255_2_778
10
30.1175108
20
0.3441581
11
30.3209108
21
0.5825581
0
LINE
8
DEFAULT_255_2_778
10
30.3209108
20
0.5825581
11
30.4850108
21
0.8497581
0
LINE
8
DEFAULT_255_2_778
10
30.4850108
20
0.8497581
11
30.6048108
21
1.1386581
0
LINE
8
DEFAULT_255_2_778
10
30.6048108
20
1.1386581
11
30.6784108
21
1.4453581
0
LINE
8
DEFAULT_255_2_778
10
30.6784108
20
1.4453581
11
30.7035108
21
1.7583581
0
LINE
8
DEFAULT_255_2_778
10
30.7035108
20
1.7583581
11
30.7035108
21
4.4636581
0
LINE
8
DEFAULT_255_2_778
10
30.7035108
20
4.4636581
11
30.7035108
21
14.7758581
0
LINE
8
DEFAULT_255_2_778
10
30.7035108
20
14.7758581
11
30.7035108
21
14.7758581
0
LINE
8
DEFAULT_255_2_778
10
28.7036108
20
4.1109581
11
29.2036108
21
4.1109581
0
LINE
8
DEFAULT_255_2_778
10
29.2036108
20
4.1109581
11
29.2036108
21
4.2379581
0
LINE
8
DEFAULT_255_2_778
10
28.7036108
20
3.6109581
11
27.1020108
21
3.6109581
0
LINE
8
DEFAULT_255_2_778
10
27.1020108
20
3.6109581
11
27.1020108
21
2.3922581
0
LINE
8
DEFAULT_255_2_778
10
27.1020108
20
2.3922581
11
23.4018108
21
2.3922581
0
LINE
8
DEFAULT_255_2_778
10
23.4018108
20
2.3922581
11
23.4018108
21
3.6109581
0
LINE
8
DEFAULT_255_2_778
10
28.7033108
20
3.6109581
11
29.2033108
21
3.6109581
0
LINE
8
DEFAULT_255_2_778
10
29.2033108
20
3.6109581
11
29.2033108
21
1.7580581
0
LINE
8
DEFAULT_255_2_778
10
29.2033108
20
1.7580581
11
29.1862108
21
1.6291581
0
LINE
8
DEFAULT_255_2_778
10
29.1862108
20
1.6291581
11
29.1364108
21
1.5085581
0
LINE
8
DEFAULT_255_2_778
10
29.1364108
20
1.5085581
11
29.0573108
21
1.4045581
0
LINE
8
DEFAULT_255_2_778
10
29.0573108
20
1.4045581
11
28.9536108
21
1.3251581
0
LINE
8
DEFAULT_255_2_778
10
28.9536108
20
1.3251581
11
28.8332108
21
1.2751581
0
LINE
8
DEFAULT_255_2_778
10
28.8332108
20
1.2751581
11
28.7033108
21
1.2579581
0
LINE
8
DEFAULT_255_2_778
10
28.7033108
20
1.2579581
11
28.7033108
21
1.2579581
0
LINE
8
DEFAULT_255_2_778
10
24.4864108
20
4.2303581
11
24.4864108
21
4.1109581
0
LINE
8
DEFAULT_255_2_778
10
24.4864108
20
4.1109581
11
26.0810108
21
4.1109581
0
LINE
8
DEFAULT_255_2_778
10
24.4864108
20
4.2303581
11
24.4864108
21
4.4030581
0
LINE
8
DEFAULT_255_2_778
10
24.4864108
20
4.4030581
11
24.4864108
21
5.1989581
0
LINE
8
DEFAULT_255_2_778
10
24.4864108
20
5.1989581
11
24.4864108
21
5.9008581
0
LINE
8
DEFAULT_255_2_778
10
22.2030108
20
4.2300581
11
22.2030108
21
3.6109581
0
LINE
8
DEFAULT_255_2_778
10
22.2030108
20
3.6109581
11
23.4018108
21
3.6109581
0
LINE
8
DEFAULT_255_2_778
10
23.4018108
20
3.6109581
11
23.4018108
21
4.1109581
0
LINE
8
DEFAULT_255_2_778
10
22.2030108
20
4.2303581
11
22.2030108
21
4.4030581
0
LINE
8
DEFAULT_255_2_778
10
22.2030108
20
4.4030581
11
22.2030108
21
4.7571581
0
LINE
8
DEFAULT_255_2_778
10
22.2030108
20
4.7571581
11
18.2033108
21
4.7571581
0
LINE
8
DEFAULT_255_2_778
10
22.8399108
20
4.2303581
11
22.8393108
21
4.4030581
0
LINE
8
DEFAULT_255_2_778
10
22.8393108
20
4.4030581
11
23.4021108
21
4.4030581
0
LINE
8
DEFAULT_255_2_778
10
26.0813108
20
4.2303581
11
26.0813108
21
4.4030581
0
LINE
8
DEFAULT_255_2_778
10
26.0813108
20
4.4030581
11
26.0813108
21
5.1989581
0
LINE
8
DEFAULT_255_2_778
10
26.0813108
20
5.1989581
11
27.1018108
21
5.1989581
0
LINE
8
DEFAULT_255_2_778
10
27.1018108
20
5.1989581
11
27.1018108
21
4.4028581
0
LINE
8
DEFAULT_255_2_778
10
27.1018108
20
4.2300581
11
27.1018108
21
4.4028581
0
LINE
8
DEFAULT_255_2_778
10
27.1018108
20
4.4028581
11
28.7033108
21
4.4028581
0
LINE
8
DEFAULT_255_2_778
10
27.1018108
20
4.2300581
11
27.1018108
21
4.1107581
0
LINE
8
DEFAULT_255_2_778
10
27.1018108
20
4.1107581
11
28.7033108
21
4.1107581
0
LINE
8
DEFAULT_255_2_778
10
23.4018108
20
4.2300581
11
23.4018108
21
4.1107581
0
LINE
8
DEFAULT_255_2_778
10
23.4018108
20
4.1107581
11
22.8399108
21
4.1107581
0
LINE
8
DEFAULT_255_2_778
10
22.8399108
20
4.1107581
11
22.8396108
21
4.2300581
0
LINE
8
DEFAULT_255_2_778
10
23.4018108
20
4.2300581
11
23.4018108
21
4.4028581
0
LINE
8
DEFAULT_255_2_778
10
23.4018108
20
4.4028581
11
23.4018108
21
5.1986581
0
LINE
8
DEFAULT_255_2_778
10
23.4018108
20
5.1986581
11
24.4864108
21
5.1986581
0
LINE
8
DEFAULT_255_2_778
10
9.2032108
20
1.2574581
11
2.2031108
21
1.2574581
0
LINE
8
DEFAULT_255_2_778
10
2.2031108
20
1.2574581
11
2.2031108
21
-0.2424419
0
LINE
8
DEFAULT_255_2_778
10
2.2031108
20
-0.2424419
11
9.2032108
21
-0.2424419
0
LINE
8
DEFAULT_255_2_778
10
9.2032108
20
-0.2424419
11
9.4533108
21
-0.2424419
0
LINE
8
DEFAULT_255_2_778
10
9.4533108
20
-0.2424419
11
17.9533108
21
-0.2424419
0
LINE
8
DEFAULT_255_2_778
10
17.9533108
20
-0.2424419
11
18.2033108
21
-0.2424419
0
LINE
8
DEFAULT_255_2_778
10
18.2033108
20
-0.2424419
11
18.2033108
21
1.2574581
0
LINE
8
DEFAULT_255_2_778
10
18.2033108
20
1.2574581
11
18.2033108
21
4.2297581
0
LINE
8
DEFAULT_255_2_778
10
18.2033108
20
4.2297581
11
22.2030108
21
4.2297581
0
LINE
8
DEFAULT_255_2_778
10
22.2030108
20
4.2297581
11
22.8396108
21
4.2297581
0
LINE
8
DEFAULT_255_2_778
10
22.8396108
20
4.2297581
11
23.4018108
21
4.2297581
0
LINE
8
DEFAULT_255_2_778
10
23.4018108
20
4.2297581
11
24.4864108
21
4.2297581
0
LINE
8
DEFAULT_255_2_778
10
24.4864108
20
4.2297581
11
26.0810108
21
4.2297581
0
LINE
8
DEFAULT_255_2_778
10
26.0810108
20
4.2297581
11
27.1015108
21
4.2297581
0
LINE
8
DEFAULT_255_2_778
10
27.1015108
20
4.2297581
11
28.7030108
21
4.2297581
0
LINE
8
DEFAULT_255_2_778
10
28.7030108
20
4.2297581
11
28.7030108
21
4.1104581
0
LINE
8
DEFAULT_255_2_778
10
28.7030108
20
4.1104581
11
28.7030108
21
3.6103581
0
LINE
8
DEFAULT_255_2_778
10
28.7030108
20
3.6103581
11
28.7030108
21
1.2574581
0
LINE
8
DEFAULT_255_2_778
10
28.7030108
20
4.2297581
11
29.0160108
21
4.2324581
0
LINE
8
DEFAULT_255_2_778
10
29.0160108
20
4.2324581
11
29.2031108
21
4.2374581
0
LINE
8
DEFAULT_255_2_778
10
29.2031108
20
4.2374581
11
29.3211108
21
4.2406581
0
LINE
8
DEFAULT_255_2_778
10
29.3211108
20
4.2406581
11
29.6113108
21
4.2541581
0
LINE
8
DEFAULT_255_2_778
10
29.6113108
20
4.2541581
11
29.8780108
21
4.2726581
0
LINE
8
DEFAULT_255_2_778
10
29.8780108
20
4.2726581
11
30.1175108
21
4.2959581
0
LINE
8
DEFAULT_255_2_778
10
30.1175108
20
4.2959581
11
30.3209108
21
4.3234581
0
LINE
8
DEFAULT_255_2_778
10
30.3209108
20
4.3234581
11
30.4850108
21
4.3544581
0
LINE
8
DEFAULT_255_2_778
10
30.4850108
20
4.3544581
11
30.6048108
21
4.3885581
0
LINE
8
DEFAULT_255_2_778
10
30.6048108
20
4.3885581
11
30.6784108
21
4.4250581
0
LINE
8
DEFAULT_255_2_778
10
30.6784108
20
4.4250581
11
30.7035108
21
4.4628581
0
LINE
8
DEFAULT_255_2_778
10
28.7036108
20
4.2297581
11
28.7036108
21
4.4025581
0
LINE
8
DEFAULT_255_2_778
10
28.7036108
20
4.4025581
11
28.7036108
21
14.7022581
0
LINE
8
DEFAULT_255_2_778
10
28.7036108
20
14.7022581
11
28.7036108
21
64.2600581
0
LINE
8
DEFAULT_255_2_778
10
18.2033108
20
1.2585581
11
17.9533108
21
1.2585581
0
LINE
8
DEFAULT_255_2_778
10
17.9533108
20
1.2585581
11
9.4533108
21
1.2585581
0
LINE
8
DEFAULT_255_2_778
10
9.4533108
20
1.2585581
11
9.2032108
21
1.2585581
0
LINE
8
DEFAULT_255_2_778
10
18.2033108
20
1.2585581
11
28.7033108
21
1.2585581
0
LINE
8
DEFAULT_255_2_778
10
28.7033108
20
1.2585581
11
28.7033108
21
-0.2414419
0
LINE
8
DEFAULT_255_2_778
10
28.7033108
20
-0.2414419
11
18.2033108
21
-0.2414419
0
LINE
8
DEFAULT_255_2_778
10
18.2033108
20
4.2308581
11
18.2033108
21
4.7576581
0
LINE
8
DEFAULT_255_2_778
10
18.2033108
20
4.7576581
11
13.2032108
21
4.7586581
0
LINE
8
DEFAULT_255_2_778
10
17.9535108
20
-0.2414419
11
17.9535108
21
4.6414581
0
LINE
8
DEFAULT_255_2_778
10
17.9535108
20
4.6414581
11
13.2029108
21
4.6414581
0
LINE
8
DEFAULT_255_2_778
10
13.2029108
20
4.6414581
11
12.7240108
21
4.6414581
0
LINE
8
DEFAULT_255_2_778
10
9.4530108
20
-0.2414419
11
9.4530108
21
0.6467581
0
LINE
8
DEFAULT_255_2_778
10
9.4530108
20
0.6467581
11
9.4530108
21
1.2585581
0
LINE
8
DEFAULT_255_2_778
10
2.2029108
20
-0.2414419
11
1.8901108
21
-0.2168419
0
LINE
8
DEFAULT_255_2_778
10
1.8901108
20
-0.2168419
11
1.5851108
21
-0.1435419
0
LINE
8
DEFAULT_255_2_778
10
1.5851108
20
-0.1435419
11
1.2951108
21
-0.0233419
0
LINE
8
DEFAULT_255_2_778
10
1.2951108
20
-0.0233419
11
1.0284108
21
0.1401581
0
LINE
8
DEFAULT_255_2_778
10
1.0284108
20
0.1401581
11
0.7890108
21
0.3443581
0
LINE
8
DEFAULT_255_2_778
10
0.7890108
20
0.3443581
11
0.5855108
21
0.5827581
0
LINE
8
DEFAULT_255_2_778
10
0.5855108
20
0.5827581
11
0.4214108
21
0.8499581
0
LINE
8
DEFAULT_255_2_778
10
0.4214108
20
0.8499581
11
0.3016108
21
1.1389581
0
LINE
8
DEFAULT_255_2_778
10
0.3016108
20
1.1389581
11
0.2280108
21
1.4447581
0
LINE
8
DEFAULT_255_2_778
10
0.2280108
20
1.4447581
11
0.2032108
21
1.7585581
0
LINE
8
DEFAULT_255_2_778
10
0.2032108
20
1.7585581
11
0.2032108
21
4.4639581
0
LINE
8
DEFAULT_255_2_778
10
0.2032108
20
4.4639581
11
0.2283108
21
4.4258581
0
LINE
8
DEFAULT_255_2_778
10
0.2283108
20
4.4258581
11
0.3019108
21
4.3893581
0
LINE
8
DEFAULT_255_2_778
10
0.3019108
20
4.3893581
11
0.4217108
21
4.3554581
0
LINE
8
DEFAULT_255_2_778
10
0.4217108
20
4.3554581
11
0.5858108
21
4.3245581
0
LINE
8
DEFAULT_255_2_778
10
0.5858108
20
4.3245581
11
0.7892108
21
4.2972581
0
LINE
8
DEFAULT_255_2_778
10
0.7892108
20
4.2972581
11
1.0287108
21
4.2739581
0
LINE
8
DEFAULT_255_2_778
10
1.0287108
20
4.2739581
11
1.2954108
21
4.2554581
0
LINE
8
DEFAULT_255_2_778
10
1.2954108
20
4.2554581
11
1.5856108
21
4.2419581
0
LINE
8
DEFAULT_255_2_778
10
1.5856108
20
4.2419581
11
1.7034108
21
4.2387581
0
LINE
8
DEFAULT_255_2_778
10
29.2031108
20
70.2584581
11
30.7030108
21
70.2584581
0
LINE
8
DEFAULT_255_2_778
10
30.7022108
20
74.4578581
11
30.6967108
21
74.4631581
0
LINE
8
DEFAULT_255_2_778
10
30.6967108
20
74.4631581
11
30.6448108
21
74.4793581
0
LINE
8
DEFAULT_255_2_778
10
30.6448108
20
74.4793581
11
30.2217108
21
74.5203581
0
LINE
8
DEFAULT_255_2_778
10
30.2217108
20
74.5203581
11
28.7028108
21
74.5552581
0
LINE
8
DEFAULT_255_2_778
10
30.7027108
20
74.4586581
11
29.2028108
21
72.9664581
0
LINE
8
DEFAULT_255_2_778
10
29.2028108
20
72.9664581
11
28.7528108
21
72.5187581
0
LINE
8
DEFAULT_255_2_778
10
2.2031108
20
64.2600581
11
24.4861108
21
64.2597581
0
LINE
8
DEFAULT_255_2_778
10
24.4861108
20
64.2597581
11
25.9860108
21
64.2597581
0
LINE
8
DEFAULT_255_2_778
10
25.9860108
20
64.2597581
11
28.7030108
21
64.2597581
0
LINE
8
DEFAULT_255_2_778
10
28.7030108
20
64.2597581
11
28.9531108
21
64.2597581
0
LINE
8
DEFAULT_255_2_778
10
28.9531108
20
64.2597581
11
29.2031108
21
64.2597581
0
LINE
8
DEFAULT_255_2_778
10
29.2031108
20
64.2597581
11
29.9532108
21
64.2597581
0
LINE
8
DEFAULT_255_2_778
10
29.9532108
20
64.2597581
11
30.7033108
21
64.2597581
0
LINE
8
DEFAULT_255_2_778
10
30.7033108
20
64.2597581
11
30.7033108
21
65.0085581
0
LINE
8
DEFAULT_255_2_778
10
30.7033108
20
65.0085581
11
30.7033108
21
70.2586581
0
LINE
8
DEFAULT_255_2_778
10
30.7033108
20
70.2586581
11
30.7033108
21
74.4589581
0
LINE
8
DEFAULT_255_2_778
10
30.7033108
20
85.8548581
11
30.7033108
21
87.7600581
0
LINE
8
DEFAULT_255_2_778
10
28.7033108
20
89.7600581
11
18.2033108
21
89.7600581
0
LINE
8
DEFAULT_255_2_778
10
18.2033108
20
89.7600581
11
18.2033108
21
88.2601581
0
LINE
8
DEFAULT_255_2_778
10
18.2033108
20
88.2601581
11
18.2033108
21
86.0540581
0
LINE
8
DEFAULT_255_2_778
10
30.7033108
20
85.8548581
11
30.7033108
21
74.4589581
0
LINE
8
DEFAULT_255_2_778
10
30.7033108
20
74.4589581
11
30.7504108
21
74.5057581
0
LINE
8
DEFAULT_255_2_778
10
30.7504108
20
74.5057581
11
30.7533108
21
74.5084581
0
LINE
8
DEFAULT_255_2_778
10
30.7533108
20
74.5084581
11
30.7533108
21
65.0082581
0
LINE
8
DEFAULT_255_2_778
10
30.7533108
20
65.0082581
11
30.7033108
21
65.0082581
0
LINE
8
DEFAULT_255_2_778
10
29.9532108
20
64.2595581
11
29.9532108
21
65.0085581
0
LINE
8
DEFAULT_255_2_778
10
29.9532108
20
65.0085581
11
30.7033108
21
65.0085581
0
LINE
8
DEFAULT_255_2_778
10
30.2646108
20
64.2597581
11
29.9534108
21
64.2597581
0
LINE
8
DEFAULT_255_2_778
10
24.4866108
20
64.2597581
11
24.4866108
21
65.0085581
0
LINE
8
DEFAULT_255_2_778
10
24.4866108
20
65.0085581
11
21.2031108
21
65.0085581
0
LINE
8
DEFAULT_255_2_778
10
25.9863108
20
64.2597581
11
25.9863108
21
65.0085581
0
LINE
8
DEFAULT_255_2_778
10
25.9863108
20
65.0085581
11
25.9863108
21
69.7665581
0
LINE
8
DEFAULT_255_2_778
10
29.2033108
20
64.2597581
11
29.2033108
21
63.2585581
0
LINE
8
DEFAULT_255_2_778
10
29.2033108
20
63.2585581
11
30.7033108
21
63.2585581
0
LINE
8
DEFAULT_255_2_778
10
1.7049108
20
64.2600581
11
1.7031108
21
57.2742581
0
LINE
8
DEFAULT_255_2_778
10
1.7031108
20
57.2742581
11
0.2032108
21
57.2742581
0
LINE
8
DEFAULT_255_2_778
10
1.9531108
20
64.2600581
11
1.7049108
21
64.2600581
0
LINE
8
DEFAULT_255_2_778
10
0.9533108
20
64.2600581
11
1.7049108
21
64.2600581
0
LINE
8
DEFAULT_255_2_778
10
1.7049108
20
64.2600581
11
1.7049108
21
65.0085581
0
LINE
8
DEFAULT_255_2_778
10
28.7030108
20
64.2597581
11
28.7030108
21
14.7580581
0
LINE
8
DEFAULT_255_2_778
10
28.7030108
20
14.7580581
11
28.7030108
21
14.7033581
0
LINE
8
DEFAULT_255_2_778
10
28.7030108
20
64.2597581
11
28.7030108
21
65.0085581
0
LINE
8
DEFAULT_255_2_778
10
28.7030108
20
65.0085581
11
28.7530108
21
65.0085581
0
LINE
8
DEFAULT_255_2_778
10
30.7030108
20
64.2597581
11
30.7030108
21
63.2585581
0
LINE
8
DEFAULT_255_2_778
10
30.7030108
20
63.2585581
11
30.7030108
21
14.7763581
0
LINE
8
DEFAULT_255_2_778
10
0.2032108
20
74.4554581
11
0.2032108
21
85.8548581
0
LINE
8
DEFAULT_255_2_778
10
0.2032108
20
85.8548581
11
0.2032108
21
87.7600581
0
LINE
8
DEFAULT_255_2_778
10
24.4861108
20
62.4330581
11
24.4861108
21
60.1830581
0
LINE
8
DEFAULT_255_2_778
10
24.4861108
20
60.1830581
11
24.4861108
21
44.4181581
0
LINE
8
DEFAULT_255_2_778
10
24.4861108
20
62.4330581
11
24.4861108
21
63.8232581
0
LINE
8
DEFAULT_255_2_778
10
24.4861108
20
63.8232581
11
24.4861108
21
64.2597581
0
LINE
8
DEFAULT_255_2_778
10
25.9860108
20
62.4330581
11
25.9860108
21
63.8232581
0
LINE
8
DEFAULT_255_2_778
10
25.9860108
20
63.8232581
11
25.9860108
21
64.2595581
0
LINE
8
DEFAULT_255_2_778
10
25.9860108
20
62.4328581
11
25.9860108
21
44.4178581
0
LINE
8
DEFAULT_255_2_778
10
25.9860108
20
44.4178581
11
25.9860108
21
43.0513581
0
LINE
8
DEFAULT_255_2_778
10
26.6538108
20
13.1737581
11
27.3280108
21
13.1737581
0
LINE
8
DEFAULT_255_2_778
10
25.9860108
20
7.6828581
11
27.3280108
21
7.6828581
0
LINE
8
DEFAULT_255_2_778
10
27.3280108
20
7.6828581
11
27.3280108
21
13.1737581
0
LINE
8
DEFAULT_255_2_778
10
27.3280108
20
13.1737581
11
27.3280108
21
14.7030581
0
LINE
8
DEFAULT_255_2_778
10
27.3280108
20
14.7030581
11
27.9180108
21
14.7030581
0
LINE
8
DEFAULT_255_2_778
10
27.9180108
20
14.7030581
11
27.9180108
21
13.1737581
0
LINE
8
DEFAULT_255_2_778
10
27.9180108
20
13.1737581
11
27.3280108
21
13.1737581
0
LINE
8
DEFAULT_255_2_778
10
24.4861108
20
7.6828581
11
24.4861108
21
5.9014581
0
LINE
8
DEFAULT_255_2_778
10
24.4861108
20
5.9014581
11
25.9860108
21
5.9014581
0
LINE
8
DEFAULT_255_2_778
10
25.9860108
20
5.9014581
11
25.9860108
21
7.6828581
0
LINE
8
DEFAULT_255_2_778
10
24.4861108
20
7.6828581
11
25.9860108
21
7.6828581
0
LINE
8
DEFAULT_255_2_778
10
25.9860108
20
7.6828581
11
25.9860108
21
9.6828581
0
LINE
8
DEFAULT_255_2_778
10
3.5779108
20
14.7030581
11
3.5779108
21
62.4330581
0
LINE
8
DEFAULT_255_2_778
10
3.5779108
20
62.4330581
11
24.4858108
21
62.4330581
0
LINE
8
DEFAULT_255_2_778
10
24.4858108
20
62.4330581
11
25.9858108
21
62.4330581
0
LINE
8
DEFAULT_255_2_778
10
25.9858108
20
62.4330581
11
27.3277108
21
62.4330581
0
LINE
8
DEFAULT_255_2_778
10
27.3277108
20
62.4330581
11
27.3277108
21
14.7033581
0
LINE
8
DEFAULT_255_2_778
10
2.8749108
20
14.7033581
11
2.8749108
21
13.1740581
0
LINE
8
DEFAULT_255_2_778
10
2.8749108
20
13.1740581
11
3.5777108
21
13.1740581
0
LINE
8
DEFAULT_255_2_778
10
3.5777108
20
13.1740581
11
3.5777108
21
14.7033581
0
LINE
8
DEFAULT_255_2_778
10
3.5777108
20
14.7033581
11
2.8755108
21
14.7033581
0
LINE
8
DEFAULT_255_2_778
10
2.8755108
20
14.7033581
11
2.2031108
21
14.7033581
0
LINE
8
DEFAULT_255_2_778
10
2.2031108
20
14.7033581
11
2.2031108
21
14.7580581
0
LINE
8
DEFAULT_255_2_778
10
2.2031108
20
14.7580581
11
2.2031108
21
64.2600581
0
LINE
8
DEFAULT_255_2_778
10
2.2031108
20
64.2600581
11
2.2031108
21
65.0085581
0
LINE
8
DEFAULT_255_2_778
10
2.2031108
20
65.0085581
11
21.2031108
21
65.0085581
0
LINE
8
DEFAULT_255_2_778
10
21.2031108
20
65.0085581
11
24.4861108
21
68.2742581
0
LINE
8
DEFAULT_255_2_778
10
24.4861108
20
68.2742581
11
25.9860108
21
69.7665581
0
LINE
8
DEFAULT_255_2_778
10
25.9860108
20
69.7665581
11
28.7030108
21
72.4692581
0
LINE
8
DEFAULT_255_2_778
10
28.7030108
20
72.4692581
11
28.7530108
21
72.5190581
0
LINE
8
DEFAULT_255_2_778
10
28.7530108
20
72.5190581
11
28.7530108
21
65.0085581
0
LINE
8
DEFAULT_255_2_778
10
28.7530108
20
65.0085581
11
28.9531108
21
65.0085581
0
LINE
8
DEFAULT_255_2_778
10
28.9531108
20
65.0085581
11
28.9531108
21
64.2595581
0
LINE
8
DEFAULT_255_2_778
10
2.2031108
20
14.7578581
11
2.8755108
21
14.7578581
0
LINE
8
DEFAULT_255_2_778
10
2.8755108
20
14.7578581
11
2.8755108
21
14.7030581
0
LINE
8
DEFAULT_255_2_778
10
2.2031108
20
14.7578581
11
1.7031108
21
14.7760581
0
LINE
8
DEFAULT_255_2_778
10
1.7031108
20
14.7760581
11
1.7031108
21
14.7072581
0
LINE
8
DEFAULT_255_2_778
10
2.2031108
20
14.7030581
11
2.1111108
21
14.7030581
0
LINE
8
DEFAULT_255_2_778
10
2.1111108
20
14.7030581
11
1.7031108
21
14.7072581
0
LINE
8
DEFAULT_255_2_778
10
1.7031108
20
14.7072581
11
1.2557108
21
14.7117581
0
LINE
8
DEFAULT_255_2_778
10
1.2557108
20
14.7117581
11
0.2389108
21
14.7623581
0
LINE
8
DEFAULT_255_2_778
10
0.2389108
20
14.7623581
11
0.2032108
21
14.7760581
0
LINE
8
DEFAULT_255_2_778
10
2.2031108
20
74.4803581
11
2.1801108
21
74.4803581
0
LINE
8
DEFAULT_255_2_778
10
2.1801108
20
74.4803581
11
1.7031108
21
74.4576581
0
LINE
8
DEFAULT_255_2_778
10
1.7031108
20
74.4576581
11
1.7031108
21
74.5351581
0
LINE
8
DEFAULT_255_2_778
10
2.2031108
20
74.5438581
11
1.7031108
21
74.5351581
0
LINE
8
DEFAULT_255_2_778
10
1.7031108
20
74.5351581
11
0.6133108
21
74.5160581
0
LINE
8
DEFAULT_255_2_778
10
0.6133108
20
74.5160581
11
0.2386108
21
74.4742581
0
LINE
8
DEFAULT_255_2_778
10
0.2386108
20
74.4742581
11
0.2050108
21
74.4602581
0
LINE
8
DEFAULT_255_2_778
10
0.2050108
20
74.4602581
11
0.2029108
21
74.4557581
0
LINE
8
DEFAULT_255_2_778
10
0.2029108
20
74.4557581
11
0.2029108
21
70.2589581
0
LINE
8
DEFAULT_255_2_778
10
0.2029108
20
70.2589581
11
0.2029108
21
65.0088581
0
LINE
8
DEFAULT_255_2_778
10
0.2029108
20
65.0088581
11
0.9530108
21
65.0088581
0
LINE
8
DEFAULT_255_2_778
10
0.9530108
20
65.0088581
11
1.7049108
21
65.0088581
0
LINE
8
DEFAULT_255_2_778
10
1.7049108
20
65.0088581
11
1.9531108
21
65.0088581
0
LINE
8
DEFAULT_255_2_778
10
1.9531108
20
65.0088581
11
2.2140108
21
65.0088581
0
LINE
8
DEFAULT_255_2_778
10
2.2140108
20
65.0088581
11
2.2031108
21
74.4803581
0
LINE
8
DEFAULT_255_2_778
10
2.2031108
20
74.4803581
11
2.2031108
21
74.5438581
0
LINE
8
DEFAULT_255_2_778
10
2.2031108
20
74.5438581
11
9.4694108
21
74.5438581
0
LINE
8
DEFAULT_255_2_778
10
2.2031108
20
74.5438581
11
2.2031108
21
85.4044581
0
LINE
8
DEFAULT_255_2_778
10
2.2031108
20
85.4044581
11
2.2031108
21
74.4803581
0
LINE
8
DEFAULT_255_2_778
10
0.9533108
20
65.0085581
11
0.9533108
21
64.2600581
0
LINE
8
DEFAULT_255_2_778
10
0.9533108
20
64.2600581
11
0.2032108
21
64.2600581
0
LINE
8
DEFAULT_255_2_778
10
0.2032108
20
64.2600581
11
0.2032108
21
65.0085581
0
LINE
8
DEFAULT_255_2_778
10
1.9531108
20
65.0085581
11
1.9531108
21
64.2600581
0
LINE
8
DEFAULT_255_2_778
10
1.9531108
20
64.2600581
11
2.2031108
21
64.2600581
0
LINE
8
DEFAULT_255_2_778
10
1.7049108
20
65.0085581
11
1.7052108
21
70.2586581
0
LINE
8
DEFAULT_255_2_778
10
1.7052108
20
70.2586581
11
0.2032108
21
70.2586581
0
LINE
8
DEFAULT_255_2_778
10
24.4864108
20
74.5555581
11
24.4864108
21
74.4806581
0
LINE
8
DEFAULT_255_2_778
10
24.4864108
20
74.4806581
11
2.2031108
21
74.4806581
0
LINE
8
DEFAULT_255_2_778
10
24.4861108
20
74.5555581
11
24.4861108
21
83.1015581
0
LINE
8
DEFAULT_255_2_778
10
24.4861108
20
83.1015581
11
25.9860108
21
83.1015581
0
LINE
8
DEFAULT_255_2_778
10
25.9860108
20
83.1015581
11
25.9860108
21
74.5555581
0
LINE
8
DEFAULT_255_2_778
10
20.9693108
20
74.5555581
11
24.4861108
21
74.5555581
0
LINE
8
DEFAULT_255_2_778
10
24.4861108
20
74.5555581
11
25.9860108
21
74.5555581
0
LINE
8
DEFAULT_255_2_778
10
25.9860108
20
74.5555581
11
28.7030108
21
74.5555581
0
LINE
8
DEFAULT_255_2_778
10
28.7030108
20
74.5555581
11
28.7030108
21
85.4044581
0
LINE
8
DEFAULT_255_2_778
10
28.7030108
20
85.4044581
11
28.7030108
21
85.9045581
0
LINE
8
DEFAULT_255_2_778
10
28.7030108
20
85.9045581
11
28.7030108
21
86.0537581
0
LINE
8
DEFAULT_255_2_778
10
28.7030108
20
86.0537581
11
27.1015108
21
86.0537581
0
LINE
8
DEFAULT_255_2_778
10
27.1015108
20
86.0537581
11
26.0810108
21
86.0537581
0
LINE
8
DEFAULT_255_2_778
10
25.9863108
20
74.5552581
11
25.9863108
21
74.4803581
0
LINE
8
DEFAULT_255_2_778
10
25.9863108
20
74.4803581
11
25.9863108
21
70.7716581
0
LINE
8
DEFAULT_255_2_778
10
28.7033108
20
85.4042581
11
29.2033108
21
85.4042581
0
LINE
8
DEFAULT_255_2_778
10
29.2033108
20
85.4042581
11
29.2033108
21
74.5438581
0
LINE
8
DEFAULT_255_2_778
10
29.2033108
20
74.5438581
11
29.2033108
21
74.4578581
0
LINE
8
DEFAULT_255_2_778
10
29.2033108
20
74.4578581
11
29.2033108
21
72.9666581
0
LINE
8
DEFAULT_255_2_778
10
28.7033108
20
85.4044581
11
27.1018108
21
85.4044581
0
LINE
8
DEFAULT_255_2_778
10
27.1018108
20
85.4044581
11
27.1018108
21
84.3749581
0
LINE
8
DEFAULT_255_2_778
10
27.1018108
20
84.3749581
11
26.0813108
21
84.3749581
0
LINE
8
DEFAULT_255_2_778
10
26.0813108
20
84.3749581
11
26.0813108
21
85.4044581
0
LINE
8
DEFAULT_255_2_778
10
26.0813108
20
85.4044581
11
26.0813108
21
85.9045581
0
LINE
8
DEFAULT_255_2_778
10
28.7036108
20
74.5552581
11
28.7036108
21
74.4803581
0
LINE
8
DEFAULT_255_2_778
10
28.7036108
20
74.4803581
11
28.7036108
21
72.4692581
0
LINE
8
DEFAULT_255_2_778
10
23.4018108
20
86.0537581
11
23.4018108
21
85.9045581
0
LINE
8
DEFAULT_255_2_778
10
23.4018108
20
85.9045581
11
18.2033108
21
85.9045581
0
LINE
8
DEFAULT_255_2_778
10
23.4018108
20
86.0537581
11
23.4018108
21
87.1816581
0
LINE
8
DEFAULT_255_2_778
10
23.4018108
20
87.1816581
11
27.1015108
21
87.1816581
0
LINE
8
DEFAULT_255_2_778
10
27.1015108
20
87.1816581
11
27.1015108
21
86.0537581
0
LINE
8
DEFAULT_255_2_778
10
27.1015108
20
86.0537581
11
27.1015108
21
85.9045581
0
LINE
8
DEFAULT_255_2_778
10
27.1015108
20
85.9045581
11
28.7030108
21
85.9045581
0
LINE
8
DEFAULT_255_2_778
10
26.0807108
20
86.0537581
11
26.0807108
21
85.9045581
0
LINE
8
DEFAULT_255_2_778
10
26.0807108
20
85.9045581
11
24.4861108
21
85.9045581
0
LINE
8
DEFAULT_255_2_778
10
24.4861108
20
85.9045581
11
24.4861108
21
86.0540581
0
LINE
8
DEFAULT_255_2_778
10
9.2030108
20
85.9048581
11
9.2030108
21
84.7588581
0
LINE
8
DEFAULT_255_2_778
10
9.2030108
20
84.7588581
11
18.2030108
21
84.7588581
0
LINE
8
DEFAULT_255_2_778
10
18.2030108
20
84.7588581
11
18.2030108
21
85.9048581
0
LINE
8
DEFAULT_255_2_778
10
18.2030108
20
85.9048581
11
18.2030108
21
86.0540581
0
LINE
8
DEFAULT_255_2_778
10
18.2030108
20
86.0540581
11
23.4018108
21
86.0540581
0
LINE
8
DEFAULT_255_2_778
10
23.4018108
20
86.0540581
11
24.4864108
21
86.0540581
0
LINE
8
DEFAULT_255_2_778
10
24.4864108
20
86.0540581
11
26.0810108
21
86.0540581
0
LINE
8
DEFAULT_255_2_778
10
26.0810108
20
86.0540581
11
26.0810108
21
86.3524581
0
LINE
8
DEFAULT_255_2_778
10
26.0810108
20
86.3524581
11
24.4864108
21
86.3524581
0
LINE
8
DEFAULT_255_2_778
10
24.4864108
20
86.3524581
11
24.4864108
21
86.0540581
0
LINE
8
DEFAULT_255_2_778
10
28.7033108
20
86.0540581
11
28.7033108
21
88.2598581
0
LINE
8
DEFAULT_255_2_778
10
28.7033108
20
88.2598581
11
28.7033108
21
85.9045581
0
LINE
8
DEFAULT_255_2_778
10
28.7033108
20
86.0537581
11
29.2031108
21
86.0476581
0
LINE
8
DEFAULT_255_2_778
10
29.2031108
20
86.0476581
11
29.2031108
21
85.9045581
0
LINE
8
DEFAULT_255_2_778
10
29.2031108
20
85.9045581
11
28.7030108
21
85.9045581
0
LINE
8
DEFAULT_255_2_778
10
24.4864108
20
9.6831581
11
24.4864108
21
7.6831581
0
LINE
8
DEFAULT_255_2_778
10
24.4864108
20
7.6831581
11
3.5782108
21
7.6831581
0
LINE
8
DEFAULT_255_2_778
10
3.5782108
20
7.6831581
11
3.5782108
21
13.1740581
0
LINE
8
DEFAULT_255_2_778
10
25.9863108
20
9.6831581
11
25.7638108
21
9.6831581
0
LINE
8
DEFAULT_255_2_778
10
25.7638108
20
9.6831581
11
25.7638108
21
18.4953581
0
LINE
8
DEFAULT_255_2_778
10
24.4864108
20
43.0515581
11
24.4864108
21
36.4189581
0
LINE
8
DEFAULT_255_2_778
10
24.4864108
20
36.4189581
11
24.4864108
21
36.1768581
0
LINE
8
DEFAULT_255_2_778
10
24.4864108
20
36.1768581
11
25.7638108
21
36.1768581
0
LINE
8
DEFAULT_255_2_778
10
25.7638108
20
36.1768581
11
25.9863108
21
36.1768581
0
LINE
8
DEFAULT_255_2_778
10
25.9863108
20
36.1768581
11
26.5221108
21
36.1768581
0
LINE
8
DEFAULT_255_2_778
10
26.5221108
20
36.1768581
11
26.5221108
21
9.6831581
0
LINE
8
DEFAULT_255_2_778
10
26.5221108
20
9.6831581
11
26.5893108
21
9.6831581
0
LINE
8
DEFAULT_255_2_778
10
26.5893108
20
9.6831581
11
26.5893108
21
36.1768581
0
LINE
8
DEFAULT_255_2_778
10
26.5893108
20
36.1768581
11
26.5221108
21
36.1768581
0
LINE
8
DEFAULT_255_2_778
10
24.4864108
20
18.4953581
11
24.4864108
21
9.6831581
0
LINE
8
DEFAULT_255_2_778
10
24.4864108
20
9.6831581
11
25.7638108
21
9.6831581
0
LINE
8
DEFAULT_255_2_778
10
25.9863108
20
18.4953581
11
25.9863108
21
9.6831581
0
LINE
8
DEFAULT_255_2_778
10
25.9863108
20
9.6831581
11
26.5221108
21
9.6831581
0
LINE
8
DEFAULT_255_2_778
10
24.4864108
20
36.1768581
11
24.4864108
21
18.4953581
0
LINE
8
DEFAULT_255_2_778
10
24.4864108
20
18.4953581
11
25.7638108
21
18.4953581
0
LINE
8
DEFAULT_255_2_778
10
25.9863108
20
36.1768581
11
25.9863108
21
18.4953581
0
LINE
8
DEFAULT_255_2_778
10
25.9863108
20
18.4953581
11
25.7638108
21
18.4953581
0
LINE
8
DEFAULT_255_2_778
10
25.7638108
20
18.4953581
11
25.7638108
21
36.1768581
0
ENDSEC
0
EOF